  0
SECTION
  2
HEADER
  9
$ACADVER
  1
AC1024
  9
$ACADMAINTVER
 70
     6
  9
$DWGCODEPAGE
  3
UNDEFINED
  9
$INSBASE
 10
0.0
 20
0.0
 30
0.0
  9
$EXTMIN
 10
1.000000000000000E+20
 20
1.000000000000000E+20
 30
1.000000000000000E+20
  9
$EXTMAX
 10
-1.000000000000000E+20
 20
-1.000000000000000E+20
 30
-1.000000000000000E+20
  9
$LIMMIN
 10
0.0
 20
0.0
  9
$LIMMAX
 10
12.0
 20
9.0
  9
$ORTHOMODE
 70
     0
  9
$REGENMODE
 70
     1
  9
$FILLMODE
 70
     1
  9
$QTEXTMODE
 70
     0
  9
$MIRRTEXT
 70
     1
  9
$LTSCALE
 40
1.0
  9
$ATTMODE
 70
     1
  9
$TEXTSIZE
 40
0.2
  9
$TRACEWID
 40
0.05
  9
$TEXTSTYLE
  7
Standard
  9
$CLAYER
  8
0
  9
$CELTYPE
  6
ByLayer
  9
$CECOLOR
 62
   256
  9
$CELTSCALE
 40
1.0
  9
$DISPSILH
 70
     0
  9
$DIMSCALE
 40
1.0
  9
$DIMASZ
 40
0.18
  9
$DIMEXO
 40
0.0625
  9
$DIMDLI
 40
0.38
  9
$DIMRND
 40
0.0
  9
$DIMDLE
 40
0.0
  9
$DIMEXE
 40
0.18
  9
$DIMTP
 40
0.0
  9
$DIMTM
 40
0.0
  9
$DIMTXT
 40
0.18
  9
$DIMCEN
 40
0.09
  9
$DIMTSZ
 40
0.0
  9
$DIMTOL
 70
     0
  9
$DIMLIM
 70
     0
  9
$DIMTIH
 70
     1
  9
$DIMTOH
 70
     1
  9
$DIMSE1
 70
     0
  9
$DIMSE2
 70
     0
  9
$DIMTAD
 70
     0
  9
$DIMZIN
 70
     0
  9
$DIMBLK
  1

  9
$DIMASO
 70
     1
  9
$DIMSHO
 70
     1
  9
$DIMPOST
  1

  9
$DIMAPOST
  1

  9
$DIMALT
 70
     0
  9
$DIMALTD
 70
     2
  9
$DIMALTF
 40
25.4
  9
$DIMLFAC
 40
1.0
  9
$DIMTOFL
 70
     0
  9
$DIMTVP
 40
0.0
  9
$DIMTIX
 70
     0
  9
$DIMSOXD
 70
     0
  9
$DIMSAH
 70
     0
  9
$DIMBLK1
  1

  9
$DIMBLK2
  1

  9
$DIMSTYLE
  2
Standard
  9
$DIMCLRD
 70
     0
  9
$DIMCLRE
 70
     0
  9
$DIMCLRT
 70
     0
  9
$DIMTFAC
 40
1.0
  9
$DIMGAP
 40
0.09
  9
$DIMJUST
 70
     0
  9
$DIMSD1
 70
     0
  9
$DIMSD2
 70
     0
  9
$DIMTOLJ
 70
     1
  9
$DIMTZIN
 70
     0
  9
$DIMALTZ
 70
     0
  9
$DIMALTTZ
 70
     0
  9
$DIMUPT
 70
     0
  9
$DIMDEC
 70
     4
  9
$DIMTDEC
 70
     4
  9
$DIMALTU
 70
     2
  9
$DIMALTTD
 70
     2
  9
$DIMTXSTY
  7
Standard
  9
$DIMAUNIT
 70
     0
  9
$DIMADEC
 70
     0
  9
$DIMALTRND
 40
0.0
  9
$DIMAZIN
 70
     0
  9
$DIMDSEP
 70
    46
  9
$DIMATFIT
 70
     3
  9
$DIMFRAC
 70
     0
  9
$DIMLDRBLK
  1

  9
$DIMLUNIT
 70
     2
  9
$DIMLWD
 70
    -2
  9
$DIMLWE
 70
    -2
  9
$DIMTMOVE
 70
     0
  9
$DIMFXL
 40
1.0
  9
$DIMFXLON
 70
     0
  9
$DIMJOGANG
 40
0.7853981633974483
  9
$DIMTFILL
 70
     0
  9
$DIMTFILLCLR
 70
     0
  9
$DIMARCSYM
 70
     0
  9
$DIMLTYPE
  6

  9
$DIMLTEX1
  6

  9
$DIMLTEX2
  6

  9
$DIMTXTDIRECTION
 70
     0
  9
$LUNITS
 70
     2
  9
$LUPREC
 70
     4
  9
$SKETCHINC
 40
0.1
  9
$FILLETRAD
 40
0.5
  9
$AUNITS
 70
     0
  9
$AUPREC
 70
     0
  9
$MENU
  1
.
  9
$ELEVATION
 40
0.0
  9
$PELEVATION
 40
0.0
  9
$THICKNESS
 40
0.0
  9
$LIMCHECK
 70
     0
  9
$CHAMFERA
 40
0.5
  9
$CHAMFERB
 40
0.5
  9
$CHAMFERC
 40
1.0
  9
$CHAMFERD
 40
0.0
  9
$SKPOLY
 70
     0
  9
$TDCREATE
 40
2457917.594340278
  9
$TDUCREATE
 40
2457917.219340278
  9
$TDUPDATE
 40
2457917.594340278
  9
$TDUUPDATE
 40
2457917.219340278
  9
$TDINDWG
 40
0.0000000116
  9
$TDUSRTIMER
 40
0.0000000116
  9
$USRTIMER
 70
     1
  9
$ANGBASE
 50
0.0
  9
$ANGDIR
 70
     0
  9
$PDMODE
 70
     0
  9
$PDSIZE
 40
0.0
  9
$PLINEWID
 40
0.0
  9
$SPLFRAME
 70
     0
  9
$SPLINETYPE
 70
     6
  9
$SPLINESEGS
 70
     8
  9
$HANDSEED
  5
A5
  9
$SURFTAB1
 70
     6
  9
$SURFTAB2
 70
     6
  9
$SURFTYPE
 70
     6
  9
$SURFU
 70
     6
  9
$SURFV
 70
     6
  9
$UCSBASE
  2

  9
$UCSNAME
  2

  9
$UCSORG
 10
0.0
 20
0.0
 30
0.0
  9
$UCSXDIR
 10
1.0
 20
0.0
 30
0.0
  9
$UCSYDIR
 10
0.0
 20
1.0
 30
0.0
  9
$UCSORTHOREF
  2

  9
$UCSORTHOVIEW
 70
     0
  9
$UCSORGTOP
 10
0.0
 20
0.0
 30
0.0
  9
$UCSORGBOTTOM
 10
0.0
 20
0.0
 30
0.0
  9
$UCSORGLEFT
 10
0.0
 20
0.0
 30
0.0
  9
$UCSORGRIGHT
 10
0.0
 20
0.0
 30
0.0
  9
$UCSORGFRONT
 10
0.0
 20
0.0
 30
0.0
  9
$UCSORGBACK
 10
0.0
 20
0.0
 30
0.0
  9
$PUCSBASE
  2

  9
$PUCSNAME
  2

  9
$PUCSORG
 10
0.0
 20
0.0
 30
0.0
  9
$PUCSXDIR
 10
1.0
 20
0.0
 30
0.0
  9
$PUCSYDIR
 10
0.0
 20
1.0
 30
0.0
  9
$PUCSORTHOREF
  2

  9
$PUCSORTHOVIEW
 70
     0
  9
$PUCSORGTOP
 10
0.0
 20
0.0
 30
0.0
  9
$PUCSORGBOTTOM
 10
0.0
 20
0.0
 30
0.0
  9
$PUCSORGLEFT
 10
0.0
 20
0.0
 30
0.0
  9
$PUCSORGRIGHT
 10
0.0
 20
0.0
 30
0.0
  9
$PUCSORGFRONT
 10
0.0
 20
0.0
 30
0.0
  9
$PUCSORGBACK
 10
0.0
 20
0.0
 30
0.0
  9
$USERI1
 70
     0
  9
$USERI2
 70
     0
  9
$USERI3
 70
     0
  9
$USERI4
 70
     0
  9
$USERI5
 70
     0
  9
$USERR1
 40
0.0
  9
$USERR2
 40
0.0
  9
$USERR3
 40
0.0
  9
$USERR4
 40
0.0
  9
$USERR5
 40
0.0
  9
$WORLDVIEW
 70
     1
  9
$SHADEDGE
 70
     3
  9
$SHADEDIF
 70
    70
  9
$TILEMODE
 70
     1
  9
$MAXACTVP
 70
    64
  9
$PINSBASE
 10
0.0
 20
0.0
 30
0.0
  9
$PLIMCHECK
 70
     0
  9
$PEXTMIN
 10
1.000000000000000E+20
 20
1.000000000000000E+20
 30
1.000000000000000E+20
  9
$PEXTMAX
 10
-1.000000000000000E+20
 20
-1.000000000000000E+20
 30
-1.000000000000000E+20
  9
$PLIMMIN
 10
0.0
 20
0.0
  9
$PLIMMAX
 10
12.0
 20
9.0
  9
$UNITMODE
 70
     0
  9
$VISRETAIN
 70
     1
  9
$PLINEGEN
 70
     0
  9
$PSLTSCALE
 70
     1
  9
$TREEDEPTH
 70
  3020
  9
$CMLSTYLE
  2
Standard
  9
$CMLJUST
 70
     0
  9
$CMLSCALE
 40
1.0
  9
$PROXYGRAPHICS
 70
     1
  9
$MEASUREMENT
 70
     0
  9
$CELWEIGHT
370
    -1
  9
$ENDCAPS
280
     0
  9
$JOINSTYLE
280
     0
  9
$LWDISPLAY
290
     1
  9
$INSUNITS
 70
     1
  9
$HYPERLINKBASE
  1

  9
$STYLESHEET
  1

  9
$XEDIT
290
     1
  9
$CEPSNTYPE
380
     0
  9
$PSTYLEMODE
290
     1
  9
$FINGERPRINTGUID
  2
{3A807270-8152-3679-BA96-579799FBE24D}
  9
$VERSIONGUID
  2
{FAEB1C32-E019-11D5-929B-00C0DF256EC4}
  9
$EXTNAMES
290
     1
  9
$PSVPSCALE
 40
0.0
  9
$OLESTARTUP
290
     0
  9
$SORTENTS
280
   127
  9
$INDEXCTL
280
     0
  9
$HIDETEXT
280
     1
  9
$XCLIPFRAME
280
     2
  9
$HALOGAP
280
     0
  9
$OBSCOLOR
 70
   257
  9
$OBSLTYPE
280
     0
  9
$INTERSECTIONDISPLAY
280
     0
  9
$INTERSECTIONCOLOR
 70
   257
  9
$DIMASSOC
280
     2
  9
$PROJECTNAME
  1

  9
$CAMERADISPLAY
290
     0
  9
$LENSLENGTH
 40
50.0
  9
$CAMERAHEIGHT
 40
0.0
  9
$STEPSPERSEC
 40
2.0
  9
$STEPSIZE
 40
6.0
  9
$3DDWFPREC
 40
2.0
  9
$PSOLWIDTH
 40
0.25
  9
$PSOLHEIGHT
 40
4.0
  9
$LOFTANG1
 40
1.570796326794897
  9
$LOFTANG2
 40
1.570796326794897
  9
$LOFTMAG1
 40
0.0
  9
$LOFTMAG2
 40
0.0
  9
$LOFTPARAM
 70
     7
  9
$LOFTNORMALS
280
     1
  9
$LATITUDE
 40
37.795
  9
$LONGITUDE
 40
-122.394
  9
$NORTHDIRECTION
 40
0.0
  9
$TIMEZONE
 70
 -8000
  9
$LIGHTGLYPHDISPLAY
280
     1
  9
$TILEMODELIGHTSYNCH
280
     1
  9
$CMATERIAL
347
3C
  9
$SOLIDHIST
280
     1
  9
$SHOWHIST
280
     1
  9
$DWFFRAME
280
     2
  9
$DGNFRAME
280
     2
  9
$REALWORLDSCALE
290
     1
  9
$INTERFERECOLOR
 62
   256
  9
$CSHADOW
280
     0
  9
$SHADOWPLANELOCATION
 40
0.0
  0
ENDSEC
  0
SECTION
  2
CLASSES
  0
CLASS
  1
ACDBDICTIONARYWDFLT
  2
AcDbDictionaryWithDefault
  3
ObjectDBX Classes
 90
        0
 91
        4
280
     0
281
     0
  0
CLASS
  1
VISUALSTYLE
  2
AcDbVisualStyle
  3
ObjectDBX Classes
 90
     4095
 91
        4
280
     0
281
     0
  0
CLASS
  1
MATERIAL
  2
AcDbMaterial
  3
ObjectDBX Classes
 90
     1153
 91
        4
280
     0
281
     0
  0
CLASS
  1
SUN
  2
AcDbSun
  3
SCENEOE
 90
     1024
 91
        4
280
     0
281
     0
  0
ENDSEC
  0
SECTION
  2
TABLES
  0
TABLE
  2
VPORT
  5
8
330
0
100
AcDbSymbolTable
 70
     1
  0
VPORT
  5
29
330
8
100
AcDbSymbolTableRecord
100
AcDbViewportTableRecord
  2
*Active
 70
     0
 10
0.0
 20
0.0
 11
1.0
 21
1.0
 12
0.0
 22
0.0
 13
0.0
 23
0.0
 14
0.5
 24
0.5
 15
0.5
 25
0.5
 16
0.0
 26
0.0
 36
1.0
 17
91.00082462281999
 27
-128.4993055234307
 37
0.0
 40
256.9986110468615
 41
0.7081814508812795
 42
50.0
 43
0.0
 44
0.0
 50
0.0
 51
0.0
 71
     0
 72
   100
 73
     1
 74
     3
 75
     0
 76
     0
 77
     0
 78
     0
281
     0
 65
     1
110
0.0
120
0.0
130
0.0
111
1.0
121
0.0
131
0.0
112
0.0
122
1.0
132
0.0
 79
     0
146
0.0
 60
     3
 61
     5
292
     1
282
     1
141
0.0
142
0.0
 63
   250
361
3F
  0
ENDTAB
  0
TABLE
  2
LTYPE
  5
5
330
0
100
AcDbSymbolTable
 70
     1
  0
LTYPE
  5
14
330
5
100
AcDbSymbolTableRecord
100
AcDbLinetypeTableRecord
  2
ByBlock
 70
     0
  3

 72
    65
 73
     0
 40
0.0
  0
LTYPE
  5
15
330
5
100
AcDbSymbolTableRecord
100
AcDbLinetypeTableRecord
  2
ByLayer
 70
     0
  3

 72
    65
 73
     0
 40
0.0
  0
LTYPE
  5
16
330
5
100
AcDbSymbolTableRecord
100
AcDbLinetypeTableRecord
  2
Continuous
 70
     0
  3
Solid line
 72
    65
 73
     0
 40
0.0
  0
ENDTAB
  0
TABLE
  2
LAYER
  5
2
330
0
100
AcDbSymbolTable
 70
     2
  0
LAYER
  5
10
330
2
100
AcDbSymbolTableRecord
100
AcDbLayerTableRecord
  2
0
 70
     0
 62
     7
  6
Continuous
370
    -3
390
F
347
3E
  0
LAYER
  5
40
330
2
100
AcDbSymbolTableRecord
100
AcDbLayerTableRecord
  2
_U+30EC_U+30A4_U+30E4_U+30FC 1
 70
     0
 62
     7
  6
Continuous
370
    -3
390
F
347
3E
  0
ENDTAB
  0
TABLE
  2
STYLE
  5
3
330
0
100
AcDbSymbolTable
 70
     1
  0
STYLE
  5
11
330
3
100
AcDbSymbolTableRecord
100
AcDbTextStyleTableRecord
  2
Standard
 70
     0
 40
0.0
 41
1.0
 50
0.0
 71
     0
 42
0.2
  3
txt
  4

  0
ENDTAB
  0
TABLE
  2
VIEW
  5
6
330
0
100
AcDbSymbolTable
 70
     0
  0
ENDTAB
  0
TABLE
  2
UCS
  5
7
330
0
100
AcDbSymbolTable
 70
     0
  0
ENDTAB
  0
TABLE
  2
APPID
  5
9
330
0
100
AcDbSymbolTable
 70
     1
  0
APPID
  5
12
330
9
100
AcDbSymbolTableRecord
100
AcDbRegAppTableRecord
  2
ACAD
 70
     0
  0
ENDTAB
  0
TABLE
  2
DIMSTYLE
  5
A
330
0
100
AcDbSymbolTable
 70
     1
100
AcDbDimStyleTable
  0
DIMSTYLE
105
27
330
A
100
AcDbSymbolTableRecord
100
AcDbDimStyleTableRecord
  2
Standard
 70
     0
178
     0
340
11
  0
ENDTAB
  0
TABLE
  2
BLOCK_RECORD
  5
1
330
0
100
AcDbSymbolTable
 70
     5
  0
BLOCK_RECORD
  5
1F
330
1
100
AcDbSymbolTableRecord
100
AcDbBlockTableRecord
  2
*Model_Space
340
22
 70
     0
280
     1
281
     0
  0
BLOCK_RECORD
  5
1B
330
1
100
AcDbSymbolTableRecord
100
AcDbBlockTableRecord
  2
*Paper_Space
340
1E
 70
     0
280
     1
281
     0
  0
BLOCK_RECORD
  5
23
330
1
100
AcDbSymbolTableRecord
100
AcDbBlockTableRecord
  2
*Paper_Space0
340
26
 70
     0
280
     1
281
     0
  0
BLOCK_RECORD
  5
78
330
1
100
AcDbSymbolTableRecord
100
AcDbBlockTableRecord
  2
block 2
340
0
102
{BLKREFS
331
79
102
}
 70
     0
280
     1
281
     0
  0
BLOCK_RECORD
  5
82
330
1
100
AcDbSymbolTableRecord
100
AcDbBlockTableRecord
  2
block 3
340
0
102
{BLKREFS
331
83
102
}
 70
     0
280
     1
281
     0
  0
BLOCK_RECORD
  5
92
330
1
100
AcDbSymbolTableRecord
100
AcDbBlockTableRecord
  2
block 4
340
0
102
{BLKREFS
331
93
102
}
 70
     0
280
     1
281
     0
  0
BLOCK_RECORD
  5
9B
330
1
100
AcDbSymbolTableRecord
100
AcDbBlockTableRecord
  2
block 5
340
0
102
{BLKREFS
331
9C
102
}
 70
     0
280
     1
281
     0
  0
ENDTAB
  0
ENDSEC
  0
SECTION
  2
BLOCKS
  0
BLOCK
  5
20
330
1F
100
AcDbEntity
  8
0
100
AcDbBlockBegin
  2
*Model_Space
 70
     0
 10
0.0
 20
0.0
 30
0.0
  3
*Model_Space
  1

  0
ENDBLK
  5
21
330
1F
100
AcDbEntity
  8
0
100
AcDbBlockEnd
  0
BLOCK
  5
1C
330
1B
100
AcDbEntity
 67
     1
  8
0
100
AcDbBlockBegin
  2
*Paper_Space
 70
     0
 10
0.0
 20
0.0
 30
0.0
  3
*Paper_Space
  1

  0
ENDBLK
  5
1D
330
1B
100
AcDbEntity
 67
     1
  8
0
100
AcDbBlockEnd
  0
BLOCK
  5
24
330
23
100
AcDbEntity
  8
0
100
AcDbBlockBegin
  2
*Paper_Space0
 70
     0
 10
0.0
 20
0.0
 30
0.0
  3
*Paper_Space0
  1

  0
ENDBLK
  5
25
330
23
100
AcDbEntity
  8
0
100
AcDbBlockEnd
  0
BLOCK
  5
7A
330
78
100
AcDbEntity
  8
0
100
AcDbBlockBegin
  2
block 2
 70
     0
 10
0.0
 20
0.0
 30
0.0
  3
block 2
  1

  0
SPLINE
  5
7C
330
78
100
AcDbEntity
  8
_U+30EC_U+30A4_U+30E4_U+30FC 1
370
     0
100
AcDbSpline
210
0.0
220
0.0
230
1.0
 70
    11
 71
     3
 72
    44
 73
    40
 74
     0
 42
0.0000000001
 43
0.0000000001
 12
1.0
 22
0.0
 32
0.0
 13
1.0
 23
0.0
 33
0.0
 40
0.0
 40
0.0
 40
0.0
 40
0.0
 40
1.0
 40
1.0
 40
1.0
 40
2.0
 40
2.0
 40
2.0
 40
3.0
 40
3.0
 40
3.0
 40
4.0
 40
4.0
 40
4.0
 40
5.0
 40
5.0
 40
5.0
 40
6.0
 40
6.0
 40
6.0
 40
7.0
 40
7.0
 40
7.0
 40
8.0
 40
8.0
 40
8.0
 40
9.0
 40
9.0
 40
9.0
 40
10.0
 40
10.0
 40
10.0
 40
11.0
 40
11.0
 40
11.0
 40
12.0
 40
12.0
 40
12.0
 40
13.0
 40
13.0
 40
13.0
 40
13.0
 10
79.09766979359364
 20
-109.1621568194977
 30
0.0
 10
78.87976750415159
 20
-109.3208034665934
 30
0.0
 10
78.78657767127558
 20
-109.3948730195263
 30
0.0
 10
78.73800182493356
 20
-109.5387057560355
 30
0.0
 10
78.73800182493356
 20
-109.5387057560355
 30
0.0
 10
79.51642114982576
 20
-109.5387057560355
 30
0.0
 10
79.51642114982576
 20
-109.5387057560355
 30
0.0
 10
79.51642114982576
 20
-109.5387057560355
 30
0.0
 10
79.51642114982576
 20
-109.7438611921821
 30
0.0
 10
79.51642114982576
 20
-109.7438611921821
 30
0.0
 10
79.51642114982576
 20
-109.7438611921821
 30
0.0
 10
78.4884046570272
 20
-109.7438611921821
 30
0.0
 10
78.4884046570272
 20
-109.7438611921821
 30
0.0
 10
78.52009953549151
 20
-109.3862602808132
 30
0.0
 10
78.58555634971125
 20
-109.308056613298
 30
0.0
 10
78.97071802496218
 20
-109.0097113442754
 30
0.0
 10
79.22668861951625
 20
-108.8109293347764
 30
0.0
 10
79.292145433736
 20
-108.7432332084913
 30
0.0
 10
79.292145433736
 20
-108.6057738986298
 30
0.0
 10
79.292145433736
 20
-108.4872626139372
 30
0.0
 10
79.22031519286854
 20
-108.3561767307235
 30
0.0
 10
79.02360024066077
 20
-108.3561767307235
 30
0.0
 10
78.76332327675014
 20
-108.3561767307235
 30
0.0
 10
78.75488279281129
 20
-108.5866536186867
 30
0.0
 10
78.75057642345472
 20
-108.7030978460881
 30
0.0
 10
78.75057642345472
 20
-108.7030978460881
 30
0.0
 10
78.52647296213922
 20
-108.7030978460881
 30
0.0
 10
78.52647296213922
 20
-108.7030978460881
 30
0.0
 10
78.53491344607808
 20
-108.5761460774567
 30
0.0
 10
78.54542098730809
 20
-108.4640082194118
 30
0.0
 10
78.62586396688867
 20
-108.3454969347192
 30
0.0
 10
78.73576251286815
 20
-108.1847832303323
 30
0.0
 10
78.9219699238459
 20
-108.1508490398026
 30
0.0
 10
79.03841415124734
 20
-108.1508490398026
 30
0.0
 10
79.31557208303569
 20
-108.1508490398026
 30
0.0
 10
79.52279457647347
 20
-108.3349893934892
 30
0.0
 10
79.52279457647347
 20
-108.607840955921
 30
0.0
 10
79.52279457647347
 20
-108.836250786593
 30
0.0
 10
79.40652260384628
 20
-108.9358140461167
 30
0.0
 10
79.09766979359364
 20
-109.1621568194977
 30
0.0
  0
HATCH
  5
7D
330
78
100
AcDbEntity
  8
_U+30EC_U+30A4_U+30E4_U+30FC 1
 62
   179
420
  2234388
100
AcDbHatch
 10
0.0
 20
0.0
 30
0.0
210
0.0
220
0.0
230
1.0
  2
SOLID
 70
     1
 71
     0
 91
        1
 92
        1
 93
        1
 72
     4
 94
        3
 73
     0
 74
     1
 95
       44
 96
       40
 40
0.0
 40
0.0
 40
0.0
 40
0.0
 40
1.0
 40
1.0
 40
1.0
 40
2.0
 40
2.0
 40
2.0
 40
3.0
 40
3.0
 40
3.0
 40
4.0
 40
4.0
 40
4.0
 40
5.0
 40
5.0
 40
5.0
 40
6.0
 40
6.0
 40
6.0
 40
7.0
 40
7.0
 40
7.0
 40
8.0
 40
8.0
 40
8.0
 40
9.0
 40
9.0
 40
9.0
 40
10.0
 40
10.0
 40
10.0
 40
11.0
 40
11.0
 40
11.0
 40
12.0
 40
12.0
 40
12.0
 40
13.0
 40
13.0
 40
13.0
 40
13.0
 10
79.09766979359364
 20
-109.1621568194977
 10
78.87976750415159
 20
-109.3208034665934
 10
78.78657767127558
 20
-109.3948730195263
 10
78.73800182493356
 20
-109.5387057560355
 10
78.73800182493356
 20
-109.5387057560355
 10
79.51642114982576
 20
-109.5387057560355
 10
79.51642114982576
 20
-109.5387057560355
 10
79.51642114982576
 20
-109.5387057560355
 10
79.51642114982576
 20
-109.7438611921821
 10
79.51642114982576
 20
-109.7438611921821
 10
79.51642114982576
 20
-109.7438611921821
 10
78.4884046570272
 20
-109.7438611921821
 10
78.4884046570272
 20
-109.7438611921821
 10
78.52009953549151
 20
-109.3862602808132
 10
78.58555634971125
 20
-109.308056613298
 10
78.97071802496218
 20
-109.0097113442754
 10
79.22668861951625
 20
-108.8109293347764
 10
79.292145433736
 20
-108.7432332084913
 10
79.292145433736
 20
-108.6057738986298
 10
79.292145433736
 20
-108.4872626139372
 10
79.22031519286854
 20
-108.3561767307235
 10
79.02360024066077
 20
-108.3561767307235
 10
78.76332327675014
 20
-108.3561767307235
 10
78.75488279281129
 20
-108.5866536186867
 10
78.75057642345472
 20
-108.7030978460881
 10
78.75057642345472
 20
-108.7030978460881
 10
78.52647296213922
 20
-108.7030978460881
 10
78.52647296213922
 20
-108.7030978460881
 10
78.53491344607808
 20
-108.5761460774567
 10
78.54542098730809
 20
-108.4640082194118
 10
78.62586396688867
 20
-108.3454969347192
 10
78.73576251286815
 20
-108.1847832303323
 10
78.9219699238459
 20
-108.1508490398026
 10
79.03841415124734
 20
-108.1508490398026
 10
79.31557208303569
 20
-108.1508490398026
 10
79.52279457647347
 20
-108.3349893934892
 10
79.52279457647347
 20
-108.607840955921
 10
79.52279457647347
 20
-108.836250786593
 10
79.40652260384628
 20
-108.9358140461167
 10
79.09766979359364
 20
-109.1621568194977
 97
        0
 97
        0
 75
     2
 76
     1
 98
        0
  0
SPLINE
  5
7E
330
78
100
AcDbEntity
  8
_U+30EC_U+30A4_U+30E4_U+30FC 1
370
     0
100
AcDbSpline
210
0.0
220
0.0
230
1.0
 70
    11
 71
     3
 72
    29
 73
    25
 74
     0
 42
0.0000000001
 43
0.0000000001
 12
1.0
 22
0.0
 32
0.0
 13
1.0
 23
0.0
 33
0.0
 40
0.0
 40
0.0
 40
0.0
 40
0.0
 40
1.0
 40
1.0
 40
1.0
 40
2.0
 40
2.0
 40
2.0
 40
3.0
 40
3.0
 40
3.0
 40
4.0
 40
4.0
 40
4.0
 40
5.0
 40
5.0
 40
5.0
 40
6.0
 40
6.0
 40
6.0
 40
7.0
 40
7.0
 40
7.0
 40
8.0
 40
8.0
 40
8.0
 40
8.0
 10
80.57906085225108
 20
-109.5660942651432
 30
0.0
 10
80.47122936356276
 20
-109.7755560706464
 30
0.0
 10
80.29776880588042
 20
-109.7946763505895
 30
0.0
 10
80.18132457847898
 20
-109.7946763505895
 30
0.0
 10
80.02061087409207
 20
-109.7946763505895
 30
0.0
 10
79.87884519487405
 20
-109.7481675615387
 30
0.0
 10
79.78358830470688
 20
-109.5660942651432
 30
0.0
 10
79.68006318537513
 20
-109.3714463702266
 30
0.0
 10
79.660942905432
 20
-109.1345960556157
 30
0.0
 10
79.660942905432
 20
-108.9716430391633
 30
0.0
 10
79.660942905432
 20
-108.8278103026542
 30
0.0
 10
79.67782387330972
 20
-108.5761460774567
 30
0.0
 10
79.78358830470688
 20
-108.3771918131835
 30
0.0
 10
79.89159204816947
 20
-108.174103434328
 30
0.0
 10
80.05230575255638
 20
-108.1508490398026
 30
0.0
 10
80.18132457847898
 20
-108.1508490398026
 30
0.0
 10
80.33997122557473
 20
-108.1508490398026
 30
0.0
 10
80.48380396208391
 20
-108.1952907715623
 30
0.0
 10
80.57906085225108
 20
-108.3771918131835
 30
0.0
 10
80.67845185700052
 20
-108.569772650809
 30
0.0
 10
80.70170625152596
 20
-108.798182481481
 30
0.0
 10
80.70170625152596
 20
-108.9716430391633
 30
0.0
 10
80.70170625152596
 20
-109.1430365395545
 30
0.0
 10
80.68069116906594
 20
-109.373685682292
 30
0.0
 10
80.57906085225108
 20
-109.5660942651432
 30
0.0
  0
SPLINE
  5
7F
330
78
100
AcDbEntity
  8
_U+30EC_U+30A4_U+30E4_U+30FC 1
370
     0
100
AcDbSpline
210
0.0
220
0.0
230
1.0
 70
    11
 71
     3
 72
    17
 73
    13
 74
     0
 42
0.0000000001
 43
0.0000000001
 12
1.0
 22
0.0
 32
0.0
 13
1.0
 23
0.0
 33
0.0
 40
0.0
 40
0.0
 40
0.0
 40
0.0
 40
1.0
 40
1.0
 40
1.0
 40
2.0
 40
2.0
 40
2.0
 40
3.0
 40
3.0
 40
3.0
 40
4.0
 40
4.0
 40
4.0
 40
4.0
 10
80.18132457847898
 20
-108.343429877428
 30
0.0
 10
79.93172741057263
 20
-108.343429877428
 30
0.0
 10
79.88521862152176
 20
-108.6269612358641
 30
0.0
 10
79.88521862152176
 20
-108.9716430391633
 30
0.0
 10
79.88521862152176
 20
-109.2911756454203
 30
0.0
 10
79.92121986934262
 20
-109.6000284556729
 30
0.0
 10
80.18132457847898
 20
-109.6000284556729
 30
0.0
 10
80.42885468909418
 20
-109.6000284556729
 30
0.0
 10
80.47760279021047
 20
-109.318564154528
 30
0.0
 10
80.47760279021047
 20
-108.9716430391633
 30
0.0
 10
80.47760279021047
 20
-108.6522826876807
 30
0.0
 10
80.43936223032419
 20
-108.343429877428
 30
0.0
 10
80.18132457847898
 20
-108.343429877428
 30
0.0
  0
HATCH
  5
80
330
78
100
AcDbEntity
  8
_U+30EC_U+30A4_U+30E4_U+30FC 1
 62
   179
420
  2234388
100
AcDbHatch
 10
0.0
 20
0.0
 30
0.0
210
0.0
220
0.0
230
1.0
  2
SOLID
 70
     1
 71
     0
 91
        2
 92
        1
 93
        1
 72
     4
 94
        3
 73
     0
 74
     1
 95
       29
 96
       25
 40
0.0
 40
0.0
 40
0.0
 40
0.0
 40
1.0
 40
1.0
 40
1.0
 40
2.0
 40
2.0
 40
2.0
 40
3.0
 40
3.0
 40
3.0
 40
4.0
 40
4.0
 40
4.0
 40
5.0
 40
5.0
 40
5.0
 40
6.0
 40
6.0
 40
6.0
 40
7.0
 40
7.0
 40
7.0
 40
8.0
 40
8.0
 40
8.0
 40
8.0
 10
80.57906085225108
 20
-109.5660942651432
 10
80.47122936356276
 20
-109.7755560706464
 10
80.29776880588042
 20
-109.7946763505895
 10
80.18132457847898
 20
-109.7946763505895
 10
80.02061087409207
 20
-109.7946763505895
 10
79.87884519487405
 20
-109.7481675615387
 10
79.78358830470688
 20
-109.5660942651432
 10
79.68006318537513
 20
-109.3714463702266
 10
79.660942905432
 20
-109.1345960556157
 10
79.660942905432
 20
-108.9716430391633
 10
79.660942905432
 20
-108.8278103026542
 10
79.67782387330972
 20
-108.5761460774567
 10
79.78358830470688
 20
-108.3771918131835
 10
79.89159204816947
 20
-108.174103434328
 10
80.05230575255638
 20
-108.1508490398026
 10
80.18132457847898
 20
-108.1508490398026
 10
80.33997122557473
 20
-108.1508490398026
 10
80.48380396208391
 20
-108.1952907715623
 10
80.57906085225108
 20
-108.3771918131835
 10
80.67845185700052
 20
-108.569772650809
 10
80.70170625152596
 20
-108.798182481481
 10
80.70170625152596
 20
-108.9716430391633
 10
80.70170625152596
 20
-109.1430365395545
 10
80.68069116906594
 20
-109.373685682292
 10
80.57906085225108
 20
-109.5660942651432
 97
        0
 97
        0
 92
        1
 93
        1
 72
     4
 94
        3
 73
     0
 74
     1
 95
       17
 96
       13
 40
0.0
 40
0.0
 40
0.0
 40
0.0
 40
1.0
 40
1.0
 40
1.0
 40
2.0
 40
2.0
 40
2.0
 40
3.0
 40
3.0
 40
3.0
 40
4.0
 40
4.0
 40
4.0
 40
4.0
 10
80.18132457847898
 20
-108.343429877428
 10
79.93172741057263
 20
-108.343429877428
 10
79.88521862152176
 20
-108.6269612358641
 10
79.88521862152176
 20
-108.9716430391633
 10
79.88521862152176
 20
-109.2911756454203
 10
79.92121986934262
 20
-109.6000284556729
 10
80.18132457847898
 20
-109.6000284556729
 10
80.42885468909418
 20
-109.6000284556729
 10
80.47760279021047
 20
-109.318564154528
 10
80.47760279021047
 20
-108.9716430391633
 10
80.47760279021047
 20
-108.6522826876807
 10
80.43936223032419
 20
-108.343429877428
 10
80.18132457847898
 20
-108.343429877428
 97
        0
 97
        0
 75
     2
 76
     1
 98
        0
  0
ENDBLK
  5
7B
330
78
100
AcDbEntity
  8
0
100
AcDbBlockEnd
  0
BLOCK
  5
84
330
82
100
AcDbEntity
  8
0
100
AcDbBlockBegin
  2
block 3
 70
     0
 10
0.0
 20
0.0
 30
0.0
  3
block 3
  1

  0
SPLINE
  5
86
330
82
100
AcDbEntity
  8
_U+30EC_U+30A4_U+30E4_U+30FC 1
370
     0
100
AcDbSpline
210
0.0
220
0.0
230
1.0
 70
    11
 71
     3
 72
    26
 73
    22
 74
     0
 42
0.0000000001
 43
0.0000000001
 12
1.0
 22
0.0
 32
0.0
 13
1.0
 23
0.0
 33
0.0
 40
0.0
 40
0.0
 40
0.0
 40
0.0
 40
1.0
 40
1.0
 40
1.0
 40
2.0
 40
2.0
 40
2.0
 40
3.0
 40
3.0
 40
3.0
 40
4.0
 40
4.0
 40
4.0
 40
5.0
 40
5.0
 40
5.0
 40
6.0
 40
6.0
 40
6.0
 40
7.0
 40
7.0
 40
7.0
 40
7.0
 10
111.6720811352764
 20
-116.6481770541713
 30
0.0
 10
111.6720811352764
 20
-116.6481770541713
 30
0.0
 10
110.5679280322539
 20
-116.6481770541713
 30
0.0
 10
110.5679280322539
 20
-116.6481770541713
 30
0.0
 10
110.5679280322539
 20
-116.6481770541713
 30
0.0
 10
110.5679280322539
 20
-116.9782172016582
 30
0.0
 10
110.5679280322539
 20
-116.9782172016582
 30
0.0
 10
110.5679280322539
 20
-116.9782172016582
 30
0.0
 10
110.4201334359366
 20
-116.9782172016582
 30
0.0
 10
110.4201334359366
 20
-116.9782172016582
 30
0.0
 10
110.4049750158015
 20
-116.6461099968801
 30
0.0
 10
110.2423665088977
 20
-116.5996012078293
 30
0.0
 10
110.1279893387875
 20
-116.5699733866561
 30
0.0
 10
110.1279893387875
 20
-116.5699733866561
 30
0.0
 10
110.1279893387875
 20
-116.4239013380815
 30
0.0
 10
110.1279893387875
 20
-116.4239013380815
 30
0.0
 10
110.1279893387875
 20
-116.4239013380815
 30
0.0
 10
111.6720811352764
 20
-116.4239013380815
 30
0.0
 10
111.6720811352764
 20
-116.4239013380815
 30
0.0
 10
111.6720811352764
 20
-116.4239013380815
 30
0.0
 10
111.6720811352764
 20
-116.6481770541713
 30
0.0
 10
111.6720811352764
 20
-116.6481770541713
 30
0.0
  0
HATCH
  5
87
330
82
100
AcDbEntity
  8
_U+30EC_U+30A4_U+30E4_U+30FC 1
 62
   179
420
  2234388
100
AcDbHatch
 10
0.0
 20
0.0
 30
0.0
210
0.0
220
0.0
230
1.0
  2
SOLID
 70
     1
 71
     0
 91
        1
 92
        1
 93
        1
 72
     4
 94
        3
 73
     0
 74
     1
 95
       26
 96
       22
 40
0.0
 40
0.0
 40
0.0
 40
0.0
 40
1.0
 40
1.0
 40
1.0
 40
2.0
 40
2.0
 40
2.0
 40
3.0
 40
3.0
 40
3.0
 40
4.0
 40
4.0
 40
4.0
 40
5.0
 40
5.0
 40
5.0
 40
6.0
 40
6.0
 40
6.0
 40
7.0
 40
7.0
 40
7.0
 40
7.0
 10
111.6720811352764
 20
-116.6481770541713
 10
111.6720811352764
 20
-116.6481770541713
 10
110.5679280322539
 20
-116.6481770541713
 10
110.5679280322539
 20
-116.6481770541713
 10
110.5679280322539
 20
-116.6481770541713
 10
110.5679280322539
 20
-116.9782172016582
 10
110.5679280322539
 20
-116.9782172016582
 10
110.5679280322539
 20
-116.9782172016582
 10
110.4201334359366
 20
-116.9782172016582
 10
110.4201334359366
 20
-116.9782172016582
 10
110.4049750158015
 20
-116.6461099968801
 10
110.2423665088977
 20
-116.5996012078293
 10
110.1279893387875
 20
-116.5699733866561
 10
110.1279893387875
 20
-116.5699733866561
 10
110.1279893387875
 20
-116.4239013380815
 10
110.1279893387875
 20
-116.4239013380815
 10
110.1279893387875
 20
-116.4239013380815
 10
111.6720811352764
 20
-116.4239013380815
 10
111.6720811352764
 20
-116.4239013380815
 10
111.6720811352764
 20
-116.4239013380815
 10
111.6720811352764
 20
-116.6481770541713
 10
111.6720811352764
 20
-116.6481770541713
 97
        0
 97
        0
 75
     2
 76
     1
 98
        0
  0
POLYLINE
  5
88
330
82
100
AcDbEntity
  8
_U+30EC_U+30A4_U+30E4_U+30FC 1
370
     0
100
AcDb2dPolyline
 66
     1
 10
0.0
 20
0.0
 30
0.0
  0
VERTEX
  5
89
330
88
100
AcDbEntity
  8
_U+30EC_U+30A4_U+30E4_U+30FC 1
370
     0
100
AcDbVertex
100
AcDb2dVertex
 10
111.6720811352764
 20
-115.8626952835343
 30
0.0
  0
VERTEX
  5
8A
330
88
100
AcDbEntity
  8
_U+30EC_U+30A4_U+30E4_U+30FC 1
370
     0
100
AcDbVertex
100
AcDb2dVertex
 10
111.4205891648532
 20
-115.8626952835343
 30
0.0
  0
VERTEX
  5
8B
330
88
100
AcDbEntity
  8
_U+30EC_U+30A4_U+30E4_U+30FC 1
370
     0
100
AcDbVertex
100
AcDb2dVertex
 10
111.4205891648532
 20
-115.6110310583368
 30
0.0
  0
VERTEX
  5
8C
330
88
100
AcDbEntity
  8
_U+30EC_U+30A4_U+30E4_U+30FC 1
370
     0
100
AcDbVertex
100
AcDb2dVertex
 10
111.6720811352764
 20
-115.6110310583368
 30
0.0
  0
VERTEX
  5
8D
330
88
100
AcDbEntity
  8
_U+30EC_U+30A4_U+30E4_U+30FC 1
370
     0
100
AcDbVertex
100
AcDb2dVertex
 10
111.6720811352764
 20
-115.8626952835343
 30
0.0
  0
SEQEND
  5
8E
330
88
100
AcDbEntity
  8
_U+30EC_U+30A4_U+30E4_U+30FC 1
370
     0
  0
HATCH
  5
8F
330
82
100
AcDbEntity
  8
_U+30EC_U+30A4_U+30E4_U+30FC 1
 62
   179
420
  2234388
100
AcDbHatch
 10
0.0
 20
0.0
 30
0.0
210
0.0
220
0.0
230
1.0
  2
SOLID
 70
     1
 71
     0
 91
        1
 92
        1
 93
        4
 72
     1
 10
111.6720811352764
 20
-115.8626952835343
 11
111.4205891648532
 21
-115.8626952835343
 72
     1
 10
111.4205891648532
 20
-115.8626952835343
 11
111.4205891648532
 21
-115.6110310583368
 72
     1
 10
111.4205891648532
 20
-115.6110310583368
 11
111.6720811352764
 21
-115.6110310583368
 72
     1
 10
111.6720811352764
 20
-115.6110310583368
 11
111.6720811352764
 21
-115.8626952835343
 97
        0
 75
     2
 76
     1
 98
        0
  0
SPLINE
  5
90
330
82
100
AcDbEntity
  8
_U+30EC_U+30A4_U+30E4_U+30FC 1
370
     0
100
AcDbSpline
210
0.0
220
0.0
230
1.0
 70
    11
 71
     3
 72
    44
 73
    40
 74
     0
 42
0.0000000001
 43
0.0000000001
 12
1.0
 22
0.0
 32
0.0
 13
1.0
 23
0.0
 33
0.0
 40
0.0
 40
0.0
 40
0.0
 40
0.0
 40
1.0
 40
1.0
 40
1.0
 40
2.0
 40
2.0
 40
2.0
 40
3.0
 40
3.0
 40
3.0
 40
4.0
 40
4.0
 40
4.0
 40
5.0
 40
5.0
 40
5.0
 40
6.0
 40
6.0
 40
6.0
 40
7.0
 40
7.0
 40
7.0
 40
8.0
 40
8.0
 40
8.0
 40
9.0
 40
9.0
 40
9.0
 40
10.0
 40
10.0
 40
10.0
 40
11.0
 40
11.0
 40
11.0
 40
12.0
 40
12.0
 40
12.0
 40
13.0
 40
13.0
 40
13.0
 40
13.0
 10
111.0905490173663
 20
-114.7812798107144
 30
0.0
 10
111.2490234096878
 20
-114.9991821001565
 30
0.0
 10
111.3234374721691
 20
-115.0923719330325
 30
0.0
 10
111.4670979539041
 20
-115.1409477793745
 30
0.0
 10
111.4670979539041
 20
-115.1409477793745
 30
0.0
 10
111.4670979539041
 20
-114.3625284544823
 30
0.0
 10
111.4670979539041
 20
-114.3625284544823
 30
0.0
 10
111.4670979539041
 20
-114.3625284544823
 30
0.0
 10
111.6720811352764
 20
-114.3625284544823
 30
0.0
 10
111.6720811352764
 20
-114.3625284544823
 30
0.0
 10
111.6720811352764
 20
-114.3625284544823
 30
0.0
 10
111.6720811352764
 20
-115.3905449472808
 30
0.0
 10
111.6720811352764
 20
-115.3905449472808
 30
0.0
 10
111.3144802239075
 20
-115.3588500688165
 30
0.0
 10
111.2366210659409
 20
-115.2932209998225
 30
0.0
 10
110.9382757969182
 20
-114.9082315793459
 30
0.0
 10
110.7391492778708
 20
-114.6522609847918
 30
0.0
 10
110.6716254063599
 20
-114.5868041705721
 30
0.0
 10
110.5341660964984
 20
-114.5868041705721
 30
0.0
 10
110.4156548118058
 20
-114.5868041705721
 30
0.0
 10
110.2843966738178
 20
-114.6586344114395
 30
0.0
 10
110.2843966738178
 20
-114.8553493636473
 30
0.0
 10
110.2843966738178
 20
-115.1156263275579
 30
0.0
 10
110.5152180713295
 20
-115.1240668114968
 30
0.0
 10
110.631662298731
 20
-115.1283731808533
 30
0.0
 10
110.631662298731
 20
-115.1283731808533
 30
0.0
 10
110.631662298731
 20
-115.3524766421688
 30
0.0
 10
110.631662298731
 20
-115.3524766421688
 30
0.0
 10
110.5045382753253
 20
-115.34403615823
 30
0.0
 10
110.3925726720546
 20
-115.333528617
 30
0.0
 10
110.274061387362
 20
-115.2530856374194
 30
0.0
 10
110.1131754282009
 20
-115.1431870914399
 30
0.0
 10
110.0790689828969
 20
-114.9569796804622
 30
0.0
 10
110.0790689828969
 20
-114.8405354530607
 30
0.0
 10
110.0790689828969
 20
-114.5633775212724
 30
0.0
 10
110.2633815913578
 20
-114.3561550278346
 30
0.0
 10
110.5362331537896
 20
-114.3561550278346
 30
0.0
 10
110.7646429844616
 20
-114.3561550278346
 30
0.0
 10
110.8642062439853
 20
-114.4724270004618
 30
0.0
 10
111.0905490173663
 20
-114.7812798107144
 30
0.0
  0
HATCH
  5
91
330
82
100
AcDbEntity
  8
_U+30EC_U+30A4_U+30E4_U+30FC 1
 62
   179
420
  2234388
100
AcDbHatch
 10
0.0
 20
0.0
 30
0.0
210
0.0
220
0.0
230
1.0
  2
SOLID
 70
     1
 71
     0
 91
        1
 92
        1
 93
        1
 72
     4
 94
        3
 73
     0
 74
     1
 95
       44
 96
       40
 40
0.0
 40
0.0
 40
0.0
 40
0.0
 40
1.0
 40
1.0
 40
1.0
 40
2.0
 40
2.0
 40
2.0
 40
3.0
 40
3.0
 40
3.0
 40
4.0
 40
4.0
 40
4.0
 40
5.0
 40
5.0
 40
5.0
 40
6.0
 40
6.0
 40
6.0
 40
7.0
 40
7.0
 40
7.0
 40
8.0
 40
8.0
 40
8.0
 40
9.0
 40
9.0
 40
9.0
 40
10.0
 40
10.0
 40
10.0
 40
11.0
 40
11.0
 40
11.0
 40
12.0
 40
12.0
 40
12.0
 40
13.0
 40
13.0
 40
13.0
 40
13.0
 10
111.0905490173663
 20
-114.7812798107144
 10
111.2490234096878
 20
-114.9991821001565
 10
111.3234374721691
 20
-115.0923719330325
 10
111.4670979539041
 20
-115.1409477793745
 10
111.4670979539041
 20
-115.1409477793745
 10
111.4670979539041
 20
-114.3625284544823
 10
111.4670979539041
 20
-114.3625284544823
 10
111.4670979539041
 20
-114.3625284544823
 10
111.6720811352764
 20
-114.3625284544823
 10
111.6720811352764
 20
-114.3625284544823
 10
111.6720811352764
 20
-114.3625284544823
 10
111.6720811352764
 20
-115.3905449472808
 10
111.6720811352764
 20
-115.3905449472808
 10
111.3144802239075
 20
-115.3588500688165
 10
111.2366210659409
 20
-115.2932209998225
 10
110.9382757969182
 20
-114.9082315793459
 10
110.7391492778708
 20
-114.6522609847918
 10
110.6716254063599
 20
-114.5868041705721
 10
110.5341660964984
 20
-114.5868041705721
 10
110.4156548118058
 20
-114.5868041705721
 10
110.2843966738178
 20
-114.6586344114395
 10
110.2843966738178
 20
-114.8553493636473
 10
110.2843966738178
 20
-115.1156263275579
 10
110.5152180713295
 20
-115.1240668114968
 10
110.631662298731
 20
-115.1283731808533
 10
110.631662298731
 20
-115.1283731808533
 10
110.631662298731
 20
-115.3524766421688
 10
110.631662298731
 20
-115.3524766421688
 10
110.5045382753253
 20
-115.34403615823
 10
110.3925726720546
 20
-115.333528617
 10
110.274061387362
 20
-115.2530856374194
 10
110.1131754282009
 20
-115.1431870914399
 10
110.0790689828969
 20
-114.9569796804622
 10
110.0790689828969
 20
-114.8405354530607
 10
110.0790689828969
 20
-114.5633775212724
 10
110.2633815913578
 20
-114.3561550278346
 10
110.5362331537896
 20
-114.3561550278346
 10
110.7646429844616
 20
-114.3561550278346
 10
110.8642062439853
 20
-114.4724270004618
 10
111.0905490173663
 20
-114.7812798107144
 97
        0
 97
        0
 75
     2
 76
     1
 98
        0
  0
ENDBLK
  5
85
330
82
100
AcDbEntity
  8
0
100
AcDbBlockEnd
  0
BLOCK
  5
94
330
92
100
AcDbEntity
  8
0
100
AcDbBlockBegin
  2
block 4
 70
     0
 10
0.0
 20
0.0
 30
0.0
  3
block 4
  1

  0
SPLINE
  5
96
330
92
100
AcDbEntity
  8
_U+30EC_U+30A4_U+30E4_U+30FC 1
370
     0
100
AcDbSpline
210
0.0
220
0.0
230
1.0
 70
    11
 71
     3
 72
    44
 73
    40
 74
     0
 42
0.0000000001
 43
0.0000000001
 12
1.0
 22
0.0
 32
0.0
 13
1.0
 23
0.0
 33
0.0
 40
0.0
 40
0.0
 40
0.0
 40
0.0
 40
1.0
 40
1.0
 40
1.0
 40
2.0
 40
2.0
 40
2.0
 40
3.0
 40
3.0
 40
3.0
 40
4.0
 40
4.0
 40
4.0
 40
5.0
 40
5.0
 40
5.0
 40
6.0
 40
6.0
 40
6.0
 40
7.0
 40
7.0
 40
7.0
 40
8.0
 40
8.0
 40
8.0
 40
9.0
 40
9.0
 40
9.0
 40
10.0
 40
10.0
 40
10.0
 40
11.0
 40
11.0
 40
11.0
 40
12.0
 40
12.0
 40
12.0
 40
13.0
 40
13.0
 40
13.0
 40
13.0
 10
111.0905490173663
 20
-129.8318684571254
 30
0.0
 10
111.2490234096878
 20
-130.0495984917931
 30
0.0
 10
111.3230929626206
 20
-130.1426160698949
 30
0.0
 10
111.4667534443555
 20
-130.1915364257854
 30
0.0
 10
111.4667534443555
 20
-130.1915364257854
 30
0.0
 10
111.4667534443555
 20
-129.412944846119
 30
0.0
 10
111.4667534443555
 20
-129.412944846119
 30
0.0
 10
111.4667534443555
 20
-129.412944846119
 30
0.0
 10
111.6720811352764
 20
-129.412944846119
 30
0.0
 10
111.6720811352764
 20
-129.412944846119
 30
0.0
 10
111.6720811352764
 20
-129.412944846119
 30
0.0
 10
111.6720811352764
 20
-130.4409613389175
 30
0.0
 10
111.6720811352764
 20
-130.4409613389175
 30
0.0
 10
111.3144802239075
 20
-130.4092664604532
 30
0.0
 10
111.2362765563923
 20
-130.3438096462335
 30
0.0
 10
110.9379312873697
 20
-129.9586479709826
 30
0.0
 10
110.7391492778708
 20
-129.7026773764285
 30
0.0
 10
110.6716254063599
 20
-129.6372205622088
 30
0.0
 10
110.5338215869499
 20
-129.6372205622088
 30
0.0
 10
110.4153103022573
 20
-129.6372205622088
 30
0.0
 10
110.2843966738178
 20
-129.7092230578505
 30
0.0
 10
110.2843966738178
 20
-129.9055935005097
 30
0.0
 10
110.2843966738178
 20
-130.1660427191946
 30
0.0
 10
110.514873561781
 20
-130.1743109483592
 30
0.0
 10
110.6313177891824
 20
-130.17878957249
 30
0.0
 10
110.6313177891824
 20
-130.17878957249
 30
0.0
 10
110.6313177891824
 20
-130.4030652885798
 30
0.0
 10
110.6313177891824
 20
-130.4030652885798
 30
0.0
 10
110.5041937657767
 20
-130.3944525498667
 30
0.0
 10
110.3922281625061
 20
-130.3837727538624
 30
0.0
 10
110.2737168778135
 20
-130.3035020290561
 30
0.0
 10
110.1128309186523
 20
-130.1936034830766
 30
0.0
 10
110.0790689828969
 20
-130.0075683268731
 30
0.0
 10
110.0790689828969
 20
-129.8911240994717
 30
0.0
 10
110.0790689828969
 20
-129.613793912909
 30
0.0
 10
110.2630370818092
 20
-129.4067436742455
 30
0.0
 10
110.535888644241
 20
-129.4067436742455
 30
0.0
 10
110.7646429844616
 20
-129.4067436742455
 30
0.0
 10
110.8638617344368
 20
-129.5228433920985
 30
0.0
 10
111.0905490173663
 20
-129.8318684571254
 30
0.0
  0
HATCH
  5
97
330
92
100
AcDbEntity
  8
_U+30EC_U+30A4_U+30E4_U+30FC 1
 62
   179
420
  2234388
100
AcDbHatch
 10
0.0
 20
0.0
 30
0.0
210
0.0
220
0.0
230
1.0
  2
SOLID
 70
     1
 71
     0
 91
        1
 92
        1
 93
        1
 72
     4
 94
        3
 73
     0
 74
     1
 95
       44
 96
       40
 40
0.0
 40
0.0
 40
0.0
 40
0.0
 40
1.0
 40
1.0
 40
1.0
 40
2.0
 40
2.0
 40
2.0
 40
3.0
 40
3.0
 40
3.0
 40
4.0
 40
4.0
 40
4.0
 40
5.0
 40
5.0
 40
5.0
 40
6.0
 40
6.0
 40
6.0
 40
7.0
 40
7.0
 40
7.0
 40
8.0
 40
8.0
 40
8.0
 40
9.0
 40
9.0
 40
9.0
 40
10.0
 40
10.0
 40
10.0
 40
11.0
 40
11.0
 40
11.0
 40
12.0
 40
12.0
 40
12.0
 40
13.0
 40
13.0
 40
13.0
 40
13.0
 10
111.0905490173663
 20
-129.8318684571254
 10
111.2490234096878
 20
-130.0495984917931
 10
111.3230929626206
 20
-130.1426160698949
 10
111.4667534443555
 20
-130.1915364257854
 10
111.4667534443555
 20
-130.1915364257854
 10
111.4667534443555
 20
-129.412944846119
 10
111.4667534443555
 20
-129.412944846119
 10
111.4667534443555
 20
-129.412944846119
 10
111.6720811352764
 20
-129.412944846119
 10
111.6720811352764
 20
-129.412944846119
 10
111.6720811352764
 20
-129.412944846119
 10
111.6720811352764
 20
-130.4409613389175
 10
111.6720811352764
 20
-130.4409613389175
 10
111.3144802239075
 20
-130.4092664604532
 10
111.2362765563923
 20
-130.3438096462335
 10
110.9379312873697
 20
-129.9586479709826
 10
110.7391492778708
 20
-129.7026773764285
 10
110.6716254063599
 20
-129.6372205622088
 10
110.5338215869499
 20
-129.6372205622088
 10
110.4153103022573
 20
-129.6372205622088
 10
110.2843966738178
 20
-129.7092230578505
 10
110.2843966738178
 20
-129.9055935005097
 10
110.2843966738178
 20
-130.1660427191946
 10
110.514873561781
 20
-130.1743109483592
 10
110.6313177891824
 20
-130.17878957249
 10
110.6313177891824
 20
-130.17878957249
 10
110.6313177891824
 20
-130.4030652885798
 10
110.6313177891824
 20
-130.4030652885798
 10
110.5041937657767
 20
-130.3944525498667
 10
110.3922281625061
 20
-130.3837727538624
 10
110.2737168778135
 20
-130.3035020290561
 10
110.1128309186523
 20
-130.1936034830766
 10
110.0790689828969
 20
-130.0075683268731
 10
110.0790689828969
 20
-129.8911240994717
 10
110.0790689828969
 20
-129.613793912909
 10
110.2630370818092
 20
-129.4067436742455
 10
110.535888644241
 20
-129.4067436742455
 10
110.7646429844616
 20
-129.4067436742455
 10
110.8638617344368
 20
-129.5228433920985
 10
111.0905490173663
 20
-129.8318684571254
 97
        0
 97
        0
 75
     2
 76
     1
 98
        0
  0
SPLINE
  5
98
330
92
100
AcDbEntity
  8
_U+30EC_U+30A4_U+30E4_U+30FC 1
370
     0
100
AcDbSpline
210
0.0
220
0.0
230
1.0
 70
    11
 71
     3
 72
    32
 73
    28
 74
     0
 42
0.0000000001
 43
0.0000000001
 12
1.0
 22
0.0
 32
0.0
 13
1.0
 23
0.0
 33
0.0
 40
0.0
 40
0.0
 40
0.0
 40
0.0
 40
1.0
 40
1.0
 40
1.0
 40
2.0
 40
2.0
 40
2.0
 40
3.0
 40
3.0
 40
3.0
 40
4.0
 40
4.0
 40
4.0
 40
5.0
 40
5.0
 40
5.0
 40
6.0
 40
6.0
 40
6.0
 40
7.0
 40
7.0
 40
7.0
 40
8.0
 40
8.0
 40
8.0
 40
9.0
 40
9.0
 40
9.0
 40
9.0
 10
111.7230685484581
 20
-128.7437350481092
 30
0.0
 10
111.7230685484581
 20
-129.2599826065739
 30
0.0
 10
111.1684081753329
 20
-129.2682508357385
 30
0.0
 10
110.9548122552474
 20
-129.2682508357385
 30
0.0
 10
110.7243353672842
 20
-129.2682508357385
 30
0.0
 10
110.0770019256058
 20
-129.2493028105696
 30
0.0
 10
110.0770019256058
 20
-128.7056667429972
 30
0.0
 10
110.0770019256058
 20
-128.5322061853149
 30
0.0
 10
110.1465928544078
 20
-128.2867431319908
 30
0.0
 10
110.4787000591859
 20
-128.2486748268788
 30
0.0
 10
110.4787000591859
 20
-128.2486748268788
 30
0.0
 10
110.4787000591859
 20
-128.4624430017386
 30
0.0
 10
110.4787000591859
 20
-128.4624430017386
 30
0.0
 10
110.4218559836793
 20
-128.4729505429686
 30
0.0
 10
110.2737168778135
 20
-128.5046454214329
 30
0.0
 10
110.2737168778135
 20
-128.7077338002883
 30
0.0
 10
110.2737168778135
 20
-128.999533387889
 30
0.0
 10
110.6016899680093
 20
-129.040185514615
 30
0.0
 10
110.8066731493817
 20
-129.0525878583618
 30
0.0
 10
110.728813991415
 20
-128.9595702802601
 30
0.0
 10
110.6695583490687
 20
-128.8920464087492
 30
0.0
 10
110.6695583490687
 20
-128.7099731123538
 30
0.0
 10
110.6695583490687
 20
-128.5301391280237
 30
0.0
 10
110.7770453282085
 20
-128.2276597444188
 30
0.0
 10
111.183566595468
 20
-128.2276597444188
 30
0.0
 10
111.5025824374021
 20
-128.2276597444188
 30
0.0
 10
111.7230685484581
 20
-128.4264417539177
 30
0.0
 10
111.7230685484581
 20
-128.7437350481092
 30
0.0
  0
SPLINE
  5
99
330
92
100
AcDbEntity
  8
_U+30EC_U+30A4_U+30E4_U+30FC 1
370
     0
100
AcDbSpline
210
0.0
220
0.0
230
1.0
 70
    11
 71
     3
 72
    17
 73
    13
 74
     0
 42
0.0000000001
 43
0.0000000001
 12
1.0
 22
0.0
 32
0.0
 13
1.0
 23
0.0
 33
0.0
 40
0.0
 40
0.0
 40
0.0
 40
0.0
 40
1.0
 40
1.0
 40
1.0
 40
2.0
 40
2.0
 40
2.0
 40
3.0
 40
3.0
 40
3.0
 40
4.0
 40
4.0
 40
4.0
 40
4.0
 10
110.8638617344368
 20
-128.7268540802315
 30
0.0
 10
110.8638617344368
 20
-128.9891981014333
 30
0.0
 10
111.0753905972312
 20
-129.027094151771
 30
0.0
 10
111.1918348246326
 20
-129.027094151771
 30
0.0
 10
111.3675346943803
 20
-129.027094151771
 30
0.0
 10
111.5301432012841
 20
-128.9320095163781
 30
0.0
 10
111.5301432012841
 20
-128.7480414174658
 30
0.0
 10
111.5301432012841
 20
-128.627463075482
 30
0.0
 10
111.4708875589378
 20
-128.4517632057343
 30
0.0
 10
111.1856336527592
 20
-128.4517632057343
 30
0.0
 10
110.9610134271209
 20
-128.4517632057343
 30
0.0
 10
110.8638617344368
 20
-128.5914618276612
 30
0.0
 10
110.8638617344368
 20
-128.7268540802315
 30
0.0
  0
HATCH
  5
9A
330
92
100
AcDbEntity
  8
_U+30EC_U+30A4_U+30E4_U+30FC 1
 62
   179
420
  2234388
100
AcDbHatch
 10
0.0
 20
0.0
 30
0.0
210
0.0
220
0.0
230
1.0
  2
SOLID
 70
     1
 71
     0
 91
        2
 92
        1
 93
        1
 72
     4
 94
        3
 73
     0
 74
     1
 95
       32
 96
       28
 40
0.0
 40
0.0
 40
0.0
 40
0.0
 40
1.0
 40
1.0
 40
1.0
 40
2.0
 40
2.0
 40
2.0
 40
3.0
 40
3.0
 40
3.0
 40
4.0
 40
4.0
 40
4.0
 40
5.0
 40
5.0
 40
5.0
 40
6.0
 40
6.0
 40
6.0
 40
7.0
 40
7.0
 40
7.0
 40
8.0
 40
8.0
 40
8.0
 40
9.0
 40
9.0
 40
9.0
 40
9.0
 10
111.7230685484581
 20
-128.7437350481092
 10
111.7230685484581
 20
-129.2599826065739
 10
111.1684081753329
 20
-129.2682508357385
 10
110.9548122552474
 20
-129.2682508357385
 10
110.7243353672842
 20
-129.2682508357385
 10
110.0770019256058
 20
-129.2493028105696
 10
110.0770019256058
 20
-128.7056667429972
 10
110.0770019256058
 20
-128.5322061853149
 10
110.1465928544078
 20
-128.2867431319908
 10
110.4787000591859
 20
-128.2486748268788
 10
110.4787000591859
 20
-128.2486748268788
 10
110.4787000591859
 20
-128.4624430017386
 10
110.4787000591859
 20
-128.4624430017386
 10
110.4218559836793
 20
-128.4729505429686
 10
110.2737168778135
 20
-128.5046454214329
 10
110.2737168778135
 20
-128.7077338002883
 10
110.2737168778135
 20
-128.999533387889
 10
110.6016899680093
 20
-129.040185514615
 10
110.8066731493817
 20
-129.0525878583618
 10
110.728813991415
 20
-128.9595702802601
 10
110.6695583490687
 20
-128.8920464087492
 10
110.6695583490687
 20
-128.7099731123538
 10
110.6695583490687
 20
-128.5301391280237
 10
110.7770453282085
 20
-128.2276597444188
 10
111.183566595468
 20
-128.2276597444188
 10
111.5025824374021
 20
-128.2276597444188
 10
111.7230685484581
 20
-128.4264417539177
 10
111.7230685484581
 20
-128.7437350481092
 97
        0
 97
        0
 92
        1
 93
        1
 72
     4
 94
        3
 73
     0
 74
     1
 95
       17
 96
       13
 40
0.0
 40
0.0
 40
0.0
 40
0.0
 40
1.0
 40
1.0
 40
1.0
 40
2.0
 40
2.0
 40
2.0
 40
3.0
 40
3.0
 40
3.0
 40
4.0
 40
4.0
 40
4.0
 40
4.0
 10
110.8638617344368
 20
-128.7268540802315
 10
110.8638617344368
 20
-128.9891981014333
 10
111.0753905972312
 20
-129.027094151771
 10
111.1918348246326
 20
-129.027094151771
 10
111.3675346943803
 20
-129.027094151771
 10
111.5301432012841
 20
-128.9320095163781
 10
111.5301432012841
 20
-128.7480414174658
 10
111.5301432012841
 20
-128.627463075482
 10
111.4708875589378
 20
-128.4517632057343
 10
111.1856336527592
 20
-128.4517632057343
 10
110.9610134271209
 20
-128.4517632057343
 10
110.8638617344368
 20
-128.5914618276612
 10
110.8638617344368
 20
-128.7268540802315
 97
        0
 97
        0
 75
     2
 76
     1
 98
        0
  0
ENDBLK
  5
95
330
92
100
AcDbEntity
  8
0
100
AcDbBlockEnd
  0
BLOCK
  5
9D
330
9B
100
AcDbEntity
  8
0
100
AcDbBlockBegin
  2
block 5
 70
     0
 10
0.0
 20
0.0
 30
0.0
  3
block 5
  1

  0
SPLINE
  5
9F
330
9B
100
AcDbEntity
  8
_U+30EC_U+30A4_U+30E4_U+30FC 1
370
     0
100
AcDbSpline
210
0.0
220
0.0
230
1.0
 70
    11
 71
     3
 72
    62
 73
    58
 74
     0
 42
0.0000000001
 43
0.0000000001
 12
1.0
 22
0.0
 32
0.0
 13
1.0
 23
0.0
 33
0.0
 40
0.0
 40
0.0
 40
0.0
 40
0.0
 40
1.0
 40
1.0
 40
1.0
 40
2.0
 40
2.0
 40
2.0
 40
3.0
 40
3.0
 40
3.0
 40
4.0
 40
4.0
 40
4.0
 40
5.0
 40
5.0
 40
5.0
 40
6.0
 40
6.0
 40
6.0
 40
7.0
 40
7.0
 40
7.0
 40
8.0
 40
8.0
 40
8.0
 40
9.0
 40
9.0
 40
9.0
 40
10.0
 40
10.0
 40
10.0
 40
11.0
 40
11.0
 40
11.0
 40
12.0
 40
12.0
 40
12.0
 40
13.0
 40
13.0
 40
13.0
 40
14.0
 40
14.0
 40
14.0
 40
15.0
 40
15.0
 40
15.0
 40
16.0
 40
16.0
 40
16.0
 40
17.0
 40
17.0
 40
17.0
 40
18.0
 40
18.0
 40
18.0
 40
19.0
 40
19.0
 40
19.0
 40
19.0
 10
86.49584009339341
 20
-147.076638418092
 30
0.0
 10
86.40058320322625
 20
-147.076638418092
 30
0.0
 10
86.1826809137842
 20
-147.0556233356319
 30
0.0
 10
86.05796845721815
 20
-146.8692436698799
 30
0.0
 10
85.98389890428528
 20
-146.7572780666093
 30
0.0
 10
85.97959253492871
 20
-146.6577148070856
 30
0.0
 10
85.97545842034641
 20
-146.573309967697
 30
0.0
 10
85.97545842034641
 20
-146.573309967697
 30
0.0
 10
86.19542776707962
 20
-146.573309967697
 30
0.0
 10
86.19542776707962
 20
-146.573309967697
 30
0.0
 10
86.19749482437076
 20
-146.6473795206298
 30
0.0
 10
86.20817462037505
 20
-146.8823350327239
 30
0.0
 10
86.49170597881111
 20
-146.8823350327239
 30
0.0
 10
86.62916528867257
 20
-146.8823350327239
 30
0.0
 10
86.78143850912062
 20
-146.8123995943733
 30
0.0
 10
86.78143850912062
 20
-146.5839897637012
 30
0.0
 10
86.78143850912062
 20
-146.4675455362998
 30
0.0
 10
86.7433702040086
 20
-146.4186251804092
 30
0.0
 10
86.7116753255443
 20
-146.3869303019449
 30
0.0
 10
86.63760577261144
 20
-146.3132052585606
 30
0.0
 10
86.52116154520999
 20
-146.3004584052652
 30
0.0
 10
86.46621227222026
 20
-146.3004584052652
 30
0.0
 10
86.44726424705138
 20
-146.3004584052652
 30
0.0
 10
86.41126299923052
 20
-146.3025254625563
 30
0.0
 10
86.38370223534852
 20
-146.3066595771386
 30
0.0
 10
86.38370223534852
 20
-146.3066595771386
 30
0.0
 10
86.38370223534852
 20
-146.112011682222
 30
0.0
 10
86.38370223534852
 20
-146.112011682222
 30
0.0
 10
86.42177054046053
 20
-146.1182128540954
 30
0.0
 10
86.4641452149291
 20
-146.1206244209351
 30
0.0
 10
86.47051864157682
 20
-146.1206244209351
 30
0.0
 10
86.53597545579656
 20
-146.1206244209351
 30
0.0
 10
86.73492972006974
 20
-146.0996093384751
 30
0.0
 10
86.73492972006974
 20
-145.8625867690899
 30
0.0
 10
86.73492972006974
 20
-145.684819842051
 30
0.0
 10
86.60367158208173
 20
-145.629698314287
 30
0.0
 10
86.49377303610225
 20
-145.629698314287
 30
0.0
 10
86.22936195760933
 20
-145.629698314287
 30
0.0
 10
86.22092147367047
 20
-145.8625867690899
 30
0.0
 10
86.2166151043139
 20
-145.9342447551831
 30
0.0
 10
86.2166151043139
 20
-145.9342447551831
 30
0.0
 10
86.01352672545843
 20
-145.9342447551831
 30
0.0
 10
86.01352672545843
 20
-145.9342447551831
 30
0.0
 10
86.02196720939729
 20
-145.8095322986171
 30
0.0
 10
86.04952797327928
 20
-145.4329833620793
 30
0.0
 10
86.50634763462342
 20
-145.4329833620793
 30
0.0
 10
86.73062335071319
 20
-145.4329833620793
 30
0.0
 10
86.97178003468068
 20
-145.560107385485
 30
0.0
 10
86.97178003468068
 20
-145.8560410876679
 30
0.0
 10
86.97178003468068
 20
-146.0424207534199
 30
0.0
 10
86.87669539928777
 20
-146.1247585355174
 30
0.0
 10
86.77713213976405
 20
-146.1860812351549
 30
0.0
 10
86.83862709417576
 20
-146.2136419990369
 30
0.0
 10
87.02052813579695
 20
-146.2939127238432
 30
0.0
 10
87.02052813579695
 20
-146.5712429104058
 30
0.0
 10
87.02052813579695
 20
-146.9098957966059
 30
0.0
 10
86.77299802518175
 20
-147.076638418092
 30
0.0
 10
86.49584009339341
 20
-147.076638418092
 30
0.0
  0
HATCH
  5
A0
330
9B
100
AcDbEntity
  8
_U+30EC_U+30A4_U+30E4_U+30FC 1
 62
   179
420
  2234388
100
AcDbHatch
 10
0.0
 20
0.0
 30
0.0
210
0.0
220
0.0
230
1.0
  2
SOLID
 70
     1
 71
     0
 91
        1
 92
        1
 93
        1
 72
     4
 94
        3
 73
     0
 74
     1
 95
       62
 96
       58
 40
0.0
 40
0.0
 40
0.0
 40
0.0
 40
1.0
 40
1.0
 40
1.0
 40
2.0
 40
2.0
 40
2.0
 40
3.0
 40
3.0
 40
3.0
 40
4.0
 40
4.0
 40
4.0
 40
5.0
 40
5.0
 40
5.0
 40
6.0
 40
6.0
 40
6.0
 40
7.0
 40
7.0
 40
7.0
 40
8.0
 40
8.0
 40
8.0
 40
9.0
 40
9.0
 40
9.0
 40
10.0
 40
10.0
 40
10.0
 40
11.0
 40
11.0
 40
11.0
 40
12.0
 40
12.0
 40
12.0
 40
13.0
 40
13.0
 40
13.0
 40
14.0
 40
14.0
 40
14.0
 40
15.0
 40
15.0
 40
15.0
 40
16.0
 40
16.0
 40
16.0
 40
17.0
 40
17.0
 40
17.0
 40
18.0
 40
18.0
 40
18.0
 40
19.0
 40
19.0
 40
19.0
 40
19.0
 10
86.49584009339341
 20
-147.076638418092
 10
86.40058320322625
 20
-147.076638418092
 10
86.1826809137842
 20
-147.0556233356319
 10
86.05796845721815
 20
-146.8692436698799
 10
85.98389890428528
 20
-146.7572780666093
 10
85.97959253492871
 20
-146.6577148070856
 10
85.97545842034641
 20
-146.573309967697
 10
85.97545842034641
 20
-146.573309967697
 10
86.19542776707962
 20
-146.573309967697
 10
86.19542776707962
 20
-146.573309967697
 10
86.19749482437076
 20
-146.6473795206298
 10
86.20817462037505
 20
-146.8823350327239
 10
86.49170597881111
 20
-146.8823350327239
 10
86.62916528867257
 20
-146.8823350327239
 10
86.78143850912062
 20
-146.8123995943733
 10
86.78143850912062
 20
-146.5839897637012
 10
86.78143850912062
 20
-146.4675455362998
 10
86.7433702040086
 20
-146.4186251804092
 10
86.7116753255443
 20
-146.3869303019449
 10
86.63760577261144
 20
-146.3132052585606
 10
86.52116154520999
 20
-146.3004584052652
 10
86.46621227222026
 20
-146.3004584052652
 10
86.44726424705138
 20
-146.3004584052652
 10
86.41126299923052
 20
-146.3025254625563
 10
86.38370223534852
 20
-146.3066595771386
 10
86.38370223534852
 20
-146.3066595771386
 10
86.38370223534852
 20
-146.112011682222
 10
86.38370223534852
 20
-146.112011682222
 10
86.42177054046053
 20
-146.1182128540954
 10
86.4641452149291
 20
-146.1206244209351
 10
86.47051864157682
 20
-146.1206244209351
 10
86.53597545579656
 20
-146.1206244209351
 10
86.73492972006974
 20
-146.0996093384751
 10
86.73492972006974
 20
-145.8625867690899
 10
86.73492972006974
 20
-145.684819842051
 10
86.60367158208173
 20
-145.629698314287
 10
86.49377303610225
 20
-145.629698314287
 10
86.22936195760933
 20
-145.629698314287
 10
86.22092147367047
 20
-145.8625867690899
 10
86.2166151043139
 20
-145.9342447551831
 10
86.2166151043139
 20
-145.9342447551831
 10
86.01352672545843
 20
-145.9342447551831
 10
86.01352672545843
 20
-145.9342447551831
 10
86.02196720939729
 20
-145.8095322986171
 10
86.04952797327928
 20
-145.4329833620793
 10
86.50634763462342
 20
-145.4329833620793
 10
86.73062335071319
 20
-145.4329833620793
 10
86.97178003468068
 20
-145.560107385485
 10
86.97178003468068
 20
-145.8560410876679
 10
86.97178003468068
 20
-146.0424207534199
 10
86.87669539928777
 20
-146.1247585355174
 10
86.77713213976405
 20
-146.1860812351549
 10
86.83862709417576
 20
-146.2136419990369
 10
87.02052813579695
 20
-146.2939127238432
 10
87.02052813579695
 20
-146.5712429104058
 10
87.02052813579695
 20
-146.9098957966059
 10
86.77299802518175
 20
-147.076638418092
 10
86.49584009339341
 20
-147.076638418092
 97
        0
 97
        0
 75
     2
 76
     1
 98
        0
  0
SPLINE
  5
A1
330
9B
100
AcDbEntity
  8
_U+30EC_U+30A4_U+30E4_U+30FC 1
370
     0
100
AcDbSpline
210
0.0
220
0.0
230
1.0
 70
    11
 71
     3
 72
    53
 73
    49
 74
     0
 42
0.0000000001
 43
0.0000000001
 12
1.0
 22
0.0
 32
0.0
 13
1.0
 23
0.0
 33
0.0
 40
0.0
 40
0.0
 40
0.0
 40
0.0
 40
1.0
 40
1.0
 40
1.0
 40
2.0
 40
2.0
 40
2.0
 40
3.0
 40
3.0
 40
3.0
 40
4.0
 40
4.0
 40
4.0
 40
5.0
 40
5.0
 40
5.0
 40
6.0
 40
6.0
 40
6.0
 40
7.0
 40
7.0
 40
7.0
 40
8.0
 40
8.0
 40
8.0
 40
9.0
 40
9.0
 40
9.0
 40
10.0
 40
10.0
 40
10.0
 40
11.0
 40
11.0
 40
11.0
 40
12.0
 40
12.0
 40
12.0
 40
13.0
 40
13.0
 40
13.0
 40
14.0
 40
14.0
 40
14.0
 40
15.0
 40
15.0
 40
15.0
 40
16.0
 40
16.0
 40
16.0
 40
16.0
 10
87.66217716992473
 20
-147.076638418092
 30
0.0
 10
87.58380124763531
 20
-147.076638418092
 30
0.0
 10
87.4823431855947
 20
-147.0597574502142
 30
0.0
 10
87.38071286877982
 20
-146.9963676932856
 30
0.0
 10
87.20725231109749
 20
-146.8864691473062
 30
0.0
 10
87.18606497386321
 20
-146.7552110093181
 30
0.0
 10
87.16711694869434
 20
-146.6473795206298
 30
0.0
 10
87.16711694869434
 20
-146.6473795206298
 30
0.0
 10
87.3891533527187
 20
-146.6473795206298
 30
0.0
 10
87.3891533527187
 20
-146.6473795206298
 30
0.0
 10
87.44427488048268
 20
-146.8461615301287
 30
0.0
 10
87.57122664911414
 20
-146.8757893513019
 30
0.0
 10
87.66424422721589
 20
-146.8757893513019
 30
0.0
 10
87.80394284914277
 20
-146.8757893513019
 30
0.0
 10
87.95621606959081
 20
-146.7762260917782
 30
0.0
 10
87.95621606959081
 20
-146.5436821465238
 30
0.0
 10
87.95621606959081
 20
-146.2877115519697
 30
0.0
 10
87.77638208526076
 20
-146.2181206231677
 30
0.0
 10
87.65580374327702
 20
-146.2181206231677
 30
0.0
 10
87.62410886481273
 20
-146.2181206231677
 30
0.0
 10
87.4823431855947
 20
-146.2181206231677
 30
0.0
 10
87.39345972207525
 20
-146.3469671943161
 30
0.0
 10
87.39345972207525
 20
-146.3469671943161
 30
0.0
 10
87.21793210710177
 20
-146.3276746595986
 30
0.0
 10
87.21793210710177
 20
-146.3276746595986
 30
0.0
 10
87.21793210710177
 20
-146.3276746595986
 30
0.0
 10
87.33851044908552
 20
-145.4815592084213
 30
0.0
 10
87.33851044908552
 20
-145.4815592084213
 30
0.0
 10
87.33851044908552
 20
-145.4815592084213
 30
0.0
 10
88.11692977397772
 20
-145.4815592084213
 30
0.0
 10
88.11692977397772
 20
-145.4815592084213
 30
0.0
 10
88.11692977397772
 20
-145.4815592084213
 30
0.0
 10
88.11692977397772
 20
-145.6765516128864
 30
0.0
 10
88.11692977397772
 20
-145.6765516128864
 30
0.0
 10
88.11692977397772
 20
-145.6765516128864
 30
0.0
 10
87.50129121076357
 20
-145.6765516128864
 30
0.0
 10
87.50129121076357
 20
-145.6765516128864
 30
0.0
 10
87.50129121076357
 20
-145.6765516128864
 30
0.0
 10
87.43583439654383
 20
-146.0996093384751
 30
0.0
 10
87.43583439654383
 20
-146.0996093384751
 30
0.0
 10
87.49715709618127
 20
-146.0655028931711
 30
0.0
 10
87.57966713305301
 20
-146.0251952759937
 30
0.0
 10
87.69800616297134
 20
-146.0251952759937
 30
0.0
 10
87.95190970023425
 20
-146.0251952759937
 30
0.0
 10
88.18893226961944
 20
-146.2115749417457
 30
0.0
 10
88.18893226961944
 20
-146.5247341213549
 30
0.0
 10
88.18893226961944
 20
-146.8420274155465
 30
0.0
 10
87.96465655352968
 20
-147.076638418092
 30
0.0
 10
87.66217716992473
 20
-147.076638418092
 30
0.0
  0
HATCH
  5
A2
330
9B
100
AcDbEntity
  8
_U+30EC_U+30A4_U+30E4_U+30FC 1
 62
   179
420
  2234388
100
AcDbHatch
 10
0.0
 20
0.0
 30
0.0
210
0.0
220
0.0
230
1.0
  2
SOLID
 70
     1
 71
     0
 91
        1
 92
        1
 93
        1
 72
     4
 94
        3
 73
     0
 74
     1
 95
       53
 96
       49
 40
0.0
 40
0.0
 40
0.0
 40
0.0
 40
1.0
 40
1.0
 40
1.0
 40
2.0
 40
2.0
 40
2.0
 40
3.0
 40
3.0
 40
3.0
 40
4.0
 40
4.0
 40
4.0
 40
5.0
 40
5.0
 40
5.0
 40
6.0
 40
6.0
 40
6.0
 40
7.0
 40
7.0
 40
7.0
 40
8.0
 40
8.0
 40
8.0
 40
9.0
 40
9.0
 40
9.0
 40
10.0
 40
10.0
 40
10.0
 40
11.0
 40
11.0
 40
11.0
 40
12.0
 40
12.0
 40
12.0
 40
13.0
 40
13.0
 40
13.0
 40
14.0
 40
14.0
 40
14.0
 40
15.0
 40
15.0
 40
15.0
 40
16.0
 40
16.0
 40
16.0
 40
16.0
 10
87.66217716992473
 20
-147.076638418092
 10
87.58380124763531
 20
-147.076638418092
 10
87.4823431855947
 20
-147.0597574502142
 10
87.38071286877982
 20
-146.9963676932856
 10
87.20725231109749
 20
-146.8864691473062
 10
87.18606497386321
 20
-146.7552110093181
 10
87.16711694869434
 20
-146.6473795206298
 10
87.16711694869434
 20
-146.6473795206298
 10
87.3891533527187
 20
-146.6473795206298
 10
87.3891533527187
 20
-146.6473795206298
 10
87.44427488048268
 20
-146.8461615301287
 10
87.57122664911414
 20
-146.8757893513019
 10
87.66424422721589
 20
-146.8757893513019
 10
87.80394284914277
 20
-146.8757893513019
 10
87.95621606959081
 20
-146.7762260917782
 10
87.95621606959081
 20
-146.5436821465238
 10
87.95621606959081
 20
-146.2877115519697
 10
87.77638208526076
 20
-146.2181206231677
 10
87.65580374327702
 20
-146.2181206231677
 10
87.62410886481273
 20
-146.2181206231677
 10
87.4823431855947
 20
-146.2181206231677
 10
87.39345972207525
 20
-146.3469671943161
 10
87.39345972207525
 20
-146.3469671943161
 10
87.21793210710177
 20
-146.3276746595986
 10
87.21793210710177
 20
-146.3276746595986
 10
87.21793210710177
 20
-146.3276746595986
 10
87.33851044908552
 20
-145.4815592084213
 10
87.33851044908552
 20
-145.4815592084213
 10
87.33851044908552
 20
-145.4815592084213
 10
88.11692977397772
 20
-145.4815592084213
 10
88.11692977397772
 20
-145.4815592084213
 10
88.11692977397772
 20
-145.4815592084213
 10
88.11692977397772
 20
-145.6765516128864
 10
88.11692977397772
 20
-145.6765516128864
 10
88.11692977397772
 20
-145.6765516128864
 10
87.50129121076357
 20
-145.6765516128864
 10
87.50129121076357
 20
-145.6765516128864
 10
87.50129121076357
 20
-145.6765516128864
 10
87.43583439654383
 20
-146.0996093384751
 10
87.43583439654383
 20
-146.0996093384751
 10
87.49715709618127
 20
-146.0655028931711
 10
87.57966713305301
 20
-146.0251952759937
 10
87.69800616297134
 20
-146.0251952759937
 10
87.95190970023425
 20
-146.0251952759937
 10
88.18893226961944
 20
-146.2115749417457
 10
88.18893226961944
 20
-146.5247341213549
 10
88.18893226961944
 20
-146.8420274155465
 10
87.96465655352968
 20
-147.076638418092
 10
87.66217716992473
 20
-147.076638418092
 97
        0
 97
        0
 75
     2
 76
     1
 98
        0
  0
ENDBLK
  5
9E
330
9B
100
AcDbEntity
  8
0
100
AcDbBlockEnd
  0
ENDSEC
  0
SECTION
  2
ENTITIES
  0
SPLINE
  5
41
330
1F
100
AcDbEntity
  8
_U+30EC_U+30A4_U+30E4_U+30FC 1
 62
   179
420
  2234388
370
     9
100
AcDbSpline
210
0.0
220
0.0
230
1.0
 70
    11
 71
     3
 72
    17
 73
    13
 74
     0
 42
0.0000000001
 43
0.0000000001
 12
1.0
 22
0.0
 32
0.0
 13
1.0
 23
0.0
 33
0.0
 40
0.0
 40
0.0
 40
0.0
 40
0.0
 40
1.0
 40
1.0
 40
1.0
 40
2.0
 40
2.0
 40
2.0
 40
3.0
 40
3.0
 40
3.0
 40
4.0
 40
4.0
 40
4.0
 40
4.0
 10
104.6930117735032
 20
-147.5368877408935
 30
0.0
 10
104.6930117735032
 20
-147.5920269075465
 30
0.0
 10
104.6482089968684
 20
-147.6367944075351
 30
0.0
 10
104.5931051093854
 20
-147.6367944075351
 30
0.0
 10
104.5379659441254
 20
-147.6367944075351
 30
0.0
 10
104.4931984452675
 20
-147.5920269075465
 30
0.0
 10
104.4931984452675
 20
-147.5368877408935
 30
0.0
 10
104.4931984452675
 20
-147.4817838520186
 30
0.0
 10
104.5379659441254
 20
-147.4369810742518
 30
0.0
 10
104.5931051093854
 20
-147.4369810742518
 30
0.0
 10
104.6482089968684
 20
-147.4369810742518
 30
0.0
 10
104.6930117735032
 20
-147.4817838520186
 30
0.0
 10
104.6930117735032
 20
-147.5368877408935
 30
0.0
  0
SPLINE
  5
42
330
1F
100
AcDbEntity
  8
_U+30EC_U+30A4_U+30E4_U+30FC 1
 62
   179
420
  2234388
370
     9
100
AcDbSpline
210
0.0
220
0.0
230
1.0
 70
    11
 71
     3
 72
    17
 73
    13
 74
     0
 42
0.0000000001
 43
0.0000000001
 12
1.0
 22
0.0
 32
0.0
 13
1.0
 23
0.0
 33
0.0
 40
0.0
 40
0.0
 40
0.0
 40
0.0
 40
1.0
 40
1.0
 40
1.0
 40
2.0
 40
2.0
 40
2.0
 40
3.0
 40
3.0
 40
3.0
 40
4.0
 40
4.0
 40
4.0
 40
4.0
 10
69.69308266642578
 20
-147.5368877408935
 30
0.0
 10
69.69308266642578
 20
-147.5920269075465
 30
0.0
 10
69.64827988979101
 20
-147.6367944075351
 30
0.0
 10
69.59317776037946
 20
-147.6367944075351
 30
0.0
 10
69.538036837048
 20
-147.6367944075351
 30
0.0
 10
69.4932693381901
 20
-147.5920269075465
 30
0.0
 10
69.4932693381901
 20
-147.5368877408935
 30
0.0
 10
69.4932693381901
 20
-147.4817838520186
 30
0.0
 10
69.538036837048
 20
-147.4369810742518
 30
0.0
 10
69.59317776037946
 20
-147.4369810742518
 30
0.0
 10
69.64827988979101
 20
-147.4369810742518
 30
0.0
 10
69.69308266642578
 20
-147.4817838520186
 30
0.0
 10
69.69308266642578
 20
-147.5368877408935
 30
0.0
  0
SPLINE
  5
43
330
1F
100
AcDbEntity
  8
_U+30EC_U+30A4_U+30E4_U+30FC 1
 62
   179
420
  2234388
370
     9
100
AcDbSpline
210
0.0
220
0.0
230
1.0
 70
    11
 71
     3
 72
    17
 73
    13
 74
     0
 42
0.0000000001
 43
0.0000000001
 12
1.0
 22
0.0
 32
0.0
 13
1.0
 23
0.0
 33
0.0
 40
0.0
 40
0.0
 40
0.0
 40
0.0
 40
1.0
 40
1.0
 40
1.0
 40
2.0
 40
2.0
 40
2.0
 40
3.0
 40
3.0
 40
3.0
 40
4.0
 40
4.0
 40
4.0
 40
4.0
 10
69.69308266642578
 20
-110.3369296946379
 30
0.0
 10
69.69308266642578
 20
-110.392068861291
 30
0.0
 10
69.64827988979101
 20
-110.4368363612796
 30
0.0
 10
69.59317776037946
 20
-110.4368363612796
 30
0.0
 10
69.538036837048
 20
-110.4368363612796
 30
0.0
 10
69.4932693381901
 20
-110.392068861291
 30
0.0
 10
69.4932693381901
 20
-110.3369296946379
 30
0.0
 10
69.4932693381901
 20
-110.281825805763
 30
0.0
 10
69.538036837048
 20
-110.2370230279963
 30
0.0
 10
69.59317776037946
 20
-110.2370230279963
 30
0.0
 10
69.64827988979101
 20
-110.2370230279963
 30
0.0
 10
69.69308266642578
 20
-110.281825805763
 30
0.0
 10
69.69308266642578
 20
-110.3369296946379
 30
0.0
  0
SPLINE
  5
44
330
1F
100
AcDbEntity
  8
_U+30EC_U+30A4_U+30E4_U+30FC 1
 62
   179
420
  2234388
370
     9
100
AcDbSpline
210
0.0
220
0.0
230
1.0
 70
    11
 71
     3
 72
    17
 73
    13
 74
     0
 42
0.0000000001
 43
0.0000000001
 12
1.0
 22
0.0
 32
0.0
 13
1.0
 23
0.0
 33
0.0
 40
0.0
 40
0.0
 40
0.0
 40
0.0
 40
1.0
 40
1.0
 40
1.0
 40
2.0
 40
2.0
 40
2.0
 40
3.0
 40
3.0
 40
3.0
 40
4.0
 40
4.0
 40
4.0
 40
4.0
 10
89.69321854506869
 20
-110.3369296946379
 30
0.0
 10
89.69321854506869
 20
-110.392068861291
 30
0.0
 10
89.64845104621081
 20
-110.4368363612796
 30
0.0
 10
89.59331188095085
 20
-110.4368363612796
 30
0.0
 10
89.53820799346778
 20
-110.4368363612796
 30
0.0
 10
89.49340521683303
 20
-110.392068861291
 30
0.0
 10
89.49340521683303
 20
-110.3369296946379
 30
0.0
 10
89.49340521683303
 20
-110.281825805763
 30
0.0
 10
89.53820799346778
 20
-110.2370230279963
 30
0.0
 10
89.59331188095085
 20
-110.2370230279963
 30
0.0
 10
89.64845104621081
 20
-110.2370230279963
 30
0.0
 10
89.69321854506869
 20
-110.281825805763
 30
0.0
 10
89.69321854506869
 20
-110.3369296946379
 30
0.0
  0
POLYLINE
  5
45
330
1F
100
AcDbEntity
  8
_U+30EC_U+30A4_U+30E4_U+30FC 1
 62
   179
420
  2234388
370
     9
100
AcDb2dPolyline
 66
     1
 10
0.0
 20
0.0
 30
0.0
  0
VERTEX
  5
46
330
45
100
AcDbEntity
  8
_U+30EC_U+30A4_U+30E4_U+30FC 1
 62
   179
420
  2234388
370
     9
100
AcDbVertex
100
AcDb2dVertex
 10
69.59317776037946
 20
-147.5368877408935
 30
0.0
  0
VERTEX
  5
47
330
45
100
AcDbEntity
  8
_U+30EC_U+30A4_U+30E4_U+30FC 1
 62
   179
420
  2234388
370
     9
100
AcDbVertex
100
AcDb2dVertex
 10
104.5931051093854
 20
-147.5368877408935
 30
0.0
  0
SEQEND
  5
48
330
45
100
AcDbEntity
  8
_U+30EC_U+30A4_U+30E4_U+30FC 1
 62
   179
420
  2234388
370
     9
  0
POLYLINE
  5
49
330
1F
100
AcDbEntity
  8
_U+30EC_U+30A4_U+30E4_U+30FC 1
 62
   179
420
  2234388
370
     9
100
AcDb2dPolyline
 66
     1
 10
0.0
 20
0.0
 30
0.0
  0
VERTEX
  5
4A
330
49
100
AcDbEntity
  8
_U+30EC_U+30A4_U+30E4_U+30FC 1
 62
   179
420
  2234388
370
     9
100
AcDbVertex
100
AcDb2dVertex
 10
69.59317776037946
 20
-148.9972819071949
 30
0.0
  0
VERTEX
  5
4B
330
49
100
AcDbEntity
  8
_U+30EC_U+30A4_U+30E4_U+30FC 1
 62
   179
420
  2234388
370
     9
100
AcDbVertex
100
AcDb2dVertex
 10
69.59317776037946
 20
-146.5371507966991
 30
0.0
  0
SEQEND
  5
4C
330
49
100
AcDbEntity
  8
_U+30EC_U+30A4_U+30E4_U+30FC 1
 62
   179
420
  2234388
370
     9
  0
POLYLINE
  5
4D
330
1F
100
AcDbEntity
  8
_U+30EC_U+30A4_U+30E4_U+30FC 1
 62
   179
420
  2234388
370
     9
100
AcDb2dPolyline
 66
     1
 10
0.0
 20
0.0
 30
0.0
  0
VERTEX
  5
4E
330
4D
100
AcDbEntity
  8
_U+30EC_U+30A4_U+30E4_U+30FC 1
 62
   179
420
  2234388
370
     9
100
AcDbVertex
100
AcDb2dVertex
 10
104.5931051093854
 20
-148.9972819071949
 30
0.0
  0
VERTEX
  5
4F
330
4D
100
AcDbEntity
  8
_U+30EC_U+30A4_U+30E4_U+30FC 1
 62
   179
420
  2234388
370
     9
100
AcDbVertex
100
AcDb2dVertex
 10
104.5931051093854
 20
-146.5371507966991
 30
0.0
  0
SEQEND
  5
50
330
4D
100
AcDbEntity
  8
_U+30EC_U+30A4_U+30E4_U+30FC 1
 62
   179
420
  2234388
370
     9
  0
POLYLINE
  5
51
330
1F
100
AcDbEntity
  8
_U+30EC_U+30A4_U+30E4_U+30FC 1
 62
   179
420
  2234388
370
     9
100
AcDb2dPolyline
 66
     1
 10
0.0
 20
0.0
 30
0.0
  0
VERTEX
  5
52
330
51
100
AcDbEntity
  8
_U+30EC_U+30A4_U+30E4_U+30FC 1
 62
   179
420
  2234388
370
     9
100
AcDbVertex
100
AcDb2dVertex
 10
69.59317776037946
 20
-110.3369296946379
 30
0.0
  0
VERTEX
  5
53
330
51
100
AcDbEntity
  8
_U+30EC_U+30A4_U+30E4_U+30FC 1
 62
   179
420
  2234388
370
     9
100
AcDbVertex
100
AcDb2dVertex
 10
89.59331188095085
 20
-110.3369296946379
 30
0.0
  0
SEQEND
  5
54
330
51
100
AcDbEntity
  8
_U+30EC_U+30A4_U+30E4_U+30FC 1
 62
   179
420
  2234388
370
     9
  0
POLYLINE
  5
55
330
1F
100
AcDbEntity
  8
_U+30EC_U+30A4_U+30E4_U+30FC 1
 62
   179
420
  2234388
370
     9
100
AcDb2dPolyline
 66
     1
 10
0.0
 20
0.0
 30
0.0
  0
VERTEX
  5
56
330
55
100
AcDbEntity
  8
_U+30EC_U+30A4_U+30E4_U+30FC 1
 62
   179
420
  2234388
370
     9
100
AcDbVertex
100
AcDb2dVertex
 10
69.59317776037946
 20
-108.8768883061142
 30
0.0
  0
VERTEX
  5
57
330
55
100
AcDbEntity
  8
_U+30EC_U+30A4_U+30E4_U+30FC 1
 62
   179
420
  2234388
370
     9
100
AcDbVertex
100
AcDb2dVertex
 10
69.59317776037946
 20
-111.3367019166102
 30
0.0
  0
SEQEND
  5
58
330
55
100
AcDbEntity
  8
_U+30EC_U+30A4_U+30E4_U+30FC 1
 62
   179
420
  2234388
370
     9
  0
POLYLINE
  5
59
330
1F
100
AcDbEntity
  8
_U+30EC_U+30A4_U+30E4_U+30FC 1
 62
   179
420
  2234388
370
     9
100
AcDb2dPolyline
 66
     1
 10
0.0
 20
0.0
 30
0.0
  0
VERTEX
  5
5A
330
59
100
AcDbEntity
  8
_U+30EC_U+30A4_U+30E4_U+30FC 1
 62
   179
420
  2234388
370
     9
100
AcDbVertex
100
AcDb2dVertex
 10
89.59331188095085
 20
-108.8768883061142
 30
0.0
  0
VERTEX
  5
5B
330
59
100
AcDbEntity
  8
_U+30EC_U+30A4_U+30E4_U+30FC 1
 62
   179
420
  2234388
370
     9
100
AcDbVertex
100
AcDb2dVertex
 10
89.59331188095085
 20
-111.3367019166102
 30
0.0
  0
SEQEND
  5
5C
330
59
100
AcDbEntity
  8
_U+30EC_U+30A4_U+30E4_U+30FC 1
 62
   179
420
  2234388
370
     9
  0
SPLINE
  5
5D
330
1F
100
AcDbEntity
  8
_U+30EC_U+30A4_U+30E4_U+30FC 1
 62
   179
420
  2234388
370
     9
100
AcDbSpline
210
0.0
220
0.0
230
1.0
 70
    11
 71
     3
 72
    17
 73
    13
 74
     0
 42
0.0000000001
 43
0.0000000001
 12
1.0
 22
0.0
 32
0.0
 13
1.0
 23
0.0
 33
0.0
 40
0.0
 40
0.0
 40
0.0
 40
0.0
 40
1.0
 40
1.0
 40
1.0
 40
2.0
 40
2.0
 40
2.0
 40
3.0
 40
3.0
 40
3.0
 40
4.0
 40
4.0
 40
4.0
 40
4.0
 10
108.5756133411165
 20
-115.1370005267712
 30
0.0
 10
108.5756133411165
 20
-115.0818613601184
 30
0.0
 10
108.5308458422586
 20
-115.0370938601296
 30
0.0
 10
108.4757066769986
 20
-115.0370938601296
 30
0.0
 10
108.4206055284507
 20
-115.0370938601296
 30
0.0
 10
108.3758027506839
 20
-115.0818613601184
 30
0.0
 10
108.3758027506839
 20
-115.1370005267712
 30
0.0
 10
108.3758027506839
 20
-115.1921044156464
 30
0.0
 10
108.4206055284507
 20
-115.2369071934132
 30
0.0
 10
108.4757066769986
 20
-115.2369071934132
 30
0.0
 10
108.5308458422586
 20
-115.2369071934132
 30
0.0
 10
108.5756133411165
 20
-115.1921044156464
 30
0.0
 10
108.5756133411165
 20
-115.1370005267712
 30
0.0
  0
SPLINE
  5
5E
330
1F
100
AcDbEntity
  8
_U+30EC_U+30A4_U+30E4_U+30FC 1
 62
   179
420
  2234388
370
     9
100
AcDbSpline
210
0.0
220
0.0
230
1.0
 70
    11
 71
     3
 72
    17
 73
    13
 74
     0
 42
0.0000000001
 43
0.0000000001
 12
1.0
 22
0.0
 32
0.0
 13
1.0
 23
0.0
 33
0.0
 40
0.0
 40
0.0
 40
0.0
 40
0.0
 40
1.0
 40
1.0
 40
1.0
 40
2.0
 40
2.0
 40
2.0
 40
3.0
 40
3.0
 40
3.0
 40
4.0
 40
4.0
 40
4.0
 40
4.0
 10
108.5756133411165
 20
-116.3369035820269
 30
0.0
 10
108.5756133411165
 20
-116.2817996931517
 30
0.0
 10
108.5308458422586
 20
-116.2369969153853
 30
0.0
 10
108.4757066769986
 20
-116.2369969153853
 30
0.0
 10
108.4206055284507
 20
-116.2369969153853
 30
0.0
 10
108.3758027506839
 20
-116.2817996931517
 30
0.0
 10
108.3758027506839
 20
-116.3369035820269
 30
0.0
 10
108.3758027506839
 20
-116.3920427486797
 30
0.0
 10
108.4206055284507
 20
-116.4368102486686
 30
0.0
 10
108.4757066769986
 20
-116.4368102486686
 30
0.0
 10
108.5308458422586
 20
-116.4368102486686
 30
0.0
 10
108.5756133411165
 20
-116.3920427486797
 30
0.0
 10
108.5756133411165
 20
-116.3369035820269
 30
0.0
  0
POLYLINE
  5
5F
330
1F
100
AcDbEntity
  8
_U+30EC_U+30A4_U+30E4_U+30FC 1
 62
   179
420
  2234388
370
     9
100
AcDb2dPolyline
 66
     1
 10
0.0
 20
0.0
 30
0.0
  0
VERTEX
  5
60
330
5F
100
AcDbEntity
  8
_U+30EC_U+30A4_U+30E4_U+30FC 1
 62
   179
420
  2234388
370
     9
100
AcDbVertex
100
AcDb2dVertex
 10
108.4757066769986
 20
-115.1373180267711
 30
0.0
  0
VERTEX
  5
61
330
5F
100
AcDbEntity
  8
_U+30EC_U+30A4_U+30E4_U+30FC 1
 62
   179
420
  2234388
370
     9
100
AcDbVertex
100
AcDb2dVertex
 10
108.4757066769986
 20
-116.3372563598047
 30
0.0
  0
SEQEND
  5
62
330
5F
100
AcDbEntity
  8
_U+30EC_U+30A4_U+30E4_U+30FC 1
 62
   179
420
  2234388
370
     9
  0
POLYLINE
  5
63
330
1F
100
AcDbEntity
  8
_U+30EC_U+30A4_U+30E4_U+30FC 1
 62
   179
420
  2234388
370
     9
100
AcDb2dPolyline
 66
     1
 10
0.0
 20
0.0
 30
0.0
  0
VERTEX
  5
64
330
63
100
AcDbEntity
  8
_U+30EC_U+30A4_U+30E4_U+30FC 1
 62
   179
420
  2234388
370
     9
100
AcDbVertex
100
AcDb2dVertex
 10
108.4757066769986
 20
-116.3369035820269
 30
0.0
  0
VERTEX
  5
65
330
63
100
AcDbEntity
  8
_U+30EC_U+30A4_U+30E4_U+30FC 1
 62
   179
420
  2234388
370
     9
100
AcDbVertex
100
AcDb2dVertex
 10
108.4757066769986
 20
-115.1370005267712
 30
0.0
  0
SEQEND
  5
66
330
63
100
AcDbEntity
  8
_U+30EC_U+30A4_U+30E4_U+30FC 1
 62
   179
420
  2234388
370
     9
  0
POLYLINE
  5
67
330
1F
100
AcDbEntity
  8
_U+30EC_U+30A4_U+30E4_U+30FC 1
 62
   179
420
  2234388
370
     9
100
AcDb2dPolyline
 66
     1
 10
0.0
 20
0.0
 30
0.0
  0
VERTEX
  5
68
330
67
100
AcDbEntity
  8
_U+30EC_U+30A4_U+30E4_U+30FC 1
 62
   179
420
  2234388
370
     9
100
AcDbVertex
100
AcDb2dVertex
 10
91.1839162848156
 20
-116.3369035820269
 30
0.0
  0
VERTEX
  5
69
330
67
100
AcDbEntity
  8
_U+30EC_U+30A4_U+30E4_U+30FC 1
 62
   179
420
  2234388
370
     9
100
AcDbVertex
100
AcDb2dVertex
 10
109.4754788737145
 20
-116.3369035820269
 30
0.0
  0
SEQEND
  5
6A
330
67
100
AcDbEntity
  8
_U+30EC_U+30A4_U+30E4_U+30FC 1
 62
   179
420
  2234388
370
     9
  0
POLYLINE
  5
6B
330
1F
100
AcDbEntity
  8
_U+30EC_U+30A4_U+30E4_U+30FC 1
 62
   179
420
  2234388
370
     9
100
AcDb2dPolyline
 66
     1
 10
0.0
 20
0.0
 30
0.0
  0
VERTEX
  5
6C
330
6B
100
AcDbEntity
  8
_U+30EC_U+30A4_U+30E4_U+30FC 1
 62
   179
420
  2234388
370
     9
100
AcDbVertex
100
AcDb2dVertex
 10
91.1839162848156
 20
-115.1370005267712
 30
0.0
  0
VERTEX
  5
6D
330
6B
100
AcDbEntity
  8
_U+30EC_U+30A4_U+30E4_U+30FC 1
 62
   179
420
  2234388
370
     9
100
AcDbVertex
100
AcDb2dVertex
 10
109.4754788737145
 20
-115.1370005267712
 30
0.0
  0
SEQEND
  5
6E
330
6B
100
AcDbEntity
  8
_U+30EC_U+30A4_U+30E4_U+30FC 1
 62
   179
420
  2234388
370
     9
  0
POLYLINE
  5
6F
330
1F
100
AcDbEntity
  8
_U+30EC_U+30A4_U+30E4_U+30FC 1
 62
   179
420
  2234388
370
     9
100
AcDb2dPolyline
 66
     1
 10
0.0
 20
0.0
 30
0.0
  0
VERTEX
  5
70
330
6F
100
AcDbEntity
  8
_U+30EC_U+30A4_U+30E4_U+30FC 1
 62
   179
420
  2234388
370
     9
100
AcDbVertex
100
AcDb2dVertex
 10
108.4757066769986
 20
-116.3369035820269
 30
0.0
  0
VERTEX
  5
71
330
6F
100
AcDbEntity
  8
_U+30EC_U+30A4_U+30E4_U+30FC 1
 62
   179
420
  2234388
370
     9
100
AcDbVertex
100
AcDb2dVertex
 10
108.4757066769986
 20
-142.3368727421934
 30
0.0
  0
SEQEND
  5
72
330
6F
100
AcDbEntity
  8
_U+30EC_U+30A4_U+30E4_U+30FC 1
 62
   179
420
  2234388
370
     9
  0
SPLINE
  5
73
330
1F
100
AcDbEntity
  8
_U+30EC_U+30A4_U+30E4_U+30FC 1
 62
   179
420
  2234388
370
     9
100
AcDbSpline
210
0.0
220
0.0
230
1.0
 70
    11
 71
     3
 72
    17
 73
    13
 74
     0
 42
0.0000000001
 43
0.0000000001
 12
1.0
 22
0.0
 32
0.0
 13
1.0
 23
0.0
 33
0.0
 40
0.0
 40
0.0
 40
0.0
 40
0.0
 40
1.0
 40
1.0
 40
1.0
 40
2.0
 40
2.0
 40
2.0
 40
3.0
 40
3.0
 40
3.0
 40
4.0
 40
4.0
 40
4.0
 40
4.0
 10
108.5756133411165
 20
-142.3368727421934
 30
0.0
 10
108.5756133411165
 20
-142.2817688533185
 30
0.0
 10
108.5308458422586
 20
-142.2369660755518
 30
0.0
 10
108.4757066769986
 20
-142.2369660755518
 30
0.0
 10
108.4206055284507
 20
-142.2369660755518
 30
0.0
 10
108.3758027506839
 20
-142.2817688533185
 30
0.0
 10
108.3758027506839
 20
-142.3368727421934
 30
0.0
 10
108.3758027506839
 20
-142.3920119088465
 30
0.0
 10
108.4206055284507
 20
-142.436779408835
 30
0.0
 10
108.4757066769986
 20
-142.436779408835
 30
0.0
 10
108.5308458422586
 20
-142.436779408835
 30
0.0
 10
108.5756133411165
 20
-142.3920119088465
 30
0.0
 10
108.5756133411165
 20
-142.3368727421934
 30
0.0
  0
POLYLINE
  5
74
330
1F
100
AcDbEntity
  8
_U+30EC_U+30A4_U+30E4_U+30FC 1
 62
   179
420
  2234388
370
     9
100
AcDb2dPolyline
 66
     1
 10
0.0
 20
0.0
 30
0.0
  0
VERTEX
  5
75
330
74
100
AcDbEntity
  8
_U+30EC_U+30A4_U+30E4_U+30FC 1
 62
   179
420
  2234388
370
     9
100
AcDbVertex
100
AcDb2dVertex
 10
106.8772027510587
 20
-142.3368727421934
 30
0.0
  0
VERTEX
  5
76
330
74
100
AcDbEntity
  8
_U+30EC_U+30A4_U+30E4_U+30FC 1
 62
   179
420
  2234388
370
     9
100
AcDbVertex
100
AcDb2dVertex
 10
109.4754788737145
 20
-142.3368727421934
 30
0.0
  0
SEQEND
  5
77
330
74
100
AcDbEntity
  8
_U+30EC_U+30A4_U+30E4_U+30FC 1
 62
   179
420
  2234388
370
     9
  0
INSERT
  5
79
330
1F
100
AcDbEntity
  8
_U+30EC_U+30A4_U+30E4_U+30FC 1
100
AcDbBlockReference
  2
block 2
 10
0.0
 20
0.0
 30
0.0
  0
SPLINE
  5
81
330
1F
100
AcDbEntity
  8
_U+30EC_U+30A4_U+30E4_U+30FC 1
 62
   179
420
  2234388
370
    25
100
AcDbSpline
210
0.0
220
0.0
230
1.0
 70
     8
 71
     3
 72
    50
 73
    46
 74
     0
 42
0.0000000001
 43
0.0000000001
 12
1.0
 22
0.0
 32
0.0
 13
1.0
 23
0.0
 33
0.0
 40
0.0
 40
0.0
 40
0.0
 40
0.0
 40
1.0
 40
1.0
 40
1.0
 40
2.0
 40
2.0
 40
2.0
 40
3.0
 40
3.0
 40
3.0
 40
4.0
 40
4.0
 40
4.0
 40
5.0
 40
5.0
 40
5.0
 40
6.0
 40
6.0
 40
6.0
 40
7.0
 40
7.0
 40
7.0
 40
8.0
 40
8.0
 40
8.0
 40
9.0
 40
9.0
 40
9.0
 40
10.0
 40
10.0
 40
10.0
 40
11.0
 40
11.0
 40
11.0
 40
12.0
 40
12.0
 40
12.0
 40
13.0
 40
13.0
 40
13.0
 40
14.0
 40
14.0
 40
14.0
 40
15.0
 40
15.0
 40
15.0
 40
15.0
 10
71.29367068114693
 20
-116.3351749709163
 30
0.0
 10
71.01737513264027
 20
-116.3351749709163
 30
0.0
 10
70.7934318050202
 20
-116.5591183041936
 30
0.0
 10
70.7934318050202
 20
-116.8352374707911
 30
0.0
 10
70.7934318050202
 20
-116.8352374707911
 30
0.0
 10
70.7934318050202
 20
-116.7937155263571
 30
0.0
 10
70.7934318050202
 20
-116.7937155263571
 30
0.0
 10
70.7934318050202
 20
-116.7937155263571
 30
0.0
 10
70.7934318050202
 20
-141.8545549645366
 30
0.0
 10
70.7934318050202
 20
-141.8545549645366
 30
0.0
 10
70.7934318050202
 20
-142.1304977422453
 30
0.0
 10
71.01737513264027
 20
-142.3275594088628
 30
0.0
 10
71.29367068114693
 20
-142.3275594088628
 30
0.0
 10
71.29367068114693
 20
-142.3275594088628
 30
0.0
 10
103.5954143015052
 20
-142.3368727421934
 30
0.0
 10
103.5954143015052
 20
-142.3368727421934
 30
0.0
 10
104.1480053985186
 20
-142.3368727421934
 30
0.0
 10
104.5958567759818
 20
-142.7847241309705
 30
0.0
 10
104.5958567759818
 20
-143.3369977419437
 30
0.0
 10
104.5958567759818
 20
-143.3369977419437
 30
0.0
 10
104.5958567759818
 20
-143.5371638530048
 30
0.0
 10
104.5958567759818
 20
-143.5371638530048
 30
0.0
 10
104.5958567759818
 20
-143.5371638530048
 30
0.0
 10
70.0637833158173
 20
-143.5371638530048
 30
0.0
 10
70.0637833158173
 20
-143.5371638530048
 30
0.0
 10
69.78748599735069
 20
-143.5371638530048
 30
0.0
 10
69.59317776037946
 20
-143.3132205197275
 30
0.0
 10
69.59317776037946
 20
-143.036924964241
 30
0.0
 10
69.59317776037946
 20
-143.036924964241
 30
0.0
 10
69.59317776037946
 20
-115.6441185822
 30
0.0
 10
69.59317776037946
 20
-115.6441185822
 30
0.0
 10
69.59317776037946
 20
-115.3681405267135
 30
0.0
 10
69.82604460747808
 20
-115.1370005267712
 30
0.0
 10
70.10234015598475
 20
-115.1370005267712
 30
0.0
 10
70.10234015598475
 20
-115.1370005267712
 30
0.0
 10
88.59322218424305
 20
-115.1370005267712
 30
0.0
 10
88.59322218424305
 20
-115.1370005267712
 30
0.0
 10
89.14546050348761
 20
-115.1370005267712
 30
0.0
 10
89.59331188095085
 20
-115.5846755266594
 30
0.0
 10
89.59331188095085
 20
-116.1369138598548
 30
0.0
 10
89.59331188095085
 20
-116.1369138598548
 30
0.0
 10
89.59331188095085
 20
-116.3369035820269
 30
0.0
 10
89.59331188095085
 20
-116.3369035820269
 30
0.0
 10
89.59331188095085
 20
-116.3369035820269
 30
0.0
 10
71.23715568258875
 20
-116.3369035820269
 30
0.0
 10
71.23715568258875
 20
-116.3369035820269
 30
0.0
  0
INSERT
  5
83
330
1F
100
AcDbEntity
  8
_U+30EC_U+30A4_U+30E4_U+30FC 1
100
AcDbBlockReference
  2
block 3
 10
0.0
 20
0.0
 30
0.0
  0
INSERT
  5
93
330
1F
100
AcDbEntity
  8
_U+30EC_U+30A4_U+30E4_U+30FC 1
100
AcDbBlockReference
  2
block 4
 10
0.0
 20
0.0
 30
0.0
  0
INSERT
  5
9C
330
1F
100
AcDbEntity
  8
_U+30EC_U+30A4_U+30E4_U+30FC 1
100
AcDbBlockReference
  2
block 5
 10
0.0
 20
0.0
 30
0.0
  0
ENDSEC
  0
SECTION
  2
OBJECTS
  0
DICTIONARY
  5
C
330
0
100
AcDbDictionary
281
     1
  3
ACAD_GROUP
350
D
  3
ACAD_LAYOUT
350
1A
  3
ACAD_MATERIAL
350
3B
  3
ACAD_MLEADERSTYLE
350
A4
  3
ACAD_MLINESTYLE
350
17
  3
ACAD_PLOTSETTINGS
350
19
  3
ACAD_PLOTSTYLENAME
350
E
  3
ACAD_TABLESTYLE
350
A3
  3
ACAD_VISUALSTYLE
350
2A
  0
SUN
  5
3F
330
29
100
AcDbSun
 90
        1
290
     0
 63
     7
421
 16777215
 40
1.0
291
     1
 91
  2455826
 92
 54000000
292
     0
 70
     2
 71
   256
280
     1
  0
DICTIONARY
  5
D
102
{ACAD_REACTORS
330
C
102
}
330
C
100
AcDbDictionary
281
     1
  0
DICTIONARY
  5
1A
102
{ACAD_REACTORS
330
C
102
}
330
C
100
AcDbDictionary
281
     1
  3
Layout1
350
1E
  3
Layout2
350
26
  3
Model
350
22
  0
DICTIONARY
  5
3B
102
{ACAD_REACTORS
330
C
102
}
330
C
100
AcDbDictionary
281
     1
  3
ByBlock
350
3D
  3
ByLayer
350
3C
  3
Global
350
3E
  0
DICTIONARY
  5
A4
102
{ACAD_REACTORS
330
C
102
}
330
C
100
AcDbDictionary
281
     1
  0
DICTIONARY
  5
17
102
{ACAD_REACTORS
330
C
102
}
330
C
100
AcDbDictionary
281
     1
  3
Standard
350
18
  0
DICTIONARY
  5
19
102
{ACAD_REACTORS
330
C
102
}
330
C
100
AcDbDictionary
281
     1
  0
ACDBDICTIONARYWDFLT
  5
E
102
{ACAD_REACTORS
330
C
102
}
330
C
100
AcDbDictionary
281
     1
  3
Normal
350
F
100
AcDbDictionaryWithDefault
340
F
  0
DICTIONARY
  5
A3
102
{ACAD_REACTORS
330
C
102
}
330
C
100
AcDbDictionary
281
     1
  0
DICTIONARY
  5
2A
102
{ACAD_REACTORS
330
C
102
}
330
C
100
AcDbDictionary
281
     1
  3
2dWireframe
350
2F
  3
3D Hidden
350
31
  3
3dWireframe
350
30
  3
Basic
350
32
  3
Brighten
350
36
  3
ColorChange
350
3A
  3
Conceptual
350
34
  3
Dim
350
35
  3
Facepattern
350
39
  3
Flat
350
2B
  3
FlatWithEdges
350
2C
  3
Gouraud
350
2D
  3
GouraudWithEdges
350
2E
  3
Linepattern
350
38
  3
Realistic
350
33
  3
Thicken
350
37
  0
LAYOUT
  5
1E
102
{ACAD_REACTORS
330
1A
102
}
330
1A
100
AcDbPlotSettings
  1

  2
none_device
  4

  6

 40
0.0
 41
0.0
 42
0.0
 43
0.0
 44
0.0
 45
0.0
 46
0.0
 47
0.0
 48
0.0
 49
0.0
140
0.0
141
0.0
142
1.0
143
1.0
 70
   688
 72
     0
 73
     0
 74
     5
  7

 75
    16
 76
     0
 77
     2
 78
   300
147
1.0
148
0.0
149
0.0
100
AcDbLayout
  1
Layout1
 70
     1
 71
     1
 10
0.0
 20
0.0
 11
12.0
 21
9.0
 12
0.0
 22
0.0
 32
0.0
 14
1.000000000000000E+20
 24
1.000000000000000E+20
 34
1.000000000000000E+20
 15
-1.000000000000000E+20
 25
-1.000000000000000E+20
 35
-1.000000000000000E+20
146
0.0
 13
0.0
 23
0.0
 33
0.0
 16
1.0
 26
0.0
 36
0.0
 17
0.0
 27
1.0
 37
0.0
 76
     0
330
1B
  0
LAYOUT
  5
26
102
{ACAD_REACTORS
330
1A
102
}
330
1A
100
AcDbPlotSettings
  1

  2
none_device
  4

  6

 40
0.0
 41
0.0
 42
0.0
 43
0.0
 44
0.0
 45
0.0
 46
0.0
 47
0.0
 48
0.0
 49
0.0
140
0.0
141
0.0
142
1.0
143
1.0
 70
   688
 72
     0
 73
     0
 74
     5
  7

 75
    16
 76
     0
 77
     2
 78
   300
147
1.0
148
0.0
149
0.0
100
AcDbLayout
  1
Layout2
 70
     1
 71
     2
 10
0.0
 20
0.0
 11
0.0
 21
0.0
 12
0.0
 22
0.0
 32
0.0
 14
0.0
 24
0.0
 34
0.0
 15
0.0
 25
0.0
 35
0.0
146
0.0
 13
0.0
 23
0.0
 33
0.0
 16
1.0
 26
0.0
 36
0.0
 17
0.0
 27
1.0
 37
0.0
 76
     0
330
23
  0
LAYOUT
  5
22
102
{ACAD_REACTORS
330
1A
102
}
330
1A
100
AcDbPlotSettings
  1

  2
none_device
  4

  6

 40
0.0
 41
0.0
 42
0.0
 43
0.0
 44
0.0
 45
0.0
 46
0.0
 47
0.0
 48
0.0
 49
0.0
140
0.0
141
0.0
142
1.0
143
1.0
 70
  1712
 72
     0
 73
     0
 74
     0
  7

 75
     0
 76
     0
 77
     2
 78
   300
147
1.0
148
0.0
149
0.0
100
AcDbLayout
  1
Model
 70
     1
 71
     0
 10
0.0
 20
0.0
 11
12.0
 21
9.0
 12
0.0
 22
0.0
 32
0.0
 14
1.000000000000000E+20
 24
1.000000000000000E+20
 34
1.000000000000000E+20
 15
-1.000000000000000E+20
 25
-1.000000000000000E+20
 35
-1.000000000000000E+20
146
0.0
 13
0.0
 23
0.0
 33
0.0
 16
1.0
 26
0.0
 36
0.0
 17
0.0
 27
1.0
 37
0.0
 76
     0
330
1F
331
29
  0
MATERIAL
  5
3D
102
{ACAD_REACTORS
330
3B
102
}
330
3B
100
AcDbMaterial
  1
ByBlock
 72
     1
 94
      127
  0
MATERIAL
  5
3C
102
{ACAD_REACTORS
330
3B
102
}
330
3B
100
AcDbMaterial
  1
ByLayer
 72
     1
 94
      127
  0
MATERIAL
  5
3E
102
{ACAD_REACTORS
330
3B
102
}
330
3B
100
AcDbMaterial
  1
Global
 72
     1
 94
      127
  0
MLINESTYLE
  5
18
102
{ACAD_REACTORS
330
17
102
}
330
17
100
AcDbMlineStyle
  2
Standard
 70
     0
  3

 62
   256
 51
90.0
 52
90.0
 71
     2
 49
0.5
 62
   256
  6
BYLAYER
 49
-0.5
 62
   256
  6
BYLAYER
  0
ACDBPLACEHOLDER
  5
F
102
{ACAD_REACTORS
330
E
102
}
330
E
  0
VISUALSTYLE
  5
2F
102
{ACAD_REACTORS
330
2A
102
}
330
2A
100
AcDbVisualStyle
  2
2dWireframe
 70
     4
177
     2
291
     0
 71
     0
176
     1
 72
     2
176
     1
 73
     0
176
     1
 90
        0
176
     1
 40
-0.6
176
     1
 41
-30.0
176
     1
 62
     5
 63
     7
421
 16777215
176
     1
 74
     1
176
     1
 91
        4
176
     1
 64
     7
176
     1
 65
   257
176
     1
 75
     1
176
     1
175
     1
176
     1
 42
1.0
176
     1
 92
        0
176
     1
 66
   257
176
     1
 43
1.0
176
     1
 76
     1
176
     1
 77
     6
176
     1
 78
     2
176
     1
 67
     7
176
     1
 79
     5
176
     1
170
     0
176
     1
171
     0
176
     1
290
     0
176
     1
 93
        1
176
     1
 44
0.0
176
     1
173
     0
176
     1
  0
VISUALSTYLE
  5
31
102
{ACAD_REACTORS
330
2A
102
}
330
2A
100
AcDbVisualStyle
  2
3D Hidden
 70
     6
177
     2
291
     0
 71
     1
176
     1
 72
     2
176
     1
 73
     2
176
     1
 90
        0
176
     1
 40
-0.6
176
     1
 41
-30.0
176
     1
 62
     5
 63
     7
421
 16777215
176
     1
 74
     2
176
     1
 91
        2
176
     1
 64
     7
176
     1
 65
   257
176
     1
 75
     2
176
     1
175
     1
176
     1
 42
40.0
176
     1
 92
        0
176
     1
 66
   257
176
     1
 43
1.0
176
     1
 76
     1
176
     1
 77
     6
176
     1
 78
     2
176
     1
 67
     7
176
     1
 79
     3
176
     1
170
     0
176
     1
171
     0
176
     1
290
     0
176
     1
 93
        1
176
     1
 44
0.0
176
     1
173
     0
176
     1
  0
VISUALSTYLE
  5
30
102
{ACAD_REACTORS
330
2A
102
}
330
2A
100
AcDbVisualStyle
  2
3dWireframe
 70
     5
177
     2
291
     0
 71
     0
176
     1
 72
     2
176
     1
 73
     0
176
     1
 90
        0
176
     1
 40
-0.6
176
     1
 41
-30.0
176
     1
 62
     5
 63
     7
421
 16777215
176
     1
 74
     1
176
     1
 91
        4
176
     1
 64
     7
176
     1
 65
   257
176
     1
 75
     1
176
     1
175
     1
176
     1
 42
1.0
176
     1
 92
        0
176
     1
 66
   257
176
     1
 43
1.0
176
     1
 76
     1
176
     1
 77
     6
176
     1
 78
     2
176
     1
 67
     7
176
     1
 79
     5
176
     1
170
     0
176
     1
171
     0
176
     1
290
     0
176
     1
 93
        1
176
     1
 44
0.0
176
     1
173
     0
176
     1
  0
VISUALSTYLE
  5
32
102
{ACAD_REACTORS
330
2A
102
}
330
2A
100
AcDbVisualStyle
  2
Basic
 70
     7
177
     2
291
     1
 71
     1
176
     1
 72
     0
176
     1
 73
     1
176
     1
 90
        0
176
     1
 40
-0.6
176
     1
 41
-30.0
176
     1
 62
     5
 63
     7
421
 16777215
176
     1
 74
     0
176
     1
 91
        4
176
     1
 64
     7
176
     1
 65
   257
176
     1
 75
     1
176
     1
175
     1
176
     1
 42
1.0
176
     1
 92
        8
176
     1
 66
     7
176
     1
 43
1.0
176
     1
 76
     1
176
     1
 77
     6
176
     1
 78
     2
176
     1
 67
     7
176
     1
 79
     5
176
     1
170
     0
176
     1
171
     0
176
     1
290
     0
176
     1
 93
        1
176
     1
 44
0.0
176
     1
173
     0
176
     1
  0
VISUALSTYLE
  5
36
102
{ACAD_REACTORS
330
2A
102
}
330
2A
100
AcDbVisualStyle
  2
Brighten
 70
    12
177
     2
291
     1
 71
     2
176
     1
 72
     2
176
     1
 73
     0
176
     1
 90
        0
176
     1
 40
-0.6
176
     1
 41
-30.0
176
     1
 62
     5
 63
     7
421
 16777215
176
     1
 74
     1
176
     1
 91
        4
176
     1
 64
     7
176
     1
 65
   257
176
     1
 75
     1
176
     1
175
     1
176
     1
 42
1.0
176
     1
 92
        8
176
     1
 66
     7
176
     1
 43
1.0
176
     1
 76
     1
176
     1
 77
     6
176
     1
 78
     2
176
     1
 67
     7
176
     1
 79
     5
176
     1
170
     0
176
     1
171
     0
176
     1
290
     0
176
     1
 93
        1
176
     1
 44
50.0
176
     1
173
     0
176
     1
  0
VISUALSTYLE
  5
3A
102
{ACAD_REACTORS
330
2A
102
}
330
2A
100
AcDbVisualStyle
  2
ColorChange
 70
    16
177
     2
291
     1
 71
     2
176
     1
 72
     2
176
     1
 73
     3
176
     1
 90
        0
176
     1
 40
-0.6
176
     1
 41
-30.0
176
     1
 62
     5
 63
     8
421
  8421504
176
     1
 74
     1
176
     1
 91
        4
176
     1
 64
     7
176
     1
 65
   257
176
     1
 75
     1
176
     1
175
     1
176
     1
 42
1.0
176
     1
 92
        8
176
     1
 66
     8
424
  8421504
176
     1
 43
1.0
176
     1
 76
     1
176
     1
 77
     6
176
     1
 78
     2
176
     1
 67
     7
176
     1
 79
     5
176
     1
170
     0
176
     1
171
     0
176
     1
290
     0
176
     1
 93
        1
176
     1
 44
0.0
176
     1
173
     0
176
     1
  0
VISUALSTYLE
  5
34
102
{ACAD_REACTORS
330
2A
102
}
330
2A
100
AcDbVisualStyle
  2
Conceptual
 70
     9
177
     2
291
     0
 71
     3
176
     1
 72
     2
176
     1
 73
     0
176
     1
 90
        0
176
     1
 40
-0.6
176
     1
 41
-30.0
176
     1
 62
     5
 63
     7
421
 16777215
176
     1
 74
     2
176
     1
 91
        2
176
     1
 64
     7
176
     1
 65
   257
176
     1
 75
     1
176
     1
175
     1
176
     1
 42
40.0
176
     1
 92
        8
176
     1
 66
     7
176
     1
 43
1.0
176
     1
 76
     1
176
     1
 77
     6
176
     1
 78
     2
176
     1
 67
     7
176
     1
 79
     3
176
     1
170
     0
176
     1
171
     0
176
     1
290
     0
176
     1
 93
        1
176
     1
 44
0.0
176
     1
173
     0
176
     1
  0
VISUALSTYLE
  5
35
102
{ACAD_REACTORS
330
2A
102
}
330
2A
100
AcDbVisualStyle
  2
Dim
 70
    11
177
     2
291
     1
 71
     2
176
     1
 72
     2
176
     1
 73
     0
176
     1
 90
        0
176
     1
 40
-0.6
176
     1
 41
-30.0
176
     1
 62
     5
 63
     7
421
 16777215
176
     1
 74
     1
176
     1
 91
        4
176
     1
 64
     7
176
     1
 65
   257
176
     1
 75
     1
176
     1
175
     1
176
     1
 42
1.0
176
     1
 92
        8
176
     1
 66
     7
176
     1
 43
1.0
176
     1
 76
     1
176
     1
 77
     6
176
     1
 78
     2
176
     1
 67
     7
176
     1
 79
     5
176
     1
170
     0
176
     1
171
     0
176
     1
290
     0
176
     1
 93
        1
176
     1
 44
-50.0
176
     1
173
     0
176
     1
  0
VISUALSTYLE
  5
39
102
{ACAD_REACTORS
330
2A
102
}
330
2A
100
AcDbVisualStyle
  2
Facepattern
 70
    15
177
     2
291
     1
 71
     2
176
     1
 72
     2
176
     1
 73
     0
176
     1
 90
        0
176
     1
 40
-0.6
176
     1
 41
-30.0
176
     1
 62
     5
 63
     7
421
 16777215
176
     1
 74
     1
176
     1
 91
        4
176
     1
 64
     7
176
     1
 65
   257
176
     1
 75
     1
176
     1
175
     1
176
     1
 42
1.0
176
     1
 92
        8
176
     1
 66
     7
176
     1
 43
1.0
176
     1
 76
     1
176
     1
 77
     6
176
     1
 78
     2
176
     1
 67
     7
176
     1
 79
     5
176
     1
170
     0
176
     1
171
     0
176
     1
290
     0
176
     1
 93
        1
176
     1
 44
0.0
176
     1
173
     0
176
     1
  0
VISUALSTYLE
  5
2B
102
{ACAD_REACTORS
330
2A
102
}
330
2A
100
AcDbVisualStyle
  2
Flat
 70
     0
177
     2
291
     1
 71
     2
176
     1
 72
     1
176
     1
 73
     1
176
     1
 90
        2
176
     1
 40
-0.6
176
     1
 41
30.0
176
     1
 62
     5
 63
     7
421
 16777215
176
     1
 74
     0
176
     1
 91
        4
176
     1
 64
     7
176
     1
 65
   257
176
     1
 75
     1
176
     1
175
     1
176
     1
 42
1.0
176
     1
 92
        8
176
     1
 66
     7
176
     1
 43
1.0
176
     1
 76
     1
176
     1
 77
     6
176
     1
 78
     2
176
     1
 67
     7
176
     1
 79
     5
176
     1
170
     0
176
     1
171
     0
176
     1
290
     0
176
     1
 93
       13
176
     1
 44
0.0
176
     1
173
     0
176
     1
  0
VISUALSTYLE
  5
2C
102
{ACAD_REACTORS
330
2A
102
}
330
2A
100
AcDbVisualStyle
  2
FlatWithEdges
 70
     1
177
     2
291
     1
 71
     2
176
     1
 72
     1
176
     1
 73
     1
176
     1
 90
        2
176
     1
 40
-0.6
176
     1
 41
30.0
176
     1
 62
     5
 63
     7
421
 16777215
176
     1
 74
     1
176
     1
 91
        4
176
     1
 64
     7
176
     1
 65
   257
176
     1
 75
     1
176
     1
175
     1
176
     1
 42
1.0
176
     1
 92
        0
176
     1
 66
   257
176
     1
 43
1.0
176
     1
 76
     1
176
     1
 77
     6
176
     1
 78
     2
176
     1
 67
     7
176
     1
 79
     5
176
     1
170
     0
176
     1
171
     0
176
     1
290
     0
176
     1
 93
       13
176
     1
 44
0.0
176
     1
173
     0
176
     1
  0
VISUALSTYLE
  5
2D
102
{ACAD_REACTORS
330
2A
102
}
330
2A
100
AcDbVisualStyle
  2
Gouraud
 70
     2
177
     2
291
     1
 71
     2
176
     1
 72
     2
176
     1
 73
     1
176
     1
 90
        2
176
     1
 40
-0.6
176
     1
 41
30.0
176
     1
 62
     5
 63
     7
421
 16777215
176
     1
 74
     0
176
     1
 91
        4
176
     1
 64
     7
176
     1
 65
   257
176
     1
 75
     1
176
     1
175
     1
176
     1
 42
1.0
176
     1
 92
        0
176
     1
 66
     7
176
     1
 43
1.0
176
     1
 76
     1
176
     1
 77
     6
176
     1
 78
     2
176
     1
 67
     7
176
     1
 79
     5
176
     1
170
     0
176
     1
171
     0
176
     1
290
     0
176
     1
 93
       13
176
     1
 44
0.0
176
     1
173
     0
176
     1
  0
VISUALSTYLE
  5
2E
102
{ACAD_REACTORS
330
2A
102
}
330
2A
100
AcDbVisualStyle
  2
GouraudWithEdges
 70
     3
177
     2
291
     1
 71
     2
176
     1
 72
     2
176
     1
 73
     1
176
     1
 90
        2
176
     1
 40
-0.6
176
     1
 41
30.0
176
     1
 62
     5
 63
     7
421
 16777215
176
     1
 74
     1
176
     1
 91
        4
176
     1
 64
     7
176
     1
 65
   257
176
     1
 75
     1
176
     1
175
     1
176
     1
 42
1.0
176
     1
 92
        0
176
     1
 66
   257
176
     1
 43
1.0
176
     1
 76
     1
176
     1
 77
     6
176
     1
 78
     2
176
     1
 67
     7
176
     1
 79
     5
176
     1
170
     0
176
     1
171
     0
176
     1
290
     0
176
     1
 93
       13
176
     1
 44
0.0
176
     1
173
     0
176
     1
  0
VISUALSTYLE
  5
38
102
{ACAD_REACTORS
330
2A
102
}
330
2A
100
AcDbVisualStyle
  2
Linepattern
 70
    14
177
     2
291
     1
 71
     2
176
     1
 72
     2
176
     1
 73
     0
176
     1
 90
        0
176
     1
 40
-0.6
176
     1
 41
-30.0
176
     1
 62
     5
 63
     7
421
 16777215
176
     1
 74
     1
176
     1
 91
        4
176
     1
 64
     7
176
     1
 65
   257
176
     1
 75
     7
176
     1
175
     7
176
     1
 42
1.0
176
     1
 92
        8
176
     1
 66
     7
176
     1
 43
1.0
176
     1
 76
     1
176
     1
 77
     6
176
     1
 78
     2
176
     1
 67
     7
176
     1
 79
     5
176
     1
170
     0
176
     1
171
     0
176
     1
290
     0
176
     1
 93
        1
176
     1
 44
0.0
176
     1
173
     0
176
     1
  0
VISUALSTYLE
  5
33
102
{ACAD_REACTORS
330
2A
102
}
330
2A
100
AcDbVisualStyle
  2
Realistic
 70
     8
177
     2
291
     0
 71
     2
176
     1
 72
     2
176
     1
 73
     0
176
     1
 90
        0
176
     1
 40
-0.6
176
     1
 41
-30.0
176
     1
 62
     5
 63
     7
421
 16777215
176
     1
 74
     1
176
     1
 91
        0
176
     1
 64
     7
176
     1
 65
   257
176
     1
 75
     1
176
     1
175
     1
176
     1
 42
1.0
176
     1
 92
        8
176
     1
 66
     8
424
  7895160
176
     1
 43
1.0
176
     1
 76
     1
176
     1
 77
     6
176
     1
 78
     2
176
     1
 67
     7
176
     1
 79
     5
176
     1
170
     0
176
     1
171
     0
176
     1
290
     0
176
     1
 93
       13
176
     1
 44
0.0
176
     1
173
     0
176
     1
  0
VISUALSTYLE
  5
37
102
{ACAD_REACTORS
330
2A
102
}
330
2A
100
AcDbVisualStyle
  2
Thicken
 70
    13
177
     2
291
     1
 71
     2
176
     1
 72
     2
176
     1
 73
     0
176
     1
 90
        0
176
     1
 40
-0.6
176
     1
 41
-30.0
176
     1
 62
     5
 63
     7
421
 16777215
176
     1
 74
     1
176
     1
 91
        4
176
     1
 64
     7
176
     1
 65
   257
176
     1
 75
     1
176
     1
175
     1
176
     1
 42
1.0
176
     1
 92
       12
176
     1
 66
     7
176
     1
 43
1.0
176
     1
 76
     1
176
     1
 77
     6
176
     1
 78
     2
176
     1
 67
     7
176
     1
 79
     5
176
     1
170
     0
176
     1
171
     0
176
     1
290
     0
176
     1
 93
        1
176
     1
 44
0.0
176
     1
173
     0
176
     1
  0
ENDSEC
  0
EOF
