  0
SECTION
  2
HEADER
  9
$ACADVER
  1
AC1014
  9
$ACADMAINTVER
 70
     9
  9
$DWGCODEPAGE
  3
UNDEFINED
  9
$INSBASE
 10
0.0
 20
0.0
 30
0.0
  9
$EXTMIN
 10
1.000000000000000E+20
 20
1.000000000000000E+20
 30
1.000000000000000E+20
  9
$EXTMAX
 10
-1.000000000000000E+20
 20
-1.000000000000000E+20
 30
-1.000000000000000E+20
  9
$LIMMIN
 10
0.0
 20
0.0
  9
$LIMMAX
 10
12.0
 20
9.0
  9
$ORTHOMODE
 70
     0
  9
$REGENMODE
 70
     1
  9
$FILLMODE
 70
     1
  9
$QTEXTMODE
 70
     0
  9
$MIRRTEXT
 70
     1
  9
$DRAGMODE
 70
     2
  9
$LTSCALE
 40
1.0
  9
$OSMODE
 70
    37
  9
$ATTMODE
 70
     1
  9
$TEXTSIZE
 40
0.2
  9
$TRACEWID
 40
0.05
  9
$TEXTSTYLE
  7
STANDARD
  9
$CLAYER
  8
0
  9
$CELTYPE
  6
BYLAYER
  9
$CECOLOR
 62
   256
  9
$CELTSCALE
 40
1.0
  9
$DELOBJ
 70
     1
  9
$DISPSILH
 70
     0
  9
$DIMSCALE
 40
1.0
  9
$DIMASZ
 40
0.18
  9
$DIMEXO
 40
0.0625
  9
$DIMDLI
 40
0.38
  9
$DIMRND
 40
0.0
  9
$DIMDLE
 40
0.0
  9
$DIMEXE
 40
0.18
  9
$DIMTP
 40
0.0
  9
$DIMTM
 40
0.0
  9
$DIMTXT
 40
0.18
  9
$DIMCEN
 40
0.09
  9
$DIMTSZ
 40
0.0
  9
$DIMTOL
 70
     0
  9
$DIMLIM
 70
     0
  9
$DIMTIH
 70
     1
  9
$DIMTOH
 70
     1
  9
$DIMSE1
 70
     0
  9
$DIMSE2
 70
     0
  9
$DIMTAD
 70
     0
  9
$DIMZIN
 70
     0
  9
$DIMBLK
  1

  9
$DIMASO
 70
     1
  9
$DIMSHO
 70
     1
  9
$DIMPOST
  1

  9
$DIMAPOST
  1

  9
$DIMALT
 70
     0
  9
$DIMALTD
 70
     2
  9
$DIMALTF
 40
25.4
  9
$DIMLFAC
 40
1.0
  9
$DIMTOFL
 70
     0
  9
$DIMTVP
 40
0.0
  9
$DIMTIX
 70
     0
  9
$DIMSOXD
 70
     0
  9
$DIMSAH
 70
     0
  9
$DIMBLK1
  1

  9
$DIMBLK2
  1

  9
$DIMSTYLE
  2
STANDARD
  9
$DIMCLRD
 70
     0
  9
$DIMCLRE
 70
     0
  9
$DIMCLRT
 70
     0
  9
$DIMTFAC
 40
1.0
  9
$DIMGAP
 40
0.09
  9
$DIMJUST
 70
     0
  9
$DIMSD1
 70
     0
  9
$DIMSD2
 70
     0
  9
$DIMTOLJ
 70
     1
  9
$DIMTZIN
 70
     0
  9
$DIMALTZ
 70
     0
  9
$DIMALTTZ
 70
     0
  9
$DIMFIT
 70
     3
  9
$DIMUPT
 70
     0
  9
$DIMUNIT
 70
     2
  9
$DIMDEC
 70
     4
  9
$DIMTDEC
 70
     4
  9
$DIMALTU
 70
     2
  9
$DIMALTTD
 70
     2
  9
$DIMTXSTY
  7
STANDARD
  9
$DIMAUNIT
 70
     0
  9
$LUNITS
 70
     2
  9
$LUPREC
 70
     4
  9
$SKETCHINC
 40
0.1
  9
$FILLETRAD
 40
0.5
  9
$AUNITS
 70
     0
  9
$AUPREC
 70
     0
  9
$MENU
  1
.
  9
$ELEVATION
 40
0.0
  9
$PELEVATION
 40
0.0
  9
$THICKNESS
 40
0.0
  9
$LIMCHECK
 70
     0
  9
$CHAMFERA
 40
0.5
  9
$CHAMFERB
 40
0.5
  9
$CHAMFERC
 40
1.0
  9
$CHAMFERD
 40
0.0
  9
$SKPOLY
 70
     0
  9
$TDCREATE
 40
2457956.479259248
  9
$TDUPDATE
 40
2457956.479259248
  9
$TDINDWG
 40
0.0000000116
  9
$TDUSRTIMER
 40
0.0000000116
  9
$USRTIMER
 70
     1
  9
$ANGBASE
 50
0.0
  9
$ANGDIR
 70
     0
  9
$PDMODE
 70
     0
  9
$PDSIZE
 40
0.0
  9
$PLINEWID
 40
0.0
  9
$COORDS
 70
     1
  9
$SPLFRAME
 70
     0
  9
$SPLINETYPE
 70
     6
  9
$SPLINESEGS
 70
     8
  9
$ATTDIA
 70
     0
  9
$ATTREQ
 70
     1
  9
$HANDLING
 70
     1
  9
$HANDSEED
  5
107
  9
$SURFTAB1
 70
     6
  9
$SURFTAB2
 70
     6
  9
$SURFTYPE
 70
     6
  9
$SURFU
 70
     6
  9
$SURFV
 70
     6
  9
$UCSNAME
  2

  9
$UCSORG
 10
0.0
 20
0.0
 30
0.0
  9
$UCSXDIR
 10
1.0
 20
0.0
 30
0.0
  9
$UCSYDIR
 10
0.0
 20
1.0
 30
0.0
  9
$PUCSNAME
  2

  9
$PUCSORG
 10
0.0
 20
0.0
 30
0.0
  9
$PUCSXDIR
 10
1.0
 20
0.0
 30
0.0
  9
$PUCSYDIR
 10
0.0
 20
1.0
 30
0.0
  9
$USERI1
 70
     0
  9
$USERI2
 70
     0
  9
$USERI3
 70
     0
  9
$USERI4
 70
     0
  9
$USERI5
 70
     0
  9
$USERR1
 40
0.0
  9
$USERR2
 40
0.0
  9
$USERR3
 40
0.0
  9
$USERR4
 40
0.0
  9
$USERR5
 40
0.0
  9
$WORLDVIEW
 70
     1
  9
$SHADEDGE
 70
     3
  9
$SHADEDIF
 70
    70
  9
$TILEMODE
 70
     1
  9
$MAXACTVP
 70
    64
  9
$PINSBASE
 10
0.0
 20
0.0
 30
0.0
  9
$PLIMCHECK
 70
     0
  9
$PEXTMIN
 10
1.000000000000000E+20
 20
1.000000000000000E+20
 30
1.000000000000000E+20
  9
$PEXTMAX
 10
-1.000000000000000E+20
 20
-1.000000000000000E+20
 30
-1.000000000000000E+20
  9
$PLIMMIN
 10
0.0
 20
0.0
  9
$PLIMMAX
 10
12.0
 20
9.0
  9
$UNITMODE
 70
     0
  9
$VISRETAIN
 70
     1
  9
$PLINEGEN
 70
     0
  9
$PSLTSCALE
 70
     1
  9
$TREEDEPTH
 70
  3020
  9
$PICKSTYLE
 70
     1
  9
$CMLSTYLE
  2
STANDARD
  9
$CMLJUST
 70
     0
  9
$CMLSCALE
 40
1.0
  9
$PROXYGRAPHICS
 70
     1
  9
$MEASUREMENT
 70
     0
  0
ENDSEC
  0
SECTION
  2
CLASSES
  0
CLASS
  1
ACDBDICTIONARYWDFLT
  2
AcDbDictionaryWithDefault
  3
ObjectDBX Classes
 90
        0
280
     0
281
     0
  0
CLASS
  1
VISUALSTYLE
  2
AcDbVisualStyle
  3
ObjectDBX Classes
 90
     4095
280
     0
281
     0
  0
CLASS
  1
MATERIAL
  2
AcDbMaterial
  3
ObjectDBX Classes
 90
     1153
280
     0
281
     0
  0
CLASS
  1
SUN
  2
AcDbSun
  3
SCENEOE
 90
     1024
280
     0
281
     0
  0
CLASS
  1
DICTIONARYVAR
  2
AcDbDictionaryVar
  3
ObjectDBX Classes
 90
        0
280
     0
281
     0
  0
CLASS
  1
XRECORD
  2
AcDbXrecord
  3
AutoCAD 2000
 90
        0
280
     0
281
     0
  0
CLASS
  1
LWPOLYLINE
  2
AcDbPolyline
  3
AutoCAD 2000
 90
        0
280
     0
281
     1
  0
CLASS
  1
HATCH
  2
AcDbHatch
  3
AutoCAD 2000
 90
        0
280
     0
281
     1
  0
CLASS
  1
ACDBPLACEHOLDER
  2
AcDbPlaceHolder
  3
ObjectDBX Classes
 90
        0
280
     0
281
     0
  0
CLASS
  1
LAYOUT
  2
AcDbLayout
  3
ObjectDBX Classes
 90
        0
280
     0
281
     0
  0
ENDSEC
  0
SECTION
  2
TABLES
  0
TABLE
  2
VPORT
  5
8
330
0
100
AcDbSymbolTable
 70
     1
  0
VPORT
  5
29
330
8
100
AcDbSymbolTableRecord
100
AcDbViewportTableRecord
  2
*ACTIVE
 70
     0
 10
0.0
 20
0.0
 11
1.0
 21
1.0
 12
0.0
 22
0.0
 13
0.0
 23
0.0
 14
0.5
 24
0.5
 15
0.5
 25
0.5
 16
0.0
 26
0.0
 36
1.0
 17
93.43753092877222
 27
-38.98194443469896
 37
0.0
 40
77.96388886939792
 41
2.033182503770742
 42
50.0
 43
0.0
 44
0.0
 50
0.0
 51
0.0
 71
     0
 72
   100
 73
     1
 74
     3
 75
     0
 76
     0
 77
     0
 78
     0
  0
ENDTAB
  0
TABLE
  2
LTYPE
  5
5
330
0
100
AcDbSymbolTable
 70
     1
  0
LTYPE
  5
14
330
5
100
AcDbSymbolTableRecord
100
AcDbLinetypeTableRecord
  2
BYBLOCK
 70
     0
  3

 72
    65
 73
     0
 40
0.0
  0
LTYPE
  5
15
330
5
100
AcDbSymbolTableRecord
100
AcDbLinetypeTableRecord
  2
BYLAYER
 70
     0
  3

 72
    65
 73
     0
 40
0.0
  0
LTYPE
  5
16
330
5
100
AcDbSymbolTableRecord
100
AcDbLinetypeTableRecord
  2
CONTINUOUS
 70
     0
  3
Solid line
 72
    65
 73
     0
 40
0.0
  0
ENDTAB
  0
TABLE
  2
LAYER
  5
2
330
0
100
AcDbSymbolTable
 70
     2
  0
LAYER
  5
10
330
2
100
AcDbSymbolTableRecord
100
AcDbLayerTableRecord
  2
0
 70
     0
 62
     7
  6
CONTINUOUS
  0
LAYER
  5
40
330
2
100
AcDbSymbolTableRecord
100
AcDbLayerTableRecord
  2
TOP
 70
     0
 62
     7
  6
CONTINUOUS
  0
ENDTAB
  0
TABLE
  2
STYLE
  5
3
330
0
100
AcDbSymbolTable
 70
     1
  0
STYLE
  5
11
330
3
100
AcDbSymbolTableRecord
100
AcDbTextStyleTableRecord
  2
STANDARD
 70
     0
 40
0.0
 41
1.0
 50
0.0
 71
     0
 42
0.2
  3
txt
  4

  0
ENDTAB
  0
TABLE
  2
VIEW
  5
6
330
0
100
AcDbSymbolTable
 70
     0
  0
ENDTAB
  0
TABLE
  2
UCS
  5
7
330
0
100
AcDbSymbolTable
 70
     0
  0
ENDTAB
  0
TABLE
  2
APPID
  5
9
330
0
100
AcDbSymbolTable
 70
     1
  0
APPID
  5
12
330
9
100
AcDbSymbolTableRecord
100
AcDbRegAppTableRecord
  2
ACAD
 70
     0
  0
ENDTAB
  0
TABLE
  2
DIMSTYLE
  5
A
330
0
100
AcDbSymbolTable
 70
     1
  0
DIMSTYLE
105
27
330
A
100
AcDbSymbolTableRecord
100
AcDbDimStyleTableRecord
  2
STANDARD
 70
     0
  3

  4

  5

  6

  7

 40
1.0
 41
0.18
 42
0.0625
 43
0.38
 44
0.18
 45
0.0
 46
0.0
 47
0.0
 48
0.0
140
0.18
141
0.09
142
0.0
143
25.4
144
1.0
145
0.0
146
1.0
147
0.09
 71
     0
 72
     0
 73
     1
 74
     1
 75
     0
 76
     0
 77
     0
 78
     0
170
     0
171
     2
172
     0
173
     0
174
     0
175
     0
176
     0
177
     0
178
     0
270
     2
271
     4
272
     4
273
     2
274
     2
340
11
275
     0
280
     0
281
     0
282
     0
283
     1
284
     0
285
     0
286
     0
287
     3
288
     0
  0
ENDTAB
  0
TABLE
  2
BLOCK_RECORD
  5
1
330
0
100
AcDbSymbolTable
 70
     2
  0
BLOCK_RECORD
  5
1F
330
1
100
AcDbSymbolTableRecord
100
AcDbBlockTableRecord
  2
*MODEL_SPACE
  0
BLOCK_RECORD
  5
1B
330
1
100
AcDbSymbolTableRecord
100
AcDbBlockTableRecord
  2
*PAPER_SPACE
  0
BLOCK_RECORD
  5
41
330
1
100
AcDbSymbolTableRecord
100
AcDbBlockTableRecord
  2
BLOCK_2
  0
ENDTAB
  0
ENDSEC
  0
SECTION
  2
BLOCKS
  0
BLOCK
  5
20
330
1F
100
AcDbEntity
  8
0
100
AcDbBlockBegin
  2
*MODEL_SPACE
 70
     0
 10
0.0
 20
0.0
 30
0.0
  3
*MODEL_SPACE
  1

  0
ENDBLK
  5
21
330
1F
100
AcDbEntity
  8
0
100
AcDbBlockEnd
  0
BLOCK
  5
1C
330
1B
100
AcDbEntity
 67
     1
  8
0
100
AcDbBlockBegin
  2
*PAPER_SPACE
 70
     0
 10
0.0
 20
0.0
 30
0.0
  3
*PAPER_SPACE
  1

  0
ENDBLK
  5
1D
330
1B
100
AcDbEntity
 67
     1
  8
0
100
AcDbBlockEnd
  0
BLOCK
  5
43
330
41
100
AcDbEntity
  8
0
100
AcDbBlockBegin
  2
BLOCK_2
 70
     0
 10
0.0
 20
0.0
 30
0.0
  3
BLOCK_2
  1

  0
SPLINE
  5
45
330
41
100
AcDbEntity
  8
TOP
 62
    29
100
AcDbSpline
210
0.0
220
0.0
230
1.0
 70
    11
 71
     3
 72
    17
 73
    13
 74
     0
 42
0.0000000001
 43
0.0000000001
 12
1.0
 22
0.0
 32
0.0
 13
1.0
 23
0.0
 33
0.0
 40
0.0
 40
0.0
 40
0.0
 40
0.0
 40
1.0
 40
1.0
 40
1.0
 40
2.0
 40
2.0
 40
2.0
 40
3.0
 40
3.0
 40
3.0
 40
4.0
 40
4.0
 40
4.0
 40
4.0
 10
166.5386650502009
 20
-50.83869087435696
 30
0.0
 10
166.5386650502009
 20
-50.59150688608499
 30
0.0
 10
166.3376895974636
 20
-50.39053142826928
 30
0.0
 10
166.0905056154351
 20
-50.39053142826928
 30
0.0
 10
165.8431633850196
 20
-50.39053142826928
 30
0.0
 10
165.6423517741185
 20
-50.59150688608499
 30
0.0
 10
165.6423517741185
 20
-50.83869087435696
 30
0.0
 10
165.6423517741185
 20
-51.08903983046931
 30
0.0
 10
165.8431633850196
 20
-51.29001528828439
 30
0.0
 10
166.0905056154351
 20
-51.29001528828439
 30
0.0
 10
166.3376895974636
 20
-51.29001528828439
 30
0.0
 10
166.5386650502009
 20
-51.08903983046931
 30
0.0
 10
166.5386650502009
 20
-50.83869087435696
 30
0.0
  0
SPLINE
  5
46
330
41
100
AcDbEntity
  8
TOP
 62
    29
100
AcDbSpline
210
0.0
220
0.0
230
1.0
 70
    11
 71
     3
 72
    17
 73
    13
 74
     0
 42
0.0000000001
 43
0.0000000001
 12
1.0
 22
0.0
 32
0.0
 13
1.0
 23
0.0
 33
0.0
 40
0.0
 40
0.0
 40
0.0
 40
0.0
 40
1.0
 40
1.0
 40
1.0
 40
2.0
 40
2.0
 40
2.0
 40
3.0
 40
3.0
 40
3.0
 40
4.0
 40
4.0
 40
4.0
 40
4.0
 10
166.5386650502009
 20
-53.97897196480987
 30
0.0
 10
166.5386650502009
 20
-53.73178797653662
 30
0.0
 10
166.3376895974636
 20
-53.53081251872283
 30
0.0
 10
166.0905056154351
 20
-53.53081251872283
 30
0.0
 10
165.8431633850196
 20
-53.53081251872283
 30
0.0
 10
165.6423517741185
 20
-53.73178797653662
 30
0.0
 10
165.6423517741185
 20
-53.97897196480987
 30
0.0
 10
165.6423517741185
 20
-54.22631420147449
 30
0.0
 10
165.8431633850196
 20
-54.42713141089756
 30
0.0
 10
166.0905056154351
 20
-54.42713141089756
 30
0.0
 10
166.3376895974636
 20
-54.42713141089756
 30
0.0
 10
166.5386650502009
 20
-54.22631420147449
 30
0.0
 10
166.5386650502009
 20
-53.97897196480987
 30
0.0
  0
SPLINE
  5
47
330
41
100
AcDbEntity
  8
TOP
 62
    29
100
AcDbSpline
210
0.0
220
0.0
230
1.0
 70
    11
 71
     3
 72
    17
 73
    13
 74
     0
 42
0.0000000001
 43
0.0000000001
 12
1.0
 22
0.0
 32
0.0
 13
1.0
 23
0.0
 33
0.0
 40
0.0
 40
0.0
 40
0.0
 40
0.0
 40
1.0
 40
1.0
 40
1.0
 40
2.0
 40
2.0
 40
2.0
 40
3.0
 40
3.0
 40
3.0
 40
4.0
 40
4.0
 40
4.0
 40
4.0
 10
148.596621069146
 20
-71.924181366959
 30
0.0
 10
148.596621069146
 20
-71.67683913029504
 30
0.0
 10
148.3958038647956
 20
-71.47602192087163
 30
0.0
 10
148.1484616343782
 20
-71.47602192087163
 30
0.0
 10
147.901277652351
 20
-71.47602192087163
 30
0.0
 10
147.7003021996137
 20
-71.67683913029504
 30
0.0
 10
147.7003021996137
 20
-71.924181366959
 30
0.0
 10
147.7003021996137
 20
-72.17136535523257
 30
0.0
 10
147.901277652351
 20
-72.37234081304669
 30
0.0
 10
148.1484616343782
 20
-72.37234081304669
 30
0.0
 10
148.3958038647956
 20
-72.37234081304669
 30
0.0
 10
148.596621069146
 20
-72.17136535523257
 30
0.0
 10
148.596621069146
 20
-71.924181366959
 30
0.0
  0
SPLINE
  5
48
330
41
100
AcDbEntity
  8
TOP
 62
    29
100
AcDbSpline
210
0.0
220
0.0
230
1.0
 70
    11
 71
     3
 72
    17
 73
    13
 74
     0
 42
0.0000000001
 43
0.0000000001
 12
1.0
 22
0.0
 32
0.0
 13
1.0
 23
0.0
 33
0.0
 40
0.0
 40
0.0
 40
0.0
 40
0.0
 40
1.0
 40
1.0
 40
1.0
 40
2.0
 40
2.0
 40
2.0
 40
3.0
 40
3.0
 40
3.0
 40
4.0
 40
4.0
 40
4.0
 40
4.0
 10
27.4802699396776
 20
-33.26299146748185
 30
0.0
 10
27.4802699396776
 20
-33.01564923081595
 30
0.0
 10
27.27929448186253
 20
-32.8148320213948
 30
0.0
 10
27.03211049358896
 20
-32.8148320213948
 30
0.0
 10
26.78476825692434
 20
-32.8148320213948
 30
0.0
 10
26.58395104750159
 20
-33.01564923081595
 30
0.0
 10
26.58395104750159
 20
-33.26299146748185
 30
0.0
 10
26.58395104750159
 20
-33.51017545575381
 30
0.0
 10
26.78476825692434
 20
-33.71115091356921
 30
0.0
 10
27.03211049358896
 20
-33.71115091356921
 30
0.0
 10
27.27929448186253
 20
-33.71115091356921
 30
0.0
 10
27.4802699396776
 20
-33.51017545575381
 30
0.0
 10
27.4802699396776
 20
-33.26299146748185
 30
0.0
  0
SPLINE
  5
49
330
41
100
AcDbEntity
  8
TOP
 62
    29
100
AcDbSpline
210
0.0
220
0.0
230
1.0
 70
    11
 71
     3
 72
    17
 73
    13
 74
     0
 42
0.0000000001
 43
0.0000000001
 12
1.0
 22
0.0
 32
0.0
 13
1.0
 23
0.0
 33
0.0
 40
0.0
 40
0.0
 40
0.0
 40
0.0
 40
1.0
 40
1.0
 40
1.0
 40
2.0
 40
2.0
 40
2.0
 40
3.0
 40
3.0
 40
3.0
 40
4.0
 40
4.0
 40
4.0
 40
4.0
 10
27.4802699396776
 20
-49.49278830056716
 30
0.0
 10
27.4802699396776
 20
-49.24544606390126
 30
0.0
 10
27.27929448186253
 20
-49.04462885447979
 30
0.0
 10
27.03211049358896
 20
-49.04462885447979
 30
0.0
 10
26.78476825692434
 20
-49.04462885447979
 30
0.0
 10
26.58395104750159
 20
-49.24544606390126
 30
0.0
 10
26.58395104750159
 20
-49.49278830056716
 30
0.0
 10
26.58395104750159
 20
-49.73997228883912
 30
0.0
 10
26.78476825692434
 20
-49.94237198218255
 30
0.0
 10
27.03211049358896
 20
-49.94237198218255
 30
0.0
 10
27.27929448186253
 20
-49.94237198218255
 30
0.0
 10
27.4802699396776
 20
-49.73997228883912
 30
0.0
 10
27.4802699396776
 20
-49.49278830056716
 30
0.0
  0
SPLINE
  5
4A
330
41
100
AcDbEntity
  8
TOP
 62
    29
100
AcDbSpline
210
0.0
220
0.0
230
1.0
 70
    11
 71
     3
 72
    17
 73
    13
 74
     0
 42
0.0000000001
 43
0.0000000001
 12
1.0
 22
0.0
 32
0.0
 13
1.0
 23
0.0
 33
0.0
 40
0.0
 40
0.0
 40
0.0
 40
0.0
 40
1.0
 40
1.0
 40
1.0
 40
2.0
 40
2.0
 40
2.0
 40
3.0
 40
3.0
 40
3.0
 40
4.0
 40
4.0
 40
4.0
 40
4.0
 10
27.4802699396776
 20
-53.97897196480987
 30
0.0
 10
27.4802699396776
 20
-53.73178797653662
 30
0.0
 10
27.27929448186253
 20
-53.53081251872283
 30
0.0
 10
27.03211049358896
 20
-53.53081251872283
 30
0.0
 10
26.78476825692434
 20
-53.53081251872283
 30
0.0
 10
26.58395104750159
 20
-53.73178797653662
 30
0.0
 10
26.58395104750159
 20
-53.97897196480987
 30
0.0
 10
26.58395104750159
 20
-54.22631420147449
 30
0.0
 10
26.78476825692434
 20
-54.42713141089756
 30
0.0
 10
27.03211049358896
 20
-54.42713141089756
 30
0.0
 10
27.27929448186253
 20
-54.42713141089756
 30
0.0
 10
27.4802699396776
 20
-54.22631420147449
 30
0.0
 10
27.4802699396776
 20
-53.97897196480987
 30
0.0
  0
SPLINE
  5
4B
330
41
100
AcDbEntity
  8
TOP
 62
    29
100
AcDbSpline
210
0.0
220
0.0
230
1.0
 70
    11
 71
     3
 72
    17
 73
    13
 74
     0
 42
0.0000000001
 43
0.0000000001
 12
1.0
 22
0.0
 32
0.0
 13
1.0
 23
0.0
 33
0.0
 40
0.0
 40
0.0
 40
0.0
 40
0.0
 40
1.0
 40
1.0
 40
1.0
 40
2.0
 40
2.0
 40
2.0
 40
3.0
 40
3.0
 40
3.0
 40
4.0
 40
4.0
 40
4.0
 40
4.0
 10
45.42373860951405
 20
-71.924181366959
 30
0.0
 10
45.42373860951405
 20
-71.67683913029504
 30
0.0
 10
45.2229214000913
 20
-71.47602192087163
 30
0.0
 10
44.97557916342669
 20
-71.47602192087163
 30
0.0
 10
44.72681269123469
 20
-71.47602192087163
 30
0.0
 10
44.5258372334193
 20
-71.67683913029504
 30
0.0
 10
44.5258372334193
 20
-71.924181366959
 30
0.0
 10
44.5258372334193
 20
-72.17136535523257
 30
0.0
 10
44.72681269123469
 20
-72.37234081304669
 30
0.0
 10
44.97557916342669
 20
-72.37234081304669
 30
0.0
 10
45.2229214000913
 20
-72.37234081304669
 30
0.0
 10
45.42373860951405
 20
-72.17136535523257
 30
0.0
 10
45.42373860951405
 20
-71.924181366959
 30
0.0
  0
SPLINE
  5
4C
330
41
100
AcDbEntity
  8
TOP
 62
    29
100
AcDbSpline
210
0.0
220
0.0
230
1.0
 70
    11
 71
     3
 72
    17
 73
    13
 74
     0
 42
0.0000000001
 43
0.0000000001
 12
1.0
 22
0.0
 32
0.0
 13
1.0
 23
0.0
 33
0.0
 40
0.0
 40
0.0
 40
0.0
 40
0.0
 40
1.0
 40
1.0
 40
1.0
 40
2.0
 40
2.0
 40
2.0
 40
3.0
 40
3.0
 40
3.0
 40
4.0
 40
4.0
 40
4.0
 40
4.0
 10
99.25303688028228
 20
-11.03241561051115
 30
0.0
 10
99.25303688028228
 20
-10.7852316222395
 30
0.0
 10
99.05206142246816
 20
-10.58425616442378
 30
0.0
 10
98.8048774341949
 20
-10.58425616442378
 30
0.0
 10
98.55595271361027
 20
-10.58425616442378
 30
0.0
 10
98.35513550418752
 20
-10.7852316222395
 30
0.0
 10
98.35513550418752
 20
-11.03241561051115
 30
0.0
 10
98.35513550418752
 20
-11.2827645666251
 30
0.0
 10
98.55595271361027
 20
-11.4837400244389
 30
0.0
 10
98.8048774341949
 20
-11.4837400244389
 30
0.0
 10
99.05206142246816
 20
-11.4837400244389
 30
0.0
 10
99.25303688028228
 20
-11.2827645666251
 30
0.0
 10
99.25303688028228
 20
-11.03241561051115
 30
0.0
  0
SPLINE
  5
4D
330
41
100
AcDbEntity
  8
TOP
 62
    29
100
AcDbSpline
210
0.0
220
0.0
230
1.0
 70
    11
 71
     3
 72
    17
 73
    13
 74
     0
 42
0.0000000001
 43
0.0000000001
 12
1.0
 22
0.0
 32
0.0
 13
1.0
 23
0.0
 33
0.0
 40
0.0
 40
0.0
 40
0.0
 40
0.0
 40
1.0
 40
1.0
 40
1.0
 40
2.0
 40
2.0
 40
2.0
 40
3.0
 40
3.0
 40
3.0
 40
4.0
 40
4.0
 40
4.0
 40
4.0
 10
45.42373860951405
 20
-11.03241561051115
 30
0.0
 10
45.42373860951405
 20
-10.7852316222395
 30
0.0
 10
45.2229214000913
 20
-10.58425616442378
 30
0.0
 10
44.97557916342669
 20
-10.58425616442378
 30
0.0
 10
44.72681269123469
 20
-10.58425616442378
 30
0.0
 10
44.5258372334193
 20
-10.7852316222395
 30
0.0
 10
44.5258372334193
 20
-11.03241561051115
 30
0.0
 10
44.5258372334193
 20
-11.2827645666251
 30
0.0
 10
44.72681269123469
 20
-11.4837400244389
 30
0.0
 10
44.97557916342669
 20
-11.4837400244389
 30
0.0
 10
45.2229214000913
 20
-11.4837400244389
 30
0.0
 10
45.42373860951405
 20
-11.2827645666251
 30
0.0
 10
45.42373860951405
 20
-11.03241561051115
 30
0.0
  0
SPLINE
  5
4E
330
41
100
AcDbEntity
  8
TOP
 62
    29
100
AcDbSpline
210
0.0
220
0.0
230
1.0
 70
    11
 71
     3
 72
    17
 73
    13
 74
     0
 42
0.0000000001
 43
0.0000000001
 12
1.0
 22
0.0
 32
0.0
 13
1.0
 23
0.0
 33
0.0
 40
0.0
 40
0.0
 40
0.0
 40
0.0
 40
1.0
 40
1.0
 40
1.0
 40
2.0
 40
2.0
 40
2.0
 40
3.0
 40
3.0
 40
3.0
 40
4.0
 40
4.0
 40
4.0
 40
4.0
 10
148.596621069146
 20
-32.89522220452051
 30
0.0
 10
148.596621069146
 20
-32.64787996785461
 30
0.0
 10
148.3958038647956
 20
-32.44706275843282
 30
0.0
 10
148.1484616343782
 20
-32.44706275843282
 30
0.0
 10
147.901277652351
 20
-32.44706275843282
 30
0.0
 10
147.7003021996137
 20
-32.64787996785461
 30
0.0
 10
147.7003021996137
 20
-32.89522220452051
 30
0.0
 10
147.7003021996137
 20
-33.14240619279216
 30
0.0
 10
147.901277652351
 20
-33.34338165060787
 30
0.0
 10
148.1484616343782
 20
-33.34338165060787
 30
0.0
 10
148.3958038647956
 20
-33.34338165060787
 30
0.0
 10
148.596621069146
 20
-33.14240619279216
 30
0.0
 10
148.596621069146
 20
-32.89522220452051
 30
0.0
  0
SPLINE
  5
4F
330
41
100
AcDbEntity
  8
TOP
 62
    29
100
AcDbSpline
210
0.0
220
0.0
230
1.0
 70
    11
 71
     3
 72
    17
 73
    13
 74
     0
 42
0.0000000001
 43
0.0000000001
 12
1.0
 22
0.0
 32
0.0
 13
1.0
 23
0.0
 33
0.0
 40
0.0
 40
0.0
 40
0.0
 40
0.0
 40
1.0
 40
1.0
 40
1.0
 40
2.0
 40
2.0
 40
2.0
 40
3.0
 40
3.0
 40
3.0
 40
4.0
 40
4.0
 40
4.0
 40
4.0
 10
117.196501180516
 20
-32.89522220452051
 30
0.0
 10
117.196501180516
 20
-32.64787996785461
 30
0.0
 10
116.9956839761662
 20
-32.44706275843282
 30
0.0
 10
116.7483461040326
 20
-32.44706275843282
 30
0.0
 10
116.4995752798413
 20
-32.44706275843282
 30
0.0
 10
116.298599827104
 20
-32.64787996785461
 30
0.0
 10
116.298599827104
 20
-32.89522220452051
 30
0.0
 10
116.298599827104
 20
-33.14240619279216
 30
0.0
 10
116.4995752798413
 20
-33.34338165060787
 30
0.0
 10
116.7483461040326
 20
-33.34338165060787
 30
0.0
 10
116.9956839761662
 20
-33.34338165060787
 30
0.0
 10
117.196501180516
 20
-33.14240619279216
 30
0.0
 10
117.196501180516
 20
-32.89522220452051
 30
0.0
  0
POLYLINE
  5
50
330
41
100
AcDbEntity
  8
TOP
 62
    29
100
AcDb2dPolyline
 66
     1
 10
0.0
 20
0.0
 30
0.0
  0
VERTEX
  5
51
330
50
100
AcDbEntity
  8
TOP
 62
    29
100
AcDbVertex
100
AcDb2dVertex
 10
166.0905056154351
 20
-53.97897196480987
 30
0.0
  0
VERTEX
  5
52
330
50
100
AcDbEntity
  8
TOP
 62
    29
100
AcDbVertex
100
AcDb2dVertex
 10
166.0905056154351
 20
-77.56478705069728
 30
0.0
  0
SEQEND
  5
53
330
50
100
AcDbEntity
  8
TOP
 62
    29
  0
POLYLINE
  5
54
330
41
100
AcDbEntity
  8
TOP
 62
    29
100
AcDb2dPolyline
 66
     1
 10
0.0
 20
0.0
 30
0.0
  0
VERTEX
  5
55
330
54
100
AcDbEntity
  8
TOP
 62
    29
100
AcDbVertex
100
AcDb2dVertex
 10
166.0905056154351
 20
-53.97897196480987
 30
0.0
  0
VERTEX
  5
56
330
54
100
AcDbEntity
  8
TOP
 62
    29
100
AcDbVertex
100
AcDb2dVertex
 10
166.0905056154351
 20
-46.35250721011392
 30
0.0
  0
SEQEND
  5
57
330
54
100
AcDbEntity
  8
TOP
 62
    29
  0
POLYLINE
  5
58
330
41
100
AcDbEntity
  8
TOP
 62
    29
100
AcDb2dPolyline
 66
     1
 10
0.0
 20
0.0
 30
0.0
  0
VERTEX
  5
59
330
58
100
AcDbEntity
  8
TOP
 62
    29
100
AcDbVertex
100
AcDb2dVertex
 10
159.5410795820082
 20
-53.97897196480987
 30
0.0
  0
VERTEX
  5
5A
330
58
100
AcDbEntity
  8
TOP
 62
    29
100
AcDbVertex
100
AcDb2dVertex
 10
170.5782716502279
 20
-53.97897196480987
 30
0.0
  0
SEQEND
  5
5B
330
58
100
AcDbEntity
  8
TOP
 62
    29
  0
POLYLINE
  5
5C
330
41
100
AcDbEntity
  8
TOP
 62
    29
100
AcDb2dPolyline
 66
     1
 10
0.0
 20
0.0
 30
0.0
  0
VERTEX
  5
5D
330
5C
100
AcDbEntity
  8
TOP
 62
    29
100
AcDbVertex
100
AcDb2dVertex
 10
158.4005834498183
 20
-50.83869087435696
 30
0.0
  0
VERTEX
  5
5E
330
5C
100
AcDbEntity
  8
TOP
 62
    29
100
AcDbVertex
100
AcDb2dVertex
 10
170.5782716502279
 20
-50.83869087435696
 30
0.0
  0
SEQEND
  5
5F
330
5C
100
AcDbEntity
  8
TOP
 62
    29
  0
MTEXT
  5
60
330
41
100
AcDbEntity
  8
TOP
 62
    29
100
AcDbMText
 10
157.3512868806754
 20
-61.07189668612092
 30
0.0
 40
6.722391455622767
 41
0.0
 71
     7
 72
     1
  1
\fA-OTF Futo Go B101 Pro|b1|i0|c0|p34;\W1.06875;0.7
 11
6.123233995736766E-17
 21
1.0
 31
0.0
  0
POLYLINE
  5
61
330
41
100
AcDbEntity
  8
TOP
 62
    29
100
AcDb2dPolyline
 66
     1
 10
0.0
 20
0.0
 30
0.0
  0
VERTEX
  5
62
330
61
100
AcDbEntity
  8
TOP
 62
    29
100
AcDbVertex
100
AcDb2dVertex
 10
44.97557916342669
 20
-71.924181366959
 30
0.0
  0
VERTEX
  5
63
330
61
100
AcDbEntity
  8
TOP
 62
    29
100
AcDbVertex
100
AcDb2dVertex
 10
148.1484616343782
 20
-71.924181366959
 30
0.0
  0
SEQEND
  5
64
330
61
100
AcDbEntity
  8
TOP
 62
    29
  0
POLYLINE
  5
65
330
41
100
AcDbEntity
  8
TOP
 62
    29
100
AcDb2dPolyline
 66
     1
 10
0.0
 20
0.0
 30
0.0
  0
VERTEX
  5
66
330
65
100
AcDbEntity
  8
TOP
 62
    29
100
AcDbVertex
100
AcDb2dVertex
 10
44.97557916342669
 20
-65.37475516807903
 30
0.0
  0
VERTEX
  5
67
330
65
100
AcDbEntity
  8
TOP
 62
    29
100
AcDbVertex
100
AcDb2dVertex
 10
44.97557916342669
 20
-76.40878254728202
 30
0.0
  0
SEQEND
  5
68
330
65
100
AcDbEntity
  8
TOP
 62
    29
  0
POLYLINE
  5
69
330
41
100
AcDbEntity
  8
TOP
 62
    29
100
AcDb2dPolyline
 66
     1
 10
0.0
 20
0.0
 30
0.0
  0
VERTEX
  5
6A
330
69
100
AcDbEntity
  8
TOP
 62
    29
100
AcDbVertex
100
AcDb2dVertex
 10
148.1484616343782
 20
-65.37475516807903
 30
0.0
  0
VERTEX
  5
6B
330
69
100
AcDbEntity
  8
TOP
 62
    29
100
AcDbVertex
100
AcDb2dVertex
 10
148.1484616343782
 20
-76.40878254728202
 30
0.0
  0
SEQEND
  5
6C
330
69
100
AcDbEntity
  8
TOP
 62
    29
  0
MTEXT
  5
6D
330
41
100
AcDbEntity
  8
TOP
 62
    29
100
AcDbMText
 10
90.94362630699955
 20
-69.24573023442468
 30
0.0
 40
6.722391455622767
 41
0.0
 71
     7
 72
     1
  1
\fA-OTF Futo Go B101 Pro|b1|i0|c0|p34;\W1.06875;23
  0
POLYLINE
  5
6E
330
41
100
AcDbEntity
  8
TOP
 62
    29
100
AcDb2dPolyline
 66
     1
 10
0.0
 20
0.0
 30
0.0
  0
VERTEX
  5
6F
330
6E
100
AcDbEntity
  8
TOP
 62
    29
100
AcDbVertex
100
AcDb2dVertex
 10
98.8048774341949
 20
-11.03241561051115
 30
0.0
  0
VERTEX
  5
70
330
6E
100
AcDbEntity
  8
TOP
 62
    29
100
AcDbVertex
100
AcDb2dVertex
 10
44.97557916342669
 20
-11.03241561051115
 30
0.0
  0
SEQEND
  5
71
330
6E
100
AcDbEntity
  8
TOP
 62
    29
  0
POLYLINE
  5
72
330
41
100
AcDbEntity
  8
TOP
 62
    29
100
AcDb2dPolyline
 66
     1
 10
0.0
 20
0.0
 30
0.0
  0
VERTEX
  5
73
330
72
100
AcDbEntity
  8
TOP
 62
    29
100
AcDbVertex
100
AcDb2dVertex
 10
98.8048774341949
 20
-22.06818372202713
 30
0.0
  0
VERTEX
  5
74
330
72
100
AcDbEntity
  8
TOP
 62
    29
100
AcDbVertex
100
AcDb2dVertex
 10
98.8048774341949
 20
-6.547814430188462
 30
0.0
  0
SEQEND
  5
75
330
72
100
AcDbEntity
  8
TOP
 62
    29
  0
POLYLINE
  5
76
330
41
100
AcDbEntity
  8
TOP
 62
    29
100
AcDb2dPolyline
 66
     1
 10
0.0
 20
0.0
 30
0.0
  0
VERTEX
  5
77
330
76
100
AcDbEntity
  8
TOP
 62
    29
100
AcDbVertex
100
AcDb2dVertex
 10
44.97557916342669
 20
-22.06818372202713
 30
0.0
  0
VERTEX
  5
78
330
76
100
AcDbEntity
  8
TOP
 62
    29
100
AcDbVertex
100
AcDb2dVertex
 10
44.97557916342669
 20
-6.547814430188462
 30
0.0
  0
SEQEND
  5
79
330
76
100
AcDbEntity
  8
TOP
 62
    29
  0
MTEXT
  5
7A
330
41
100
AcDbEntity
  8
TOP
 62
    29
100
AcDbMText
 10
66.27295302757693
 20
-8.355734589924955
 30
0.0
 40
6.722391455622767
 41
0.0
 71
     7
 72
     1
  1
\fA-OTF Futo Go B101 Pro|b1|i0|c0|p34;\W1.06875;12
  0
POLYLINE
  5
7B
330
41
100
AcDbEntity
  8
TOP
 62
    29
100
AcDb2dPolyline
 66
     1
 10
0.0
 20
0.0
 30
0.0
  0
VERTEX
  5
7C
330
7B
100
AcDbEntity
  8
TOP
 62
    29
100
AcDbVertex
100
AcDb2dVertex
 10
27.03211049358896
 20
-33.79154109669492
 30
0.0
  0
VERTEX
  5
7D
330
7B
100
AcDbEntity
  8
TOP
 62
    29
100
AcDbVertex
100
AcDb2dVertex
 10
27.03211049358896
 20
-49.49278830056716
 30
0.0
  0
SEQEND
  5
7E
330
7B
100
AcDbEntity
  8
TOP
 62
    29
  0
POLYLINE
  5
7F
330
41
100
AcDbEntity
  8
TOP
 62
    29
100
AcDb2dPolyline
 66
     1
 10
0.0
 20
0.0
 30
0.0
  0
VERTEX
  5
80
330
7F
100
AcDbEntity
  8
TOP
 62
    29
100
AcDbVertex
100
AcDb2dVertex
 10
33.58137844407693
 20
-33.26299146748185
 30
0.0
  0
VERTEX
  5
81
330
7F
100
AcDbEntity
  8
TOP
 62
    29
100
AcDbVertex
100
AcDb2dVertex
 10
22.54735106487362
 20
-33.26299146748185
 30
0.0
  0
SEQEND
  5
82
330
7F
100
AcDbEntity
  8
TOP
 62
    29
  0
POLYLINE
  5
83
330
41
100
AcDbEntity
  8
TOP
 62
    29
100
AcDb2dPolyline
 66
     1
 10
0.0
 20
0.0
 30
0.0
  0
VERTEX
  5
84
330
83
100
AcDbEntity
  8
TOP
 62
    29
100
AcDbVertex
100
AcDb2dVertex
 10
35.21339411056825
 20
-49.49278830056716
 30
0.0
  0
VERTEX
  5
85
330
83
100
AcDbEntity
  8
TOP
 62
    29
100
AcDbVertex
100
AcDb2dVertex
 10
22.54735106487362
 20
-49.49278830056716
 30
0.0
  0
SEQEND
  5
86
330
83
100
AcDbEntity
  8
TOP
 62
    29
  0
MTEXT
  5
87
330
41
100
AcDbEntity
  8
TOP
 62
    29
100
AcDbMText
 10
24.35647625854216
 20
-48.60134004861356
 30
0.0
 40
6.722391455622767
 41
0.0
 71
     7
 72
     1
  1
\fA-OTF Futo Go B101 Pro|b1|i0|c0|p34;\W1.06875;3.5
 11
6.123233995736766E-17
 21
1.0
 31
0.0
  0
POLYLINE
  5
88
330
41
100
AcDbEntity
  8
TOP
 62
    29
100
AcDb2dPolyline
 66
     1
 10
0.0
 20
0.0
 30
0.0
  0
VERTEX
  5
89
330
88
100
AcDbEntity
  8
TOP
 62
    29
100
AcDbVertex
100
AcDb2dVertex
 10
27.03211049358896
 20
-53.97897196480987
 30
0.0
  0
VERTEX
  5
8A
330
88
100
AcDbEntity
  8
TOP
 62
    29
100
AcDbVertex
100
AcDb2dVertex
 10
27.03211049358896
 20
-70.89176885768116
 30
0.0
  0
SEQEND
  5
8B
330
88
100
AcDbEntity
  8
TOP
 62
    29
  0
POLYLINE
  5
8C
330
41
100
AcDbEntity
  8
TOP
 62
    29
100
AcDb2dPolyline
 66
     1
 10
0.0
 20
0.0
 30
0.0
  0
VERTEX
  5
8D
330
8C
100
AcDbEntity
  8
TOP
 62
    29
100
AcDbVertex
100
AcDb2dVertex
 10
27.03211049358896
 20
-49.49278830056716
 30
0.0
  0
VERTEX
  5
8E
330
8C
100
AcDbEntity
  8
TOP
 62
    29
100
AcDbVertex
100
AcDb2dVertex
 10
27.03211049358896
 20
-53.97897196480987
 30
0.0
  0
SEQEND
  5
8F
330
8C
100
AcDbEntity
  8
TOP
 62
    29
  0
POLYLINE
  5
90
330
41
100
AcDbEntity
  8
TOP
 62
    29
100
AcDb2dPolyline
 66
     1
 10
0.0
 20
0.0
 30
0.0
  0
VERTEX
  5
91
330
90
100
AcDbEntity
  8
TOP
 62
    29
100
AcDbVertex
100
AcDb2dVertex
 10
33.58137844407693
 20
-53.97897196480987
 30
0.0
  0
VERTEX
  5
92
330
90
100
AcDbEntity
  8
TOP
 62
    29
100
AcDbVertex
100
AcDb2dVertex
 10
22.54735106487362
 20
-53.97897196480987
 30
0.0
  0
SEQEND
  5
93
330
90
100
AcDbEntity
  8
TOP
 62
    29
  0
MTEXT
  5
94
330
41
100
AcDbEntity
  8
TOP
 62
    29
100
AcDbMText
 10
24.35682076809069
 20
-70.06635197901119
 30
0.0
 40
6.722391455622767
 41
0.0
 71
     7
 72
     1
  1
\fA-OTF Futo Go B101 Pro|b1|i0|c0|p34;\W1.06875;1
 11
6.123233995736766E-17
 21
1.0
 31
0.0
  0
POLYLINE
  5
95
330
41
100
AcDbEntity
  8
TOP
 62
    29
100
AcDb2dPolyline
 66
     1
 10
0.0
 20
0.0
 30
0.0
  0
VERTEX
  5
96
330
95
100
AcDbEntity
  8
TOP
 62
    29
100
AcDbVertex
100
AcDb2dVertex
 10
116.7483461040326
 20
-32.89522220452051
 30
0.0
  0
VERTEX
  5
97
330
95
100
AcDbEntity
  8
TOP
 62
    29
100
AcDbVertex
100
AcDb2dVertex
 10
148.1484616343782
 20
-32.89522220452051
 30
0.0
  0
SEQEND
  5
98
330
95
100
AcDbEntity
  8
TOP
 62
    29
  0
POLYLINE
  5
99
330
41
100
AcDbEntity
  8
TOP
 62
    29
100
AcDb2dPolyline
 66
     1
 10
0.0
 20
0.0
 30
0.0
  0
VERTEX
  5
9A
330
99
100
AcDbEntity
  8
TOP
 62
    29
100
AcDbVertex
100
AcDb2dVertex
 10
116.7483461040326
 20
-38.10001181674446
 30
0.0
  0
VERTEX
  5
9B
330
99
100
AcDbEntity
  8
TOP
 62
    29
100
AcDbVertex
100
AcDb2dVertex
 10
116.7483461040326
 20
-28.41046277580486
 30
0.0
  0
SEQEND
  5
9C
330
99
100
AcDbEntity
  8
TOP
 62
    29
  0
POLYLINE
  5
9D
330
41
100
AcDbEntity
  8
TOP
 62
    29
100
AcDb2dPolyline
 66
     1
 10
0.0
 20
0.0
 30
0.0
  0
VERTEX
  5
9E
330
9D
100
AcDbEntity
  8
TOP
 62
    29
100
AcDbVertex
100
AcDb2dVertex
 10
148.1484616343782
 20
-42.5847712454601
 30
0.0
  0
VERTEX
  5
9F
330
9D
100
AcDbEntity
  8
TOP
 62
    29
100
AcDbVertex
100
AcDb2dVertex
 10
148.1484616343782
 20
-28.41046277580486
 30
0.0
  0
SEQEND
  5
A0
330
9D
100
AcDbEntity
  8
TOP
 62
    29
  0
MTEXT
  5
A1
330
41
100
AcDbEntity
  8
TOP
 62
    29
100
AcDbMText
 10
129.8208398389469
 20
-30.22141112525715
 30
0.0
 40
6.722391455622767
 41
0.0
 71
     7
 72
     1
  1
\fA-OTF Futo Go B101 Pro|b1|i0|c0|p34;\W1.06875;7
  0
SPLINE
  5
A2
330
41
100
AcDbEntity
  8
TOP
 62
    26
100
AcDbSpline
210
0.0
220
0.0
230
1.0
 70
    11
 71
     3
 72
    74
 73
    70
 74
     0
 42
0.0000000001
 43
0.0000000001
 12
1.0
 22
0.0
 32
0.0
 13
1.0
 23
0.0
 33
0.0
 40
0.0
 40
0.0
 40
0.0
 40
0.0
 40
1.0
 40
1.0
 40
1.0
 40
2.0
 40
2.0
 40
2.0
 40
3.0
 40
3.0
 40
3.0
 40
4.0
 40
4.0
 40
4.0
 40
5.0
 40
5.0
 40
5.0
 40
6.0
 40
6.0
 40
6.0
 40
7.0
 40
7.0
 40
7.0
 40
8.0
 40
8.0
 40
8.0
 40
9.0
 40
9.0
 40
9.0
 40
10.0
 40
10.0
 40
10.0
 40
11.0
 40
11.0
 40
11.0
 40
12.0
 40
12.0
 40
12.0
 40
13.0
 40
13.0
 40
13.0
 40
14.0
 40
14.0
 40
14.0
 40
15.0
 40
15.0
 40
15.0
 40
16.0
 40
16.0
 40
16.0
 40
17.0
 40
17.0
 40
17.0
 40
18.0
 40
18.0
 40
18.0
 40
19.0
 40
19.0
 40
19.0
 40
20.0
 40
20.0
 40
20.0
 40
21.0
 40
21.0
 40
21.0
 40
22.0
 40
22.0
 40
22.0
 40
23.0
 40
23.0
 40
23.0
 40
23.0
 10
47.02473759117663
 20
-50.08621977049253
 30
0.0
 10
47.02473759117663
 20
-50.08621977049253
 30
0.0
 10
69.6477694602573
 20
-50.08621977049253
 30
0.0
 10
69.6477694602573
 20
-50.08621977049253
 30
0.0
 10
69.97550188004729
 20
-50.08621977049253
 30
0.0
 10
70.24120093018267
 20
-49.82036247196483
 30
0.0
 10
70.24120093018267
 20
-49.49278830056716
 30
0.0
 10
70.24120093018267
 20
-49.49278830056716
 30
0.0
 10
70.24120093018267
 20
-33.79154109669492
 30
0.0
 10
70.24120093018267
 20
-33.79154109669492
 30
0.0
 10
70.24120093018267
 20
-33.73283094327107
 30
0.0
 10
70.22347711028056
 20
-33.68029247713245
 30
0.0
 10
70.20812701625786
 20
-33.62617152707541
 30
0.0
 10
70.22347711028056
 20
-33.57205057701805
 30
0.0
 10
70.24120093018267
 20
-33.51951211088071
 30
0.0
 10
70.24120093018267
 20
-33.46080195745686
 30
0.0
 10
70.24120093018267
 20
-33.1332277860579
 30
0.0
 10
69.97550188004729
 20
-32.86737048753149
 30
0.0
 10
69.6477694602573
 20
-32.86737048753149
 30
0.0
 10
69.6477694602573
 20
-32.86737048753149
 30
0.0
 10
45.82331579926481
 20
-32.86737048753149
 30
0.0
 10
45.82331579926481
 20
-32.86737048753149
 30
0.0
 10
45.82331579926481
 20
-32.86737048753149
 30
0.0
 10
47.02473759117663
 20
-29.56947399866722
 30
0.0
 10
47.02473759117663
 20
-29.56947399866722
 30
0.0
 10
47.02473759117663
 20
-29.56947399866722
 30
0.0
 10
96.75556075805265
 20
-29.56947399866722
 30
0.0
 10
96.75556075805265
 20
-29.56947399866722
 30
0.0
 10
96.75556075805265
 20
-29.56947399866722
 30
0.0
 10
97.95714079835712
 20
-32.86737048753149
 30
0.0
 10
97.95714079835712
 20
-32.86737048753149
 30
0.0
 10
97.95714079835712
 20
-32.86737048753149
 30
0.0
 10
74.1325288889723
 20
-32.86737048753149
 30
0.0
 10
74.1325288889723
 20
-32.86737048753149
 30
0.0
 10
73.8049547175743
 20
-32.86737048753149
 30
0.0
 10
73.53909741904694
 20
-33.1332277860579
 30
0.0
 10
73.53909741904694
 20
-33.46080195745686
 30
0.0
 10
73.53909741904694
 20
-33.51951211088071
 30
0.0
 10
73.55697948734073
 20
-33.57205057701805
 30
0.0
 10
73.57232958136245
 20
-33.62617152707541
 30
0.0
 10
73.55697948734073
 20
-33.68029247713245
 30
0.0
 10
73.53909741904694
 20
-33.73283094327107
 30
0.0
 10
73.53909741904694
 20
-33.79154109669492
 30
0.0
 10
73.53909741904694
 20
-33.79154109669492
 30
0.0
 10
73.53909741904694
 20
-49.49278830056716
 30
0.0
 10
73.53909741904694
 20
-49.49278830056716
 30
0.0
 10
73.53909741904694
 20
-49.82036247196483
 30
0.0
 10
73.8049547175743
 20
-50.08621977049253
 30
0.0
 10
74.1325288889723
 20
-50.08621977049253
 30
0.0
 10
74.1325288889723
 20
-50.08621977049253
 30
0.0
 10
116.5033732411531
 20
-50.08621977049253
 30
0.0
 10
116.5033732411531
 20
-50.08621977049253
 30
0.0
 10
116.5033732411531
 20
-50.08621977049253
 30
0.0
 10
117.6717210896271
 20
-51.25599188400886
 30
0.0
 10
117.6717210896271
 20
-51.25599188400886
 30
0.0
 10
117.7791717450674
 20
-51.36423378412358
 30
0.0
 10
117.9282417265464
 20
-51.43212234428233
 30
0.0
 10
118.0928200500483
 20
-51.43212234428233
 30
0.0
 10
118.0928200500483
 20
-51.43212234428233
 30
0.0
 10
146.5892453797163
 20
-51.43212234428233
 30
0.0
 10
146.5892453797163
 20
-51.43212234428233
 30
0.0
 10
146.5892453797163
 20
-51.43212234428233
 30
0.0
 10
147.3008832683456
 20
-53.3855404948845
 30
0.0
 10
147.3008832683456
 20
-53.3855404948845
 30
0.0
 10
147.3008832683456
 20
-53.3855404948845
 30
0.0
 10
45.82331579926481
 20
-53.3855404948845
 30
0.0
 10
45.82331579926481
 20
-53.3855404948845
 30
0.0
 10
45.82331579926481
 20
-53.3855404948845
 30
0.0
 10
47.02473759117663
 20
-50.08621977049253
 30
0.0
 10
47.02473759117663
 20
-50.08621977049253
 30
0.0
  0
HATCH
  5
A3
330
41
100
AcDbEntity
  8
TOP
 62
    26
100
AcDbHatch
 10
0.0
 20
0.0
 30
0.0
210
0.0
220
0.0
230
1.0
  2
SOLID
 70
     1
 71
     0
 91
        1
 92
        1
 93
        1
 72
     4
 94
        3
 73
     0
 74
     1
 95
       74
 96
       70
 40
0.0
 40
0.0
 40
0.0
 40
0.0
 40
1.0
 40
1.0
 40
1.0
 40
2.0
 40
2.0
 40
2.0
 40
3.0
 40
3.0
 40
3.0
 40
4.0
 40
4.0
 40
4.0
 40
5.0
 40
5.0
 40
5.0
 40
6.0
 40
6.0
 40
6.0
 40
7.0
 40
7.0
 40
7.0
 40
8.0
 40
8.0
 40
8.0
 40
9.0
 40
9.0
 40
9.0
 40
10.0
 40
10.0
 40
10.0
 40
11.0
 40
11.0
 40
11.0
 40
12.0
 40
12.0
 40
12.0
 40
13.0
 40
13.0
 40
13.0
 40
14.0
 40
14.0
 40
14.0
 40
15.0
 40
15.0
 40
15.0
 40
16.0
 40
16.0
 40
16.0
 40
17.0
 40
17.0
 40
17.0
 40
18.0
 40
18.0
 40
18.0
 40
19.0
 40
19.0
 40
19.0
 40
20.0
 40
20.0
 40
20.0
 40
21.0
 40
21.0
 40
21.0
 40
22.0
 40
22.0
 40
22.0
 40
23.0
 40
23.0
 40
23.0
 40
23.0
 10
47.02473759117663
 20
-50.08621977049253
 10
47.02473759117663
 20
-50.08621977049253
 10
69.6477694602573
 20
-50.08621977049253
 10
69.6477694602573
 20
-50.08621977049253
 10
69.97550188004729
 20
-50.08621977049253
 10
70.24120093018267
 20
-49.82036247196483
 10
70.24120093018267
 20
-49.49278830056716
 10
70.24120093018267
 20
-49.49278830056716
 10
70.24120093018267
 20
-33.79154109669492
 10
70.24120093018267
 20
-33.79154109669492
 10
70.24120093018267
 20
-33.73283094327107
 10
70.22347711028056
 20
-33.68029247713245
 10
70.20812701625786
 20
-33.62617152707541
 10
70.22347711028056
 20
-33.57205057701805
 10
70.24120093018267
 20
-33.51951211088071
 10
70.24120093018267
 20
-33.46080195745686
 10
70.24120093018267
 20
-33.1332277860579
 10
69.97550188004729
 20
-32.86737048753149
 10
69.6477694602573
 20
-32.86737048753149
 10
69.6477694602573
 20
-32.86737048753149
 10
45.82331579926481
 20
-32.86737048753149
 10
45.82331579926481
 20
-32.86737048753149
 10
45.82331579926481
 20
-32.86737048753149
 10
47.02473759117663
 20
-29.56947399866722
 10
47.02473759117663
 20
-29.56947399866722
 10
47.02473759117663
 20
-29.56947399866722
 10
96.75556075805265
 20
-29.56947399866722
 10
96.75556075805265
 20
-29.56947399866722
 10
96.75556075805265
 20
-29.56947399866722
 10
97.95714079835712
 20
-32.86737048753149
 10
97.95714079835712
 20
-32.86737048753149
 10
97.95714079835712
 20
-32.86737048753149
 10
74.1325288889723
 20
-32.86737048753149
 10
74.1325288889723
 20
-32.86737048753149
 10
73.8049547175743
 20
-32.86737048753149
 10
73.53909741904694
 20
-33.1332277860579
 10
73.53909741904694
 20
-33.46080195745686
 10
73.53909741904694
 20
-33.51951211088071
 10
73.55697948734073
 20
-33.57205057701805
 10
73.57232958136245
 20
-33.62617152707541
 10
73.55697948734073
 20
-33.68029247713245
 10
73.53909741904694
 20
-33.73283094327107
 10
73.53909741904694
 20
-33.79154109669492
 10
73.53909741904694
 20
-33.79154109669492
 10
73.53909741904694
 20
-49.49278830056716
 10
73.53909741904694
 20
-49.49278830056716
 10
73.53909741904694
 20
-49.82036247196483
 10
73.8049547175743
 20
-50.08621977049253
 10
74.1325288889723
 20
-50.08621977049253
 10
74.1325288889723
 20
-50.08621977049253
 10
116.5033732411531
 20
-50.08621977049253
 10
116.5033732411531
 20
-50.08621977049253
 10
116.5033732411531
 20
-50.08621977049253
 10
117.6717210896271
 20
-51.25599188400886
 10
117.6717210896271
 20
-51.25599188400886
 10
117.7791717450674
 20
-51.36423378412358
 10
117.9282417265464
 20
-51.43212234428233
 10
118.0928200500483
 20
-51.43212234428233
 10
118.0928200500483
 20
-51.43212234428233
 10
146.5892453797163
 20
-51.43212234428233
 10
146.5892453797163
 20
-51.43212234428233
 10
146.5892453797163
 20
-51.43212234428233
 10
147.3008832683456
 20
-53.3855404948845
 10
147.3008832683456
 20
-53.3855404948845
 10
147.3008832683456
 20
-53.3855404948845
 10
45.82331579926481
 20
-53.3855404948845
 10
45.82331579926481
 20
-53.3855404948845
 10
45.82331579926481
 20
-53.3855404948845
 10
47.02473759117663
 20
-50.08621977049253
 10
47.02473759117663
 20
-50.08621977049253
 97
        0
 75
     2
 76
     1
 98
        0
  0
POLYLINE
  5
A4
330
41
100
AcDbEntity
  8
TOP
 62
    29
100
AcDb2dPolyline
 66
     1
 10
0.0
 20
0.0
 30
0.0
  0
VERTEX
  5
A5
330
A4
100
AcDbEntity
  8
TOP
 62
    29
100
AcDbVertex
100
AcDb2dVertex
 10
46.60917731383709
 20
-49.49278830056716
 30
0.0
  0
VERTEX
  5
A6
330
A4
100
AcDbEntity
  8
TOP
 62
    29
100
AcDbVertex
100
AcDb2dVertex
 10
69.6477694602573
 20
-49.49278830056716
 30
0.0
  0
SEQEND
  5
A7
330
A4
100
AcDbEntity
  8
TOP
 62
    29
  0
POLYLINE
  5
A8
330
41
100
AcDbEntity
  8
TOP
 62
    29
100
AcDb2dPolyline
 66
     1
 10
0.0
 20
0.0
 30
0.0
  0
VERTEX
  5
A9
330
A8
100
AcDbEntity
  8
TOP
 62
    29
100
AcDbVertex
100
AcDb2dVertex
 10
44.97557916342669
 20
-33.46080195745686
 30
0.0
  0
VERTEX
  5
AA
330
A8
100
AcDbEntity
  8
TOP
 62
    29
100
AcDbVertex
100
AcDb2dVertex
 10
69.6477694602573
 20
-33.46080195745686
 30
0.0
  0
SEQEND
  5
AB
330
A8
100
AcDbEntity
  8
TOP
 62
    29
  0
POLYLINE
  5
AC
330
41
100
AcDbEntity
  8
TOP
 62
    29
100
AcDb2dPolyline
 66
     1
 10
0.0
 20
0.0
 30
0.0
  0
VERTEX
  5
AD
330
AC
100
AcDbEntity
  8
TOP
 62
    29
100
AcDbVertex
100
AcDb2dVertex
 10
46.60917731383709
 20
-28.97604252874185
 30
0.0
  0
VERTEX
  5
AE
330
AC
100
AcDbEntity
  8
TOP
 62
    29
100
AcDbVertex
100
AcDb2dVertex
 10
97.17127928378483
 20
-28.97604252874185
 30
0.0
  0
SEQEND
  5
AF
330
AC
100
AcDbEntity
  8
TOP
 62
    29
  0
POLYLINE
  5
B0
330
41
100
AcDbEntity
  8
TOP
 62
    29
100
AcDb2dPolyline
 66
     1
 10
0.0
 20
0.0
 30
0.0
  0
VERTEX
  5
B1
330
B0
100
AcDbEntity
  8
TOP
 62
    29
100
AcDbVertex
100
AcDb2dVertex
 10
44.97557916342669
 20
-53.97897196480987
 30
0.0
  0
VERTEX
  5
B2
330
B0
100
AcDbEntity
  8
TOP
 62
    29
100
AcDbVertex
100
AcDb2dVertex
 10
148.1484616343782
 20
-53.97897196480987
 30
0.0
  0
SEQEND
  5
B3
330
B0
100
AcDbEntity
  8
TOP
 62
    29
  0
POLYLINE
  5
B4
330
41
100
AcDbEntity
  8
TOP
 62
    29
100
AcDb2dPolyline
 66
     1
 10
0.0
 20
0.0
 30
0.0
  0
VERTEX
  5
B5
330
B4
100
AcDbEntity
  8
TOP
 62
    29
100
AcDbVertex
100
AcDb2dVertex
 10
118.0928200500483
 20
-50.83869087435696
 30
0.0
  0
VERTEX
  5
B6
330
B4
100
AcDbEntity
  8
TOP
 62
    29
100
AcDbVertex
100
AcDb2dVertex
 10
147.0048005344311
 20
-50.83869087435696
 30
0.0
  0
SEQEND
  5
B7
330
B4
100
AcDbEntity
  8
TOP
 62
    29
  0
POLYLINE
  5
B8
330
41
100
AcDbEntity
  8
TOP
 62
    29
100
AcDb2dPolyline
 66
     1
 10
0.0
 20
0.0
 30
0.0
  0
VERTEX
  5
B9
330
B8
100
AcDbEntity
  8
TOP
 62
    29
100
AcDbVertex
100
AcDb2dVertex
 10
97.17127928378483
 20
-28.97604252874185
 30
0.0
  0
VERTEX
  5
BA
330
B8
100
AcDbEntity
  8
TOP
 62
    29
100
AcDbVertex
100
AcDb2dVertex
 10
98.8048774341949
 20
-33.46080195745686
 30
0.0
  0
SEQEND
  5
BB
330
B8
100
AcDbEntity
  8
TOP
 62
    29
  0
POLYLINE
  5
BC
330
41
100
AcDbEntity
  8
TOP
 62
    29
100
AcDb2dPolyline
 66
     1
 10
0.0
 20
0.0
 30
0.0
  0
VERTEX
  5
BD
330
BC
100
AcDbEntity
  8
TOP
 62
    29
100
AcDbVertex
100
AcDb2dVertex
 10
147.0048005344311
 20
-50.83869087435696
 30
0.0
  0
VERTEX
  5
BE
330
BC
100
AcDbEntity
  8
TOP
 62
    29
100
AcDbVertex
100
AcDb2dVertex
 10
148.1484616343782
 20
-53.97897196480987
 30
0.0
  0
SEQEND
  5
BF
330
BC
100
AcDbEntity
  8
TOP
 62
    29
  0
POLYLINE
  5
C0
330
41
100
AcDbEntity
  8
TOP
 62
    29
100
AcDb2dPolyline
 66
     1
 10
0.0
 20
0.0
 30
0.0
  0
VERTEX
  5
C1
330
C0
100
AcDbEntity
  8
TOP
 62
    29
100
AcDbVertex
100
AcDb2dVertex
 10
116.7483461040326
 20
-49.49278830056716
 30
0.0
  0
VERTEX
  5
C2
330
C0
100
AcDbEntity
  8
TOP
 62
    29
100
AcDbVertex
100
AcDb2dVertex
 10
118.0928200500483
 20
-50.83869087435696
 30
0.0
  0
SEQEND
  5
C3
330
C0
100
AcDbEntity
  8
TOP
 62
    29
  0
POLYLINE
  5
C4
330
41
100
AcDbEntity
  8
TOP
 62
    29
100
AcDb2dPolyline
 66
     1
 10
0.0
 20
0.0
 30
0.0
  0
VERTEX
  5
C5
330
C4
100
AcDbEntity
  8
TOP
 62
    29
100
AcDbVertex
100
AcDb2dVertex
 10
44.97557916342669
 20
-33.46080195745686
 30
0.0
  0
VERTEX
  5
C6
330
C4
100
AcDbEntity
  8
TOP
 62
    29
100
AcDbVertex
100
AcDb2dVertex
 10
46.60917731383709
 20
-28.97604252874185
 30
0.0
  0
SEQEND
  5
C7
330
C4
100
AcDbEntity
  8
TOP
 62
    29
  0
POLYLINE
  5
C8
330
41
100
AcDbEntity
  8
TOP
 62
    29
100
AcDb2dPolyline
 66
     1
 10
0.0
 20
0.0
 30
0.0
  0
VERTEX
  5
C9
330
C8
100
AcDbEntity
  8
TOP
 62
    29
100
AcDbVertex
100
AcDb2dVertex
 10
44.97557916342669
 20
-53.97897196480987
 30
0.0
  0
VERTEX
  5
CA
330
C8
100
AcDbEntity
  8
TOP
 62
    29
100
AcDbVertex
100
AcDb2dVertex
 10
46.60917731383709
 20
-49.49278830056716
 30
0.0
  0
SEQEND
  5
CB
330
C8
100
AcDbEntity
  8
TOP
 62
    29
  0
POLYLINE
  5
CC
330
41
100
AcDbEntity
  8
TOP
 62
    29
100
AcDb2dPolyline
 66
     1
 10
0.0
 20
0.0
 30
0.0
  0
VERTEX
  5
CD
330
CC
100
AcDbEntity
  8
TOP
 62
    29
100
AcDbVertex
100
AcDb2dVertex
 10
69.6477694602573
 20
-33.79154109669492
 30
0.0
  0
VERTEX
  5
CE
330
CC
100
AcDbEntity
  8
TOP
 62
    29
100
AcDbVertex
100
AcDb2dVertex
 10
69.6477694602573
 20
-49.49278830056716
 30
0.0
  0
SEQEND
  5
CF
330
CC
100
AcDbEntity
  8
TOP
 62
    29
  0
POLYLINE
  5
D0
330
41
100
AcDbEntity
  8
TOP
 62
    29
100
AcDb2dPolyline
 66
     1
 10
0.0
 20
0.0
 30
0.0
  0
VERTEX
  5
D1
330
D0
100
AcDbEntity
  8
TOP
 62
    29
100
AcDbVertex
100
AcDb2dVertex
 10
74.1325288889723
 20
-33.79154109669492
 30
0.0
  0
VERTEX
  5
D2
330
D0
100
AcDbEntity
  8
TOP
 62
    29
100
AcDbVertex
100
AcDb2dVertex
 10
74.1325288889723
 20
-49.49278830056716
 30
0.0
  0
SEQEND
  5
D3
330
D0
100
AcDbEntity
  8
TOP
 62
    29
  0
POLYLINE
  5
D4
330
41
100
AcDbEntity
  8
TOP
 62
    29
100
AcDb2dPolyline
 66
     1
 10
0.0
 20
0.0
 30
0.0
  0
VERTEX
  5
D5
330
D4
100
AcDbEntity
  8
TOP
 62
    29
100
AcDbVertex
100
AcDb2dVertex
 10
74.1325288889723
 20
-33.46080195745686
 30
0.0
  0
VERTEX
  5
D6
330
D4
100
AcDbEntity
  8
TOP
 62
    29
100
AcDbVertex
100
AcDb2dVertex
 10
98.8048774341949
 20
-33.46080195745686
 30
0.0
  0
SEQEND
  5
D7
330
D4
100
AcDbEntity
  8
TOP
 62
    29
  0
POLYLINE
  5
D8
330
41
100
AcDbEntity
  8
TOP
 62
    29
100
AcDb2dPolyline
 66
     1
 10
0.0
 20
0.0
 30
0.0
  0
VERTEX
  5
D9
330
D8
100
AcDbEntity
  8
TOP
 62
    29
100
AcDbVertex
100
AcDb2dVertex
 10
74.1325288889723
 20
-49.49278830056716
 30
0.0
  0
VERTEX
  5
DA
330
D8
100
AcDbEntity
  8
TOP
 62
    29
100
AcDbVertex
100
AcDb2dVertex
 10
116.7483461040326
 20
-49.49278830056716
 30
0.0
  0
SEQEND
  5
DB
330
D8
100
AcDbEntity
  8
TOP
 62
    29
  0
ENDBLK
  5
44
330
41
100
AcDbEntity
  8
0
100
AcDbBlockEnd
  0
ENDSEC
  0
SECTION
  2
ENTITIES
  0
INSERT
  5
42
330
1F
100
AcDbEntity
  8
TOP
100
AcDbBlockReference
  2
BLOCK_2
 10
0.0
 20
0.0
 30
0.0
  0
ENDSEC
  0
SECTION
  2
OBJECTS
  0
DICTIONARY
  5
C
330
0
100
AcDbDictionary
  3
ACAD_GROUP
350
D
  3
ACAD_LAYOUT
350
1A
  3
ACAD_MATERIAL
350
3B
  3
ACAD_MLEADERSTYLE
350
FE
  3
ACAD_MLINESTYLE
350
17
  3
ACAD_PLOTSETTINGS
350
19
  3
ACAD_VISUALSTYLE
350
2A
  3
ACDBHEADERROUNDTRIPXREC
350
DC
  3
ACDBVARIABLEDICTIONARY
350
FC
  0
DICTIONARY
  5
D
102
{ACAD_REACTORS
330
C
102
}
330
C
100
AcDbDictionary
  0
DICTIONARY
  5
1A
102
{ACAD_REACTORS
330
C
102
}
330
C
100
AcDbDictionary
  0
DICTIONARY
  5
3B
102
{ACAD_REACTORS
330
C
102
}
330
C
100
AcDbDictionary
  3
BYBLOCK
350
3D
  3
BYLAYER
350
3C
  3
GLOBAL
350
3E
  0
DICTIONARY
  5
FE
102
{ACAD_REACTORS
330
C
102
}
330
C
100
AcDbDictionary
  0
DICTIONARY
  5
17
102
{ACAD_REACTORS
330
C
102
}
330
C
100
AcDbDictionary
  3
STANDARD
350
18
  0
DICTIONARY
  5
19
102
{ACAD_REACTORS
330
C
102
}
330
C
100
AcDbDictionary
  0
DICTIONARY
  5
2A
102
{ACAD_REACTORS
330
C
102
}
330
C
100
AcDbDictionary
  3
2DWIREFRAME
350
2F
  3
3DWIREFRAME
350
30
  3
3D_HIDDEN
350
31
  3
BASIC
350
32
  3
BRIGHTEN
350
36
  3
COLORCHANGE
350
3A
  3
CONCEPTUAL
350
34
  3
DIM
350
35
  3
FACEPATTERN
350
39
  3
FLAT
350
2B
  3
FLATWITHEDGES
350
2C
  3
GOURAUD
350
2D
  3
GOURAUDWITHEDGES
350
2E
  3
LINEPATTERN
350
38
  3
REALISTIC
350
33
  3
THICKEN
350
37
  0
DICTIONARY
  5
DC
102
{ACAD_REACTORS
330
C
102
}
330
C
100
AcDbDictionary
  3
CEPSNTYPE
350
E5
  3
DIMSTYLEDATA
350
FB
  3
FINGERPRINTGUID
350
E6
  3
HYPERLINKBASE
350
DF
  3
INSUNITS
350
E4
  3
LAYOUTDICT
350
E1
  3
LWETCUNION
350
E3
  3
PLOTSETDICT
350
E2
  3
PSVPSCALE
350
E8
  3
PUCSBASE
350
EB
  3
PUCSORGBACK
350
F1
  3
PUCSORGBOTTOM
350
ED
  3
PUCSORGFRONT
350
F0
  3
PUCSORGLEFT
350
EE
  3
PUCSORGRIGHT
350
EF
  3
PUCSORGTOP
350
EC
  3
PUCSORTHOREF
350
E9
  3
PUCSORTHOVIEW
350
EA
  3
STYLESHEET
350
E0
  3
TSTACKALIGN
350
DD
  3
TSTACKSIZE
350
DE
  3
UCSBASE
350
F4
  3
UCSORGBACK
350
FA
  3
UCSORGBOTTOM
350
F6
  3
UCSORGFRONT
350
F9
  3
UCSORGLEFT
350
F7
  3
UCSORGRIGHT
350
F8
  3
UCSORGTOP
350
F5
  3
UCSORTHOREF
350
F2
  3
UCSORTHOVIEW
350
F3
  3
VERSIONGUID
350
E7
  0
DICTIONARY
  5
FC
102
{ACAD_REACTORS
330
C
102
}
330
C
100
AcDbDictionary
  3
DIMASSOC
350
FF
  3
HIDETEXT
350
100
  0
MATERIAL
  5
3D
102
{ACAD_REACTORS
330
3B
102
}
102
{ACAD_XDICTIONARY
360
103
102
}
330
3B
100
AcDbMaterial
  1
ByBlock
  0
MATERIAL
  5
3C
102
{ACAD_REACTORS
330
3B
102
}
102
{ACAD_XDICTIONARY
360
101
102
}
330
3B
100
AcDbMaterial
  1
ByLayer
  0
MATERIAL
  5
3E
102
{ACAD_REACTORS
330
3B
102
}
102
{ACAD_XDICTIONARY
360
105
102
}
330
3B
100
AcDbMaterial
  1
Global
  0
MLINESTYLE
  5
18
102
{ACAD_REACTORS
330
17
102
}
330
17
100
AcDbMlineStyle
  2
Standard
 70
     0
  3

 62
   256
 51
90.0
 52
90.0
 71
     2
 49
0.5
 62
   256
  6
BYLAYER
 49
-0.5
 62
   256
  6
BYLAYER
  0
ACAD_PROXY_OBJECT
  5
2F
102
{ACAD_REACTORS
330
2A
102
}
330
2A
100
AcDbProxyObject
 90
      499
 91
      501
 93
      436
310
42CC9915DA5C99599C985B595049028333333333333E3BF0000000000000FB0107901411070040501600405405064090741402480A0340
1001
ACAD
1000
AcDbSavedByObjectVersion
1070
     0
  0
ACAD_PROXY_OBJECT
  5
30
102
{ACAD_REACTORS
330
2A
102
}
330
2A
100
AcDbProxyObject
 90
      499
 91
      501
 93
      436
310
42CCD915DA5C99599C985B595059028333333333333E3BF0000000000000FB0107901411070040501600405405064090741402480A0340
1001
ACAD
1000
AcDbSavedByObjectVersion
1070
     0
  0
ACAD_PROXY_OBJECT
  5
31
102
{ACAD_REACTORS
330
2A
102
}
330
2A
100
AcDbProxyObject
 90
      499
 91
      501
 93
      500
310
424CD108121A5919195B90640502408333333333333E3BF0000000000000FB01079024090700405020000000000001110200405405064090740C02480A0340
1001
ACAD
1000
AcDbSavedByObjectVersion
1070
     0
  0
ACAD_PROXY_OBJECT
  5
32
102
{ACAD_REACTORS
330
2A
102
}
330
2A
100
AcDbProxyObject
 90
      499
 91
      501
 93
      388
310
4150985CDA58D07406404333333333333E3BF0000000000000FB0107A41107004050150841D405064090741402480A0350
1001
ACAD
1000
AcDbSavedByObjectVersion
1070
     0
  0
ACAD_PROXY_OBJECT
  5
36
102
{ACAD_REACTORS
330
2A
102
}
330
2A
100
AcDbProxyObject
 90
      499
 91
      501
 93
      428
310
42109C9A59DA1D195B90C409028333333333333E3BF0000000000000FB010790141107004050150841D405064090741402480A029950
1001
ACAD
1000
AcDbSavedByObjectVersion
1070
     0
  0
ACAD_PROXY_OBJECT
  5
3A
102
{ACAD_REACTORS
330
2A
102
}
330
2A
100
AcDbProxyObject
 90
      499
 91
      501
 93
      452
310
42D0DBDB1BDC90DA185B99D95104090240C333333333333E3BF0000000000000FB0108901411070040501508421405064090741402480A0350
1001
ACAD
1000
AcDbSavedByObjectVersion
1070
     0
  0
ACAD_PROXY_OBJECT
  5
34
102
{ACAD_REACTORS
330
2A
102
}
330
2A
100
AcDbProxyObject
 90
      499
 91
      501
 93
      500
310
4290DBDB98D95C1D1D585B10940D028333333333333E3BF0000000000000FB0107902409070040501000000000000111010841D405064090740C02480A0340
1001
ACAD
1000
AcDbSavedByObjectVersion
1070
     0
  0
ACAD_PROXY_OBJECT
  5
35
102
{ACAD_REACTORS
330
2A
102
}
330
2A
100
AcDbProxyObject
 90
      499
 91
      501
 93
      412
310
40D11A5B50B409028333333333333E3BF0000000000000FB010790141107004050150841D405064090741402480A02677FFFFFD0
1001
ACAD
1000
AcDbSavedByObjectVersion
1070
     0
  0
ACAD_PROXY_OBJECT
  5
39
102
{ACAD_REACTORS
330
2A
102
}
330
2A
100
AcDbProxyObject
 90
      499
 91
      501
 93
      444
310
42D19858D95C185D1D195C9B90F409028333333333333E3BF0000000000000FB010790141107004050150841D405064090741402480A0350
1001
ACAD
1000
AcDbSavedByObjectVersion
1070
     0
  0
ACAD_PROXY_OBJECT
  5
2B
102
{ACAD_REACTORS
330
2A
102
}
330
2A
100
AcDbProxyObject
 90
      499
 91
      501
 93
      388
310
41119B185D240901404333333333333E3BF0000000000000F9010740A41107004050150841D405064090741402480A1B50
1001
ACAD
1000
AcDbSavedByObjectVersion
1070
     0
  0
ACAD_PROXY_OBJECT
  5
2C
102
{ACAD_REACTORS
330
2A
102
}
330
2A
100
AcDbProxyObject
 90
      499
 91
      501
 93
      476
310
43519B185D15DA5D1A115919D95CD0140901404333333333333E3BF0000000000000F9010740901411070040501600405405064090741402480A1B50
1001
ACAD
1000
AcDbSavedByObjectVersion
1070
     0
  0
ACAD_PROXY_OBJECT
  5
2D
102
{ACAD_REACTORS
330
2A
102
}
330
2A
100
AcDbProxyObject
 90
      499
 91
      501
 93
      412
310
41D1DBDD5C985D5910240902404333333333333E3BF0000000000000F9010740A411070040501641D405064090741402480A1B50
1001
ACAD
1000
AcDbSavedByObjectVersion
1070
     0
  0
ACAD_PROXY_OBJECT
  5
2E
102
{ACAD_REACTORS
330
2A
102
}
330
2A
100
AcDbProxyObject
 90
      499
 91
      501
 93
      500
310
4411DBDD5C985D5915DA5D1A115919D95CD0340902404333333333333E3BF0000000000000F9010740901411070040501600405405064090741402480A1B50
1001
ACAD
1000
AcDbSavedByObjectVersion
1070
     0
  0
ACAD_PROXY_OBJECT
  5
38
102
{ACAD_REACTORS
330
2A
102
}
330
2A
100
AcDbProxyObject
 90
      499
 91
      501
 93
      444
310
42D31A5B995C185D1D195C9B90E409028333333333333E3BF0000000000000FB010790141107004050750841D405064090741402483A0350
1001
ACAD
1000
AcDbSavedByObjectVersion
1070
     0
  0
ACAD_PROXY_OBJECT
  5
33
102
{ACAD_REACTORS
330
2A
102
}
330
2A
100
AcDbProxyObject
 90
      499
 91
      501
 93
      420
310
425499585B1A5CDD1A58D08409028333333333333E3BF0000000000000FB01079019070040501508421405064090741402480A1B40
1001
ACAD
1000
AcDbSavedByObjectVersion
1070
     0
  0
ACAD_PROXY_OBJECT
  5
37
102
{ACAD_REACTORS
330
2A
102
}
330
2A
100
AcDbProxyObject
 90
      499
 91
      501
 93
      412
310
41D51A1A58DAD95B90D409028333333333333E3BF0000000000000FB010790141107004050150C41D405064090741402480A0350
1001
ACAD
1000
AcDbSavedByObjectVersion
1070
     0
  0
XRECORD
  5
E5
102
{ACAD_REACTORS
330
DC
102
}
330
DC
100
AcDbXrecord
 90
        0
  0
XRECORD
  5
FB
102
{ACAD_REACTORS
330
DC
102
}
330
DC
100
AcDbXrecord
1000
DSTYLE
1002
{
1070
   340
340
11
1002
}
  0
XRECORD
  5
E6
102
{ACAD_REACTORS
330
DC
102
}
330
DC
100
AcDbXrecord
  1
{83D34678-807F-17DC-B440-8EB3726DFA1B}
  0
XRECORD
  5
DF
102
{ACAD_REACTORS
330
DC
102
}
330
DC
100
AcDbXrecord
  1

  0
XRECORD
  5
E4
102
{ACAD_REACTORS
330
DC
102
}
330
DC
100
AcDbXrecord
 90
        1
  0
XRECORD
  5
E1
102
{ACAD_REACTORS
330
DC
102
}
330
DC
100
AcDbXrecord
340
1A
  0
XRECORD
  5
E3
102
{ACAD_REACTORS
330
DC
102
}
330
DC
100
AcDbXrecord
 90
    10269
  0
XRECORD
  5
E2
102
{ACAD_REACTORS
330
DC
102
}
330
DC
100
AcDbXrecord
340
19
  0
XRECORD
  5
E8
102
{ACAD_REACTORS
330
DC
102
}
330
DC
100
AcDbXrecord
 40
0.0
  0
XRECORD
  5
EB
102
{ACAD_REACTORS
330
DC
102
}
330
DC
100
AcDbXrecord
340
0
  0
XRECORD
  5
F1
102
{ACAD_REACTORS
330
DC
102
}
330
DC
100
AcDbXrecord
 10
0.0
 20
0.0
 30
0.0
  0
XRECORD
  5
ED
102
{ACAD_REACTORS
330
DC
102
}
330
DC
100
AcDbXrecord
 10
0.0
 20
0.0
 30
0.0
  0
XRECORD
  5
F0
102
{ACAD_REACTORS
330
DC
102
}
330
DC
100
AcDbXrecord
 10
0.0
 20
0.0
 30
0.0
  0
XRECORD
  5
EE
102
{ACAD_REACTORS
330
DC
102
}
330
DC
100
AcDbXrecord
 10
0.0
 20
0.0
 30
0.0
  0
XRECORD
  5
EF
102
{ACAD_REACTORS
330
DC
102
}
330
DC
100
AcDbXrecord
 10
0.0
 20
0.0
 30
0.0
  0
XRECORD
  5
EC
102
{ACAD_REACTORS
330
DC
102
}
330
DC
100
AcDbXrecord
 10
0.0
 20
0.0
 30
0.0
  0
XRECORD
  5
E9
102
{ACAD_REACTORS
330
DC
102
}
330
DC
100
AcDbXrecord
340
0
  0
XRECORD
  5
EA
102
{ACAD_REACTORS
330
DC
102
}
330
DC
100
AcDbXrecord
 70
     0
  0
XRECORD
  5
E0
102
{ACAD_REACTORS
330
DC
102
}
330
DC
100
AcDbXrecord
  1

  0
XRECORD
  5
DD
102
{ACAD_REACTORS
330
DC
102
}
330
DC
100
AcDbXrecord
 90
        1
  0
XRECORD
  5
DE
102
{ACAD_REACTORS
330
DC
102
}
330
DC
100
AcDbXrecord
 90
       70
  0
XRECORD
  5
F4
102
{ACAD_REACTORS
330
DC
102
}
330
DC
100
AcDbXrecord
340
0
  0
XRECORD
  5
FA
102
{ACAD_REACTORS
330
DC
102
}
330
DC
100
AcDbXrecord
 10
0.0
 20
0.0
 30
0.0
  0
XRECORD
  5
F6
102
{ACAD_REACTORS
330
DC
102
}
330
DC
100
AcDbXrecord
 10
0.0
 20
0.0
 30
0.0
  0
XRECORD
  5
F9
102
{ACAD_REACTORS
330
DC
102
}
330
DC
100
AcDbXrecord
 10
0.0
 20
0.0
 30
0.0
  0
XRECORD
  5
F7
102
{ACAD_REACTORS
330
DC
102
}
330
DC
100
AcDbXrecord
 10
0.0
 20
0.0
 30
0.0
  0
XRECORD
  5
F8
102
{ACAD_REACTORS
330
DC
102
}
330
DC
100
AcDbXrecord
 10
0.0
 20
0.0
 30
0.0
  0
XRECORD
  5
F5
102
{ACAD_REACTORS
330
DC
102
}
330
DC
100
AcDbXrecord
 10
0.0
 20
0.0
 30
0.0
  0
XRECORD
  5
F2
102
{ACAD_REACTORS
330
DC
102
}
330
DC
100
AcDbXrecord
340
0
  0
XRECORD
  5
F3
102
{ACAD_REACTORS
330
DC
102
}
330
DC
100
AcDbXrecord
 70
     0
  0
XRECORD
  5
E7
102
{ACAD_REACTORS
330
DC
102
}
330
DC
100
AcDbXrecord
  1
{FAEB1C32-E019-11D5-929B-00C0DF256EC4}
  0
DICTIONARYVAR
  5
FF
102
{ACAD_REACTORS
330
FC
102
}
330
FC
100
DictionaryVariables
280
     0
  1
2
  0
DICTIONARYVAR
  5
100
102
{ACAD_REACTORS
330
FC
102
}
330
FC
100
DictionaryVariables
280
     0
  1
1
  0
DICTIONARY
  5
103
330
3D
100
AcDbDictionary
280
     1
  3
ACAD_XREC_ROUNDTRIP
360
104
  0
DICTIONARY
  5
101
330
3C
100
AcDbDictionary
280
     1
  3
ACAD_XREC_ROUNDTRIP
360
102
  0
DICTIONARY
  5
105
330
3E
100
AcDbDictionary
280
     1
  3
ACAD_XREC_ROUNDTRIP
360
106
  0
XRECORD
  5
104
102
{ACAD_REACTORS
330
103
102
}
330
103
100
AcDbXrecord
102
MATERIAL
148
0.0
149
0.0
149
0.0
 93
        0
 94
      127
282
     0
 72
     1
 77
     1
171
     1
175
     1
179
     1
273
     0
  0
XRECORD
  5
102
102
{ACAD_REACTORS
330
101
102
}
330
101
100
AcDbXrecord
102
MATERIAL
148
0.0
149
0.0
149
0.0
 93
        0
 94
      127
282
     0
 72
     1
 77
     1
171
     1
175
     1
179
     1
273
     0
  0
XRECORD
  5
106
102
{ACAD_REACTORS
330
105
102
}
330
105
100
AcDbXrecord
102
MATERIAL
148
0.0
149
0.0
149
0.0
 93
        0
 94
      127
282
     0
 72
     1
 77
     1
171
     1
175
     1
179
     1
273
     0
  0
ENDSEC
  0
EOF
