  0
SECTION
  2
HEADER
  9
$ACADVER
  1
AC1024
  9
$ACADMAINTVER
 70
     6
  9
$DWGCODEPAGE
  3
UNDEFINED
  9
$INSBASE
 10
0.0
 20
0.0
 30
0.0
  9
$EXTMIN
 10
1.000000000000000E+20
 20
1.000000000000000E+20
 30
1.000000000000000E+20
  9
$EXTMAX
 10
-1.000000000000000E+20
 20
-1.000000000000000E+20
 30
-1.000000000000000E+20
  9
$LIMMIN
 10
0.0
 20
0.0
  9
$LIMMAX
 10
12.0
 20
9.0
  9
$ORTHOMODE
 70
     0
  9
$REGENMODE
 70
     1
  9
$FILLMODE
 70
     1
  9
$QTEXTMODE
 70
     0
  9
$MIRRTEXT
 70
     1
  9
$LTSCALE
 40
1.0
  9
$ATTMODE
 70
     1
  9
$TEXTSIZE
 40
0.2
  9
$TRACEWID
 40
0.05
  9
$TEXTSTYLE
  7
Standard
  9
$CLAYER
  8
0
  9
$CELTYPE
  6
ByLayer
  9
$CECOLOR
 62
   256
  9
$CELTSCALE
 40
1.0
  9
$DISPSILH
 70
     0
  9
$DIMSCALE
 40
1.0
  9
$DIMASZ
 40
0.18
  9
$DIMEXO
 40
0.0625
  9
$DIMDLI
 40
0.38
  9
$DIMRND
 40
0.0
  9
$DIMDLE
 40
0.0
  9
$DIMEXE
 40
0.18
  9
$DIMTP
 40
0.0
  9
$DIMTM
 40
0.0
  9
$DIMTXT
 40
0.18
  9
$DIMCEN
 40
0.09
  9
$DIMTSZ
 40
0.0
  9
$DIMTOL
 70
     0
  9
$DIMLIM
 70
     0
  9
$DIMTIH
 70
     1
  9
$DIMTOH
 70
     1
  9
$DIMSE1
 70
     0
  9
$DIMSE2
 70
     0
  9
$DIMTAD
 70
     0
  9
$DIMZIN
 70
     0
  9
$DIMBLK
  1

  9
$DIMASO
 70
     1
  9
$DIMSHO
 70
     1
  9
$DIMPOST
  1

  9
$DIMAPOST
  1

  9
$DIMALT
 70
     0
  9
$DIMALTD
 70
     2
  9
$DIMALTF
 40
25.4
  9
$DIMLFAC
 40
1.0
  9
$DIMTOFL
 70
     0
  9
$DIMTVP
 40
0.0
  9
$DIMTIX
 70
     0
  9
$DIMSOXD
 70
     0
  9
$DIMSAH
 70
     0
  9
$DIMBLK1
  1

  9
$DIMBLK2
  1

  9
$DIMSTYLE
  2
Standard
  9
$DIMCLRD
 70
     0
  9
$DIMCLRE
 70
     0
  9
$DIMCLRT
 70
     0
  9
$DIMTFAC
 40
1.0
  9
$DIMGAP
 40
0.09
  9
$DIMJUST
 70
     0
  9
$DIMSD1
 70
     0
  9
$DIMSD2
 70
     0
  9
$DIMTOLJ
 70
     1
  9
$DIMTZIN
 70
     0
  9
$DIMALTZ
 70
     0
  9
$DIMALTTZ
 70
     0
  9
$DIMUPT
 70
     0
  9
$DIMDEC
 70
     4
  9
$DIMTDEC
 70
     4
  9
$DIMALTU
 70
     2
  9
$DIMALTTD
 70
     2
  9
$DIMTXSTY
  7
Standard
  9
$DIMAUNIT
 70
     0
  9
$DIMADEC
 70
     0
  9
$DIMALTRND
 40
0.0
  9
$DIMAZIN
 70
     0
  9
$DIMDSEP
 70
    46
  9
$DIMATFIT
 70
     3
  9
$DIMFRAC
 70
     0
  9
$DIMLDRBLK
  1

  9
$DIMLUNIT
 70
     2
  9
$DIMLWD
 70
    -2
  9
$DIMLWE
 70
    -2
  9
$DIMTMOVE
 70
     0
  9
$DIMFXL
 40
1.0
  9
$DIMFXLON
 70
     0
  9
$DIMJOGANG
 40
0.7853981633974483
  9
$DIMTFILL
 70
     0
  9
$DIMTFILLCLR
 70
     0
  9
$DIMARCSYM
 70
     0
  9
$DIMLTYPE
  6

  9
$DIMLTEX1
  6

  9
$DIMLTEX2
  6

  9
$DIMTXTDIRECTION
 70
     0
  9
$LUNITS
 70
     2
  9
$LUPREC
 70
     4
  9
$SKETCHINC
 40
0.1
  9
$FILLETRAD
 40
0.5
  9
$AUNITS
 70
     0
  9
$AUPREC
 70
     0
  9
$MENU
  1
.
  9
$ELEVATION
 40
0.0
  9
$PELEVATION
 40
0.0
  9
$THICKNESS
 40
0.0
  9
$LIMCHECK
 70
     0
  9
$CHAMFERA
 40
0.5
  9
$CHAMFERB
 40
0.5
  9
$CHAMFERC
 40
1.0
  9
$CHAMFERD
 40
0.0
  9
$SKPOLY
 70
     0
  9
$TDCREATE
 40
2457917.594201377
  9
$TDUCREATE
 40
2457917.219201389
  9
$TDUPDATE
 40
2457917.594201377
  9
$TDUUPDATE
 40
2457917.219201389
  9
$TDINDWG
 40
0.0000000116
  9
$TDUSRTIMER
 40
0.0000000116
  9
$USRTIMER
 70
     1
  9
$ANGBASE
 50
0.0
  9
$ANGDIR
 70
     0
  9
$PDMODE
 70
     0
  9
$PDSIZE
 40
0.0
  9
$PLINEWID
 40
0.0
  9
$SPLFRAME
 70
     0
  9
$SPLINETYPE
 70
     6
  9
$SPLINESEGS
 70
     8
  9
$HANDSEED
  5
EB
  9
$SURFTAB1
 70
     6
  9
$SURFTAB2
 70
     6
  9
$SURFTYPE
 70
     6
  9
$SURFU
 70
     6
  9
$SURFV
 70
     6
  9
$UCSBASE
  2

  9
$UCSNAME
  2

  9
$UCSORG
 10
0.0
 20
0.0
 30
0.0
  9
$UCSXDIR
 10
1.0
 20
0.0
 30
0.0
  9
$UCSYDIR
 10
0.0
 20
1.0
 30
0.0
  9
$UCSORTHOREF
  2

  9
$UCSORTHOVIEW
 70
     0
  9
$UCSORGTOP
 10
0.0
 20
0.0
 30
0.0
  9
$UCSORGBOTTOM
 10
0.0
 20
0.0
 30
0.0
  9
$UCSORGLEFT
 10
0.0
 20
0.0
 30
0.0
  9
$UCSORGRIGHT
 10
0.0
 20
0.0
 30
0.0
  9
$UCSORGFRONT
 10
0.0
 20
0.0
 30
0.0
  9
$UCSORGBACK
 10
0.0
 20
0.0
 30
0.0
  9
$PUCSBASE
  2

  9
$PUCSNAME
  2

  9
$PUCSORG
 10
0.0
 20
0.0
 30
0.0
  9
$PUCSXDIR
 10
1.0
 20
0.0
 30
0.0
  9
$PUCSYDIR
 10
0.0
 20
1.0
 30
0.0
  9
$PUCSORTHOREF
  2

  9
$PUCSORTHOVIEW
 70
     0
  9
$PUCSORGTOP
 10
0.0
 20
0.0
 30
0.0
  9
$PUCSORGBOTTOM
 10
0.0
 20
0.0
 30
0.0
  9
$PUCSORGLEFT
 10
0.0
 20
0.0
 30
0.0
  9
$PUCSORGRIGHT
 10
0.0
 20
0.0
 30
0.0
  9
$PUCSORGFRONT
 10
0.0
 20
0.0
 30
0.0
  9
$PUCSORGBACK
 10
0.0
 20
0.0
 30
0.0
  9
$USERI1
 70
     0
  9
$USERI2
 70
     0
  9
$USERI3
 70
     0
  9
$USERI4
 70
     0
  9
$USERI5
 70
     0
  9
$USERR1
 40
0.0
  9
$USERR2
 40
0.0
  9
$USERR3
 40
0.0
  9
$USERR4
 40
0.0
  9
$USERR5
 40
0.0
  9
$WORLDVIEW
 70
     1
  9
$SHADEDGE
 70
     3
  9
$SHADEDIF
 70
    70
  9
$TILEMODE
 70
     1
  9
$MAXACTVP
 70
    64
  9
$PINSBASE
 10
0.0
 20
0.0
 30
0.0
  9
$PLIMCHECK
 70
     0
  9
$PEXTMIN
 10
1.000000000000000E+20
 20
1.000000000000000E+20
 30
1.000000000000000E+20
  9
$PEXTMAX
 10
-1.000000000000000E+20
 20
-1.000000000000000E+20
 30
-1.000000000000000E+20
  9
$PLIMMIN
 10
0.0
 20
0.0
  9
$PLIMMAX
 10
12.0
 20
9.0
  9
$UNITMODE
 70
     0
  9
$VISRETAIN
 70
     1
  9
$PLINEGEN
 70
     0
  9
$PSLTSCALE
 70
     1
  9
$TREEDEPTH
 70
  3020
  9
$CMLSTYLE
  2
Standard
  9
$CMLJUST
 70
     0
  9
$CMLSCALE
 40
1.0
  9
$PROXYGRAPHICS
 70
     1
  9
$MEASUREMENT
 70
     0
  9
$CELWEIGHT
370
    -1
  9
$ENDCAPS
280
     0
  9
$JOINSTYLE
280
     0
  9
$LWDISPLAY
290
     1
  9
$INSUNITS
 70
     1
  9
$HYPERLINKBASE
  1

  9
$STYLESHEET
  1

  9
$XEDIT
290
     1
  9
$CEPSNTYPE
380
     0
  9
$PSTYLEMODE
290
     1
  9
$FINGERPRINTGUID
  2
{3750BB88-1EF6-1CA6-5F98-CC3E870AACDA}
  9
$VERSIONGUID
  2
{FAEB1C32-E019-11D5-929B-00C0DF256EC4}
  9
$EXTNAMES
290
     1
  9
$PSVPSCALE
 40
0.0
  9
$OLESTARTUP
290
     0
  9
$SORTENTS
280
   127
  9
$INDEXCTL
280
     0
  9
$HIDETEXT
280
     1
  9
$XCLIPFRAME
280
     2
  9
$HALOGAP
280
     0
  9
$OBSCOLOR
 70
   257
  9
$OBSLTYPE
280
     0
  9
$INTERSECTIONDISPLAY
280
     0
  9
$INTERSECTIONCOLOR
 70
   257
  9
$DIMASSOC
280
     2
  9
$PROJECTNAME
  1

  9
$CAMERADISPLAY
290
     0
  9
$LENSLENGTH
 40
50.0
  9
$CAMERAHEIGHT
 40
0.0
  9
$STEPSPERSEC
 40
2.0
  9
$STEPSIZE
 40
6.0
  9
$3DDWFPREC
 40
2.0
  9
$PSOLWIDTH
 40
0.25
  9
$PSOLHEIGHT
 40
4.0
  9
$LOFTANG1
 40
1.570796326794897
  9
$LOFTANG2
 40
1.570796326794897
  9
$LOFTMAG1
 40
0.0
  9
$LOFTMAG2
 40
0.0
  9
$LOFTPARAM
 70
     7
  9
$LOFTNORMALS
280
     1
  9
$LATITUDE
 40
37.795
  9
$LONGITUDE
 40
-122.394
  9
$NORTHDIRECTION
 40
0.0
  9
$TIMEZONE
 70
 -8000
  9
$LIGHTGLYPHDISPLAY
280
     1
  9
$TILEMODELIGHTSYNCH
280
     1
  9
$CMATERIAL
347
3C
  9
$SOLIDHIST
280
     1
  9
$SHOWHIST
280
     1
  9
$DWFFRAME
280
     2
  9
$DGNFRAME
280
     2
  9
$REALWORLDSCALE
290
     1
  9
$INTERFERECOLOR
 62
   256
  9
$CSHADOW
280
     0
  9
$SHADOWPLANELOCATION
 40
0.0
  0
ENDSEC
  0
SECTION
  2
CLASSES
  0
CLASS
  1
ACDBDICTIONARYWDFLT
  2
AcDbDictionaryWithDefault
  3
ObjectDBX Classes
 90
        0
 91
        4
280
     0
281
     0
  0
CLASS
  1
VISUALSTYLE
  2
AcDbVisualStyle
  3
ObjectDBX Classes
 90
     4095
 91
        4
280
     0
281
     0
  0
CLASS
  1
MATERIAL
  2
AcDbMaterial
  3
ObjectDBX Classes
 90
     1153
 91
        4
280
     0
281
     0
  0
CLASS
  1
SUN
  2
AcDbSun
  3
SCENEOE
 90
     1024
 91
        4
280
     0
281
     0
  0
ENDSEC
  0
SECTION
  2
TABLES
  0
TABLE
  2
VPORT
  5
8
330
0
100
AcDbSymbolTable
 70
     1
  0
VPORT
  5
29
330
8
100
AcDbSymbolTableRecord
100
AcDbViewportTableRecord
  2
*Active
 70
     0
 10
0.0
 20
0.0
 11
1.0
 21
1.0
 12
0.0
 22
0.0
 13
0.0
 23
0.0
 14
0.5
 24
0.5
 15
0.5
 25
0.5
 16
0.0
 26
0.0
 36
1.0
 17
91.00082462281999
 27
-128.4993055234307
 37
0.0
 40
256.9986110468615
 41
0.7081814508812795
 42
50.0
 43
0.0
 44
0.0
 50
0.0
 51
0.0
 71
     0
 72
   100
 73
     1
 74
     3
 75
     0
 76
     0
 77
     0
 78
     0
281
     0
 65
     1
110
0.0
120
0.0
130
0.0
111
1.0
121
0.0
131
0.0
112
0.0
122
1.0
132
0.0
 79
     0
146
0.0
 60
     3
 61
     5
292
     1
282
     1
141
0.0
142
0.0
 63
   250
361
3F
  0
ENDTAB
  0
TABLE
  2
LTYPE
  5
5
330
0
100
AcDbSymbolTable
 70
     1
  0
LTYPE
  5
14
330
5
100
AcDbSymbolTableRecord
100
AcDbLinetypeTableRecord
  2
ByBlock
 70
     0
  3

 72
    65
 73
     0
 40
0.0
  0
LTYPE
  5
15
330
5
100
AcDbSymbolTableRecord
100
AcDbLinetypeTableRecord
  2
ByLayer
 70
     0
  3

 72
    65
 73
     0
 40
0.0
  0
LTYPE
  5
16
330
5
100
AcDbSymbolTableRecord
100
AcDbLinetypeTableRecord
  2
Continuous
 70
     0
  3
Solid line
 72
    65
 73
     0
 40
0.0
  0
ENDTAB
  0
TABLE
  2
LAYER
  5
2
330
0
100
AcDbSymbolTable
 70
     2
  0
LAYER
  5
10
330
2
100
AcDbSymbolTableRecord
100
AcDbLayerTableRecord
  2
0
 70
     0
 62
     7
  6
Continuous
370
    -3
390
F
347
3E
  0
LAYER
  5
40
330
2
100
AcDbSymbolTableRecord
100
AcDbLayerTableRecord
  2
_U+30EC_U+30A4_U+30E4_U+30FC 1
 70
     0
 62
     7
  6
Continuous
370
    -3
390
F
347
3E
  0
ENDTAB
  0
TABLE
  2
STYLE
  5
3
330
0
100
AcDbSymbolTable
 70
     1
  0
STYLE
  5
11
330
3
100
AcDbSymbolTableRecord
100
AcDbTextStyleTableRecord
  2
Standard
 70
     0
 40
0.0
 41
1.0
 50
0.0
 71
     0
 42
0.2
  3
txt
  4

  0
ENDTAB
  0
TABLE
  2
VIEW
  5
6
330
0
100
AcDbSymbolTable
 70
     0
  0
ENDTAB
  0
TABLE
  2
UCS
  5
7
330
0
100
AcDbSymbolTable
 70
     0
  0
ENDTAB
  0
TABLE
  2
APPID
  5
9
330
0
100
AcDbSymbolTable
 70
     1
  0
APPID
  5
12
330
9
100
AcDbSymbolTableRecord
100
AcDbRegAppTableRecord
  2
ACAD
 70
     0
  0
ENDTAB
  0
TABLE
  2
DIMSTYLE
  5
A
330
0
100
AcDbSymbolTable
 70
     1
100
AcDbDimStyleTable
  0
DIMSTYLE
105
27
330
A
100
AcDbSymbolTableRecord
100
AcDbDimStyleTableRecord
  2
Standard
 70
     0
178
     0
340
11
  0
ENDTAB
  0
TABLE
  2
BLOCK_RECORD
  5
1
330
0
100
AcDbSymbolTable
 70
     6
  0
BLOCK_RECORD
  5
1F
330
1
100
AcDbSymbolTableRecord
100
AcDbBlockTableRecord
  2
*Model_Space
340
22
 70
     0
280
     1
281
     0
  0
BLOCK_RECORD
  5
1B
330
1
100
AcDbSymbolTableRecord
100
AcDbBlockTableRecord
  2
*Paper_Space
340
1E
 70
     0
280
     1
281
     0
  0
BLOCK_RECORD
  5
23
330
1
100
AcDbSymbolTableRecord
100
AcDbBlockTableRecord
  2
*Paper_Space0
340
26
 70
     0
280
     1
281
     0
  0
BLOCK_RECORD
  5
41
330
1
100
AcDbSymbolTableRecord
100
AcDbBlockTableRecord
  2
block 2
340
0
102
{BLKREFS
331
42
102
}
 70
     0
280
     1
281
     0
  0
BLOCK_RECORD
  5
4D
330
1
100
AcDbSymbolTableRecord
100
AcDbBlockTableRecord
  2
block 3
340
0
102
{BLKREFS
331
4E
102
}
 70
     0
280
     1
281
     0
  0
BLOCK_RECORD
  5
6C
330
1
100
AcDbSymbolTableRecord
100
AcDbBlockTableRecord
  2
block 4
340
0
102
{BLKREFS
331
6D
102
}
 70
     0
280
     1
281
     0
  0
BLOCK_RECORD
  5
A0
330
1
100
AcDbSymbolTableRecord
100
AcDbBlockTableRecord
  2
block 5
340
0
102
{BLKREFS
331
A1
102
}
 70
     0
280
     1
281
     0
  0
BLOCK_RECORD
  5
AC
330
1
100
AcDbSymbolTableRecord
100
AcDbBlockTableRecord
  2
block 6
340
0
102
{BLKREFS
331
AD
102
}
 70
     0
280
     1
281
     0
  0
ENDTAB
  0
ENDSEC
  0
SECTION
  2
BLOCKS
  0
BLOCK
  5
20
330
1F
100
AcDbEntity
  8
0
100
AcDbBlockBegin
  2
*Model_Space
 70
     0
 10
0.0
 20
0.0
 30
0.0
  3
*Model_Space
  1

  0
ENDBLK
  5
21
330
1F
100
AcDbEntity
  8
0
100
AcDbBlockEnd
  0
BLOCK
  5
1C
330
1B
100
AcDbEntity
 67
     1
  8
0
100
AcDbBlockBegin
  2
*Paper_Space
 70
     0
 10
0.0
 20
0.0
 30
0.0
  3
*Paper_Space
  1

  0
ENDBLK
  5
1D
330
1B
100
AcDbEntity
 67
     1
  8
0
100
AcDbBlockEnd
  0
BLOCK
  5
24
330
23
100
AcDbEntity
  8
0
100
AcDbBlockBegin
  2
*Paper_Space0
 70
     0
 10
0.0
 20
0.0
 30
0.0
  3
*Paper_Space0
  1

  0
ENDBLK
  5
25
330
23
100
AcDbEntity
  8
0
100
AcDbBlockEnd
  0
BLOCK
  5
43
330
41
100
AcDbEntity
  8
0
100
AcDbBlockBegin
  2
block 2
 70
     0
 10
0.0
 20
0.0
 30
0.0
  3
block 2
  1

  0
SPLINE
  5
45
330
41
100
AcDbEntity
  8
_U+30EC_U+30A4_U+30E4_U+30FC 1
370
     0
100
AcDbSpline
210
0.0
220
0.0
230
1.0
 70
    11
 71
     3
 72
    44
 73
    40
 74
     0
 42
0.0000000001
 43
0.0000000001
 12
1.0
 22
0.0
 32
0.0
 13
1.0
 23
0.0
 33
0.0
 40
0.0
 40
0.0
 40
0.0
 40
0.0
 40
1.0
 40
1.0
 40
1.0
 40
2.0
 40
2.0
 40
2.0
 40
3.0
 40
3.0
 40
3.0
 40
4.0
 40
4.0
 40
4.0
 40
5.0
 40
5.0
 40
5.0
 40
6.0
 40
6.0
 40
6.0
 40
7.0
 40
7.0
 40
7.0
 40
8.0
 40
8.0
 40
8.0
 40
9.0
 40
9.0
 40
9.0
 40
10.0
 40
10.0
 40
10.0
 40
11.0
 40
11.0
 40
11.0
 40
12.0
 40
12.0
 40
12.0
 40
13.0
 40
13.0
 40
13.0
 40
13.0
 10
65.17655570202183
 20
-127.6380316521183
 30
0.0
 10
64.95882566735405
 20
-127.7968505539883
 30
0.0
 10
64.8658080892523
 20
-127.8709201069212
 30
0.0
 10
64.81688773336175
 20
-128.0145805886561
 30
0.0
 10
64.81688773336175
 20
-128.0145805886561
 30
0.0
 10
65.59547931302822
 20
-128.0145805886561
 30
0.0
 10
65.59547931302822
 20
-128.0145805886561
 30
0.0
 10
65.59547931302822
 20
-128.0145805886561
 30
0.0
 10
65.59547931302822
 20
-128.219908279577
 30
0.0
 10
65.59547931302822
 20
-128.219908279577
 30
0.0
 10
65.59547931302822
 20
-128.219908279577
 30
0.0
 10
64.56746282022966
 20
-128.219908279577
 30
0.0
 10
64.56746282022966
 20
-128.219908279577
 30
0.0
 10
64.59915769869396
 20
-127.862307368208
 30
0.0
 10
64.66461451291372
 20
-127.7841037006929
 30
0.0
 10
65.04977618816464
 20
-127.4857584316702
 30
0.0
 10
65.3057467827187
 20
-127.2869764221713
 30
0.0
 10
65.37120359693846
 20
-127.2191080411119
 30
0.0
 10
65.37120359693846
 20
-127.0816487312504
 30
0.0
 10
65.37120359693846
 20
-126.9631374465578
 30
0.0
 10
65.29920110129673
 20
-126.8322238181183
 30
0.0
 10
65.10248614908896
 20
-126.8322238181183
 30
0.0
 10
64.8423814399526
 20
-126.8322238181183
 30
0.0
 10
64.834113210788
 20
-127.0627007060816
 30
0.0
 10
64.82963458665718
 20
-127.179144933483
 30
0.0
 10
64.82963458665718
 20
-127.179144933483
 30
0.0
 10
64.60535887056741
 20
-127.179144933483
 30
0.0
 10
64.60535887056741
 20
-127.179144933483
 30
0.0
 10
64.61397160928054
 20
-127.0520209100773
 30
0.0
 10
64.62465140528481
 20
-126.9400553068067
 30
0.0
 10
64.70492213009113
 20
-126.8215440221141
 30
0.0
 10
64.81482067607061
 20
-126.6606580629529
 30
0.0
 10
65.00120034182262
 20
-126.6268961271975
 30
0.0
 10
65.11730005967554
 20
-126.6268961271975
 30
0.0
 10
65.39463024623815
 20
-126.6268961271975
 30
0.0
 10
65.60202499445019
 20
-126.8108642261098
 30
0.0
 10
65.60202499445019
 20
-127.0837157885416
 30
0.0
 10
65.60202499445019
 20
-127.3124701287622
 30
0.0
 10
65.48558076704875
 20
-127.4116888787374
 30
0.0
 10
65.17655570202183
 20
-127.6380316521183
 30
0.0
  0
HATCH
  5
46
330
41
100
AcDbEntity
  8
_U+30EC_U+30A4_U+30E4_U+30FC 1
 62
   179
420
  2234388
100
AcDbHatch
 10
0.0
 20
0.0
 30
0.0
210
0.0
220
0.0
230
1.0
  2
SOLID
 70
     1
 71
     0
 91
        1
 92
        1
 93
        1
 72
     4
 94
        3
 73
     0
 74
     1
 95
       44
 96
       40
 40
0.0
 40
0.0
 40
0.0
 40
0.0
 40
1.0
 40
1.0
 40
1.0
 40
2.0
 40
2.0
 40
2.0
 40
3.0
 40
3.0
 40
3.0
 40
4.0
 40
4.0
 40
4.0
 40
5.0
 40
5.0
 40
5.0
 40
6.0
 40
6.0
 40
6.0
 40
7.0
 40
7.0
 40
7.0
 40
8.0
 40
8.0
 40
8.0
 40
9.0
 40
9.0
 40
9.0
 40
10.0
 40
10.0
 40
10.0
 40
11.0
 40
11.0
 40
11.0
 40
12.0
 40
12.0
 40
12.0
 40
13.0
 40
13.0
 40
13.0
 40
13.0
 10
65.17655570202183
 20
-127.6380316521183
 10
64.95882566735405
 20
-127.7968505539883
 10
64.8658080892523
 20
-127.8709201069212
 10
64.81688773336175
 20
-128.0145805886561
 10
64.81688773336175
 20
-128.0145805886561
 10
65.59547931302822
 20
-128.0145805886561
 10
65.59547931302822
 20
-128.0145805886561
 10
65.59547931302822
 20
-128.0145805886561
 10
65.59547931302822
 20
-128.219908279577
 10
65.59547931302822
 20
-128.219908279577
 10
65.59547931302822
 20
-128.219908279577
 10
64.56746282022966
 20
-128.219908279577
 10
64.56746282022966
 20
-128.219908279577
 10
64.59915769869396
 20
-127.862307368208
 10
64.66461451291372
 20
-127.7841037006929
 10
65.04977618816464
 20
-127.4857584316702
 10
65.3057467827187
 20
-127.2869764221713
 10
65.37120359693846
 20
-127.2191080411119
 10
65.37120359693846
 20
-127.0816487312504
 10
65.37120359693846
 20
-126.9631374465578
 10
65.29920110129673
 20
-126.8322238181183
 10
65.10248614908896
 20
-126.8322238181183
 10
64.8423814399526
 20
-126.8322238181183
 10
64.834113210788
 20
-127.0627007060816
 10
64.82963458665718
 20
-127.179144933483
 10
64.82963458665718
 20
-127.179144933483
 10
64.60535887056741
 20
-127.179144933483
 10
64.60535887056741
 20
-127.179144933483
 10
64.61397160928054
 20
-127.0520209100773
 10
64.62465140528481
 20
-126.9400553068067
 10
64.70492213009113
 20
-126.8215440221141
 10
64.81482067607061
 20
-126.6606580629529
 10
65.00120034182262
 20
-126.6268961271975
 10
65.11730005967554
 20
-126.6268961271975
 10
65.39463024623815
 20
-126.6268961271975
 10
65.60202499445019
 20
-126.8108642261098
 10
65.60202499445019
 20
-127.0837157885416
 10
65.60202499445019
 20
-127.3124701287622
 10
65.48558076704875
 20
-127.4116888787374
 10
65.17655570202183
 20
-127.6380316521183
 97
        0
 97
        0
 75
     2
 76
     1
 98
        0
  0
SPLINE
  5
47
330
41
100
AcDbEntity
  8
_U+30EC_U+30A4_U+30E4_U+30FC 1
370
     0
100
AcDbSpline
210
0.0
220
0.0
230
1.0
 70
    11
 71
     3
 72
    29
 73
    25
 74
     0
 42
0.0000000001
 43
0.0000000001
 12
1.0
 22
0.0
 32
0.0
 13
1.0
 23
0.0
 33
0.0
 40
0.0
 40
0.0
 40
0.0
 40
0.0
 40
1.0
 40
1.0
 40
1.0
 40
2.0
 40
2.0
 40
2.0
 40
3.0
 40
3.0
 40
3.0
 40
4.0
 40
4.0
 40
4.0
 40
5.0
 40
5.0
 40
5.0
 40
6.0
 40
6.0
 40
6.0
 40
7.0
 40
7.0
 40
7.0
 40
8.0
 40
8.0
 40
8.0
 40
8.0
 10
66.65829127022779
 20
-128.0421413525381
 30
0.0
 10
66.55011527199095
 20
-128.2516031580413
 30
0.0
 10
66.37682696908288
 20
-128.2705511832102
 30
0.0
 10
66.26038274168144
 20
-128.2705511832102
 30
0.0
 10
66.09949678252026
 20
-128.2705511832102
 30
0.0
 10
65.95790335807649
 20
-128.2240423941593
 30
0.0
 10
65.8628187226836
 20
-128.0421413525381
 30
0.0
 10
65.75912134857758
 20
-127.8474934576215
 30
0.0
 10
65.74017332340871
 20
-127.6104708882363
 30
0.0
 10
65.74017332340871
 20
-127.4478623813325
 30
0.0
 10
65.74017332340871
 20
-127.303857390049
 30
0.0
 10
65.75705429128644
 20
-127.0520209100773
 30
0.0
 10
65.8628187226836
 20
-126.8532389005784
 30
0.0
 10
65.97065021137192
 20
-126.6503227764971
 30
0.0
 10
66.1315361705331
 20
-126.6268961271975
 30
0.0
 10
66.26038274168144
 20
-126.6268961271975
 30
0.0
 10
66.41920164355145
 20
-126.6268961271975
 30
0.0
 10
66.56286212528637
 20
-126.6713378589572
 30
0.0
 10
66.65829127022779
 20
-126.8532389005784
 30
0.0
 10
66.75751002020299
 20
-127.0458197382038
 30
0.0
 10
66.78093666950268
 20
-127.2742295688759
 30
0.0
 10
66.78093666950268
 20
-127.4478623813325
 30
0.0
 10
66.78093666950268
 20
-127.6190836269494
 30
0.0
 10
66.75957707749414
 20
-127.8495605149126
 30
0.0
 10
66.65829127022779
 20
-128.0421413525381
 30
0.0
  0
SPLINE
  5
48
330
41
100
AcDbEntity
  8
_U+30EC_U+30A4_U+30E4_U+30FC 1
370
     0
100
AcDbSpline
210
0.0
220
0.0
230
1.0
 70
    11
 71
     3
 72
    17
 73
    13
 74
     0
 42
0.0000000001
 43
0.0000000001
 12
1.0
 22
0.0
 32
0.0
 13
1.0
 23
0.0
 33
0.0
 40
0.0
 40
0.0
 40
0.0
 40
0.0
 40
1.0
 40
1.0
 40
1.0
 40
2.0
 40
2.0
 40
2.0
 40
3.0
 40
3.0
 40
3.0
 40
4.0
 40
4.0
 40
4.0
 40
4.0
 10
66.26038274168144
 20
-126.8194769648229
 30
0.0
 10
66.01095782854935
 20
-126.8194769648229
 30
0.0
 10
65.96410452994995
 20
-127.103008323259
 30
0.0
 10
65.96410452994995
 20
-127.4478623813325
 30
0.0
 10
65.96410452994995
 20
-127.7672227328151
 30
0.0
 10
66.00027803254507
 20
-128.0759032882935
 30
0.0
 10
66.26038274168144
 20
-128.0759032882935
 30
0.0
 10
66.5080851070709
 20
-128.0759032882935
 30
0.0
 10
66.55666095341292
 20
-127.7947834966971
 30
0.0
 10
66.55666095341292
 20
-127.4478623813325
 30
0.0
 10
66.55666095341292
 20
-127.1281575203013
 30
0.0
 10
66.51842039352665
 20
-126.8194769648229
 30
0.0
 10
66.26038274168144
 20
-126.8194769648229
 30
0.0
  0
HATCH
  5
49
330
41
100
AcDbEntity
  8
_U+30EC_U+30A4_U+30E4_U+30FC 1
 62
   179
420
  2234388
100
AcDbHatch
 10
0.0
 20
0.0
 30
0.0
210
0.0
220
0.0
230
1.0
  2
SOLID
 70
     1
 71
     0
 91
        2
 92
        1
 93
        1
 72
     4
 94
        3
 73
     0
 74
     1
 95
       29
 96
       25
 40
0.0
 40
0.0
 40
0.0
 40
0.0
 40
1.0
 40
1.0
 40
1.0
 40
2.0
 40
2.0
 40
2.0
 40
3.0
 40
3.0
 40
3.0
 40
4.0
 40
4.0
 40
4.0
 40
5.0
 40
5.0
 40
5.0
 40
6.0
 40
6.0
 40
6.0
 40
7.0
 40
7.0
 40
7.0
 40
8.0
 40
8.0
 40
8.0
 40
8.0
 10
66.65829127022779
 20
-128.0421413525381
 10
66.55011527199095
 20
-128.2516031580413
 10
66.37682696908288
 20
-128.2705511832102
 10
66.26038274168144
 20
-128.2705511832102
 10
66.09949678252026
 20
-128.2705511832102
 10
65.95790335807649
 20
-128.2240423941593
 10
65.8628187226836
 20
-128.0421413525381
 10
65.75912134857758
 20
-127.8474934576215
 10
65.74017332340871
 20
-127.6104708882363
 10
65.74017332340871
 20
-127.4478623813325
 10
65.74017332340871
 20
-127.303857390049
 10
65.75705429128644
 20
-127.0520209100773
 10
65.8628187226836
 20
-126.8532389005784
 10
65.97065021137192
 20
-126.6503227764971
 10
66.1315361705331
 20
-126.6268961271975
 10
66.26038274168144
 20
-126.6268961271975
 10
66.41920164355145
 20
-126.6268961271975
 10
66.56286212528637
 20
-126.6713378589572
 10
66.65829127022779
 20
-126.8532389005784
 10
66.75751002020299
 20
-127.0458197382038
 10
66.78093666950268
 20
-127.2742295688759
 10
66.78093666950268
 20
-127.4478623813325
 10
66.78093666950268
 20
-127.6190836269494
 10
66.75957707749414
 20
-127.8495605149126
 10
66.65829127022779
 20
-128.0421413525381
 97
        0
 97
        0
 92
        1
 93
        1
 72
     4
 94
        3
 73
     0
 74
     1
 95
       17
 96
       13
 40
0.0
 40
0.0
 40
0.0
 40
0.0
 40
1.0
 40
1.0
 40
1.0
 40
2.0
 40
2.0
 40
2.0
 40
3.0
 40
3.0
 40
3.0
 40
4.0
 40
4.0
 40
4.0
 40
4.0
 10
66.26038274168144
 20
-126.8194769648229
 10
66.01095782854935
 20
-126.8194769648229
 10
65.96410452994995
 20
-127.103008323259
 10
65.96410452994995
 20
-127.4478623813325
 10
65.96410452994995
 20
-127.7672227328151
 10
66.00027803254507
 20
-128.0759032882935
 10
66.26038274168144
 20
-128.0759032882935
 10
66.5080851070709
 20
-128.0759032882935
 10
66.55666095341292
 20
-127.7947834966971
 10
66.55666095341292
 20
-127.4478623813325
 10
66.55666095341292
 20
-127.1281575203013
 10
66.51842039352665
 20
-126.8194769648229
 10
66.26038274168144
 20
-126.8194769648229
 97
        0
 97
        0
 75
     2
 76
     1
 98
        0
  0
SPLINE
  5
4A
330
41
100
AcDbEntity
  8
_U+30EC_U+30A4_U+30E4_U+30FC 1
370
     0
100
AcDbSpline
210
0.0
220
0.0
230
1.0
 70
    11
 71
     3
 72
    29
 73
    25
 74
     0
 42
0.0000000001
 43
0.0000000001
 12
1.0
 22
0.0
 32
0.0
 13
1.0
 23
0.0
 33
0.0
 40
0.0
 40
0.0
 40
0.0
 40
0.0
 40
1.0
 40
1.0
 40
1.0
 40
2.0
 40
2.0
 40
2.0
 40
3.0
 40
3.0
 40
3.0
 40
4.0
 40
4.0
 40
4.0
 40
5.0
 40
5.0
 40
5.0
 40
6.0
 40
6.0
 40
6.0
 40
7.0
 40
7.0
 40
7.0
 40
8.0
 40
8.0
 40
8.0
 40
8.0
 10
67.83513588798914
 20
-128.0421413525381
 30
0.0
 10
67.7269598897523
 20
-128.2516031580413
 30
0.0
 10
67.55367158684422
 20
-128.2705511832102
 30
0.0
 10
67.43722735944279
 20
-128.2705511832102
 30
0.0
 10
67.27634140028161
 20
-128.2705511832102
 30
0.0
 10
67.13474797583784
 20
-128.2240423941593
 30
0.0
 10
67.03966334044495
 20
-128.0421413525381
 30
0.0
 10
66.93596596633893
 20
-127.8474934576215
 30
0.0
 10
66.91701794117006
 20
-127.6104708882363
 30
0.0
 10
66.91701794117006
 20
-127.4478623813325
 30
0.0
 10
66.91701794117006
 20
-127.303857390049
 30
0.0
 10
66.93389890904778
 20
-127.0520209100773
 30
0.0
 10
67.03966334044495
 20
-126.8532389005784
 30
0.0
 10
67.14749482913327
 20
-126.6503227764971
 30
0.0
 10
67.30838078829444
 20
-126.6268961271975
 30
0.0
 10
67.43722735944279
 20
-126.6268961271975
 30
0.0
 10
67.5960462613128
 20
-126.6268961271975
 30
0.0
 10
67.73970674304772
 20
-126.6713378589572
 30
0.0
 10
67.83513588798914
 20
-126.8532389005784
 30
0.0
 10
67.93435463796433
 20
-127.0458197382038
 30
0.0
 10
67.95778128726403
 20
-127.2742295688759
 30
0.0
 10
67.95778128726403
 20
-127.4478623813325
 30
0.0
 10
67.95778128726403
 20
-127.6190836269494
 30
0.0
 10
67.93642169525548
 20
-127.8495605149126
 30
0.0
 10
67.83513588798914
 20
-128.0421413525381
 30
0.0
  0
SPLINE
  5
4B
330
41
100
AcDbEntity
  8
_U+30EC_U+30A4_U+30E4_U+30FC 1
370
     0
100
AcDbSpline
210
0.0
220
0.0
230
1.0
 70
    11
 71
     3
 72
    17
 73
    13
 74
     0
 42
0.0000000001
 43
0.0000000001
 12
1.0
 22
0.0
 32
0.0
 13
1.0
 23
0.0
 33
0.0
 40
0.0
 40
0.0
 40
0.0
 40
0.0
 40
1.0
 40
1.0
 40
1.0
 40
2.0
 40
2.0
 40
2.0
 40
3.0
 40
3.0
 40
3.0
 40
4.0
 40
4.0
 40
4.0
 40
4.0
 10
67.43722735944279
 20
-126.8194769648229
 30
0.0
 10
67.1878024463107
 20
-126.8194769648229
 30
0.0
 10
67.1409491477113
 20
-127.103008323259
 30
0.0
 10
67.1409491477113
 20
-127.4478623813325
 30
0.0
 10
67.1409491477113
 20
-127.7672227328151
 30
0.0
 10
67.17712265030642
 20
-128.0759032882935
 30
0.0
 10
67.43722735944279
 20
-128.0759032882935
 30
0.0
 10
67.68492972483224
 20
-128.0759032882935
 30
0.0
 10
67.73350557117426
 20
-127.7947834966971
 30
0.0
 10
67.73350557117426
 20
-127.4478623813325
 30
0.0
 10
67.73350557117426
 20
-127.1281575203013
 30
0.0
 10
67.69526501128799
 20
-126.8194769648229
 30
0.0
 10
67.43722735944279
 20
-126.8194769648229
 30
0.0
  0
HATCH
  5
4C
330
41
100
AcDbEntity
  8
_U+30EC_U+30A4_U+30E4_U+30FC 1
 62
   179
420
  2234388
100
AcDbHatch
 10
0.0
 20
0.0
 30
0.0
210
0.0
220
0.0
230
1.0
  2
SOLID
 70
     1
 71
     0
 91
        2
 92
        1
 93
        1
 72
     4
 94
        3
 73
     0
 74
     1
 95
       29
 96
       25
 40
0.0
 40
0.0
 40
0.0
 40
0.0
 40
1.0
 40
1.0
 40
1.0
 40
2.0
 40
2.0
 40
2.0
 40
3.0
 40
3.0
 40
3.0
 40
4.0
 40
4.0
 40
4.0
 40
5.0
 40
5.0
 40
5.0
 40
6.0
 40
6.0
 40
6.0
 40
7.0
 40
7.0
 40
7.0
 40
8.0
 40
8.0
 40
8.0
 40
8.0
 10
67.83513588798914
 20
-128.0421413525381
 10
67.7269598897523
 20
-128.2516031580413
 10
67.55367158684422
 20
-128.2705511832102
 10
67.43722735944279
 20
-128.2705511832102
 10
67.27634140028161
 20
-128.2705511832102
 10
67.13474797583784
 20
-128.2240423941593
 10
67.03966334044495
 20
-128.0421413525381
 10
66.93596596633893
 20
-127.8474934576215
 10
66.91701794117006
 20
-127.6104708882363
 10
66.91701794117006
 20
-127.4478623813325
 10
66.91701794117006
 20
-127.303857390049
 10
66.93389890904778
 20
-127.0520209100773
 10
67.03966334044495
 20
-126.8532389005784
 10
67.14749482913327
 20
-126.6503227764971
 10
67.30838078829444
 20
-126.6268961271975
 10
67.43722735944279
 20
-126.6268961271975
 10
67.5960462613128
 20
-126.6268961271975
 10
67.73970674304772
 20
-126.6713378589572
 10
67.83513588798914
 20
-126.8532389005784
 10
67.93435463796433
 20
-127.0458197382038
 10
67.95778128726403
 20
-127.2742295688759
 10
67.95778128726403
 20
-127.4478623813325
 10
67.95778128726403
 20
-127.6190836269494
 10
67.93642169525548
 20
-127.8495605149126
 10
67.83513588798914
 20
-128.0421413525381
 97
        0
 97
        0
 92
        1
 93
        1
 72
     4
 94
        3
 73
     0
 74
     1
 95
       17
 96
       13
 40
0.0
 40
0.0
 40
0.0
 40
0.0
 40
1.0
 40
1.0
 40
1.0
 40
2.0
 40
2.0
 40
2.0
 40
3.0
 40
3.0
 40
3.0
 40
4.0
 40
4.0
 40
4.0
 40
4.0
 10
67.43722735944279
 20
-126.8194769648229
 10
67.1878024463107
 20
-126.8194769648229
 10
67.1409491477113
 20
-127.103008323259
 10
67.1409491477113
 20
-127.4478623813325
 10
67.1409491477113
 20
-127.7672227328151
 10
67.17712265030642
 20
-128.0759032882935
 10
67.43722735944279
 20
-128.0759032882935
 10
67.68492972483224
 20
-128.0759032882935
 10
67.73350557117426
 20
-127.7947834966971
 10
67.73350557117426
 20
-127.4478623813325
 10
67.73350557117426
 20
-127.1281575203013
 10
67.69526501128799
 20
-126.8194769648229
 10
67.43722735944279
 20
-126.8194769648229
 97
        0
 97
        0
 75
     2
 76
     1
 98
        0
  0
ENDBLK
  5
44
330
41
100
AcDbEntity
  8
0
100
AcDbBlockEnd
  0
BLOCK
  5
4F
330
4D
100
AcDbEntity
  8
0
100
AcDbBlockBegin
  2
block 3
 70
     0
 10
0.0
 20
0.0
 30
0.0
  3
block 3
  1

  0
POLYLINE
  5
51
330
4D
100
AcDbEntity
  8
_U+30EC_U+30A4_U+30E4_U+30FC 1
370
     0
100
AcDb2dPolyline
 66
     1
 10
0.0
 20
0.0
 30
0.0
  0
VERTEX
  5
52
330
51
100
AcDbEntity
  8
_U+30EC_U+30A4_U+30E4_U+30FC 1
370
     0
100
AcDbVertex
100
AcDb2dVertex
 10
95.57831757593182
 20
-136.0457871838705
 30
0.0
  0
VERTEX
  5
53
330
51
100
AcDbEntity
  8
_U+30EC_U+30A4_U+30E4_U+30FC 1
370
     0
100
AcDbVertex
100
AcDb2dVertex
 10
95.57831757593182
 20
-136.3927082992352
 30
0.0
  0
VERTEX
  5
54
330
51
100
AcDbEntity
  8
_U+30EC_U+30A4_U+30E4_U+30FC 1
370
     0
100
AcDbVertex
100
AcDb2dVertex
 10
95.36058754126402
 20
-136.3927082992352
 30
0.0
  0
VERTEX
  5
55
330
51
100
AcDbEntity
  8
_U+30EC_U+30A4_U+30E4_U+30FC 1
370
     0
100
AcDbVertex
100
AcDb2dVertex
 10
95.36058754126402
 20
-136.0457871838705
 30
0.0
  0
VERTEX
  5
56
330
51
100
AcDbEntity
  8
_U+30EC_U+30A4_U+30E4_U+30FC 1
370
     0
100
AcDbVertex
100
AcDb2dVertex
 10
94.70464136087246
 20
-136.0457871838705
 30
0.0
  0
VERTEX
  5
57
330
51
100
AcDbEntity
  8
_U+30EC_U+30A4_U+30E4_U+30FC 1
370
     0
100
AcDbVertex
100
AcDb2dVertex
 10
94.70464136087246
 20
-135.8215114677807
 30
0.0
  0
VERTEX
  5
58
330
51
100
AcDbEntity
  8
_U+30EC_U+30A4_U+30E4_U+30FC 1
370
     0
100
AcDbVertex
100
AcDb2dVertex
 10
95.38366968101519
 20
-134.8482719931977
 30
0.0
  0
VERTEX
  5
59
330
51
100
AcDbEntity
  8
_U+30EC_U+30A4_U+30E4_U+30FC 1
370
     0
100
AcDbVertex
100
AcDb2dVertex
 10
95.57831757593182
 20
-134.8482719931977
 30
0.0
  0
VERTEX
  5
5A
330
51
100
AcDbEntity
  8
_U+30EC_U+30A4_U+30E4_U+30FC 1
370
     0
100
AcDbVertex
100
AcDb2dVertex
 10
95.57831757593182
 20
-135.8470051743716
 30
0.0
  0
VERTEX
  5
5B
330
51
100
AcDbEntity
  8
_U+30EC_U+30A4_U+30E4_U+30FC 1
370
     0
100
AcDbVertex
100
AcDb2dVertex
 10
95.78571232414386
 20
-135.8470051743716
 30
0.0
  0
VERTEX
  5
5C
330
51
100
AcDbEntity
  8
_U+30EC_U+30A4_U+30E4_U+30FC 1
370
     0
100
AcDbVertex
100
AcDb2dVertex
 10
95.78571232414386
 20
-136.0457871838705
 30
0.0
  0
VERTEX
  5
5D
330
51
100
AcDbEntity
  8
_U+30EC_U+30A4_U+30E4_U+30FC 1
370
     0
100
AcDbVertex
100
AcDb2dVertex
 10
95.57831757593182
 20
-136.0457871838705
 30
0.0
  0
SEQEND
  5
5E
330
51
100
AcDbEntity
  8
_U+30EC_U+30A4_U+30E4_U+30FC 1
370
     0
  0
POLYLINE
  5
5F
330
4D
100
AcDbEntity
  8
_U+30EC_U+30A4_U+30E4_U+30FC 1
370
     0
100
AcDb2dPolyline
 66
     1
 10
0.0
 20
0.0
 30
0.0
  0
VERTEX
  5
60
330
5F
100
AcDbEntity
  8
_U+30EC_U+30A4_U+30E4_U+30FC 1
370
     0
100
AcDbVertex
100
AcDb2dVertex
 10
95.36058754126402
 20
-135.19105899398
 30
0.0
  0
VERTEX
  5
61
330
5F
100
AcDbEntity
  8
_U+30EC_U+30A4_U+30E4_U+30FC 1
370
     0
100
AcDbVertex
100
AcDb2dVertex
 10
94.90342337037137
 20
-135.8470051743716
 30
0.0
  0
VERTEX
  5
62
330
5F
100
AcDbEntity
  8
_U+30EC_U+30A4_U+30E4_U+30FC 1
370
     0
100
AcDbVertex
100
AcDb2dVertex
 10
95.36058754126402
 20
-135.8470051743716
 30
0.0
  0
VERTEX
  5
63
330
5F
100
AcDbEntity
  8
_U+30EC_U+30A4_U+30E4_U+30FC 1
370
     0
100
AcDbVertex
100
AcDb2dVertex
 10
95.36058754126402
 20
-135.19105899398
 30
0.0
  0
SEQEND
  5
64
330
5F
100
AcDbEntity
  8
_U+30EC_U+30A4_U+30E4_U+30FC 1
370
     0
  0
HATCH
  5
65
330
4D
100
AcDbEntity
  8
_U+30EC_U+30A4_U+30E4_U+30FC 1
 62
   179
420
  2234388
100
AcDbHatch
 10
0.0
 20
0.0
 30
0.0
210
0.0
220
0.0
230
1.0
  2
SOLID
 70
     1
 71
     0
 91
        2
 92
        1
 93
       11
 72
     1
 10
95.57831757593182
 20
-136.0457871838705
 11
95.57831757593182
 21
-136.3927082992352
 72
     1
 10
95.57831757593182
 20
-136.3927082992352
 11
95.36058754126402
 21
-136.3927082992352
 72
     1
 10
95.36058754126402
 20
-136.3927082992352
 11
95.36058754126402
 21
-136.0457871838705
 72
     1
 10
95.36058754126402
 20
-136.0457871838705
 11
94.70464136087246
 21
-136.0457871838705
 72
     1
 10
94.70464136087246
 20
-136.0457871838705
 11
94.70464136087246
 21
-135.8215114677807
 72
     1
 10
94.70464136087246
 20
-135.8215114677807
 11
95.38366968101519
 21
-134.8482719931977
 72
     1
 10
95.38366968101519
 20
-134.8482719931977
 11
95.57831757593182
 21
-134.8482719931977
 72
     1
 10
95.57831757593182
 20
-134.8482719931977
 11
95.57831757593182
 21
-135.8470051743716
 72
     1
 10
95.57831757593182
 20
-135.8470051743716
 11
95.78571232414386
 21
-135.8470051743716
 72
     1
 10
95.78571232414386
 20
-135.8470051743716
 11
95.78571232414386
 21
-136.0457871838705
 72
     1
 10
95.78571232414386
 20
-136.0457871838705
 11
95.57831757593182
 21
-136.0457871838705
 97
        0
 92
        1
 93
        3
 72
     1
 10
95.36058754126402
 20
-135.19105899398
 11
94.90342337037137
 21
-135.8470051743716
 72
     1
 10
94.90342337037137
 20
-135.8470051743716
 11
95.36058754126402
 21
-135.8470051743716
 72
     1
 10
95.36058754126402
 20
-135.8470051743716
 11
95.36058754126402
 21
-135.19105899398
 97
        0
 75
     2
 76
     1
 98
        0
  0
SPLINE
  5
66
330
4D
100
AcDbEntity
  8
_U+30EC_U+30A4_U+30E4_U+30FC 1
370
     0
100
AcDbSpline
210
0.0
220
0.0
230
1.0
 70
    11
 71
     3
 72
    29
 73
    25
 74
     0
 42
0.0000000001
 43
0.0000000001
 12
1.0
 22
0.0
 32
0.0
 13
1.0
 23
0.0
 33
0.0
 40
0.0
 40
0.0
 40
0.0
 40
0.0
 40
1.0
 40
1.0
 40
1.0
 40
2.0
 40
2.0
 40
2.0
 40
3.0
 40
3.0
 40
3.0
 40
4.0
 40
4.0
 40
4.0
 40
5.0
 40
5.0
 40
5.0
 40
6.0
 40
6.0
 40
6.0
 40
7.0
 40
7.0
 40
7.0
 40
8.0
 40
8.0
 40
8.0
 40
8.0
 10
96.82096351746144
 20
-136.2149413721963
 30
0.0
 10
96.71278751922459
 20
-136.4244031776995
 30
0.0
 10
96.53949921631651
 20
-136.4433512028683
 30
0.0
 10
96.42305498891507
 20
-136.4433512028683
 30
0.0
 10
96.2621690297539
 20
-136.4433512028683
 30
0.0
 10
96.12057560531014
 20
-136.3968424138175
 30
0.0
 10
96.02549096991724
 20
-136.2149413721963
 30
0.0
 10
95.92179359581122
 20
-136.0202934772797
 30
0.0
 10
95.90284557064234
 20
-135.7832709078945
 30
0.0
 10
95.90284557064234
 20
-135.6206624009907
 30
0.0
 10
95.90284557064234
 20
-135.4766574097072
 30
0.0
 10
95.91972653852007
 20
-135.2248209297355
 30
0.0
 10
96.02549096991724
 20
-135.0260389202365
 30
0.0
 10
96.13332245860556
 20
-134.8231227961553
 30
0.0
 10
96.29420841776673
 20
-134.7996961468556
 30
0.0
 10
96.42305498891507
 20
-134.7996961468556
 30
0.0
 10
96.58187389078509
 20
-134.7996961468556
 30
0.0
 10
96.72553437252002
 20
-134.8441378786154
 30
0.0
 10
96.82096351746144
 20
-135.0260389202365
 30
0.0
 10
96.92018226743663
 20
-135.218619757862
 30
0.0
 10
96.94360891673632
 20
-135.4470295885341
 30
0.0
 10
96.94360891673632
 20
-135.6206624009907
 30
0.0
 10
96.94360891673632
 20
-135.7918836466076
 30
0.0
 10
96.92224932472777
 20
-136.0223605345708
 30
0.0
 10
96.82096351746144
 20
-136.2149413721963
 30
0.0
  0
SPLINE
  5
67
330
4D
100
AcDbEntity
  8
_U+30EC_U+30A4_U+30E4_U+30FC 1
370
     0
100
AcDbSpline
210
0.0
220
0.0
230
1.0
 70
    11
 71
     3
 72
    17
 73
    13
 74
     0
 42
0.0000000001
 43
0.0000000001
 12
1.0
 22
0.0
 32
0.0
 13
1.0
 23
0.0
 33
0.0
 40
0.0
 40
0.0
 40
0.0
 40
0.0
 40
1.0
 40
1.0
 40
1.0
 40
2.0
 40
2.0
 40
2.0
 40
3.0
 40
3.0
 40
3.0
 40
4.0
 40
4.0
 40
4.0
 40
4.0
 10
96.42305498891507
 20
-134.9922769844811
 30
0.0
 10
96.17363007578298
 20
-134.9922769844811
 30
0.0
 10
96.1267767771836
 20
-135.2758083429172
 30
0.0
 10
96.1267767771836
 20
-135.6206624009907
 30
0.0
 10
96.1267767771836
 20
-135.9400227524733
 30
0.0
 10
96.16295027977871
 20
-136.2487033079517
 30
0.0
 10
96.42305498891507
 20
-136.2487033079517
 30
0.0
 10
96.67075735430454
 20
-136.2487033079517
 30
0.0
 10
96.71933320064656
 20
-135.9675835163553
 30
0.0
 10
96.71933320064656
 20
-135.6206624009907
 30
0.0
 10
96.71933320064656
 20
-135.3009575399595
 30
0.0
 10
96.68109264076028
 20
-134.9922769844811
 30
0.0
 10
96.42305498891507
 20
-134.9922769844811
 30
0.0
  0
HATCH
  5
68
330
4D
100
AcDbEntity
  8
_U+30EC_U+30A4_U+30E4_U+30FC 1
 62
   179
420
  2234388
100
AcDbHatch
 10
0.0
 20
0.0
 30
0.0
210
0.0
220
0.0
230
1.0
  2
SOLID
 70
     1
 71
     0
 91
        2
 92
        1
 93
        1
 72
     4
 94
        3
 73
     0
 74
     1
 95
       29
 96
       25
 40
0.0
 40
0.0
 40
0.0
 40
0.0
 40
1.0
 40
1.0
 40
1.0
 40
2.0
 40
2.0
 40
2.0
 40
3.0
 40
3.0
 40
3.0
 40
4.0
 40
4.0
 40
4.0
 40
5.0
 40
5.0
 40
5.0
 40
6.0
 40
6.0
 40
6.0
 40
7.0
 40
7.0
 40
7.0
 40
8.0
 40
8.0
 40
8.0
 40
8.0
 10
96.82096351746144
 20
-136.2149413721963
 10
96.71278751922459
 20
-136.4244031776995
 10
96.53949921631651
 20
-136.4433512028683
 10
96.42305498891507
 20
-136.4433512028683
 10
96.2621690297539
 20
-136.4433512028683
 10
96.12057560531014
 20
-136.3968424138175
 10
96.02549096991724
 20
-136.2149413721963
 10
95.92179359581122
 20
-136.0202934772797
 10
95.90284557064234
 20
-135.7832709078945
 10
95.90284557064234
 20
-135.6206624009907
 10
95.90284557064234
 20
-135.4766574097072
 10
95.91972653852007
 20
-135.2248209297355
 10
96.02549096991724
 20
-135.0260389202365
 10
96.13332245860556
 20
-134.8231227961553
 10
96.29420841776673
 20
-134.7996961468556
 10
96.42305498891507
 20
-134.7996961468556
 10
96.58187389078509
 20
-134.7996961468556
 10
96.72553437252002
 20
-134.8441378786154
 10
96.82096351746144
 20
-135.0260389202365
 10
96.92018226743663
 20
-135.218619757862
 10
96.94360891673632
 20
-135.4470295885341
 10
96.94360891673632
 20
-135.6206624009907
 10
96.94360891673632
 20
-135.7918836466076
 10
96.92224932472777
 20
-136.0223605345708
 10
96.82096351746144
 20
-136.2149413721963
 97
        0
 97
        0
 92
        1
 93
        1
 72
     4
 94
        3
 73
     0
 74
     1
 95
       17
 96
       13
 40
0.0
 40
0.0
 40
0.0
 40
0.0
 40
1.0
 40
1.0
 40
1.0
 40
2.0
 40
2.0
 40
2.0
 40
3.0
 40
3.0
 40
3.0
 40
4.0
 40
4.0
 40
4.0
 40
4.0
 10
96.42305498891507
 20
-134.9922769844811
 10
96.17363007578298
 20
-134.9922769844811
 10
96.1267767771836
 20
-135.2758083429172
 10
96.1267767771836
 20
-135.6206624009907
 10
96.1267767771836
 20
-135.9400227524733
 10
96.16295027977871
 20
-136.2487033079517
 10
96.42305498891507
 20
-136.2487033079517
 10
96.67075735430454
 20
-136.2487033079517
 10
96.71933320064656
 20
-135.9675835163553
 10
96.71933320064656
 20
-135.6206624009907
 10
96.71933320064656
 20
-135.3009575399595
 10
96.68109264076028
 20
-134.9922769844811
 10
96.42305498891507
 20
-134.9922769844811
 97
        0
 97
        0
 75
     2
 76
     1
 98
        0
  0
SPLINE
  5
69
330
4D
100
AcDbEntity
  8
_U+30EC_U+30A4_U+30E4_U+30FC 1
370
     0
100
AcDbSpline
210
0.0
220
0.0
230
1.0
 70
    11
 71
     3
 72
    29
 73
    25
 74
     0
 42
0.0000000001
 43
0.0000000001
 12
1.0
 22
0.0
 32
0.0
 13
1.0
 23
0.0
 33
0.0
 40
0.0
 40
0.0
 40
0.0
 40
0.0
 40
1.0
 40
1.0
 40
1.0
 40
2.0
 40
2.0
 40
2.0
 40
3.0
 40
3.0
 40
3.0
 40
4.0
 40
4.0
 40
4.0
 40
5.0
 40
5.0
 40
5.0
 40
6.0
 40
6.0
 40
6.0
 40
7.0
 40
7.0
 40
7.0
 40
8.0
 40
8.0
 40
8.0
 40
8.0
 10
97.99780813522277
 20
-136.2149413721963
 30
0.0
 10
97.88963213698592
 20
-136.4244031776995
 30
0.0
 10
97.71634383407786
 20
-136.4433512028683
 30
0.0
 10
97.59989960667642
 20
-136.4433512028683
 30
0.0
 10
97.43901364751525
 20
-136.4433512028683
 30
0.0
 10
97.29742022307148
 20
-136.3968424138175
 30
0.0
 10
97.20233558767859
 20
-136.2149413721963
 30
0.0
 10
97.09863821357257
 20
-136.0202934772797
 30
0.0
 10
97.07969018840369
 20
-135.7832709078945
 30
0.0
 10
97.07969018840369
 20
-135.6206624009907
 30
0.0
 10
97.07969018840369
 20
-135.4766574097072
 30
0.0
 10
97.09657115628141
 20
-135.2248209297355
 30
0.0
 10
97.20233558767859
 20
-135.0260389202365
 30
0.0
 10
97.31016707636691
 20
-134.8231227961553
 30
0.0
 10
97.47105303552807
 20
-134.7996961468556
 30
0.0
 10
97.59989960667642
 20
-134.7996961468556
 30
0.0
 10
97.75871850854644
 20
-134.7996961468556
 30
0.0
 10
97.90237899028135
 20
-134.8441378786154
 30
0.0
 10
97.99780813522277
 20
-135.0260389202365
 30
0.0
 10
98.09702688519798
 20
-135.218619757862
 30
0.0
 10
98.12045353449767
 20
-135.4470295885341
 30
0.0
 10
98.12045353449767
 20
-135.6206624009907
 30
0.0
 10
98.12045353449767
 20
-135.7918836466076
 30
0.0
 10
98.09909394248912
 20
-136.0223605345708
 30
0.0
 10
97.99780813522277
 20
-136.2149413721963
 30
0.0
  0
SPLINE
  5
6A
330
4D
100
AcDbEntity
  8
_U+30EC_U+30A4_U+30E4_U+30FC 1
370
     0
100
AcDbSpline
210
0.0
220
0.0
230
1.0
 70
    11
 71
     3
 72
    17
 73
    13
 74
     0
 42
0.0000000001
 43
0.0000000001
 12
1.0
 22
0.0
 32
0.0
 13
1.0
 23
0.0
 33
0.0
 40
0.0
 40
0.0
 40
0.0
 40
0.0
 40
1.0
 40
1.0
 40
1.0
 40
2.0
 40
2.0
 40
2.0
 40
3.0
 40
3.0
 40
3.0
 40
4.0
 40
4.0
 40
4.0
 40
4.0
 10
97.59989960667642
 20
-134.9922769844811
 30
0.0
 10
97.35047469354433
 20
-134.9922769844811
 30
0.0
 10
97.30362139494493
 20
-135.2758083429172
 30
0.0
 10
97.30362139494493
 20
-135.6206624009907
 30
0.0
 10
97.30362139494493
 20
-135.9400227524733
 30
0.0
 10
97.33979489754006
 20
-136.2487033079517
 30
0.0
 10
97.59989960667642
 20
-136.2487033079517
 30
0.0
 10
97.84760197206589
 20
-136.2487033079517
 30
0.0
 10
97.8961778184079
 20
-135.9675835163553
 30
0.0
 10
97.8961778184079
 20
-135.6206624009907
 30
0.0
 10
97.8961778184079
 20
-135.3009575399595
 30
0.0
 10
97.85793725852163
 20
-134.9922769844811
 30
0.0
 10
97.59989960667642
 20
-134.9922769844811
 30
0.0
  0
HATCH
  5
6B
330
4D
100
AcDbEntity
  8
_U+30EC_U+30A4_U+30E4_U+30FC 1
 62
   179
420
  2234388
100
AcDbHatch
 10
0.0
 20
0.0
 30
0.0
210
0.0
220
0.0
230
1.0
  2
SOLID
 70
     1
 71
     0
 91
        2
 92
        1
 93
        1
 72
     4
 94
        3
 73
     0
 74
     1
 95
       29
 96
       25
 40
0.0
 40
0.0
 40
0.0
 40
0.0
 40
1.0
 40
1.0
 40
1.0
 40
2.0
 40
2.0
 40
2.0
 40
3.0
 40
3.0
 40
3.0
 40
4.0
 40
4.0
 40
4.0
 40
5.0
 40
5.0
 40
5.0
 40
6.0
 40
6.0
 40
6.0
 40
7.0
 40
7.0
 40
7.0
 40
8.0
 40
8.0
 40
8.0
 40
8.0
 10
97.99780813522277
 20
-136.2149413721963
 10
97.88963213698592
 20
-136.4244031776995
 10
97.71634383407786
 20
-136.4433512028683
 10
97.59989960667642
 20
-136.4433512028683
 10
97.43901364751525
 20
-136.4433512028683
 10
97.29742022307148
 20
-136.3968424138175
 10
97.20233558767859
 20
-136.2149413721963
 10
97.09863821357257
 20
-136.0202934772797
 10
97.07969018840369
 20
-135.7832709078945
 10
97.07969018840369
 20
-135.6206624009907
 10
97.07969018840369
 20
-135.4766574097072
 10
97.09657115628141
 20
-135.2248209297355
 10
97.20233558767859
 20
-135.0260389202365
 10
97.31016707636691
 20
-134.8231227961553
 10
97.47105303552807
 20
-134.7996961468556
 10
97.59989960667642
 20
-134.7996961468556
 10
97.75871850854644
 20
-134.7996961468556
 10
97.90237899028135
 20
-134.8441378786154
 10
97.99780813522277
 20
-135.0260389202365
 10
98.09702688519798
 20
-135.218619757862
 10
98.12045353449767
 20
-135.4470295885341
 10
98.12045353449767
 20
-135.6206624009907
 10
98.12045353449767
 20
-135.7918836466076
 10
98.09909394248912
 20
-136.0223605345708
 10
97.99780813522277
 20
-136.2149413721963
 97
        0
 97
        0
 92
        1
 93
        1
 72
     4
 94
        3
 73
     0
 74
     1
 95
       17
 96
       13
 40
0.0
 40
0.0
 40
0.0
 40
0.0
 40
1.0
 40
1.0
 40
1.0
 40
2.0
 40
2.0
 40
2.0
 40
3.0
 40
3.0
 40
3.0
 40
4.0
 40
4.0
 40
4.0
 40
4.0
 10
97.59989960667642
 20
-134.9922769844811
 10
97.35047469354433
 20
-134.9922769844811
 10
97.30362139494493
 20
-135.2758083429172
 10
97.30362139494493
 20
-135.6206624009907
 10
97.30362139494493
 20
-135.9400227524733
 10
97.33979489754006
 20
-136.2487033079517
 10
97.59989960667642
 20
-136.2487033079517
 10
97.84760197206589
 20
-136.2487033079517
 10
97.8961778184079
 20
-135.9675835163553
 10
97.8961778184079
 20
-135.6206624009907
 10
97.8961778184079
 20
-135.3009575399595
 10
97.85793725852163
 20
-134.9922769844811
 10
97.59989960667642
 20
-134.9922769844811
 97
        0
 97
        0
 75
     2
 76
     1
 98
        0
  0
ENDBLK
  5
50
330
4D
100
AcDbEntity
  8
0
100
AcDbBlockEnd
  0
BLOCK
  5
6E
330
6C
100
AcDbEntity
  8
0
100
AcDbBlockBegin
  2
block 4
 70
     0
 10
0.0
 20
0.0
 30
0.0
  3
block 4
  1

  0
SPLINE
  5
70
330
6C
100
AcDbEntity
  8
_U+30EC_U+30A4_U+30E4_U+30FC 1
370
     0
100
AcDbSpline
210
0.0
220
0.0
230
1.0
 70
    11
 71
     3
 72
    44
 73
    40
 74
     0
 42
0.0000000001
 43
0.0000000001
 12
1.0
 22
0.0
 32
0.0
 13
1.0
 23
0.0
 33
0.0
 40
0.0
 40
0.0
 40
0.0
 40
0.0
 40
1.0
 40
1.0
 40
1.0
 40
2.0
 40
2.0
 40
2.0
 40
3.0
 40
3.0
 40
3.0
 40
4.0
 40
4.0
 40
4.0
 40
5.0
 40
5.0
 40
5.0
 40
6.0
 40
6.0
 40
6.0
 40
7.0
 40
7.0
 40
7.0
 40
8.0
 40
8.0
 40
8.0
 40
9.0
 40
9.0
 40
9.0
 40
10.0
 40
10.0
 40
10.0
 40
11.0
 40
11.0
 40
11.0
 40
12.0
 40
12.0
 40
12.0
 40
13.0
 40
13.0
 40
13.0
 40
13.0
 10
98.5138834389132
 20
-116.1141872539576
 30
0.0
 10
98.29615340424542
 20
-116.2730061558276
 30
0.0
 10
98.20313582614367
 20
-116.3470757087605
 30
0.0
 10
98.15421547025312
 20
-116.4907361904954
 30
0.0
 10
98.15421547025312
 20
-116.4907361904954
 30
0.0
 10
98.93280704991957
 20
-116.4907361904954
 30
0.0
 10
98.93280704991957
 20
-116.4907361904954
 30
0.0
 10
98.93280704991957
 20
-116.4907361904954
 30
0.0
 10
98.93280704991957
 20
-116.6960638814163
 30
0.0
 10
98.93280704991957
 20
-116.6960638814163
 30
0.0
 10
98.93280704991957
 20
-116.6960638814163
 30
0.0
 10
97.90479055712103
 20
-116.6960638814163
 30
0.0
 10
97.90479055712103
 20
-116.6960638814163
 30
0.0
 10
97.93648543558533
 20
-116.3384629700473
 30
0.0
 10
98.00194224980507
 20
-116.2602593025322
 30
0.0
 10
98.38710392505601
 20
-115.9619140335095
 30
0.0
 10
98.64307451961007
 20
-115.7631320240106
 30
0.0
 10
98.70853133382981
 20
-115.6952636429512
 30
0.0
 10
98.70853133382981
 20
-115.5578043330897
 30
0.0
 10
98.70853133382981
 20
-115.4392930483971
 30
0.0
 10
98.6365288381881
 20
-115.3083794199576
 30
0.0
 10
98.43981388598033
 20
-115.3083794199576
 30
0.0
 10
98.17970917684397
 20
-115.3083794199576
 30
0.0
 10
98.17144094767937
 20
-115.5388563079209
 30
0.0
 10
98.16696232354855
 20
-115.6553005353223
 30
0.0
 10
98.16696232354855
 20
-115.6553005353223
 30
0.0
 10
97.94268660745878
 20
-115.6553005353223
 30
0.0
 10
97.94268660745878
 20
-115.6553005353223
 30
0.0
 10
97.95129934617191
 20
-115.5281765119166
 30
0.0
 10
97.96197914217618
 20
-115.416210908646
 30
0.0
 10
98.0422498669825
 20
-115.2976996239534
 30
0.0
 10
98.15214841296196
 20
-115.1368136647922
 30
0.0
 10
98.33852807871398
 20
-115.1030517290367
 30
0.0
 10
98.4546277965669
 20
-115.1030517290367
 30
0.0
 10
98.73195798312952
 20
-115.1030517290367
 30
0.0
 10
98.93935273134156
 20
-115.2870198279491
 30
0.0
 10
98.93935273134156
 20
-115.5598713903809
 30
0.0
 10
98.93935273134156
 20
-115.7886257306015
 30
0.0
 10
98.82290850394011
 20
-115.8878444805767
 30
0.0
 10
98.5138834389132
 20
-116.1141872539576
 30
0.0
  0
HATCH
  5
71
330
6C
100
AcDbEntity
  8
_U+30EC_U+30A4_U+30E4_U+30FC 1
 62
   179
420
  2234388
100
AcDbHatch
 10
0.0
 20
0.0
 30
0.0
210
0.0
220
0.0
230
1.0
  2
SOLID
 70
     1
 71
     0
 91
        1
 92
        1
 93
        1
 72
     4
 94
        3
 73
     0
 74
     1
 95
       44
 96
       40
 40
0.0
 40
0.0
 40
0.0
 40
0.0
 40
1.0
 40
1.0
 40
1.0
 40
2.0
 40
2.0
 40
2.0
 40
3.0
 40
3.0
 40
3.0
 40
4.0
 40
4.0
 40
4.0
 40
5.0
 40
5.0
 40
5.0
 40
6.0
 40
6.0
 40
6.0
 40
7.0
 40
7.0
 40
7.0
 40
8.0
 40
8.0
 40
8.0
 40
9.0
 40
9.0
 40
9.0
 40
10.0
 40
10.0
 40
10.0
 40
11.0
 40
11.0
 40
11.0
 40
12.0
 40
12.0
 40
12.0
 40
13.0
 40
13.0
 40
13.0
 40
13.0
 10
98.5138834389132
 20
-116.1141872539576
 10
98.29615340424542
 20
-116.2730061558276
 10
98.20313582614367
 20
-116.3470757087605
 10
98.15421547025312
 20
-116.4907361904954
 10
98.15421547025312
 20
-116.4907361904954
 10
98.93280704991957
 20
-116.4907361904954
 10
98.93280704991957
 20
-116.4907361904954
 10
98.93280704991957
 20
-116.4907361904954
 10
98.93280704991957
 20
-116.6960638814163
 10
98.93280704991957
 20
-116.6960638814163
 10
98.93280704991957
 20
-116.6960638814163
 10
97.90479055712103
 20
-116.6960638814163
 10
97.90479055712103
 20
-116.6960638814163
 10
97.93648543558533
 20
-116.3384629700473
 10
98.00194224980507
 20
-116.2602593025322
 10
98.38710392505601
 20
-115.9619140335095
 10
98.64307451961007
 20
-115.7631320240106
 10
98.70853133382981
 20
-115.6952636429512
 10
98.70853133382981
 20
-115.5578043330897
 10
98.70853133382981
 20
-115.4392930483971
 10
98.6365288381881
 20
-115.3083794199576
 10
98.43981388598033
 20
-115.3083794199576
 10
98.17970917684397
 20
-115.3083794199576
 10
98.17144094767937
 20
-115.5388563079209
 10
98.16696232354855
 20
-115.6553005353223
 10
98.16696232354855
 20
-115.6553005353223
 10
97.94268660745878
 20
-115.6553005353223
 10
97.94268660745878
 20
-115.6553005353223
 10
97.95129934617191
 20
-115.5281765119166
 10
97.96197914217618
 20
-115.416210908646
 10
98.0422498669825
 20
-115.2976996239534
 10
98.15214841296196
 20
-115.1368136647922
 10
98.33852807871398
 20
-115.1030517290367
 10
98.4546277965669
 20
-115.1030517290367
 10
98.73195798312952
 20
-115.1030517290367
 10
98.93935273134156
 20
-115.2870198279491
 10
98.93935273134156
 20
-115.5598713903809
 10
98.93935273134156
 20
-115.7886257306015
 10
98.82290850394011
 20
-115.8878444805767
 10
98.5138834389132
 20
-116.1141872539576
 97
        0
 97
        0
 75
     2
 76
     1
 98
        0
  0
SPLINE
  5
72
330
6C
100
AcDbEntity
  8
_U+30EC_U+30A4_U+30E4_U+30FC 1
370
     0
100
AcDbSpline
210
0.0
220
0.0
230
1.0
 70
    11
 71
     3
 72
    29
 73
    25
 74
     0
 42
0.0000000001
 43
0.0000000001
 12
1.0
 22
0.0
 32
0.0
 13
1.0
 23
0.0
 33
0.0
 40
0.0
 40
0.0
 40
0.0
 40
0.0
 40
1.0
 40
1.0
 40
1.0
 40
2.0
 40
2.0
 40
2.0
 40
3.0
 40
3.0
 40
3.0
 40
4.0
 40
4.0
 40
4.0
 40
5.0
 40
5.0
 40
5.0
 40
6.0
 40
6.0
 40
6.0
 40
7.0
 40
7.0
 40
7.0
 40
8.0
 40
8.0
 40
8.0
 40
8.0
 10
99.99561900711916
 20
-116.5182969543774
 30
0.0
 10
99.88744300888231
 20
-116.7277587598806
 30
0.0
 10
99.71415470597424
 20
-116.7467067850494
 30
0.0
 10
99.5977104785728
 20
-116.7467067850494
 30
0.0
 10
99.43682451941163
 20
-116.7467067850494
 30
0.0
 10
99.29523109496786
 20
-116.7001979959986
 30
0.0
 10
99.20014645957497
 20
-116.5182969543774
 30
0.0
 10
99.09644908546895
 20
-116.3236490594608
 30
0.0
 10
99.07750106030008
 20
-116.0866264900756
 30
0.0
 10
99.07750106030008
 20
-115.9240179831718
 30
0.0
 10
99.07750106030008
 20
-115.7800129918883
 30
0.0
 10
99.0943820281778
 20
-115.5281765119166
 30
0.0
 10
99.20014645957497
 20
-115.3293945024177
 30
0.0
 10
99.30797794826329
 20
-115.1264783783364
 30
0.0
 10
99.46886390742445
 20
-115.1030517290367
 30
0.0
 10
99.5977104785728
 20
-115.1030517290367
 30
0.0
 10
99.75652938044281
 20
-115.1030517290367
 30
0.0
 10
99.90018986217774
 20
-115.1474934607965
 30
0.0
 10
99.99561900711916
 20
-115.3293945024177
 30
0.0
 10
100.0948377570944
 20
-115.5219753400431
 30
0.0
 10
100.118264406394
 20
-115.7503851707152
 30
0.0
 10
100.118264406394
 20
-115.9240179831718
 30
0.0
 10
100.118264406394
 20
-116.0952392287887
 30
0.0
 10
100.0969048143855
 20
-116.3257161167519
 30
0.0
 10
99.99561900711916
 20
-116.5182969543774
 30
0.0
  0
SPLINE
  5
73
330
6C
100
AcDbEntity
  8
_U+30EC_U+30A4_U+30E4_U+30FC 1
370
     0
100
AcDbSpline
210
0.0
220
0.0
230
1.0
 70
    11
 71
     3
 72
    17
 73
    13
 74
     0
 42
0.0000000001
 43
0.0000000001
 12
1.0
 22
0.0
 32
0.0
 13
1.0
 23
0.0
 33
0.0
 40
0.0
 40
0.0
 40
0.0
 40
0.0
 40
1.0
 40
1.0
 40
1.0
 40
2.0
 40
2.0
 40
2.0
 40
3.0
 40
3.0
 40
3.0
 40
4.0
 40
4.0
 40
4.0
 40
4.0
 10
99.5977104785728
 20
-115.2956325666622
 30
0.0
 10
99.3482855654407
 20
-115.2956325666622
 30
0.0
 10
99.30143226684132
 20
-115.5791639250983
 30
0.0
 10
99.30143226684132
 20
-115.9240179831718
 30
0.0
 10
99.30143226684132
 20
-116.2433783346544
 30
0.0
 10
99.33760576943644
 20
-116.5520588901328
 30
0.0
 10
99.5977104785728
 20
-116.5520588901328
 30
0.0
 10
99.84541284396227
 20
-116.5520588901328
 30
0.0
 10
99.89398869030428
 20
-116.2709390985364
 30
0.0
 10
99.89398869030428
 20
-115.9240179831718
 30
0.0
 10
99.89398869030428
 20
-115.6043131221406
 30
0.0
 10
99.85574813041801
 20
-115.2956325666622
 30
0.0
 10
99.5977104785728
 20
-115.2956325666622
 30
0.0
  0
HATCH
  5
74
330
6C
100
AcDbEntity
  8
_U+30EC_U+30A4_U+30E4_U+30FC 1
 62
   179
420
  2234388
100
AcDbHatch
 10
0.0
 20
0.0
 30
0.0
210
0.0
220
0.0
230
1.0
  2
SOLID
 70
     1
 71
     0
 91
        2
 92
        1
 93
        1
 72
     4
 94
        3
 73
     0
 74
     1
 95
       29
 96
       25
 40
0.0
 40
0.0
 40
0.0
 40
0.0
 40
1.0
 40
1.0
 40
1.0
 40
2.0
 40
2.0
 40
2.0
 40
3.0
 40
3.0
 40
3.0
 40
4.0
 40
4.0
 40
4.0
 40
5.0
 40
5.0
 40
5.0
 40
6.0
 40
6.0
 40
6.0
 40
7.0
 40
7.0
 40
7.0
 40
8.0
 40
8.0
 40
8.0
 40
8.0
 10
99.99561900711916
 20
-116.5182969543774
 10
99.88744300888231
 20
-116.7277587598806
 10
99.71415470597424
 20
-116.7467067850494
 10
99.5977104785728
 20
-116.7467067850494
 10
99.43682451941163
 20
-116.7467067850494
 10
99.29523109496786
 20
-116.7001979959986
 10
99.20014645957497
 20
-116.5182969543774
 10
99.09644908546895
 20
-116.3236490594608
 10
99.07750106030008
 20
-116.0866264900756
 10
99.07750106030008
 20
-115.9240179831718
 10
99.07750106030008
 20
-115.7800129918883
 10
99.0943820281778
 20
-115.5281765119166
 10
99.20014645957497
 20
-115.3293945024177
 10
99.30797794826329
 20
-115.1264783783364
 10
99.46886390742445
 20
-115.1030517290367
 10
99.5977104785728
 20
-115.1030517290367
 10
99.75652938044281
 20
-115.1030517290367
 10
99.90018986217774
 20
-115.1474934607965
 10
99.99561900711916
 20
-115.3293945024177
 10
100.0948377570944
 20
-115.5219753400431
 10
100.118264406394
 20
-115.7503851707152
 10
100.118264406394
 20
-115.9240179831718
 10
100.118264406394
 20
-116.0952392287887
 10
100.0969048143855
 20
-116.3257161167519
 10
99.99561900711916
 20
-116.5182969543774
 97
        0
 97
        0
 92
        1
 93
        1
 72
     4
 94
        3
 73
     0
 74
     1
 95
       17
 96
       13
 40
0.0
 40
0.0
 40
0.0
 40
0.0
 40
1.0
 40
1.0
 40
1.0
 40
2.0
 40
2.0
 40
2.0
 40
3.0
 40
3.0
 40
3.0
 40
4.0
 40
4.0
 40
4.0
 40
4.0
 10
99.5977104785728
 20
-115.2956325666622
 10
99.3482855654407
 20
-115.2956325666622
 10
99.30143226684132
 20
-115.5791639250983
 10
99.30143226684132
 20
-115.9240179831718
 10
99.30143226684132
 20
-116.2433783346544
 10
99.33760576943644
 20
-116.5520588901328
 10
99.5977104785728
 20
-116.5520588901328
 10
99.84541284396227
 20
-116.5520588901328
 10
99.89398869030428
 20
-116.2709390985364
 10
99.89398869030428
 20
-115.9240179831718
 10
99.89398869030428
 20
-115.6043131221406
 10
99.85574813041801
 20
-115.2956325666622
 10
99.5977104785728
 20
-115.2956325666622
 97
        0
 97
        0
 75
     2
 76
     1
 98
        0
  0
SPLINE
  5
75
330
6C
100
AcDbEntity
  8
_U+30EC_U+30A4_U+30E4_U+30FC 1
370
     0
100
AcDbSpline
210
0.0
220
0.0
230
1.0
 70
    11
 71
     3
 72
    29
 73
    25
 74
     0
 42
0.0000000001
 43
0.0000000001
 12
1.0
 22
0.0
 32
0.0
 13
1.0
 23
0.0
 33
0.0
 40
0.0
 40
0.0
 40
0.0
 40
0.0
 40
1.0
 40
1.0
 40
1.0
 40
2.0
 40
2.0
 40
2.0
 40
3.0
 40
3.0
 40
3.0
 40
4.0
 40
4.0
 40
4.0
 40
5.0
 40
5.0
 40
5.0
 40
6.0
 40
6.0
 40
6.0
 40
7.0
 40
7.0
 40
7.0
 40
8.0
 40
8.0
 40
8.0
 40
8.0
 10
101.1724636248805
 20
-116.5182969543774
 30
0.0
 10
101.0642876266437
 20
-116.7277587598806
 30
0.0
 10
100.8909993237356
 20
-116.7467067850494
 30
0.0
 10
100.7745550963341
 20
-116.7467067850494
 30
0.0
 10
100.613669137173
 20
-116.7467067850494
 30
0.0
 10
100.4720757127292
 20
-116.7001979959986
 30
0.0
 10
100.3769910773363
 20
-116.5182969543774
 30
0.0
 10
100.2732937032303
 20
-116.3236490594608
 30
0.0
 10
100.2543456780614
 20
-116.0866264900756
 30
0.0
 10
100.2543456780614
 20
-115.9240179831718
 30
0.0
 10
100.2543456780614
 20
-115.7800129918883
 30
0.0
 10
100.2712266459391
 20
-115.5281765119166
 30
0.0
 10
100.3769910773363
 20
-115.3293945024177
 30
0.0
 10
100.4848225660246
 20
-115.1264783783364
 30
0.0
 10
100.6457085251858
 20
-115.1030517290367
 30
0.0
 10
100.7745550963341
 20
-115.1030517290367
 30
0.0
 10
100.9333739982042
 20
-115.1030517290367
 30
0.0
 10
101.0770344799391
 20
-115.1474934607965
 30
0.0
 10
101.1724636248805
 20
-115.3293945024177
 30
0.0
 10
101.2716823748557
 20
-115.5219753400431
 30
0.0
 10
101.2951090241554
 20
-115.7503851707152
 30
0.0
 10
101.2951090241554
 20
-115.9240179831718
 30
0.0
 10
101.2951090241554
 20
-116.0952392287887
 30
0.0
 10
101.2737494321468
 20
-116.3257161167519
 30
0.0
 10
101.1724636248805
 20
-116.5182969543774
 30
0.0
  0
SPLINE
  5
76
330
6C
100
AcDbEntity
  8
_U+30EC_U+30A4_U+30E4_U+30FC 1
370
     0
100
AcDbSpline
210
0.0
220
0.0
230
1.0
 70
    11
 71
     3
 72
    17
 73
    13
 74
     0
 42
0.0000000001
 43
0.0000000001
 12
1.0
 22
0.0
 32
0.0
 13
1.0
 23
0.0
 33
0.0
 40
0.0
 40
0.0
 40
0.0
 40
0.0
 40
1.0
 40
1.0
 40
1.0
 40
2.0
 40
2.0
 40
2.0
 40
3.0
 40
3.0
 40
3.0
 40
4.0
 40
4.0
 40
4.0
 40
4.0
 10
100.7745550963341
 20
-115.2956325666622
 30
0.0
 10
100.5251301832021
 20
-115.2956325666622
 30
0.0
 10
100.4782768846027
 20
-115.5791639250983
 30
0.0
 10
100.4782768846027
 20
-115.9240179831718
 30
0.0
 10
100.4782768846027
 20
-116.2433783346544
 30
0.0
 10
100.5144503871978
 20
-116.5520588901328
 30
0.0
 10
100.7745550963341
 20
-116.5520588901328
 30
0.0
 10
101.0222574617236
 20
-116.5520588901328
 30
0.0
 10
101.0708333080656
 20
-116.2709390985364
 30
0.0
 10
101.0708333080656
 20
-115.9240179831718
 30
0.0
 10
101.0708333080656
 20
-115.6043131221406
 30
0.0
 10
101.0325927481794
 20
-115.2956325666622
 30
0.0
 10
100.7745550963341
 20
-115.2956325666622
 30
0.0
  0
HATCH
  5
77
330
6C
100
AcDbEntity
  8
_U+30EC_U+30A4_U+30E4_U+30FC 1
 62
   179
420
  2234388
100
AcDbHatch
 10
0.0
 20
0.0
 30
0.0
210
0.0
220
0.0
230
1.0
  2
SOLID
 70
     1
 71
     0
 91
        2
 92
        1
 93
        1
 72
     4
 94
        3
 73
     0
 74
     1
 95
       29
 96
       25
 40
0.0
 40
0.0
 40
0.0
 40
0.0
 40
1.0
 40
1.0
 40
1.0
 40
2.0
 40
2.0
 40
2.0
 40
3.0
 40
3.0
 40
3.0
 40
4.0
 40
4.0
 40
4.0
 40
5.0
 40
5.0
 40
5.0
 40
6.0
 40
6.0
 40
6.0
 40
7.0
 40
7.0
 40
7.0
 40
8.0
 40
8.0
 40
8.0
 40
8.0
 10
101.1724636248805
 20
-116.5182969543774
 10
101.0642876266437
 20
-116.7277587598806
 10
100.8909993237356
 20
-116.7467067850494
 10
100.7745550963341
 20
-116.7467067850494
 10
100.613669137173
 20
-116.7467067850494
 10
100.4720757127292
 20
-116.7001979959986
 10
100.3769910773363
 20
-116.5182969543774
 10
100.2732937032303
 20
-116.3236490594608
 10
100.2543456780614
 20
-116.0866264900756
 10
100.2543456780614
 20
-115.9240179831718
 10
100.2543456780614
 20
-115.7800129918883
 10
100.2712266459391
 20
-115.5281765119166
 10
100.3769910773363
 20
-115.3293945024177
 10
100.4848225660246
 20
-115.1264783783364
 10
100.6457085251858
 20
-115.1030517290367
 10
100.7745550963341
 20
-115.1030517290367
 10
100.9333739982042
 20
-115.1030517290367
 10
101.0770344799391
 20
-115.1474934607965
 10
101.1724636248805
 20
-115.3293945024177
 10
101.2716823748557
 20
-115.5219753400431
 10
101.2951090241554
 20
-115.7503851707152
 10
101.2951090241554
 20
-115.9240179831718
 10
101.2951090241554
 20
-116.0952392287887
 10
101.2737494321468
 20
-116.3257161167519
 10
101.1724636248805
 20
-116.5182969543774
 97
        0
 97
        0
 92
        1
 93
        1
 72
     4
 94
        3
 73
     0
 74
     1
 95
       17
 96
       13
 40
0.0
 40
0.0
 40
0.0
 40
0.0
 40
1.0
 40
1.0
 40
1.0
 40
2.0
 40
2.0
 40
2.0
 40
3.0
 40
3.0
 40
3.0
 40
4.0
 40
4.0
 40
4.0
 40
4.0
 10
100.7745550963341
 20
-115.2956325666622
 10
100.5251301832021
 20
-115.2956325666622
 10
100.4782768846027
 20
-115.5791639250983
 10
100.4782768846027
 20
-115.9240179831718
 10
100.4782768846027
 20
-116.2433783346544
 10
100.5144503871978
 20
-116.5520588901328
 10
100.7745550963341
 20
-116.5520588901328
 10
101.0222574617236
 20
-116.5520588901328
 10
101.0708333080656
 20
-116.2709390985364
 10
101.0708333080656
 20
-115.9240179831718
 10
101.0708333080656
 20
-115.6043131221406
 10
101.0325927481794
 20
-115.2956325666622
 10
100.7745550963341
 20
-115.2956325666622
 97
        0
 97
        0
 75
     2
 76
     1
 98
        0
  0
ENDBLK
  5
6F
330
6C
100
AcDbEntity
  8
0
100
AcDbBlockEnd
  0
BLOCK
  5
A2
330
A0
100
AcDbEntity
  8
0
100
AcDbBlockBegin
  2
block 5
 70
     0
 10
0.0
 20
0.0
 30
0.0
  3
block 5
  1

  0
POLYLINE
  5
A4
330
A0
100
AcDbEntity
  8
_U+30EC_U+30A4_U+30E4_U+30FC 1
 62
   179
420
  2234388
370
     9
100
AcDb2dPolyline
 66
     1
 10
0.0
 20
0.0
 30
0.0
  0
VERTEX
  5
A5
330
A4
100
AcDbEntity
  8
_U+30EC_U+30A4_U+30E4_U+30FC 1
 62
   179
420
  2234388
370
     9
100
AcDbVertex
100
AcDb2dVertex
 10
47.45189073384586
 20
-135.9992905215557
 30
0.0
  0
VERTEX
  5
A6
330
A4
100
AcDbEntity
  8
_U+30EC_U+30A4_U+30E4_U+30FC 1
 62
   179
420
  2234388
370
     9
100
AcDbVertex
100
AcDb2dVertex
 10
117.2303808980927
 20
-112.1395888608541
 30
0.0
  0
SEQEND
  5
A7
330
A4
100
AcDbEntity
  8
_U+30EC_U+30A4_U+30E4_U+30FC 1
 62
   179
420
  2234388
370
     9
  0
SPLINE
  5
A8
330
A0
100
AcDbEntity
  8
_U+30EC_U+30A4_U+30E4_U+30FC 1
 62
   179
420
  2234388
370
     9
100
AcDbSpline
210
0.0
220
0.0
230
1.0
 70
    11
 71
     3
 72
    17
 73
    13
 74
     0
 42
0.0000000001
 43
0.0000000001
 12
1.0
 22
0.0
 32
0.0
 13
1.0
 23
0.0
 33
0.0
 40
0.0
 40
0.0
 40
0.0
 40
0.0
 40
1.0
 40
1.0
 40
1.0
 40
2.0
 40
2.0
 40
2.0
 40
3.0
 40
3.0
 40
3.0
 40
4.0
 40
4.0
 40
4.0
 40
4.0
 10
47.50805295463526
 20
-135.9992905215557
 30
0.0
 10
47.50805295463526
 20
-135.9717032993404
 30
0.0
 10
47.48565276590621
 20
-135.9493371882352
 30
0.0
 10
47.45774684480757
 20
-135.9493371882352
 30
0.0
 10
47.43019490106603
 20
-135.9493371882352
 30
0.0
 10
47.40779351274865
 20
-135.9717032993404
 30
0.0
 10
47.40779351274865
 20
-135.9992905215557
 30
0.0
 10
47.40779351274865
 20
-136.0271952437712
 30
0.0
 10
47.43019490106603
 20
-136.0492438548768
 30
0.0
 10
47.45774684480757
 20
-136.0492438548768
 30
0.0
 10
47.48565276590621
 20
-136.0492438548768
 30
0.0
 10
47.50805295463526
 20
-136.0271952437712
 30
0.0
 10
47.50805295463526
 20
-135.9992905215557
 30
0.0
  0
HATCH
  5
A9
330
A0
100
AcDbEntity
  8
_U+30EC_U+30A4_U+30E4_U+30FC 1
 62
   179
420
  2234388
100
AcDbHatch
 10
0.0
 20
0.0
 30
0.0
210
0.0
220
0.0
230
1.0
  2
SOLID
 70
     1
 71
     0
 91
        1
 92
        1
 93
        1
 72
     4
 94
        3
 73
     0
 74
     1
 95
       17
 96
       13
 40
0.0
 40
0.0
 40
0.0
 40
0.0
 40
1.0
 40
1.0
 40
1.0
 40
2.0
 40
2.0
 40
2.0
 40
3.0
 40
3.0
 40
3.0
 40
4.0
 40
4.0
 40
4.0
 40
4.0
 10
47.50805295463526
 20
-135.9992905215557
 10
47.50805295463526
 20
-135.9717032993404
 10
47.48565276590621
 20
-135.9493371882352
 10
47.45774684480757
 20
-135.9493371882352
 10
47.43019490106603
 20
-135.9493371882352
 10
47.40779351274865
 20
-135.9717032993404
 10
47.40779351274865
 20
-135.9992905215557
 10
47.40779351274865
 20
-136.0271952437712
 10
47.43019490106603
 20
-136.0492438548768
 10
47.45774684480757
 20
-136.0492438548768
 10
47.48565276590621
 20
-136.0492438548768
 10
47.50805295463526
 20
-136.0271952437712
 10
47.50805295463526
 20
-135.9992905215557
 97
        0
 97
        0
 75
     2
 76
     1
 98
        0
  0
SPLINE
  5
AA
330
A0
100
AcDbEntity
  8
_U+30EC_U+30A4_U+30E4_U+30FC 1
 62
   179
420
  2234388
370
     9
100
AcDbSpline
210
0.0
220
0.0
230
1.0
 70
    11
 71
     3
 72
    17
 73
    13
 74
     0
 42
0.0000000001
 43
0.0000000001
 12
1.0
 22
0.0
 32
0.0
 13
1.0
 23
0.0
 33
0.0
 40
0.0
 40
0.0
 40
0.0
 40
0.0
 40
1.0
 40
1.0
 40
1.0
 40
2.0
 40
2.0
 40
2.0
 40
3.0
 40
3.0
 40
3.0
 40
4.0
 40
4.0
 40
4.0
 40
4.0
 10
117.2917289520831
 20
-112.1423405275198
 30
0.0
 10
117.2917289520831
 20
-112.1147885830824
 30
0.0
 10
117.2696833040158
 20
-112.0927399719768
 30
0.0
 10
117.2420931200161
 20
-112.0927399719768
 30
0.0
 10
117.2145411762746
 20
-112.0927399719768
 30
0.0
 10
117.1918222879653
 20
-112.1147885830824
 30
0.0
 10
117.1918222879653
 20
-112.1423405275198
 30
0.0
 10
117.1918222879653
 20
-112.1705980275128
 30
0.0
 10
117.2145411762746
 20
-112.1926466386184
 30
0.0
 10
117.2420931200161
 20
-112.1926466386184
 30
0.0
 10
117.2696833040158
 20
-112.1926466386184
 30
0.0
 10
117.2917289520831
 20
-112.1705980275128
 30
0.0
 10
117.2917289520831
 20
-112.1423405275198
 30
0.0
  0
HATCH
  5
AB
330
A0
100
AcDbEntity
  8
_U+30EC_U+30A4_U+30E4_U+30FC 1
 62
   179
420
  2234388
100
AcDbHatch
 10
0.0
 20
0.0
 30
0.0
210
0.0
220
0.0
230
1.0
  2
SOLID
 70
     1
 71
     0
 91
        1
 92
        1
 93
        1
 72
     4
 94
        3
 73
     0
 74
     1
 95
       17
 96
       13
 40
0.0
 40
0.0
 40
0.0
 40
0.0
 40
1.0
 40
1.0
 40
1.0
 40
2.0
 40
2.0
 40
2.0
 40
3.0
 40
3.0
 40
3.0
 40
4.0
 40
4.0
 40
4.0
 40
4.0
 10
117.2917289520831
 20
-112.1423405275198
 10
117.2917289520831
 20
-112.1147885830824
 10
117.2696833040158
 20
-112.0927399719768
 10
117.2420931200161
 20
-112.0927399719768
 10
117.2145411762746
 20
-112.0927399719768
 10
117.1918222879653
 20
-112.1147885830824
 10
117.1918222879653
 20
-112.1423405275198
 10
117.1918222879653
 20
-112.1705980275128
 10
117.2145411762746
 20
-112.1926466386184
 10
117.2420931200161
 20
-112.1926466386184
 10
117.2696833040158
 20
-112.1926466386184
 10
117.2917289520831
 20
-112.1705980275128
 10
117.2917289520831
 20
-112.1423405275198
 97
        0
 97
        0
 75
     2
 76
     1
 98
        0
  0
ENDBLK
  5
A3
330
A0
100
AcDbEntity
  8
0
100
AcDbBlockEnd
  0
BLOCK
  5
AE
330
AC
100
AcDbEntity
  8
0
100
AcDbBlockBegin
  2
block 6
 70
     0
 10
0.0
 20
0.0
 30
0.0
  3
block 6
  1

  0
POLYLINE
  5
B0
330
AC
100
AcDbEntity
  8
_U+30EC_U+30A4_U+30E4_U+30FC 1
 62
   179
420
  2234388
370
     9
100
AcDb2dPolyline
 66
     1
 10
0.0
 20
0.0
 30
0.0
  0
VERTEX
  5
B1
330
B0
100
AcDbEntity
  8
_U+30EC_U+30A4_U+30E4_U+30FC 1
 62
   179
420
  2234388
370
     9
100
AcDbVertex
100
AcDb2dVertex
 10
64.67220835007451
 20
-144.1572766306273
 30
0.0
  0
VERTEX
  5
B2
330
B0
100
AcDbEntity
  8
_U+30EC_U+30A4_U+30E4_U+30FC 1
 62
   179
420
  2234388
370
     9
100
AcDbVertex
100
AcDb2dVertex
 10
134.5413305219204
 20
-120.0653766366505
 30
0.0
  0
SEQEND
  5
B3
330
B0
100
AcDbEntity
  8
_U+30EC_U+30A4_U+30E4_U+30FC 1
 62
   179
420
  2234388
370
     9
  0
SPLINE
  5
B4
330
AC
100
AcDbEntity
  8
_U+30EC_U+30A4_U+30E4_U+30FC 1
 62
   179
420
  2234388
370
     9
100
AcDbSpline
210
0.0
220
0.0
230
1.0
 70
    11
 71
     3
 72
    17
 73
    13
 74
     0
 42
0.0000000001
 43
0.0000000001
 12
1.0
 22
0.0
 32
0.0
 13
1.0
 23
0.0
 33
0.0
 40
0.0
 40
0.0
 40
0.0
 40
0.0
 40
1.0
 40
1.0
 40
1.0
 40
2.0
 40
2.0
 40
2.0
 40
3.0
 40
3.0
 40
3.0
 40
4.0
 40
4.0
 40
4.0
 40
4.0
 10
64.72801942826236
 20
-144.1572766306273
 30
0.0
 10
64.72801942826236
 20
-144.129689408412
 30
0.0
 10
64.70561640477776
 20
-144.1073232973068
 30
0.0
 10
64.67771168326745
 20
-144.1073232973068
 30
0.0
 10
64.6501597395259
 20
-144.1073232973068
 30
0.0
 10
64.62775835120853
 20
-144.129689408412
 30
0.0
 10
64.62775835120853
 20
-144.1572766306273
 30
0.0
 10
64.62775835120853
 20
-144.1851813528428
 30
0.0
 10
64.6501597395259
 20
-144.2072299639484
 30
0.0
 10
64.67771168326745
 20
-144.2072299639484
 30
0.0
 10
64.70561640477776
 20
-144.2072299639484
 30
0.0
 10
64.72801942826236
 20
-144.1851813528428
 30
0.0
 10
64.72801942826236
 20
-144.1572766306273
 30
0.0
  0
HATCH
  5
B5
330
AC
100
AcDbEntity
  8
_U+30EC_U+30A4_U+30E4_U+30FC 1
 62
   179
420
  2234388
100
AcDbHatch
 10
0.0
 20
0.0
 30
0.0
210
0.0
220
0.0
230
1.0
  2
SOLID
 70
     1
 71
     0
 91
        1
 92
        1
 93
        1
 72
     4
 94
        3
 73
     0
 74
     1
 95
       17
 96
       13
 40
0.0
 40
0.0
 40
0.0
 40
0.0
 40
1.0
 40
1.0
 40
1.0
 40
2.0
 40
2.0
 40
2.0
 40
3.0
 40
3.0
 40
3.0
 40
4.0
 40
4.0
 40
4.0
 40
4.0
 10
64.72801942826236
 20
-144.1572766306273
 10
64.72801942826236
 20
-144.129689408412
 10
64.70561640477776
 20
-144.1073232973068
 10
64.67771168326745
 20
-144.1073232973068
 10
64.6501597395259
 20
-144.1073232973068
 10
64.62775835120853
 20
-144.129689408412
 10
64.62775835120853
 20
-144.1572766306273
 10
64.62775835120853
 20
-144.1851813528428
 10
64.6501597395259
 20
-144.2072299639484
 10
64.67771168326745
 20
-144.2072299639484
 10
64.70561640477776
 20
-144.2072299639484
 10
64.72801942826236
 20
-144.1851813528428
 10
64.72801942826236
 20
-144.1572766306273
 97
        0
 97
        0
 75
     2
 76
     1
 98
        0
  0
SPLINE
  5
B6
330
AC
100
AcDbEntity
  8
_U+30EC_U+30A4_U+30E4_U+30FC 1
 62
   179
420
  2234388
370
     9
100
AcDbSpline
210
0.0
220
0.0
230
1.0
 70
    11
 71
     3
 72
    17
 73
    13
 74
     0
 42
0.0000000001
 43
0.0000000001
 12
1.0
 22
0.0
 32
0.0
 13
1.0
 23
0.0
 33
0.0
 40
0.0
 40
0.0
 40
0.0
 40
0.0
 40
1.0
 40
1.0
 40
1.0
 40
2.0
 40
2.0
 40
2.0
 40
3.0
 40
3.0
 40
3.0
 40
4.0
 40
4.0
 40
4.0
 40
4.0
 10
134.5605887892956
 20
-120.0729613588707
 30
0.0
 10
134.5605887892956
 20
-120.0453741366554
 30
0.0
 10
134.5378699009863
 20
-120.0233255255498
 30
0.0
 10
134.5103179572448
 20
-120.0233255255498
 30
0.0
 10
134.4827307357264
 20
-120.0233255255498
 30
0.0
 10
134.4606821251778
 20
-120.0453741366554
 30
0.0
 10
134.4606821251778
 20
-120.0729613588707
 30
0.0
 10
134.4606821251778
 20
-120.1011835810859
 30
0.0
 10
134.4827307357264
 20
-120.1232321921915
 30
0.0
 10
134.5103179572448
 20
-120.1232321921915
 30
0.0
 10
134.5378699009863
 20
-120.1232321921915
 30
0.0
 10
134.5605887892956
 20
-120.1011835810859
 30
0.0
 10
134.5605887892956
 20
-120.0729613588707
 30
0.0
  0
HATCH
  5
B7
330
AC
100
AcDbEntity
  8
_U+30EC_U+30A4_U+30E4_U+30FC 1
 62
   179
420
  2234388
100
AcDbHatch
 10
0.0
 20
0.0
 30
0.0
210
0.0
220
0.0
230
1.0
  2
SOLID
 70
     1
 71
     0
 91
        1
 92
        1
 93
        1
 72
     4
 94
        3
 73
     0
 74
     1
 95
       17
 96
       13
 40
0.0
 40
0.0
 40
0.0
 40
0.0
 40
1.0
 40
1.0
 40
1.0
 40
2.0
 40
2.0
 40
2.0
 40
3.0
 40
3.0
 40
3.0
 40
4.0
 40
4.0
 40
4.0
 40
4.0
 10
134.5605887892956
 20
-120.0729613588707
 10
134.5605887892956
 20
-120.0453741366554
 10
134.5378699009863
 20
-120.0233255255498
 10
134.5103179572448
 20
-120.0233255255498
 10
134.4827307357264
 20
-120.0233255255498
 10
134.4606821251778
 20
-120.0453741366554
 10
134.4606821251778
 20
-120.0729613588707
 10
134.4606821251778
 20
-120.1011835810859
 10
134.4827307357264
 20
-120.1232321921915
 10
134.5103179572448
 20
-120.1232321921915
 10
134.5378699009863
 20
-120.1232321921915
 10
134.5605887892956
 20
-120.1011835810859
 10
134.5605887892956
 20
-120.0729613588707
 97
        0
 97
        0
 75
     2
 76
     1
 98
        0
  0
ENDBLK
  5
AF
330
AC
100
AcDbEntity
  8
0
100
AcDbBlockEnd
  0
ENDSEC
  0
SECTION
  2
ENTITIES
  0
INSERT
  5
42
330
1F
100
AcDbEntity
  8
_U+30EC_U+30A4_U+30E4_U+30FC 1
100
AcDbBlockReference
  2
block 2
 10
0.0
 20
0.0
 30
0.0
  0
INSERT
  5
4E
330
1F
100
AcDbEntity
  8
_U+30EC_U+30A4_U+30E4_U+30FC 1
100
AcDbBlockReference
  2
block 3
 10
0.0
 20
0.0
 30
0.0
  0
INSERT
  5
6D
330
1F
100
AcDbEntity
  8
_U+30EC_U+30A4_U+30E4_U+30FC 1
100
AcDbBlockReference
  2
block 4
 10
0.0
 20
0.0
 30
0.0
  0
POLYLINE
  5
78
330
1F
100
AcDbEntity
  8
_U+30EC_U+30A4_U+30E4_U+30FC 1
 62
   179
420
  2234388
370
     9
100
AcDb2dPolyline
 66
     1
 10
0.0
 20
0.0
 30
0.0
  0
VERTEX
  5
79
330
78
100
AcDbEntity
  8
_U+30EC_U+30A4_U+30E4_U+30FC 1
 62
   179
420
  2234388
370
     9
100
AcDbVertex
100
AcDb2dVertex
 10
46.2981310410585
 20
-135.4408432994729
 30
0.0
  0
VERTEX
  5
7A
330
78
100
AcDbEntity
  8
_U+30EC_U+30A4_U+30E4_U+30FC 1
 62
   179
420
  2234388
370
     9
100
AcDbVertex
100
AcDb2dVertex
 10
52.06005033850413
 20
-138.2041516321156
 30
0.0
  0
SEQEND
  5
7B
330
78
100
AcDbEntity
  8
_U+30EC_U+30A4_U+30E4_U+30FC 1
 62
   179
420
  2234388
370
     9
  0
POLYLINE
  5
7C
330
1F
100
AcDbEntity
  8
_U+30EC_U+30A4_U+30E4_U+30FC 1
 62
   179
420
  2234388
370
    25
100
AcDb2dPolyline
 66
     1
 10
0.0
 20
0.0
 30
0.0
  0
VERTEX
  5
7D
330
7C
100
AcDbEntity
  8
_U+30EC_U+30A4_U+30E4_U+30FC 1
 62
   179
420
  2234388
370
    25
100
AcDbVertex
100
AcDb2dVertex
 10
90.20449936535816
 20
-132.3567894113554
 30
0.0
  0
VERTEX
  5
7E
330
7C
100
AcDbEntity
  8
_U+30EC_U+30A4_U+30E4_U+30FC 1
 62
   179
420
  2234388
370
    25
100
AcDbVertex
100
AcDb2dVertex
 10
122.8507304769279
 20
-120.7412988587034
 30
0.0
  0
VERTEX
  5
7F
330
7C
100
AcDbEntity
  8
_U+30EC_U+30A4_U+30E4_U+30FC 1
 62
   179
420
  2234388
370
    25
100
AcDbVertex
100
AcDb2dVertex
 10
122.8507304769279
 20
-118.9519041369286
 30
0.0
  0
SEQEND
  5
80
330
7C
100
AcDbEntity
  8
_U+30EC_U+30A4_U+30E4_U+30FC 1
 62
   179
420
  2234388
370
    25
  0
POLYLINE
  5
81
330
1F
100
AcDbEntity
  8
_U+30EC_U+30A4_U+30E4_U+30FC 1
 62
   179
420
  2234388
370
    25
100
AcDb2dPolyline
 66
     1
 10
0.0
 20
0.0
 30
0.0
  0
VERTEX
  5
82
330
81
100
AcDbEntity
  8
_U+30EC_U+30A4_U+30E4_U+30FC 1
 62
   179
420
  2234388
370
    25
100
AcDbVertex
100
AcDb2dVertex
 10
53.53007530100067
 20
-145.201146074811
 30
0.0
  0
VERTEX
  5
83
330
81
100
AcDbEntity
  8
_U+30EC_U+30A4_U+30E4_U+30FC 1
 62
   179
420
  2234388
370
    25
100
AcDbVertex
100
AcDb2dVertex
 10
89.63088271332568
 20
-132.4715127446598
 30
0.0
  0
VERTEX
  5
84
330
81
100
AcDbEntity
  8
_U+30EC_U+30A4_U+30E4_U+30FC 1
 62
   179
420
  2234388
370
    25
100
AcDbVertex
100
AcDb2dVertex
 10
89.63088271332568
 20
-130.5312349673671
 30
0.0
  0
SEQEND
  5
85
330
81
100
AcDbEntity
  8
_U+30EC_U+30A4_U+30E4_U+30FC 1
 62
   179
420
  2234388
370
    25
  0
POLYLINE
  5
86
330
1F
100
AcDbEntity
  8
_U+30EC_U+30A4_U+30E4_U+30FC 1
 62
   179
420
  2234388
370
    25
100
AcDb2dPolyline
 66
     1
 10
0.0
 20
0.0
 30
0.0
  0
VERTEX
  5
87
330
86
100
AcDbEntity
  8
_U+30EC_U+30A4_U+30E4_U+30FC 1
 62
   179
420
  2234388
370
    25
100
AcDbVertex
100
AcDb2dVertex
 10
92.89425346340349
 20
-129.4064030232038
 30
0.0
  0
VERTEX
  5
88
330
86
100
AcDbEntity
  8
_U+30EC_U+30A4_U+30E4_U+30FC 1
 62
   179
420
  2234388
370
    25
100
AcDbVertex
100
AcDb2dVertex
 10
124.3796693268103
 20
-118.3159516370876
 30
0.0
  0
VERTEX
  5
89
330
86
100
AcDbEntity
  8
_U+30EC_U+30A4_U+30E4_U+30FC 1
 62
   179
420
  2234388
370
    25
100
AcDbVertex
100
AcDb2dVertex
 10
124.3796693268103
 20
-115.4496321933597
 30
0.0
  0
VERTEX
  5
8A
330
86
100
AcDbEntity
  8
_U+30EC_U+30A4_U+30E4_U+30FC 1
 62
   179
420
  2234388
370
    25
100
AcDbVertex
100
AcDb2dVertex
 10
123.1449471360884
 20
-114.9204655268253
 30
0.0
  0
VERTEX
  5
8B
330
86
100
AcDbEntity
  8
_U+30EC_U+30A4_U+30E4_U+30FC 1
 62
   179
420
  2234388
370
    25
100
AcDbVertex
100
AcDb2dVertex
 10
89.82932020826311
 20
-126.2755002462088
 30
0.0
  0
VERTEX
  5
8C
330
86
100
AcDbEntity
  8
_U+30EC_U+30A4_U+30E4_U+30FC 1
 62
   179
420
  2234388
370
    25
100
AcDbVertex
100
AcDb2dVertex
 10
53.27272391867736
 20
-138.8656099652835
 30
0.0
  0
SEQEND
  5
8D
330
86
100
AcDbEntity
  8
_U+30EC_U+30A4_U+30E4_U+30FC 1
 62
   179
420
  2234388
370
    25
  0
POLYLINE
  5
8E
330
1F
100
AcDbEntity
  8
_U+30EC_U+30A4_U+30E4_U+30FC 1
 62
   179
420
  2234388
370
     9
100
AcDb2dPolyline
 66
     1
 10
0.0
 20
0.0
 30
0.0
  0
VERTEX
  5
8F
330
8E
100
AcDbEntity
  8
_U+30EC_U+30A4_U+30E4_U+30FC 1
 62
   179
420
  2234388
370
     9
100
AcDbVertex
100
AcDb2dVertex
 10
55.88204468544138
 20
-140.0855155205343
 30
0.0
  0
VERTEX
  5
90
330
8E
100
AcDbEntity
  8
_U+30EC_U+30A4_U+30E4_U+30FC 1
 62
   179
420
  2234388
370
     9
100
AcDbVertex
100
AcDb2dVertex
 10
65.87729720821902
 20
-144.7305405193729
 30
0.0
  0
SEQEND
  5
91
330
8E
100
AcDbEntity
  8
_U+30EC_U+30A4_U+30E4_U+30FC 1
 62
   179
420
  2234388
370
     9
  0
POLYLINE
  5
92
330
1F
100
AcDbEntity
  8
_U+30EC_U+30A4_U+30E4_U+30FC 1
 62
   179
420
  2234388
370
     9
100
AcDb2dPolyline
 66
     1
 10
0.0
 20
0.0
 30
0.0
  0
VERTEX
  5
93
330
92
100
AcDbEntity
  8
_U+30EC_U+30A4_U+30E4_U+30FC 1
 62
   179
420
  2234388
370
     9
100
AcDbVertex
100
AcDb2dVertex
 10
125.6143915175321
 20
-115.9787988598941
 30
0.0
  0
VERTEX
  5
94
330
92
100
AcDbEntity
  8
_U+30EC_U+30A4_U+30E4_U+30FC 1
 62
   179
420
  2234388
370
     9
100
AcDbVertex
100
AcDb2dVertex
 10
135.7567523698901
 20
-120.653104414281
 30
0.0
  0
SEQEND
  5
95
330
92
100
AcDbEntity
  8
_U+30EC_U+30A4_U+30E4_U+30FC 1
 62
   179
420
  2234388
370
     9
  0
POLYLINE
  5
96
330
1F
100
AcDbEntity
  8
_U+30EC_U+30A4_U+30E4_U+30FC 1
 62
   179
420
  2234388
370
     9
100
AcDb2dPolyline
 66
     1
 10
0.0
 20
0.0
 30
0.0
  0
VERTEX
  5
97
330
96
100
AcDbEntity
  8
_U+30EC_U+30A4_U+30E4_U+30FC 1
 62
   179
420
  2234388
370
     9
100
AcDbVertex
100
AcDb2dVertex
 10
116.0893917605351
 20
-111.6572710831967
 30
0.0
  0
VERTEX
  5
98
330
96
100
AcDbEntity
  8
_U+30EC_U+30A4_U+30E4_U+30FC 1
 62
   179
420
  2234388
370
     9
100
AcDbVertex
100
AcDb2dVertex
 10
121.8220305031722
 20
-114.3031044158685
 30
0.0
  0
SEQEND
  5
99
330
96
100
AcDbEntity
  8
_U+30EC_U+30A4_U+30E4_U+30FC 1
 62
   179
420
  2234388
370
     9
  0
POLYLINE
  5
9A
330
1F
100
AcDbEntity
  8
_U+30EC_U+30A4_U+30E4_U+30FC 1
 62
   179
420
  2234388
370
     9
100
AcDb2dPolyline
 66
     1
 10
0.0
 20
0.0
 30
0.0
  0
VERTEX
  5
9B
330
9A
100
AcDbEntity
  8
_U+30EC_U+30A4_U+30E4_U+30FC 1
 62
   179
420
  2234388
370
     9
100
AcDbVertex
100
AcDb2dVertex
 10
82.75171622216116
 20
-122.9461599692633
 30
0.0
  0
VERTEX
  5
9C
330
9A
100
AcDbEntity
  8
_U+30EC_U+30A4_U+30E4_U+30FC 1
 62
   179
420
  2234388
370
     9
100
AcDbVertex
100
AcDb2dVertex
 10
88.7489382913815
 20
-125.6801877463576
 30
0.0
  0
SEQEND
  5
9D
330
9A
100
AcDbEntity
  8
_U+30EC_U+30A4_U+30E4_U+30FC 1
 62
   179
420
  2234388
370
     9
  0
SPLINE
  5
9E
330
1F
100
AcDbEntity
  8
_U+30EC_U+30A4_U+30E4_U+30FC 1
 62
   179
420
  2234388
370
     9
100
AcDbSpline
210
0.0
220
0.0
230
1.0
 70
    11
 71
     3
 72
    17
 73
    13
 74
     0
 42
0.0000000001
 43
0.0000000001
 12
1.0
 22
0.0
 32
0.0
 13
1.0
 23
0.0
 33
0.0
 40
0.0
 40
0.0
 40
0.0
 40
0.0
 40
1.0
 40
1.0
 40
1.0
 40
2.0
 40
2.0
 40
2.0
 40
3.0
 40
3.0
 40
3.0
 40
4.0
 40
4.0
 40
4.0
 40
4.0
 10
84.03639174494192
 20
-123.4987510802365
 30
0.0
 10
84.03639174494192
 20
-123.4711991357987
 30
0.0
 10
84.01399035662455
 20
-123.4491505246931
 30
0.0
 10
83.986438412883
 20
-123.4491505246931
 30
0.0
 10
83.95888646914146
 20
-123.4491505246931
 30
0.0
 10
83.93648508082408
 20
-123.4711991357987
 30
0.0
 10
83.93648508082408
 20
-123.4987510802365
 30
0.0
 10
83.93648508082408
 20
-123.5270085802295
 30
0.0
 10
83.95888646914146
 20
-123.5490571913351
 30
0.0
 10
83.986438412883
 20
-123.5490571913351
 30
0.0
 10
84.01399035662455
 20
-123.5490571913351
 30
0.0
 10
84.03639174494192
 20
-123.5270085802295
 30
0.0
 10
84.03639174494192
 20
-123.4987510802365
 30
0.0
  0
HATCH
  5
9F
330
1F
100
AcDbEntity
  8
_U+30EC_U+30A4_U+30E4_U+30FC 1
 62
   179
420
  2234388
100
AcDbHatch
 10
0.0
 20
0.0
 30
0.0
210
0.0
220
0.0
230
1.0
  2
SOLID
 70
     1
 71
     0
 91
        1
 92
        1
 93
        1
 72
     4
 94
        3
 73
     0
 74
     1
 95
       17
 96
       13
 40
0.0
 40
0.0
 40
0.0
 40
0.0
 40
1.0
 40
1.0
 40
1.0
 40
2.0
 40
2.0
 40
2.0
 40
3.0
 40
3.0
 40
3.0
 40
4.0
 40
4.0
 40
4.0
 40
4.0
 10
84.03639174494192
 20
-123.4987510802365
 10
84.03639174494192
 20
-123.4711991357987
 10
84.01399035662455
 20
-123.4491505246931
 10
83.986438412883
 20
-123.4491505246931
 10
83.95888646914146
 20
-123.4491505246931
 10
83.93648508082408
 20
-123.4711991357987
 10
83.93648508082408
 20
-123.4987510802365
 10
83.93648508082408
 20
-123.5270085802295
 10
83.95888646914146
 20
-123.5490571913351
 10
83.986438412883
 20
-123.5490571913351
 10
84.01399035662455
 20
-123.5490571913351
 10
84.03639174494192
 20
-123.5270085802295
 10
84.03639174494192
 20
-123.4987510802365
 97
        0
 97
        0
 75
     2
 76
     1
 98
        0
  0
INSERT
  5
A1
330
1F
100
AcDbEntity
  8
_U+30EC_U+30A4_U+30E4_U+30FC 1
100
AcDbBlockReference
  2
block 5
 10
0.0
 20
0.0
 30
0.0
  0
INSERT
  5
AD
330
1F
100
AcDbEntity
  8
_U+30EC_U+30A4_U+30E4_U+30FC 1
100
AcDbBlockReference
  2
block 6
 10
0.0
 20
0.0
 30
0.0
  0
POLYLINE
  5
B8
330
1F
100
AcDbEntity
  8
_U+30EC_U+30A4_U+30E4_U+30FC 1
 62
   179
420
  2234388
370
    25
100
AcDb2dPolyline
 66
     1
 10
0.0
 20
0.0
 30
0.0
  0
VERTEX
  5
B9
330
B8
100
AcDbEntity
  8
_U+30EC_U+30A4_U+30E4_U+30FC 1
 62
   179
420
  2234388
370
    25
100
AcDbVertex
100
AcDb2dVertex
 10
54.61768916214222
 20
-139.5126044095665
 30
0.0
  0
VERTEX
  5
BA
330
B8
100
AcDbEntity
  8
_U+30EC_U+30A4_U+30E4_U+30FC 1
 62
   179
420
  2234388
370
    25
100
AcDbVertex
100
AcDb2dVertex
 10
89.63088271332568
 20
-127.3999794125943
 30
0.0
  0
SEQEND
  5
BB
330
B8
100
AcDbEntity
  8
_U+30EC_U+30A4_U+30E4_U+30FC 1
 62
   179
420
  2234388
370
    25
  0
POLYLINE
  5
BC
330
1F
100
AcDbEntity
  8
_U+30EC_U+30A4_U+30E4_U+30FC 1
 62
   179
420
  2234388
370
    25
100
AcDb2dPolyline
 66
     1
 10
0.0
 20
0.0
 30
0.0
  0
VERTEX
  5
BD
330
BC
100
AcDbEntity
  8
_U+30EC_U+30A4_U+30E4_U+30FC 1
 62
   179
420
  2234388
370
    25
100
AcDbVertex
100
AcDb2dVertex
 10
53.20657808703155
 20
-139.4685071873553
 30
0.0
  0
VERTEX
  5
BE
330
BC
100
AcDbEntity
  8
_U+30EC_U+30A4_U+30E4_U+30FC 1
 62
   179
420
  2234388
370
    25
100
AcDbVertex
100
AcDb2dVertex
 10
53.38296697142039
 20
-145.1718302414851
 30
0.0
  0
VERTEX
  5
BF
330
BC
100
AcDbEntity
  8
_U+30EC_U+30A4_U+30E4_U+30FC 1
 62
   179
420
  2234388
370
    25
100
AcDbVertex
100
AcDb2dVertex
 10
53.53007530100067
 20
-145.201146074811
 30
0.0
  0
VERTEX
  5
C0
330
BC
100
AcDbEntity
  8
_U+30EC_U+30A4_U+30E4_U+30FC 1
 62
   179
420
  2234388
370
    25
100
AcDbVertex
100
AcDb2dVertex
 10
53.4711614136148
 20
-139.2921182985105
 30
0.0
  0
VERTEX
  5
C1
330
BC
100
AcDbEntity
  8
_U+30EC_U+30A4_U+30E4_U+30FC 1
 62
   179
420
  2234388
370
    25
100
AcDbVertex
100
AcDb2dVertex
 10
54.35310583555897
 20
-139.6741766317479
 30
0.0
  0
VERTEX
  5
C2
330
BC
100
AcDbEntity
  8
_U+30EC_U+30A4_U+30E4_U+30FC 1
 62
   179
420
  2234388
370
    25
100
AcDbVertex
100
AcDb2dVertex
 10
54.47093361033071
 20
-142.5876624643529
 30
0.0
  0
VERTEX
  5
C3
330
BC
100
AcDbEntity
  8
_U+30EC_U+30A4_U+30E4_U+30FC 1
 62
   179
420
  2234388
370
    25
100
AcDbVertex
100
AcDb2dVertex
 10
54.61768916214222
 20
-142.5963055199062
 30
0.0
  0
VERTEX
  5
C4
330
BC
100
AcDbEntity
  8
_U+30EC_U+30A4_U+30E4_U+30FC 1
 62
   179
420
  2234388
370
    25
100
AcDbVertex
100
AcDb2dVertex
 10
54.61768916214222
 20
-139.8801635761413
 30
0.0
  0
SEQEND
  5
C5
330
BC
100
AcDbEntity
  8
_U+30EC_U+30A4_U+30E4_U+30FC 1
 62
   179
420
  2234388
370
    25
  0
POLYLINE
  5
C6
330
1F
100
AcDbEntity
  8
_U+30EC_U+30A4_U+30E4_U+30FC 1
 62
   179
420
  2234388
370
    25
100
AcDb2dPolyline
 66
     1
 10
0.0
 20
0.0
 30
0.0
  0
VERTEX
  5
C7
330
C6
100
AcDbEntity
  8
_U+30EC_U+30A4_U+30E4_U+30FC 1
 62
   179
420
  2234388
370
    25
100
AcDbVertex
100
AcDb2dVertex
 10
53.20657808703155
 20
-139.4685071873553
 30
0.0
  0
VERTEX
  5
C8
330
C6
100
AcDbEntity
  8
_U+30EC_U+30A4_U+30E4_U+30FC 1
 62
   179
420
  2234388
370
    25
100
AcDbVertex
100
AcDb2dVertex
 10
53.177297532223
 20
-138.7774155208612
 30
0.0
  0
VERTEX
  5
C9
330
C6
100
AcDbEntity
  8
_U+30EC_U+30A4_U+30E4_U+30FC 1
 62
   179
420
  2234388
370
    25
100
AcDbVertex
100
AcDb2dVertex
 10
54.61768916214222
 20
-139.5126044095665
 30
0.0
  0
VERTEX
  5
CA
330
C6
100
AcDbEntity
  8
_U+30EC_U+30A4_U+30E4_U+30FC 1
 62
   179
420
  2234388
370
    25
100
AcDbVertex
100
AcDb2dVertex
 10
54.61768916214222
 20
-139.8801635761413
 30
0.0
  0
SEQEND
  5
CB
330
C6
100
AcDbEntity
  8
_U+30EC_U+30A4_U+30E4_U+30FC 1
 62
   179
420
  2234388
370
    25
  0
POLYLINE
  5
CC
330
1F
100
AcDbEntity
  8
_U+30EC_U+30A4_U+30E4_U+30FC 1
 62
   179
420
  2234388
370
    25
100
AcDb2dPolyline
 66
     1
 10
0.0
 20
0.0
 30
0.0
  0
VERTEX
  5
CD
330
CC
100
AcDbEntity
  8
_U+30EC_U+30A4_U+30E4_U+30FC 1
 62
   179
420
  2234388
370
    25
100
AcDbVertex
100
AcDb2dVertex
 10
89.82932020826311
 20
-126.2755002462088
 30
0.0
  0
VERTEX
  5
CE
330
CC
100
AcDbEntity
  8
_U+30EC_U+30A4_U+30E4_U+30FC 1
 62
   179
420
  2234388
370
    25
100
AcDbVertex
100
AcDb2dVertex
 10
89.82932020826311
 20
-132.3126921891442
 30
0.0
  0
VERTEX
  5
CF
330
CC
100
AcDbEntity
  8
_U+30EC_U+30A4_U+30E4_U+30FC 1
 62
   179
420
  2234388
370
    25
100
AcDbVertex
100
AcDb2dVertex
 10
90.20449936535816
 20
-132.3567894113554
 30
0.0
  0
VERTEX
  5
D0
330
CC
100
AcDbEntity
  8
_U+30EC_U+30A4_U+30E4_U+30FC 1
 62
   179
420
  2234388
370
    25
100
AcDbVertex
100
AcDb2dVertex
 10
90.2482438086866
 20
-126.6503266350039
 30
0.0
  0
VERTEX
  5
D1
330
CC
100
AcDbEntity
  8
_U+30EC_U+30A4_U+30E4_U+30FC 1
 62
   179
420
  2234388
370
    25
100
AcDbVertex
100
AcDb2dVertex
 10
92.27689236804257
 20
-126.6944238572152
 30
0.0
  0
VERTEX
  5
D2
330
CC
100
AcDbEntity
  8
_U+30EC_U+30A4_U+30E4_U+30FC 1
 62
   179
420
  2234388
370
    25
100
AcDbVertex
100
AcDb2dVertex
 10
92.27689236804257
 20
-129.4064030232038
 30
0.0
  0
VERTEX
  5
D3
330
CC
100
AcDbEntity
  8
_U+30EC_U+30A4_U+30E4_U+30FC 1
 62
   179
420
  2234388
370
    25
100
AcDbVertex
100
AcDb2dVertex
 10
92.89425346340349
 20
-129.4064030232038
 30
0.0
  0
VERTEX
  5
D4
330
CC
100
AcDbEntity
  8
_U+30EC_U+30A4_U+30E4_U+30FC 1
 62
   179
420
  2234388
370
    25
100
AcDbVertex
100
AcDb2dVertex
 10
92.89425346340349
 20
-126.760569690532
 30
0.0
  0
SEQEND
  5
D5
330
CC
100
AcDbEntity
  8
_U+30EC_U+30A4_U+30E4_U+30FC 1
 62
   179
420
  2234388
370
    25
  0
POLYLINE
  5
D6
330
1F
100
AcDbEntity
  8
_U+30EC_U+30A4_U+30E4_U+30FC 1
 62
   179
420
  2234388
370
    25
100
AcDb2dPolyline
 66
     1
 10
0.0
 20
0.0
 30
0.0
  0
VERTEX
  5
D7
330
D6
100
AcDbEntity
  8
_U+30EC_U+30A4_U+30E4_U+30FC 1
 62
   179
420
  2234388
370
    25
100
AcDbVertex
100
AcDb2dVertex
 10
89.82932020826311
 20
-126.2755002462088
 30
0.0
  0
VERTEX
  5
D8
330
D6
100
AcDbEntity
  8
_U+30EC_U+30A4_U+30E4_U+30FC 1
 62
   179
420
  2234388
370
    25
100
AcDbVertex
100
AcDb2dVertex
 10
92.89425346340349
 20
-126.2934213573154
 30
0.0
  0
VERTEX
  5
D9
330
D6
100
AcDbEntity
  8
_U+30EC_U+30A4_U+30E4_U+30FC 1
 62
   179
420
  2234388
370
    25
100
AcDbVertex
100
AcDb2dVertex
 10
92.89425346340349
 20
-126.760569690532
 30
0.0
  0
SEQEND
  5
DA
330
D6
100
AcDbEntity
  8
_U+30EC_U+30A4_U+30E4_U+30FC 1
 62
   179
420
  2234388
370
    25
  0
POLYLINE
  5
DB
330
1F
100
AcDbEntity
  8
_U+30EC_U+30A4_U+30E4_U+30FC 1
 62
   179
420
  2234388
370
    25
100
AcDb2dPolyline
 66
     1
 10
0.0
 20
0.0
 30
0.0
  0
VERTEX
  5
DC
330
DB
100
AcDbEntity
  8
_U+30EC_U+30A4_U+30E4_U+30FC 1
 62
   179
420
  2234388
370
    25
100
AcDbVertex
100
AcDb2dVertex
 10
54.61768916214222
 20
-142.5963055199062
 30
0.0
  0
VERTEX
  5
DD
330
DB
100
AcDbEntity
  8
_U+30EC_U+30A4_U+30E4_U+30FC 1
 62
   179
420
  2234388
370
    25
100
AcDbVertex
100
AcDb2dVertex
 10
89.63088271332568
 20
-130.5312349673671
 30
0.0
  0
VERTEX
  5
DE
330
DB
100
AcDbEntity
  8
_U+30EC_U+30A4_U+30E4_U+30FC 1
 62
   179
420
  2234388
370
    25
100
AcDbVertex
100
AcDb2dVertex
 10
89.63088271332568
 20
-127.3999794125943
 30
0.0
  0
VERTEX
  5
DF
330
DB
100
AcDbEntity
  8
_U+30EC_U+30A4_U+30E4_U+30FC 1
 62
   179
420
  2234388
370
    25
100
AcDbVertex
100
AcDb2dVertex
 10
89.82932020826311
 20
-126.2755002462088
 30
0.0
  0
SEQEND
  5
E0
330
DB
100
AcDbEntity
  8
_U+30EC_U+30A4_U+30E4_U+30FC 1
 62
   179
420
  2234388
370
    25
  0
POLYLINE
  5
E1
330
1F
100
AcDbEntity
  8
_U+30EC_U+30A4_U+30E4_U+30FC 1
 62
   179
420
  2234388
370
    25
100
AcDb2dPolyline
 66
     1
 10
0.0
 20
0.0
 30
0.0
  0
VERTEX
  5
E2
330
E1
100
AcDbEntity
  8
_U+30EC_U+30A4_U+30E4_U+30FC 1
 62
   179
420
  2234388
370
    25
100
AcDbVertex
100
AcDb2dVertex
 10
92.82810763175767
 20
-126.3416460795256
 30
0.0
  0
VERTEX
  5
E3
330
E1
100
AcDbEntity
  8
_U+30EC_U+30A4_U+30E4_U+30FC 1
 62
   179
420
  2234388
370
    25
100
AcDbVertex
100
AcDb2dVertex
 10
124.22532905297
 20
-115.3834863600429
 30
0.0
  0
SEQEND
  5
E4
330
E1
100
AcDbEntity
  8
_U+30EC_U+30A4_U+30E4_U+30FC 1
 62
   179
420
  2234388
370
    25
  0
POLYLINE
  5
E5
330
1F
100
AcDbEntity
  8
_U+30EC_U+30A4_U+30E4_U+30FC 1
 62
   179
420
  2234388
370
    25
100
AcDb2dPolyline
 66
     1
 10
0.0
 20
0.0
 30
0.0
  0
VERTEX
  5
E6
330
E5
100
AcDbEntity
  8
_U+30EC_U+30A4_U+30E4_U+30FC 1
 62
   179
420
  2234388
370
    25
100
AcDbVertex
100
AcDb2dVertex
 10
89.82932020826311
 20
-132.3126921891442
 30
0.0
  0
VERTEX
  5
E7
330
E5
100
AcDbEntity
  8
_U+30EC_U+30A4_U+30E4_U+30FC 1
 62
   179
420
  2234388
370
    25
100
AcDbVertex
100
AcDb2dVertex
 10
89.63088271332568
 20
-132.4715127446598
 30
0.0
  0
SEQEND
  5
E8
330
E5
100
AcDbEntity
  8
_U+30EC_U+30A4_U+30E4_U+30FC 1
 62
   179
420
  2234388
370
    25
  0
ENDSEC
  0
SECTION
  2
OBJECTS
  0
DICTIONARY
  5
C
330
0
100
AcDbDictionary
281
     1
  3
ACAD_GROUP
350
D
  3
ACAD_LAYOUT
350
1A
  3
ACAD_MATERIAL
350
3B
  3
ACAD_MLEADERSTYLE
350
EA
  3
ACAD_MLINESTYLE
350
17
  3
ACAD_PLOTSETTINGS
350
19
  3
ACAD_PLOTSTYLENAME
350
E
  3
ACAD_TABLESTYLE
350
E9
  3
ACAD_VISUALSTYLE
350
2A
  0
SUN
  5
3F
330
29
100
AcDbSun
 90
        1
290
     0
 63
     7
421
 16777215
 40
1.0
291
     1
 91
  2455826
 92
 54000000
292
     0
 70
     2
 71
   256
280
     1
  0
DICTIONARY
  5
D
102
{ACAD_REACTORS
330
C
102
}
330
C
100
AcDbDictionary
281
     1
  0
DICTIONARY
  5
1A
102
{ACAD_REACTORS
330
C
102
}
330
C
100
AcDbDictionary
281
     1
  3
Layout1
350
1E
  3
Layout2
350
26
  3
Model
350
22
  0
DICTIONARY
  5
3B
102
{ACAD_REACTORS
330
C
102
}
330
C
100
AcDbDictionary
281
     1
  3
ByBlock
350
3D
  3
ByLayer
350
3C
  3
Global
350
3E
  0
DICTIONARY
  5
EA
102
{ACAD_REACTORS
330
C
102
}
330
C
100
AcDbDictionary
281
     1
  0
DICTIONARY
  5
17
102
{ACAD_REACTORS
330
C
102
}
330
C
100
AcDbDictionary
281
     1
  3
Standard
350
18
  0
DICTIONARY
  5
19
102
{ACAD_REACTORS
330
C
102
}
330
C
100
AcDbDictionary
281
     1
  0
ACDBDICTIONARYWDFLT
  5
E
102
{ACAD_REACTORS
330
C
102
}
330
C
100
AcDbDictionary
281
     1
  3
Normal
350
F
100
AcDbDictionaryWithDefault
340
F
  0
DICTIONARY
  5
E9
102
{ACAD_REACTORS
330
C
102
}
330
C
100
AcDbDictionary
281
     1
  0
DICTIONARY
  5
2A
102
{ACAD_REACTORS
330
C
102
}
330
C
100
AcDbDictionary
281
     1
  3
2dWireframe
350
2F
  3
3D Hidden
350
31
  3
3dWireframe
350
30
  3
Basic
350
32
  3
Brighten
350
36
  3
ColorChange
350
3A
  3
Conceptual
350
34
  3
Dim
350
35
  3
Facepattern
350
39
  3
Flat
350
2B
  3
FlatWithEdges
350
2C
  3
Gouraud
350
2D
  3
GouraudWithEdges
350
2E
  3
Linepattern
350
38
  3
Realistic
350
33
  3
Thicken
350
37
  0
LAYOUT
  5
1E
102
{ACAD_REACTORS
330
1A
102
}
330
1A
100
AcDbPlotSettings
  1

  2
none_device
  4

  6

 40
0.0
 41
0.0
 42
0.0
 43
0.0
 44
0.0
 45
0.0
 46
0.0
 47
0.0
 48
0.0
 49
0.0
140
0.0
141
0.0
142
1.0
143
1.0
 70
   688
 72
     0
 73
     0
 74
     5
  7

 75
    16
 76
     0
 77
     2
 78
   300
147
1.0
148
0.0
149
0.0
100
AcDbLayout
  1
Layout1
 70
     1
 71
     1
 10
0.0
 20
0.0
 11
12.0
 21
9.0
 12
0.0
 22
0.0
 32
0.0
 14
1.000000000000000E+20
 24
1.000000000000000E+20
 34
1.000000000000000E+20
 15
-1.000000000000000E+20
 25
-1.000000000000000E+20
 35
-1.000000000000000E+20
146
0.0
 13
0.0
 23
0.0
 33
0.0
 16
1.0
 26
0.0
 36
0.0
 17
0.0
 27
1.0
 37
0.0
 76
     0
330
1B
  0
LAYOUT
  5
26
102
{ACAD_REACTORS
330
1A
102
}
330
1A
100
AcDbPlotSettings
  1

  2
none_device
  4

  6

 40
0.0
 41
0.0
 42
0.0
 43
0.0
 44
0.0
 45
0.0
 46
0.0
 47
0.0
 48
0.0
 49
0.0
140
0.0
141
0.0
142
1.0
143
1.0
 70
   688
 72
     0
 73
     0
 74
     5
  7

 75
    16
 76
     0
 77
     2
 78
   300
147
1.0
148
0.0
149
0.0
100
AcDbLayout
  1
Layout2
 70
     1
 71
     2
 10
0.0
 20
0.0
 11
0.0
 21
0.0
 12
0.0
 22
0.0
 32
0.0
 14
0.0
 24
0.0
 34
0.0
 15
0.0
 25
0.0
 35
0.0
146
0.0
 13
0.0
 23
0.0
 33
0.0
 16
1.0
 26
0.0
 36
0.0
 17
0.0
 27
1.0
 37
0.0
 76
     0
330
23
  0
LAYOUT
  5
22
102
{ACAD_REACTORS
330
1A
102
}
330
1A
100
AcDbPlotSettings
  1

  2
none_device
  4

  6

 40
0.0
 41
0.0
 42
0.0
 43
0.0
 44
0.0
 45
0.0
 46
0.0
 47
0.0
 48
0.0
 49
0.0
140
0.0
141
0.0
142
1.0
143
1.0
 70
  1712
 72
     0
 73
     0
 74
     0
  7

 75
     0
 76
     0
 77
     2
 78
   300
147
1.0
148
0.0
149
0.0
100
AcDbLayout
  1
Model
 70
     1
 71
     0
 10
0.0
 20
0.0
 11
12.0
 21
9.0
 12
0.0
 22
0.0
 32
0.0
 14
1.000000000000000E+20
 24
1.000000000000000E+20
 34
1.000000000000000E+20
 15
-1.000000000000000E+20
 25
-1.000000000000000E+20
 35
-1.000000000000000E+20
146
0.0
 13
0.0
 23
0.0
 33
0.0
 16
1.0
 26
0.0
 36
0.0
 17
0.0
 27
1.0
 37
0.0
 76
     0
330
1F
331
29
  0
MATERIAL
  5
3D
102
{ACAD_REACTORS
330
3B
102
}
330
3B
100
AcDbMaterial
  1
ByBlock
 72
     1
 94
      127
  0
MATERIAL
  5
3C
102
{ACAD_REACTORS
330
3B
102
}
330
3B
100
AcDbMaterial
  1
ByLayer
 72
     1
 94
      127
  0
MATERIAL
  5
3E
102
{ACAD_REACTORS
330
3B
102
}
330
3B
100
AcDbMaterial
  1
Global
 72
     1
 94
      127
  0
MLINESTYLE
  5
18
102
{ACAD_REACTORS
330
17
102
}
330
17
100
AcDbMlineStyle
  2
Standard
 70
     0
  3

 62
   256
 51
90.0
 52
90.0
 71
     2
 49
0.5
 62
   256
  6
BYLAYER
 49
-0.5
 62
   256
  6
BYLAYER
  0
ACDBPLACEHOLDER
  5
F
102
{ACAD_REACTORS
330
E
102
}
330
E
  0
VISUALSTYLE
  5
2F
102
{ACAD_REACTORS
330
2A
102
}
330
2A
100
AcDbVisualStyle
  2
2dWireframe
 70
     4
177
     2
291
     0
 71
     0
176
     1
 72
     2
176
     1
 73
     0
176
     1
 90
        0
176
     1
 40
-0.6
176
     1
 41
-30.0
176
     1
 62
     5
 63
     7
421
 16777215
176
     1
 74
     1
176
     1
 91
        4
176
     1
 64
     7
176
     1
 65
   257
176
     1
 75
     1
176
     1
175
     1
176
     1
 42
1.0
176
     1
 92
        0
176
     1
 66
   257
176
     1
 43
1.0
176
     1
 76
     1
176
     1
 77
     6
176
     1
 78
     2
176
     1
 67
     7
176
     1
 79
     5
176
     1
170
     0
176
     1
171
     0
176
     1
290
     0
176
     1
 93
        1
176
     1
 44
0.0
176
     1
173
     0
176
     1
  0
VISUALSTYLE
  5
31
102
{ACAD_REACTORS
330
2A
102
}
330
2A
100
AcDbVisualStyle
  2
3D Hidden
 70
     6
177
     2
291
     0
 71
     1
176
     1
 72
     2
176
     1
 73
     2
176
     1
 90
        0
176
     1
 40
-0.6
176
     1
 41
-30.0
176
     1
 62
     5
 63
     7
421
 16777215
176
     1
 74
     2
176
     1
 91
        2
176
     1
 64
     7
176
     1
 65
   257
176
     1
 75
     2
176
     1
175
     1
176
     1
 42
40.0
176
     1
 92
        0
176
     1
 66
   257
176
     1
 43
1.0
176
     1
 76
     1
176
     1
 77
     6
176
     1
 78
     2
176
     1
 67
     7
176
     1
 79
     3
176
     1
170
     0
176
     1
171
     0
176
     1
290
     0
176
     1
 93
        1
176
     1
 44
0.0
176
     1
173
     0
176
     1
  0
VISUALSTYLE
  5
30
102
{ACAD_REACTORS
330
2A
102
}
330
2A
100
AcDbVisualStyle
  2
3dWireframe
 70
     5
177
     2
291
     0
 71
     0
176
     1
 72
     2
176
     1
 73
     0
176
     1
 90
        0
176
     1
 40
-0.6
176
     1
 41
-30.0
176
     1
 62
     5
 63
     7
421
 16777215
176
     1
 74
     1
176
     1
 91
        4
176
     1
 64
     7
176
     1
 65
   257
176
     1
 75
     1
176
     1
175
     1
176
     1
 42
1.0
176
     1
 92
        0
176
     1
 66
   257
176
     1
 43
1.0
176
     1
 76
     1
176
     1
 77
     6
176
     1
 78
     2
176
     1
 67
     7
176
     1
 79
     5
176
     1
170
     0
176
     1
171
     0
176
     1
290
     0
176
     1
 93
        1
176
     1
 44
0.0
176
     1
173
     0
176
     1
  0
VISUALSTYLE
  5
32
102
{ACAD_REACTORS
330
2A
102
}
330
2A
100
AcDbVisualStyle
  2
Basic
 70
     7
177
     2
291
     1
 71
     1
176
     1
 72
     0
176
     1
 73
     1
176
     1
 90
        0
176
     1
 40
-0.6
176
     1
 41
-30.0
176
     1
 62
     5
 63
     7
421
 16777215
176
     1
 74
     0
176
     1
 91
        4
176
     1
 64
     7
176
     1
 65
   257
176
     1
 75
     1
176
     1
175
     1
176
     1
 42
1.0
176
     1
 92
        8
176
     1
 66
     7
176
     1
 43
1.0
176
     1
 76
     1
176
     1
 77
     6
176
     1
 78
     2
176
     1
 67
     7
176
     1
 79
     5
176
     1
170
     0
176
     1
171
     0
176
     1
290
     0
176
     1
 93
        1
176
     1
 44
0.0
176
     1
173
     0
176
     1
  0
VISUALSTYLE
  5
36
102
{ACAD_REACTORS
330
2A
102
}
330
2A
100
AcDbVisualStyle
  2
Brighten
 70
    12
177
     2
291
     1
 71
     2
176
     1
 72
     2
176
     1
 73
     0
176
     1
 90
        0
176
     1
 40
-0.6
176
     1
 41
-30.0
176
     1
 62
     5
 63
     7
421
 16777215
176
     1
 74
     1
176
     1
 91
        4
176
     1
 64
     7
176
     1
 65
   257
176
     1
 75
     1
176
     1
175
     1
176
     1
 42
1.0
176
     1
 92
        8
176
     1
 66
     7
176
     1
 43
1.0
176
     1
 76
     1
176
     1
 77
     6
176
     1
 78
     2
176
     1
 67
     7
176
     1
 79
     5
176
     1
170
     0
176
     1
171
     0
176
     1
290
     0
176
     1
 93
        1
176
     1
 44
50.0
176
     1
173
     0
176
     1
  0
VISUALSTYLE
  5
3A
102
{ACAD_REACTORS
330
2A
102
}
330
2A
100
AcDbVisualStyle
  2
ColorChange
 70
    16
177
     2
291
     1
 71
     2
176
     1
 72
     2
176
     1
 73
     3
176
     1
 90
        0
176
     1
 40
-0.6
176
     1
 41
-30.0
176
     1
 62
     5
 63
     8
421
  8421504
176
     1
 74
     1
176
     1
 91
        4
176
     1
 64
     7
176
     1
 65
   257
176
     1
 75
     1
176
     1
175
     1
176
     1
 42
1.0
176
     1
 92
        8
176
     1
 66
     8
424
  8421504
176
     1
 43
1.0
176
     1
 76
     1
176
     1
 77
     6
176
     1
 78
     2
176
     1
 67
     7
176
     1
 79
     5
176
     1
170
     0
176
     1
171
     0
176
     1
290
     0
176
     1
 93
        1
176
     1
 44
0.0
176
     1
173
     0
176
     1
  0
VISUALSTYLE
  5
34
102
{ACAD_REACTORS
330
2A
102
}
330
2A
100
AcDbVisualStyle
  2
Conceptual
 70
     9
177
     2
291
     0
 71
     3
176
     1
 72
     2
176
     1
 73
     0
176
     1
 90
        0
176
     1
 40
-0.6
176
     1
 41
-30.0
176
     1
 62
     5
 63
     7
421
 16777215
176
     1
 74
     2
176
     1
 91
        2
176
     1
 64
     7
176
     1
 65
   257
176
     1
 75
     1
176
     1
175
     1
176
     1
 42
40.0
176
     1
 92
        8
176
     1
 66
     7
176
     1
 43
1.0
176
     1
 76
     1
176
     1
 77
     6
176
     1
 78
     2
176
     1
 67
     7
176
     1
 79
     3
176
     1
170
     0
176
     1
171
     0
176
     1
290
     0
176
     1
 93
        1
176
     1
 44
0.0
176
     1
173
     0
176
     1
  0
VISUALSTYLE
  5
35
102
{ACAD_REACTORS
330
2A
102
}
330
2A
100
AcDbVisualStyle
  2
Dim
 70
    11
177
     2
291
     1
 71
     2
176
     1
 72
     2
176
     1
 73
     0
176
     1
 90
        0
176
     1
 40
-0.6
176
     1
 41
-30.0
176
     1
 62
     5
 63
     7
421
 16777215
176
     1
 74
     1
176
     1
 91
        4
176
     1
 64
     7
176
     1
 65
   257
176
     1
 75
     1
176
     1
175
     1
176
     1
 42
1.0
176
     1
 92
        8
176
     1
 66
     7
176
     1
 43
1.0
176
     1
 76
     1
176
     1
 77
     6
176
     1
 78
     2
176
     1
 67
     7
176
     1
 79
     5
176
     1
170
     0
176
     1
171
     0
176
     1
290
     0
176
     1
 93
        1
176
     1
 44
-50.0
176
     1
173
     0
176
     1
  0
VISUALSTYLE
  5
39
102
{ACAD_REACTORS
330
2A
102
}
330
2A
100
AcDbVisualStyle
  2
Facepattern
 70
    15
177
     2
291
     1
 71
     2
176
     1
 72
     2
176
     1
 73
     0
176
     1
 90
        0
176
     1
 40
-0.6
176
     1
 41
-30.0
176
     1
 62
     5
 63
     7
421
 16777215
176
     1
 74
     1
176
     1
 91
        4
176
     1
 64
     7
176
     1
 65
   257
176
     1
 75
     1
176
     1
175
     1
176
     1
 42
1.0
176
     1
 92
        8
176
     1
 66
     7
176
     1
 43
1.0
176
     1
 76
     1
176
     1
 77
     6
176
     1
 78
     2
176
     1
 67
     7
176
     1
 79
     5
176
     1
170
     0
176
     1
171
     0
176
     1
290
     0
176
     1
 93
        1
176
     1
 44
0.0
176
     1
173
     0
176
     1
  0
VISUALSTYLE
  5
2B
102
{ACAD_REACTORS
330
2A
102
}
330
2A
100
AcDbVisualStyle
  2
Flat
 70
     0
177
     2
291
     1
 71
     2
176
     1
 72
     1
176
     1
 73
     1
176
     1
 90
        2
176
     1
 40
-0.6
176
     1
 41
30.0
176
     1
 62
     5
 63
     7
421
 16777215
176
     1
 74
     0
176
     1
 91
        4
176
     1
 64
     7
176
     1
 65
   257
176
     1
 75
     1
176
     1
175
     1
176
     1
 42
1.0
176
     1
 92
        8
176
     1
 66
     7
176
     1
 43
1.0
176
     1
 76
     1
176
     1
 77
     6
176
     1
 78
     2
176
     1
 67
     7
176
     1
 79
     5
176
     1
170
     0
176
     1
171
     0
176
     1
290
     0
176
     1
 93
       13
176
     1
 44
0.0
176
     1
173
     0
176
     1
  0
VISUALSTYLE
  5
2C
102
{ACAD_REACTORS
330
2A
102
}
330
2A
100
AcDbVisualStyle
  2
FlatWithEdges
 70
     1
177
     2
291
     1
 71
     2
176
     1
 72
     1
176
     1
 73
     1
176
     1
 90
        2
176
     1
 40
-0.6
176
     1
 41
30.0
176
     1
 62
     5
 63
     7
421
 16777215
176
     1
 74
     1
176
     1
 91
        4
176
     1
 64
     7
176
     1
 65
   257
176
     1
 75
     1
176
     1
175
     1
176
     1
 42
1.0
176
     1
 92
        0
176
     1
 66
   257
176
     1
 43
1.0
176
     1
 76
     1
176
     1
 77
     6
176
     1
 78
     2
176
     1
 67
     7
176
     1
 79
     5
176
     1
170
     0
176
     1
171
     0
176
     1
290
     0
176
     1
 93
       13
176
     1
 44
0.0
176
     1
173
     0
176
     1
  0
VISUALSTYLE
  5
2D
102
{ACAD_REACTORS
330
2A
102
}
330
2A
100
AcDbVisualStyle
  2
Gouraud
 70
     2
177
     2
291
     1
 71
     2
176
     1
 72
     2
176
     1
 73
     1
176
     1
 90
        2
176
     1
 40
-0.6
176
     1
 41
30.0
176
     1
 62
     5
 63
     7
421
 16777215
176
     1
 74
     0
176
     1
 91
        4
176
     1
 64
     7
176
     1
 65
   257
176
     1
 75
     1
176
     1
175
     1
176
     1
 42
1.0
176
     1
 92
        0
176
     1
 66
     7
176
     1
 43
1.0
176
     1
 76
     1
176
     1
 77
     6
176
     1
 78
     2
176
     1
 67
     7
176
     1
 79
     5
176
     1
170
     0
176
     1
171
     0
176
     1
290
     0
176
     1
 93
       13
176
     1
 44
0.0
176
     1
173
     0
176
     1
  0
VISUALSTYLE
  5
2E
102
{ACAD_REACTORS
330
2A
102
}
330
2A
100
AcDbVisualStyle
  2
GouraudWithEdges
 70
     3
177
     2
291
     1
 71
     2
176
     1
 72
     2
176
     1
 73
     1
176
     1
 90
        2
176
     1
 40
-0.6
176
     1
 41
30.0
176
     1
 62
     5
 63
     7
421
 16777215
176
     1
 74
     1
176
     1
 91
        4
176
     1
 64
     7
176
     1
 65
   257
176
     1
 75
     1
176
     1
175
     1
176
     1
 42
1.0
176
     1
 92
        0
176
     1
 66
   257
176
     1
 43
1.0
176
     1
 76
     1
176
     1
 77
     6
176
     1
 78
     2
176
     1
 67
     7
176
     1
 79
     5
176
     1
170
     0
176
     1
171
     0
176
     1
290
     0
176
     1
 93
       13
176
     1
 44
0.0
176
     1
173
     0
176
     1
  0
VISUALSTYLE
  5
38
102
{ACAD_REACTORS
330
2A
102
}
330
2A
100
AcDbVisualStyle
  2
Linepattern
 70
    14
177
     2
291
     1
 71
     2
176
     1
 72
     2
176
     1
 73
     0
176
     1
 90
        0
176
     1
 40
-0.6
176
     1
 41
-30.0
176
     1
 62
     5
 63
     7
421
 16777215
176
     1
 74
     1
176
     1
 91
        4
176
     1
 64
     7
176
     1
 65
   257
176
     1
 75
     7
176
     1
175
     7
176
     1
 42
1.0
176
     1
 92
        8
176
     1
 66
     7
176
     1
 43
1.0
176
     1
 76
     1
176
     1
 77
     6
176
     1
 78
     2
176
     1
 67
     7
176
     1
 79
     5
176
     1
170
     0
176
     1
171
     0
176
     1
290
     0
176
     1
 93
        1
176
     1
 44
0.0
176
     1
173
     0
176
     1
  0
VISUALSTYLE
  5
33
102
{ACAD_REACTORS
330
2A
102
}
330
2A
100
AcDbVisualStyle
  2
Realistic
 70
     8
177
     2
291
     0
 71
     2
176
     1
 72
     2
176
     1
 73
     0
176
     1
 90
        0
176
     1
 40
-0.6
176
     1
 41
-30.0
176
     1
 62
     5
 63
     7
421
 16777215
176
     1
 74
     1
176
     1
 91
        0
176
     1
 64
     7
176
     1
 65
   257
176
     1
 75
     1
176
     1
175
     1
176
     1
 42
1.0
176
     1
 92
        8
176
     1
 66
     8
424
  7895160
176
     1
 43
1.0
176
     1
 76
     1
176
     1
 77
     6
176
     1
 78
     2
176
     1
 67
     7
176
     1
 79
     5
176
     1
170
     0
176
     1
171
     0
176
     1
290
     0
176
     1
 93
       13
176
     1
 44
0.0
176
     1
173
     0
176
     1
  0
VISUALSTYLE
  5
37
102
{ACAD_REACTORS
330
2A
102
}
330
2A
100
AcDbVisualStyle
  2
Thicken
 70
    13
177
     2
291
     1
 71
     2
176
     1
 72
     2
176
     1
 73
     0
176
     1
 90
        0
176
     1
 40
-0.6
176
     1
 41
-30.0
176
     1
 62
     5
 63
     7
421
 16777215
176
     1
 74
     1
176
     1
 91
        4
176
     1
 64
     7
176
     1
 65
   257
176
     1
 75
     1
176
     1
175
     1
176
     1
 42
1.0
176
     1
 92
       12
176
     1
 66
     7
176
     1
 43
1.0
176
     1
 76
     1
176
     1
 77
     6
176
     1
 78
     2
176
     1
 67
     7
176
     1
 79
     5
176
     1
170
     0
176
     1
171
     0
176
     1
290
     0
176
     1
 93
        1
176
     1
 44
0.0
176
     1
173
     0
176
     1
  0
ENDSEC
  0
EOF
