  0
SECTION
  2
HEADER
  9
$ACADVER
  1
AC1024
  9
$ACADMAINTVER
 70
     6
  9
$DWGCODEPAGE
  3
UNDEFINED
  9
$INSBASE
 10
0.0
 20
0.0
 30
0.0
  9
$EXTMIN
 10
1.000000000000000E+20
 20
1.000000000000000E+20
 30
1.000000000000000E+20
  9
$EXTMAX
 10
-1.000000000000000E+20
 20
-1.000000000000000E+20
 30
-1.000000000000000E+20
  9
$LIMMIN
 10
0.0
 20
0.0
  9
$LIMMAX
 10
12.0
 20
9.0
  9
$ORTHOMODE
 70
     0
  9
$REGENMODE
 70
     1
  9
$FILLMODE
 70
     1
  9
$QTEXTMODE
 70
     0
  9
$MIRRTEXT
 70
     1
  9
$LTSCALE
 40
1.0
  9
$ATTMODE
 70
     1
  9
$TEXTSIZE
 40
0.2
  9
$TRACEWID
 40
0.05
  9
$TEXTSTYLE
  7
Standard
  9
$CLAYER
  8
0
  9
$CELTYPE
  6
ByLayer
  9
$CECOLOR
 62
   256
  9
$CELTSCALE
 40
1.0
  9
$DISPSILH
 70
     0
  9
$DIMSCALE
 40
1.0
  9
$DIMASZ
 40
0.18
  9
$DIMEXO
 40
0.0625
  9
$DIMDLI
 40
0.38
  9
$DIMRND
 40
0.0
  9
$DIMDLE
 40
0.0
  9
$DIMEXE
 40
0.18
  9
$DIMTP
 40
0.0
  9
$DIMTM
 40
0.0
  9
$DIMTXT
 40
0.18
  9
$DIMCEN
 40
0.09
  9
$DIMTSZ
 40
0.0
  9
$DIMTOL
 70
     0
  9
$DIMLIM
 70
     0
  9
$DIMTIH
 70
     1
  9
$DIMTOH
 70
     1
  9
$DIMSE1
 70
     0
  9
$DIMSE2
 70
     0
  9
$DIMTAD
 70
     0
  9
$DIMZIN
 70
     0
  9
$DIMBLK
  1

  9
$DIMASO
 70
     1
  9
$DIMSHO
 70
     1
  9
$DIMPOST
  1

  9
$DIMAPOST
  1

  9
$DIMALT
 70
     0
  9
$DIMALTD
 70
     2
  9
$DIMALTF
 40
25.4
  9
$DIMLFAC
 40
1.0
  9
$DIMTOFL
 70
     0
  9
$DIMTVP
 40
0.0
  9
$DIMTIX
 70
     0
  9
$DIMSOXD
 70
     0
  9
$DIMSAH
 70
     0
  9
$DIMBLK1
  1

  9
$DIMBLK2
  1

  9
$DIMSTYLE
  2
Standard
  9
$DIMCLRD
 70
     0
  9
$DIMCLRE
 70
     0
  9
$DIMCLRT
 70
     0
  9
$DIMTFAC
 40
1.0
  9
$DIMGAP
 40
0.09
  9
$DIMJUST
 70
     0
  9
$DIMSD1
 70
     0
  9
$DIMSD2
 70
     0
  9
$DIMTOLJ
 70
     1
  9
$DIMTZIN
 70
     0
  9
$DIMALTZ
 70
     0
  9
$DIMALTTZ
 70
     0
  9
$DIMUPT
 70
     0
  9
$DIMDEC
 70
     4
  9
$DIMTDEC
 70
     4
  9
$DIMALTU
 70
     2
  9
$DIMALTTD
 70
     2
  9
$DIMTXSTY
  7
Standard
  9
$DIMAUNIT
 70
     0
  9
$DIMADEC
 70
     0
  9
$DIMALTRND
 40
0.0
  9
$DIMAZIN
 70
     0
  9
$DIMDSEP
 70
    46
  9
$DIMATFIT
 70
     3
  9
$DIMFRAC
 70
     0
  9
$DIMLDRBLK
  1

  9
$DIMLUNIT
 70
     2
  9
$DIMLWD
 70
    -2
  9
$DIMLWE
 70
    -2
  9
$DIMTMOVE
 70
     0
  9
$DIMFXL
 40
1.0
  9
$DIMFXLON
 70
     0
  9
$DIMJOGANG
 40
0.7853981633974483
  9
$DIMTFILL
 70
     0
  9
$DIMTFILLCLR
 70
     0
  9
$DIMARCSYM
 70
     0
  9
$DIMLTYPE
  6

  9
$DIMLTEX1
  6

  9
$DIMLTEX2
  6

  9
$DIMTXTDIRECTION
 70
     0
  9
$LUNITS
 70
     2
  9
$LUPREC
 70
     4
  9
$SKETCHINC
 40
0.1
  9
$FILLETRAD
 40
0.5
  9
$AUNITS
 70
     0
  9
$AUPREC
 70
     0
  9
$MENU
  1
.
  9
$ELEVATION
 40
0.0
  9
$PELEVATION
 40
0.0
  9
$THICKNESS
 40
0.0
  9
$LIMCHECK
 70
     0
  9
$CHAMFERA
 40
0.5
  9
$CHAMFERB
 40
0.5
  9
$CHAMFERC
 40
1.0
  9
$CHAMFERD
 40
0.0
  9
$SKPOLY
 70
     0
  9
$TDCREATE
 40
2457917.594178241
  9
$TDUCREATE
 40
2457917.219178241
  9
$TDUPDATE
 40
2457917.594178241
  9
$TDUUPDATE
 40
2457917.219178241
  9
$TDINDWG
 40
0.0000000116
  9
$TDUSRTIMER
 40
0.0000000116
  9
$USRTIMER
 70
     1
  9
$ANGBASE
 50
0.0
  9
$ANGDIR
 70
     0
  9
$PDMODE
 70
     0
  9
$PDSIZE
 40
0.0
  9
$PLINEWID
 40
0.0
  9
$SPLFRAME
 70
     0
  9
$SPLINETYPE
 70
     6
  9
$SPLINESEGS
 70
     8
  9
$HANDSEED
  5
B6
  9
$SURFTAB1
 70
     6
  9
$SURFTAB2
 70
     6
  9
$SURFTYPE
 70
     6
  9
$SURFU
 70
     6
  9
$SURFV
 70
     6
  9
$UCSBASE
  2

  9
$UCSNAME
  2

  9
$UCSORG
 10
0.0
 20
0.0
 30
0.0
  9
$UCSXDIR
 10
1.0
 20
0.0
 30
0.0
  9
$UCSYDIR
 10
0.0
 20
1.0
 30
0.0
  9
$UCSORTHOREF
  2

  9
$UCSORTHOVIEW
 70
     0
  9
$UCSORGTOP
 10
0.0
 20
0.0
 30
0.0
  9
$UCSORGBOTTOM
 10
0.0
 20
0.0
 30
0.0
  9
$UCSORGLEFT
 10
0.0
 20
0.0
 30
0.0
  9
$UCSORGRIGHT
 10
0.0
 20
0.0
 30
0.0
  9
$UCSORGFRONT
 10
0.0
 20
0.0
 30
0.0
  9
$UCSORGBACK
 10
0.0
 20
0.0
 30
0.0
  9
$PUCSBASE
  2

  9
$PUCSNAME
  2

  9
$PUCSORG
 10
0.0
 20
0.0
 30
0.0
  9
$PUCSXDIR
 10
1.0
 20
0.0
 30
0.0
  9
$PUCSYDIR
 10
0.0
 20
1.0
 30
0.0
  9
$PUCSORTHOREF
  2

  9
$PUCSORTHOVIEW
 70
     0
  9
$PUCSORGTOP
 10
0.0
 20
0.0
 30
0.0
  9
$PUCSORGBOTTOM
 10
0.0
 20
0.0
 30
0.0
  9
$PUCSORGLEFT
 10
0.0
 20
0.0
 30
0.0
  9
$PUCSORGRIGHT
 10
0.0
 20
0.0
 30
0.0
  9
$PUCSORGFRONT
 10
0.0
 20
0.0
 30
0.0
  9
$PUCSORGBACK
 10
0.0
 20
0.0
 30
0.0
  9
$USERI1
 70
     0
  9
$USERI2
 70
     0
  9
$USERI3
 70
     0
  9
$USERI4
 70
     0
  9
$USERI5
 70
     0
  9
$USERR1
 40
0.0
  9
$USERR2
 40
0.0
  9
$USERR3
 40
0.0
  9
$USERR4
 40
0.0
  9
$USERR5
 40
0.0
  9
$WORLDVIEW
 70
     1
  9
$SHADEDGE
 70
     3
  9
$SHADEDIF
 70
    70
  9
$TILEMODE
 70
     1
  9
$MAXACTVP
 70
    64
  9
$PINSBASE
 10
0.0
 20
0.0
 30
0.0
  9
$PLIMCHECK
 70
     0
  9
$PEXTMIN
 10
1.000000000000000E+20
 20
1.000000000000000E+20
 30
1.000000000000000E+20
  9
$PEXTMAX
 10
-1.000000000000000E+20
 20
-1.000000000000000E+20
 30
-1.000000000000000E+20
  9
$PLIMMIN
 10
0.0
 20
0.0
  9
$PLIMMAX
 10
12.0
 20
9.0
  9
$UNITMODE
 70
     0
  9
$VISRETAIN
 70
     1
  9
$PLINEGEN
 70
     0
  9
$PSLTSCALE
 70
     1
  9
$TREEDEPTH
 70
  3020
  9
$CMLSTYLE
  2
Standard
  9
$CMLJUST
 70
     0
  9
$CMLSCALE
 40
1.0
  9
$PROXYGRAPHICS
 70
     1
  9
$MEASUREMENT
 70
     0
  9
$CELWEIGHT
370
    -1
  9
$ENDCAPS
280
     0
  9
$JOINSTYLE
280
     0
  9
$LWDISPLAY
290
     1
  9
$INSUNITS
 70
     1
  9
$HYPERLINKBASE
  1

  9
$STYLESHEET
  1

  9
$XEDIT
290
     1
  9
$CEPSNTYPE
380
     0
  9
$PSTYLEMODE
290
     1
  9
$FINGERPRINTGUID
  2
{D2BFFC8D-F748-5828-F667-D578B14ADBDC}
  9
$VERSIONGUID
  2
{FAEB1C32-E019-11D5-929B-00C0DF256EC4}
  9
$EXTNAMES
290
     1
  9
$PSVPSCALE
 40
0.0
  9
$OLESTARTUP
290
     0
  9
$SORTENTS
280
   127
  9
$INDEXCTL
280
     0
  9
$HIDETEXT
280
     1
  9
$XCLIPFRAME
280
     2
  9
$HALOGAP
280
     0
  9
$OBSCOLOR
 70
   257
  9
$OBSLTYPE
280
     0
  9
$INTERSECTIONDISPLAY
280
     0
  9
$INTERSECTIONCOLOR
 70
   257
  9
$DIMASSOC
280
     2
  9
$PROJECTNAME
  1

  9
$CAMERADISPLAY
290
     0
  9
$LENSLENGTH
 40
50.0
  9
$CAMERAHEIGHT
 40
0.0
  9
$STEPSPERSEC
 40
2.0
  9
$STEPSIZE
 40
6.0
  9
$3DDWFPREC
 40
2.0
  9
$PSOLWIDTH
 40
0.25
  9
$PSOLHEIGHT
 40
4.0
  9
$LOFTANG1
 40
1.570796326794897
  9
$LOFTANG2
 40
1.570796326794897
  9
$LOFTMAG1
 40
0.0
  9
$LOFTMAG2
 40
0.0
  9
$LOFTPARAM
 70
     7
  9
$LOFTNORMALS
280
     1
  9
$LATITUDE
 40
37.795
  9
$LONGITUDE
 40
-122.394
  9
$NORTHDIRECTION
 40
0.0
  9
$TIMEZONE
 70
 -8000
  9
$LIGHTGLYPHDISPLAY
280
     1
  9
$TILEMODELIGHTSYNCH
280
     1
  9
$CMATERIAL
347
3C
  9
$SOLIDHIST
280
     1
  9
$SHOWHIST
280
     1
  9
$DWFFRAME
280
     2
  9
$DGNFRAME
280
     2
  9
$REALWORLDSCALE
290
     1
  9
$INTERFERECOLOR
 62
   256
  9
$CSHADOW
280
     0
  9
$SHADOWPLANELOCATION
 40
0.0
  0
ENDSEC
  0
SECTION
  2
CLASSES
  0
CLASS
  1
ACDBDICTIONARYWDFLT
  2
AcDbDictionaryWithDefault
  3
ObjectDBX Classes
 90
        0
 91
        4
280
     0
281
     0
  0
CLASS
  1
VISUALSTYLE
  2
AcDbVisualStyle
  3
ObjectDBX Classes
 90
     4095
 91
        4
280
     0
281
     0
  0
CLASS
  1
MATERIAL
  2
AcDbMaterial
  3
ObjectDBX Classes
 90
     1153
 91
        4
280
     0
281
     0
  0
CLASS
  1
SUN
  2
AcDbSun
  3
SCENEOE
 90
     1024
 91
        4
280
     0
281
     0
  0
ENDSEC
  0
SECTION
  2
TABLES
  0
TABLE
  2
VPORT
  5
8
330
0
100
AcDbSymbolTable
 70
     1
  0
VPORT
  5
29
330
8
100
AcDbSymbolTableRecord
100
AcDbViewportTableRecord
  2
*Active
 70
     0
 10
0.0
 20
0.0
 11
1.0
 21
1.0
 12
0.0
 22
0.0
 13
0.0
 23
0.0
 14
0.5
 24
0.5
 15
0.5
 25
0.5
 16
0.0
 26
0.0
 36
1.0
 17
91.00082462281999
 27
-128.4993055234307
 37
0.0
 40
256.9986110468615
 41
0.7081814508812795
 42
50.0
 43
0.0
 44
0.0
 50
0.0
 51
0.0
 71
     0
 72
   100
 73
     1
 74
     3
 75
     0
 76
     0
 77
     0
 78
     0
281
     0
 65
     1
110
0.0
120
0.0
130
0.0
111
1.0
121
0.0
131
0.0
112
0.0
122
1.0
132
0.0
 79
     0
146
0.0
 60
     3
 61
     5
292
     1
282
     1
141
0.0
142
0.0
 63
   250
361
3F
  0
ENDTAB
  0
TABLE
  2
LTYPE
  5
5
330
0
100
AcDbSymbolTable
 70
     1
  0
LTYPE
  5
14
330
5
100
AcDbSymbolTableRecord
100
AcDbLinetypeTableRecord
  2
ByBlock
 70
     0
  3

 72
    65
 73
     0
 40
0.0
  0
LTYPE
  5
15
330
5
100
AcDbSymbolTableRecord
100
AcDbLinetypeTableRecord
  2
ByLayer
 70
     0
  3

 72
    65
 73
     0
 40
0.0
  0
LTYPE
  5
16
330
5
100
AcDbSymbolTableRecord
100
AcDbLinetypeTableRecord
  2
Continuous
 70
     0
  3
Solid line
 72
    65
 73
     0
 40
0.0
  0
ENDTAB
  0
TABLE
  2
LAYER
  5
2
330
0
100
AcDbSymbolTable
 70
     2
  0
LAYER
  5
10
330
2
100
AcDbSymbolTableRecord
100
AcDbLayerTableRecord
  2
0
 70
     0
 62
     7
  6
Continuous
370
    -3
390
F
347
3E
  0
LAYER
  5
40
330
2
100
AcDbSymbolTableRecord
100
AcDbLayerTableRecord
  2
_U+30EC_U+30A4_U+30E4_U+30FC 1
 70
     0
 62
     7
  6
Continuous
370
    -3
390
F
347
3E
  0
ENDTAB
  0
TABLE
  2
STYLE
  5
3
330
0
100
AcDbSymbolTable
 70
     1
  0
STYLE
  5
11
330
3
100
AcDbSymbolTableRecord
100
AcDbTextStyleTableRecord
  2
Standard
 70
     0
 40
0.0
 41
1.0
 50
0.0
 71
     0
 42
0.2
  3
txt
  4

  0
ENDTAB
  0
TABLE
  2
VIEW
  5
6
330
0
100
AcDbSymbolTable
 70
     0
  0
ENDTAB
  0
TABLE
  2
UCS
  5
7
330
0
100
AcDbSymbolTable
 70
     0
  0
ENDTAB
  0
TABLE
  2
APPID
  5
9
330
0
100
AcDbSymbolTable
 70
     1
  0
APPID
  5
12
330
9
100
AcDbSymbolTableRecord
100
AcDbRegAppTableRecord
  2
ACAD
 70
     0
  0
ENDTAB
  0
TABLE
  2
DIMSTYLE
  5
A
330
0
100
AcDbSymbolTable
 70
     1
100
AcDbDimStyleTable
  0
DIMSTYLE
105
27
330
A
100
AcDbSymbolTableRecord
100
AcDbDimStyleTableRecord
  2
Standard
 70
     0
178
     0
340
11
  0
ENDTAB
  0
TABLE
  2
BLOCK_RECORD
  5
1
330
0
100
AcDbSymbolTable
 70
     5
  0
BLOCK_RECORD
  5
1F
330
1
100
AcDbSymbolTableRecord
100
AcDbBlockTableRecord
  2
*Model_Space
340
22
 70
     0
280
     1
281
     0
  0
BLOCK_RECORD
  5
1B
330
1
100
AcDbSymbolTableRecord
100
AcDbBlockTableRecord
  2
*Paper_Space
340
1E
 70
     0
280
     1
281
     0
  0
BLOCK_RECORD
  5
23
330
1
100
AcDbSymbolTableRecord
100
AcDbBlockTableRecord
  2
*Paper_Space0
340
26
 70
     0
280
     1
281
     0
  0
BLOCK_RECORD
  5
4D
330
1
100
AcDbSymbolTableRecord
100
AcDbBlockTableRecord
  2
block 2
340
0
102
{BLKREFS
331
4E
102
}
 70
     0
280
     1
281
     0
  0
BLOCK_RECORD
  5
56
330
1
100
AcDbSymbolTableRecord
100
AcDbBlockTableRecord
  2
block 3
340
0
102
{BLKREFS
331
57
102
}
 70
     0
280
     1
281
     0
  0
BLOCK_RECORD
  5
5F
330
1
100
AcDbSymbolTableRecord
100
AcDbBlockTableRecord
  2
block 4
340
0
102
{BLKREFS
331
60
102
}
 70
     0
280
     1
281
     0
  0
BLOCK_RECORD
  5
68
330
1
100
AcDbSymbolTableRecord
100
AcDbBlockTableRecord
  2
block 5
340
0
102
{BLKREFS
331
69
102
}
 70
     0
280
     1
281
     0
  0
ENDTAB
  0
ENDSEC
  0
SECTION
  2
BLOCKS
  0
BLOCK
  5
20
330
1F
100
AcDbEntity
  8
0
100
AcDbBlockBegin
  2
*Model_Space
 70
     0
 10
0.0
 20
0.0
 30
0.0
  3
*Model_Space
  1

  0
ENDBLK
  5
21
330
1F
100
AcDbEntity
  8
0
100
AcDbBlockEnd
  0
BLOCK
  5
1C
330
1B
100
AcDbEntity
 67
     1
  8
0
100
AcDbBlockBegin
  2
*Paper_Space
 70
     0
 10
0.0
 20
0.0
 30
0.0
  3
*Paper_Space
  1

  0
ENDBLK
  5
1D
330
1B
100
AcDbEntity
 67
     1
  8
0
100
AcDbBlockEnd
  0
BLOCK
  5
24
330
23
100
AcDbEntity
  8
0
100
AcDbBlockBegin
  2
*Paper_Space0
 70
     0
 10
0.0
 20
0.0
 30
0.0
  3
*Paper_Space0
  1

  0
ENDBLK
  5
25
330
23
100
AcDbEntity
  8
0
100
AcDbBlockEnd
  0
BLOCK
  5
4F
330
4D
100
AcDbEntity
  8
0
100
AcDbBlockBegin
  2
block 2
 70
     0
 10
0.0
 20
0.0
 30
0.0
  3
block 2
  1

  0
SPLINE
  5
51
330
4D
100
AcDbEntity
  8
_U+30EC_U+30A4_U+30E4_U+30FC 1
370
     0
100
AcDbSpline
210
0.0
220
0.0
230
1.0
 70
    11
 71
     3
 72
    44
 73
    40
 74
     0
 42
0.0000000001
 43
0.0000000001
 12
1.0
 22
0.0
 32
0.0
 13
1.0
 23
0.0
 33
0.0
 40
0.0
 40
0.0
 40
0.0
 40
0.0
 40
1.0
 40
1.0
 40
1.0
 40
2.0
 40
2.0
 40
2.0
 40
3.0
 40
3.0
 40
3.0
 40
4.0
 40
4.0
 40
4.0
 40
5.0
 40
5.0
 40
5.0
 40
6.0
 40
6.0
 40
6.0
 40
7.0
 40
7.0
 40
7.0
 40
8.0
 40
8.0
 40
8.0
 40
9.0
 40
9.0
 40
9.0
 40
10.0
 40
10.0
 40
10.0
 40
11.0
 40
11.0
 40
11.0
 40
12.0
 40
12.0
 40
12.0
 40
13.0
 40
13.0
 40
13.0
 40
13.0
 10
103.1048176825571
 20
-125.186846214363
 30
0.0
 10
103.0813910332574
 20
-125.1424044826033
 30
0.0
 10
103.0600314412489
 20
-125.089694521679
 30
0.0
 10
103.0579643839577
 20
-124.8588731241672
 30
0.0
 10
103.0538302693754
 20
-124.6156493829086
 30
0.0
 10
102.9945746270291
 20
-124.545713944558
 30
0.0
 10
102.8168076999902
 20
-124.545713944558
 30
0.0
 10
102.8168076999902
 20
-124.545713944558
 30
0.0
 10
102.4085638849881
 20
-124.545713944558
 30
0.0
 10
102.4085638849881
 20
-124.545713944558
 30
0.0
 10
102.4085638849881
 20
-124.545713944558
 30
0.0
 10
102.4085638849881
 20
-125.186846214363
 30
0.0
 10
102.4085638849881
 20
-125.186846214363
 30
0.0
 10
102.4085638849881
 20
-125.186846214363
 30
0.0
 10
102.1739528824426
 20
-125.186846214363
 30
0.0
 10
102.1739528824426
 20
-125.186846214363
 30
0.0
 10
102.1739528824426
 20
-125.186846214363
 30
0.0
 10
102.1739528824426
 20
-123.6424099083255
 30
0.0
 10
102.1739528824426
 20
-123.6424099083255
 30
0.0
 10
102.1739528824426
 20
-123.6424099083255
 30
0.0
 10
102.8485025784545
 20
-123.6424099083255
 30
0.0
 10
102.8485025784545
 20
-123.6424099083255
 30
0.0
 10
103.1551160766418
 20
-123.6424099083255
 30
0.0
 10
103.3225477172249
 20
-123.813975663491
 30
0.0
 10
103.3225477172249
 20
-124.069946258045
 30
0.0
 10
103.3225477172249
 20
-124.1205891616782
 30
0.0
 10
103.3139349785118
 20
-124.2032714533242
 30
0.0
 10
103.2694932467521
 20
-124.2835421781305
 30
0.0
 10
103.2102376044058
 20
-124.3872395522365
 30
0.0
 10
103.144780790186
 20
-124.4061875774054
 30
0.0
 10
103.0834580905486
 20
-124.4230685452831
 30
0.0
 10
103.2209174004101
 20
-124.4654432197517
 30
0.0
 10
103.2887857814695
 20
-124.5140190660937
 30
0.0
 10
103.2929198960518
 20
-124.8292453029941
 30
0.0
 10
103.2970540106341
 20
-125.1000298081347
 30
0.0
 10
103.3328830036807
 20
-125.131724686599
 30
0.0
 10
103.4007513847401
 20
-125.186846214363
 30
0.0
 10
103.4007513847401
 20
-125.186846214363
 30
0.0
 10
103.1048176825571
 20
-125.186846214363
 30
0.0
 10
103.1048176825571
 20
-125.186846214363
 30
0.0
  0
SPLINE
  5
52
330
4D
100
AcDbEntity
  8
_U+30EC_U+30A4_U+30E4_U+30FC 1
370
     0
100
AcDbSpline
210
0.0
220
0.0
230
1.0
 70
    11
 71
     3
 72
    20
 73
    16
 74
     0
 42
0.0000000001
 43
0.0000000001
 12
1.0
 22
0.0
 32
0.0
 13
1.0
 23
0.0
 33
0.0
 40
0.0
 40
0.0
 40
0.0
 40
0.0
 40
1.0
 40
1.0
 40
1.0
 40
2.0
 40
2.0
 40
2.0
 40
3.0
 40
3.0
 40
3.0
 40
4.0
 40
4.0
 40
4.0
 40
5.0
 40
5.0
 40
5.0
 40
5.0
 10
102.8526366930368
 20
-123.8539387711199
 30
0.0
 10
102.8526366930368
 20
-123.8539387711199
 30
0.0
 10
102.4085638849881
 20
-123.8539387711199
 30
0.0
 10
102.4085638849881
 20
-123.8539387711199
 30
0.0
 10
102.4085638849881
 20
-123.8539387711199
 30
0.0
 10
102.4085638849881
 20
-124.3341850817637
 30
0.0
 10
102.4085638849881
 20
-124.3341850817637
 30
0.0
 10
102.4085638849881
 20
-124.3341850817637
 30
0.0
 10
102.8505696357457
 20
-124.3341850817637
 30
0.0
 10
102.8505696357457
 20
-124.3341850817637
 30
0.0
 10
102.9501328952694
 20
-124.3341850817637
 30
0.0
 10
103.0855251478397
 20
-124.2580484715397
 30
0.0
 10
103.0855251478397
 20
-124.0868272259227
 30
0.0
 10
103.0855251478397
 20
-124.0086235584076
 30
0.0
 10
103.0517632120843
 20
-123.8539387711199
 30
0.0
 10
102.8526366930368
 20
-123.8539387711199
 30
0.0
  0
HATCH
  5
53
330
4D
100
AcDbEntity
  8
_U+30EC_U+30A4_U+30E4_U+30FC 1
 62
   179
420
  2234388
100
AcDbHatch
 10
0.0
 20
0.0
 30
0.0
210
0.0
220
0.0
230
1.0
  2
SOLID
 70
     1
 71
     0
 91
        2
 92
        1
 93
        1
 72
     4
 94
        3
 73
     0
 74
     1
 95
       44
 96
       40
 40
0.0
 40
0.0
 40
0.0
 40
0.0
 40
1.0
 40
1.0
 40
1.0
 40
2.0
 40
2.0
 40
2.0
 40
3.0
 40
3.0
 40
3.0
 40
4.0
 40
4.0
 40
4.0
 40
5.0
 40
5.0
 40
5.0
 40
6.0
 40
6.0
 40
6.0
 40
7.0
 40
7.0
 40
7.0
 40
8.0
 40
8.0
 40
8.0
 40
9.0
 40
9.0
 40
9.0
 40
10.0
 40
10.0
 40
10.0
 40
11.0
 40
11.0
 40
11.0
 40
12.0
 40
12.0
 40
12.0
 40
13.0
 40
13.0
 40
13.0
 40
13.0
 10
103.1048176825571
 20
-125.186846214363
 10
103.0813910332574
 20
-125.1424044826033
 10
103.0600314412489
 20
-125.089694521679
 10
103.0579643839577
 20
-124.8588731241672
 10
103.0538302693754
 20
-124.6156493829086
 10
102.9945746270291
 20
-124.545713944558
 10
102.8168076999902
 20
-124.545713944558
 10
102.8168076999902
 20
-124.545713944558
 10
102.4085638849881
 20
-124.545713944558
 10
102.4085638849881
 20
-124.545713944558
 10
102.4085638849881
 20
-124.545713944558
 10
102.4085638849881
 20
-125.186846214363
 10
102.4085638849881
 20
-125.186846214363
 10
102.4085638849881
 20
-125.186846214363
 10
102.1739528824426
 20
-125.186846214363
 10
102.1739528824426
 20
-125.186846214363
 10
102.1739528824426
 20
-125.186846214363
 10
102.1739528824426
 20
-123.6424099083255
 10
102.1739528824426
 20
-123.6424099083255
 10
102.1739528824426
 20
-123.6424099083255
 10
102.8485025784545
 20
-123.6424099083255
 10
102.8485025784545
 20
-123.6424099083255
 10
103.1551160766418
 20
-123.6424099083255
 10
103.3225477172249
 20
-123.813975663491
 10
103.3225477172249
 20
-124.069946258045
 10
103.3225477172249
 20
-124.1205891616782
 10
103.3139349785118
 20
-124.2032714533242
 10
103.2694932467521
 20
-124.2835421781305
 10
103.2102376044058
 20
-124.3872395522365
 10
103.144780790186
 20
-124.4061875774054
 10
103.0834580905486
 20
-124.4230685452831
 10
103.2209174004101
 20
-124.4654432197517
 10
103.2887857814695
 20
-124.5140190660937
 10
103.2929198960518
 20
-124.8292453029941
 10
103.2970540106341
 20
-125.1000298081347
 10
103.3328830036807
 20
-125.131724686599
 10
103.4007513847401
 20
-125.186846214363
 10
103.4007513847401
 20
-125.186846214363
 10
103.1048176825571
 20
-125.186846214363
 10
103.1048176825571
 20
-125.186846214363
 97
        0
 97
        0
 92
        1
 93
        1
 72
     4
 94
        3
 73
     0
 74
     1
 95
       20
 96
       16
 40
0.0
 40
0.0
 40
0.0
 40
0.0
 40
1.0
 40
1.0
 40
1.0
 40
2.0
 40
2.0
 40
2.0
 40
3.0
 40
3.0
 40
3.0
 40
4.0
 40
4.0
 40
4.0
 40
5.0
 40
5.0
 40
5.0
 40
5.0
 10
102.8526366930368
 20
-123.8539387711199
 10
102.8526366930368
 20
-123.8539387711199
 10
102.4085638849881
 20
-123.8539387711199
 10
102.4085638849881
 20
-123.8539387711199
 10
102.4085638849881
 20
-123.8539387711199
 10
102.4085638849881
 20
-124.3341850817637
 10
102.4085638849881
 20
-124.3341850817637
 10
102.4085638849881
 20
-124.3341850817637
 10
102.8505696357457
 20
-124.3341850817637
 10
102.8505696357457
 20
-124.3341850817637
 10
102.9501328952694
 20
-124.3341850817637
 10
103.0855251478397
 20
-124.2580484715397
 10
103.0855251478397
 20
-124.0868272259227
 10
103.0855251478397
 20
-124.0086235584076
 10
103.0517632120843
 20
-123.8539387711199
 10
102.8526366930368
 20
-123.8539387711199
 97
        0
 97
        0
 75
     2
 76
     1
 98
        0
  0
SPLINE
  5
54
330
4D
100
AcDbEntity
  8
_U+30EC_U+30A4_U+30E4_U+30FC 1
370
     0
100
AcDbSpline
210
0.0
220
0.0
230
1.0
 70
    11
 71
     3
 72
    62
 73
    58
 74
     0
 42
0.0000000001
 43
0.0000000001
 12
1.0
 22
0.0
 32
0.0
 13
1.0
 23
0.0
 33
0.0
 40
0.0
 40
0.0
 40
0.0
 40
0.0
 40
1.0
 40
1.0
 40
1.0
 40
2.0
 40
2.0
 40
2.0
 40
3.0
 40
3.0
 40
3.0
 40
4.0
 40
4.0
 40
4.0
 40
5.0
 40
5.0
 40
5.0
 40
6.0
 40
6.0
 40
6.0
 40
7.0
 40
7.0
 40
7.0
 40
8.0
 40
8.0
 40
8.0
 40
9.0
 40
9.0
 40
9.0
 40
10.0
 40
10.0
 40
10.0
 40
11.0
 40
11.0
 40
11.0
 40
12.0
 40
12.0
 40
12.0
 40
13.0
 40
13.0
 40
13.0
 40
14.0
 40
14.0
 40
14.0
 40
15.0
 40
15.0
 40
15.0
 40
16.0
 40
16.0
 40
16.0
 40
17.0
 40
17.0
 40
17.0
 40
18.0
 40
18.0
 40
18.0
 40
19.0
 40
19.0
 40
19.0
 40
19.0
 10
104.0318928776379
 20
-125.2374891179962
 30
0.0
 10
103.9364637326964
 20
-125.2374891179962
 30
0.0
 10
103.7187336980287
 20
-125.2164740355362
 30
0.0
 10
103.5940212414626
 20
-125.0304388793327
 30
0.0
 10
103.5199516885297
 20
-124.9181287665135
 30
0.0
 10
103.5154730643989
 20
-124.8189100165383
 30
0.0
 10
103.5113389498166
 20
-124.7341606676012
 30
0.0
 10
103.5113389498166
 20
-124.7341606676012
 30
0.0
 10
103.7314805513241
 20
-124.7341606676012
 30
0.0
 10
103.7314805513241
 20
-124.7341606676012
 30
0.0
 10
103.7335476086152
 20
-124.8082302205341
 30
0.0
 10
103.7442274046195
 20
-125.0428412230796
 30
0.0
 10
104.0277587630556
 20
-125.0428412230796
 30
0.0
 10
104.165218072917
 20
-125.0428412230796
 30
0.0
 10
104.3174912933651
 20
-124.9732502942775
 30
0.0
 10
104.3174912933651
 20
-124.7448404636055
 30
0.0
 10
104.3174912933651
 20
-124.628396236204
 30
0.0
 10
104.2795952430273
 20
-124.579820389862
 30
0.0
 10
104.247900364563
 20
-124.5481255113977
 30
0.0
 10
104.1734863020816
 20
-124.4740559584648
 30
0.0
 10
104.0570420746802
 20
-124.4613091051694
 30
0.0
 10
104.0022650564647
 20
-124.4613091051694
 30
0.0
 10
103.9833170312958
 20
-124.4613091051694
 30
0.0
 10
103.9474880382492
 20
-124.4633761624605
 30
0.0
 10
103.9199272743672
 20
-124.4675102770428
 30
0.0
 10
103.9199272743672
 20
-124.4675102770428
 30
0.0
 10
103.9199272743672
 20
-124.2728623821262
 30
0.0
 10
103.9199272743672
 20
-124.2728623821262
 30
0.0
 10
103.957823324705
 20
-124.2794080635482
 30
0.0
 10
104.0001979991736
 20
-124.2814751208394
 30
0.0
 10
104.0067436805955
 20
-124.2814751208394
 30
0.0
 10
104.0722004948153
 20
-124.2814751208394
 30
0.0
 10
104.2709825043142
 20
-124.2601155288308
 30
0.0
 10
104.2709825043142
 20
-124.0234374689941
 30
0.0
 10
104.2709825043142
 20
-123.8456705419553
 30
0.0
 10
104.1397243663262
 20
-123.7905490141913
 30
0.0
 10
104.0298258203467
 20
-123.7905490141913
 30
0.0
 10
103.7655869966281
 20
-123.7905490141913
 30
0.0
 10
103.7569742579149
 20
-124.0234374689941
 30
0.0
 10
103.7524956337841
 20
-124.0950954550873
 30
0.0
 10
103.7524956337841
 20
-124.0950954550873
 30
0.0
 10
103.5495795097029
 20
-124.0950954550873
 30
0.0
 10
103.5495795097029
 20
-124.0950954550873
 30
0.0
 10
103.558192248416
 20
-123.9703829985213
 30
0.0
 10
103.585753012298
 20
-123.5938340619835
 30
0.0
 10
104.0425726736421
 20
-123.5938340619835
 30
0.0
 10
104.2665038801834
 20
-123.5938340619835
 30
0.0
 10
104.5080050736994
 20
-123.7209580853892
 30
0.0
 10
104.5080050736994
 20
-124.0168917875722
 30
0.0
 10
104.5080050736994
 20
-124.2032714533242
 30
0.0
 10
104.412575928758
 20
-124.2856092354217
 30
0.0
 10
104.3133571787828
 20
-124.3469319350591
 30
0.0
 10
104.3746798784202
 20
-124.3744926989411
 30
0.0
 10
104.5565809200414
 20
-124.4547634237474
 30
0.0
 10
104.5565809200414
 20
-124.73209361031
 30
0.0
 10
104.5565809200414
 20
-125.0704019869616
 30
0.0
 10
104.3092230642005
 20
-125.2374891179962
 30
0.0
 10
104.0318928776379
 20
-125.2374891179962
 30
0.0
  0
HATCH
  5
55
330
4D
100
AcDbEntity
  8
_U+30EC_U+30A4_U+30E4_U+30FC 1
 62
   179
420
  2234388
100
AcDbHatch
 10
0.0
 20
0.0
 30
0.0
210
0.0
220
0.0
230
1.0
  2
SOLID
 70
     1
 71
     0
 91
        1
 92
        1
 93
        1
 72
     4
 94
        3
 73
     0
 74
     1
 95
       62
 96
       58
 40
0.0
 40
0.0
 40
0.0
 40
0.0
 40
1.0
 40
1.0
 40
1.0
 40
2.0
 40
2.0
 40
2.0
 40
3.0
 40
3.0
 40
3.0
 40
4.0
 40
4.0
 40
4.0
 40
5.0
 40
5.0
 40
5.0
 40
6.0
 40
6.0
 40
6.0
 40
7.0
 40
7.0
 40
7.0
 40
8.0
 40
8.0
 40
8.0
 40
9.0
 40
9.0
 40
9.0
 40
10.0
 40
10.0
 40
10.0
 40
11.0
 40
11.0
 40
11.0
 40
12.0
 40
12.0
 40
12.0
 40
13.0
 40
13.0
 40
13.0
 40
14.0
 40
14.0
 40
14.0
 40
15.0
 40
15.0
 40
15.0
 40
16.0
 40
16.0
 40
16.0
 40
17.0
 40
17.0
 40
17.0
 40
18.0
 40
18.0
 40
18.0
 40
19.0
 40
19.0
 40
19.0
 40
19.0
 10
104.0318928776379
 20
-125.2374891179962
 10
103.9364637326964
 20
-125.2374891179962
 10
103.7187336980287
 20
-125.2164740355362
 10
103.5940212414626
 20
-125.0304388793327
 10
103.5199516885297
 20
-124.9181287665135
 10
103.5154730643989
 20
-124.8189100165383
 10
103.5113389498166
 20
-124.7341606676012
 10
103.5113389498166
 20
-124.7341606676012
 10
103.7314805513241
 20
-124.7341606676012
 10
103.7314805513241
 20
-124.7341606676012
 10
103.7335476086152
 20
-124.8082302205341
 10
103.7442274046195
 20
-125.0428412230796
 10
104.0277587630556
 20
-125.0428412230796
 10
104.165218072917
 20
-125.0428412230796
 10
104.3174912933651
 20
-124.9732502942775
 10
104.3174912933651
 20
-124.7448404636055
 10
104.3174912933651
 20
-124.628396236204
 10
104.2795952430273
 20
-124.579820389862
 10
104.247900364563
 20
-124.5481255113977
 10
104.1734863020816
 20
-124.4740559584648
 10
104.0570420746802
 20
-124.4613091051694
 10
104.0022650564647
 20
-124.4613091051694
 10
103.9833170312958
 20
-124.4613091051694
 10
103.9474880382492
 20
-124.4633761624605
 10
103.9199272743672
 20
-124.4675102770428
 10
103.9199272743672
 20
-124.4675102770428
 10
103.9199272743672
 20
-124.2728623821262
 10
103.9199272743672
 20
-124.2728623821262
 10
103.957823324705
 20
-124.2794080635482
 10
104.0001979991736
 20
-124.2814751208394
 10
104.0067436805955
 20
-124.2814751208394
 10
104.0722004948153
 20
-124.2814751208394
 10
104.2709825043142
 20
-124.2601155288308
 10
104.2709825043142
 20
-124.0234374689941
 10
104.2709825043142
 20
-123.8456705419553
 10
104.1397243663262
 20
-123.7905490141913
 10
104.0298258203467
 20
-123.7905490141913
 10
103.7655869966281
 20
-123.7905490141913
 10
103.7569742579149
 20
-124.0234374689941
 10
103.7524956337841
 20
-124.0950954550873
 10
103.7524956337841
 20
-124.0950954550873
 10
103.5495795097029
 20
-124.0950954550873
 10
103.5495795097029
 20
-124.0950954550873
 10
103.558192248416
 20
-123.9703829985213
 10
103.585753012298
 20
-123.5938340619835
 10
104.0425726736421
 20
-123.5938340619835
 10
104.2665038801834
 20
-123.5938340619835
 10
104.5080050736994
 20
-123.7209580853892
 10
104.5080050736994
 20
-124.0168917875722
 10
104.5080050736994
 20
-124.2032714533242
 10
104.412575928758
 20
-124.2856092354217
 10
104.3133571787828
 20
-124.3469319350591
 10
104.3746798784202
 20
-124.3744926989411
 10
104.5565809200414
 20
-124.4547634237474
 10
104.5565809200414
 20
-124.73209361031
 10
104.5565809200414
 20
-125.0704019869616
 10
104.3092230642005
 20
-125.2374891179962
 10
104.0318928776379
 20
-125.2374891179962
 97
        0
 97
        0
 75
     2
 76
     1
 98
        0
  0
ENDBLK
  5
50
330
4D
100
AcDbEntity
  8
0
100
AcDbBlockEnd
  0
BLOCK
  5
58
330
56
100
AcDbEntity
  8
0
100
AcDbBlockBegin
  2
block 3
 70
     0
 10
0.0
 20
0.0
 30
0.0
  3
block 3
  1

  0
SPLINE
  5
5A
330
56
100
AcDbEntity
  8
_U+30EC_U+30A4_U+30E4_U+30FC 1
370
     0
100
AcDbSpline
210
0.0
220
0.0
230
1.0
 70
    11
 71
     3
 72
    62
 73
    58
 74
     0
 42
0.0000000001
 43
0.0000000001
 12
1.0
 22
0.0
 32
0.0
 13
1.0
 23
0.0
 33
0.0
 40
0.0
 40
0.0
 40
0.0
 40
0.0
 40
1.0
 40
1.0
 40
1.0
 40
2.0
 40
2.0
 40
2.0
 40
3.0
 40
3.0
 40
3.0
 40
4.0
 40
4.0
 40
4.0
 40
5.0
 40
5.0
 40
5.0
 40
6.0
 40
6.0
 40
6.0
 40
7.0
 40
7.0
 40
7.0
 40
8.0
 40
8.0
 40
8.0
 40
9.0
 40
9.0
 40
9.0
 40
10.0
 40
10.0
 40
10.0
 40
11.0
 40
11.0
 40
11.0
 40
12.0
 40
12.0
 40
12.0
 40
13.0
 40
13.0
 40
13.0
 40
14.0
 40
14.0
 40
14.0
 40
15.0
 40
15.0
 40
15.0
 40
16.0
 40
16.0
 40
16.0
 40
17.0
 40
17.0
 40
17.0
 40
18.0
 40
18.0
 40
18.0
 40
19.0
 40
19.0
 40
19.0
 40
19.0
 10
91.53825410037933
 20
-119.5678954779205
 30
0.0
 10
91.44282495543791
 20
-119.5678954779205
 30
0.0
 10
91.22509492077012
 20
-119.5468803954605
 30
0.0
 10
91.10003795465555
 20
-119.360845239257
 30
0.0
 10
91.0263129112712
 20
-119.2485351264379
 30
0.0
 10
91.02183428714038
 20
-119.1493163764627
 30
0.0
 10
91.01770017255808
 20
-119.0645670275255
 30
0.0
 10
91.01770017255808
 20
-119.0645670275255
 30
0.0
 10
91.23784177406554
 20
-119.0645670275255
 30
0.0
 10
91.23784177406554
 20
-119.0645670275255
 30
0.0
 10
91.2399088313567
 20
-119.1386365804584
 30
0.0
 10
91.25024411781244
 20
-119.3732475830039
 30
0.0
 10
91.53377547624851
 20
-119.3732475830039
 30
0.0
 10
91.67123478610998
 20
-119.3732475830039
 30
0.0
 10
91.82385251610654
 20
-119.3036566542019
 30
0.0
 10
91.82385251610654
 20
-119.0752468235298
 30
0.0
 10
91.82385251610654
 20
-118.9588025961284
 30
0.0
 10
91.78561195622027
 20
-118.9102267497863
 30
0.0
 10
91.75391707775597
 20
-118.878531871322
 30
0.0
 10
91.6798475248231
 20
-118.8044623183892
 30
0.0
 10
91.56340329742166
 20
-118.7917154650937
 30
0.0
 10
91.50862627920618
 20
-118.7917154650937
 30
0.0
 10
91.48933374448877
 20
-118.7917154650937
 30
0.0
 10
91.45350475144218
 20
-118.7937825223849
 30
0.0
 10
91.42594398756019
 20
-118.7979166369672
 30
0.0
 10
91.42594398756019
 20
-118.7979166369672
 30
0.0
 10
91.42594398756019
 20
-118.6032687420506
 30
0.0
 10
91.42594398756019
 20
-118.6032687420506
 30
0.0
 10
91.46418454744646
 20
-118.6098144234726
 30
0.0
 10
91.5062147123665
 20
-118.6118814807637
 30
0.0
 10
91.51276039378848
 20
-118.6118814807637
 30
0.0
 10
91.57821720800823
 20
-118.6118814807637
 30
0.0
 10
91.77699921750714
 20
-118.5905218887551
 30
0.0
 10
91.77699921750714
 20
-118.3538438289185
 30
0.0
 10
91.77699921750714
 20
-118.1760769018796
 30
0.0
 10
91.64608558906765
 20
-118.1209553741156
 30
0.0
 10
91.53584253353965
 20
-118.1209553741156
 30
0.0
 10
91.271603709821
 20
-118.1209553741156
 30
0.0
 10
91.26299097110787
 20
-118.3538438289185
 30
0.0
 10
91.25885685652557
 20
-118.4255018150117
 30
0.0
 10
91.25885685652557
 20
-118.4255018150117
 30
0.0
 10
91.05559622289583
 20
-118.4255018150117
 30
0.0
 10
91.05559622289583
 20
-118.4255018150117
 30
0.0
 10
91.06420896160895
 20
-118.3007893584456
 30
0.0
 10
91.09176972549095
 20
-117.9242404219078
 30
0.0
 10
91.54858938683508
 20
-117.9242404219078
 30
0.0
 10
91.77286510292484
 20
-117.9242404219078
 30
0.0
 10
92.01402178689233
 20
-118.0513644453136
 30
0.0
 10
92.01402178689233
 20
-118.3472981474965
 30
0.0
 10
92.01402178689233
 20
-118.5336778132485
 30
0.0
 10
91.91893715149943
 20
-118.616015595346
 30
0.0
 10
91.81937389197572
 20
-118.6773382949834
 30
0.0
 10
91.88069659161316
 20
-118.7048990588655
 30
0.0
 10
92.06259763323436
 20
-118.7851697836718
 30
0.0
 10
92.06259763323436
 20
-119.0624999702344
 30
0.0
 10
92.06259763323436
 20
-119.4008083468859
 30
0.0
 10
91.81523977739342
 20
-119.5678954779205
 30
0.0
 10
91.53825410037933
 20
-119.5678954779205
 30
0.0
  0
HATCH
  5
5B
330
56
100
AcDbEntity
  8
_U+30EC_U+30A4_U+30E4_U+30FC 1
 62
   179
420
  2234388
100
AcDbHatch
 10
0.0
 20
0.0
 30
0.0
210
0.0
220
0.0
230
1.0
  2
SOLID
 70
     1
 71
     0
 91
        1
 92
        1
 93
        1
 72
     4
 94
        3
 73
     0
 74
     1
 95
       62
 96
       58
 40
0.0
 40
0.0
 40
0.0
 40
0.0
 40
1.0
 40
1.0
 40
1.0
 40
2.0
 40
2.0
 40
2.0
 40
3.0
 40
3.0
 40
3.0
 40
4.0
 40
4.0
 40
4.0
 40
5.0
 40
5.0
 40
5.0
 40
6.0
 40
6.0
 40
6.0
 40
7.0
 40
7.0
 40
7.0
 40
8.0
 40
8.0
 40
8.0
 40
9.0
 40
9.0
 40
9.0
 40
10.0
 40
10.0
 40
10.0
 40
11.0
 40
11.0
 40
11.0
 40
12.0
 40
12.0
 40
12.0
 40
13.0
 40
13.0
 40
13.0
 40
14.0
 40
14.0
 40
14.0
 40
15.0
 40
15.0
 40
15.0
 40
16.0
 40
16.0
 40
16.0
 40
17.0
 40
17.0
 40
17.0
 40
18.0
 40
18.0
 40
18.0
 40
19.0
 40
19.0
 40
19.0
 40
19.0
 10
91.53825410037933
 20
-119.5678954779205
 10
91.44282495543791
 20
-119.5678954779205
 10
91.22509492077012
 20
-119.5468803954605
 10
91.10003795465555
 20
-119.360845239257
 10
91.0263129112712
 20
-119.2485351264379
 10
91.02183428714038
 20
-119.1493163764627
 10
91.01770017255808
 20
-119.0645670275255
 10
91.01770017255808
 20
-119.0645670275255
 10
91.23784177406554
 20
-119.0645670275255
 10
91.23784177406554
 20
-119.0645670275255
 10
91.2399088313567
 20
-119.1386365804584
 10
91.25024411781244
 20
-119.3732475830039
 10
91.53377547624851
 20
-119.3732475830039
 10
91.67123478610998
 20
-119.3732475830039
 10
91.82385251610654
 20
-119.3036566542019
 10
91.82385251610654
 20
-119.0752468235298
 10
91.82385251610654
 20
-118.9588025961284
 10
91.78561195622027
 20
-118.9102267497863
 10
91.75391707775597
 20
-118.878531871322
 10
91.6798475248231
 20
-118.8044623183892
 10
91.56340329742166
 20
-118.7917154650937
 10
91.50862627920618
 20
-118.7917154650937
 10
91.48933374448877
 20
-118.7917154650937
 10
91.45350475144218
 20
-118.7937825223849
 10
91.42594398756019
 20
-118.7979166369672
 10
91.42594398756019
 20
-118.7979166369672
 10
91.42594398756019
 20
-118.6032687420506
 10
91.42594398756019
 20
-118.6032687420506
 10
91.46418454744646
 20
-118.6098144234726
 10
91.5062147123665
 20
-118.6118814807637
 10
91.51276039378848
 20
-118.6118814807637
 10
91.57821720800823
 20
-118.6118814807637
 10
91.77699921750714
 20
-118.5905218887551
 10
91.77699921750714
 20
-118.3538438289185
 10
91.77699921750714
 20
-118.1760769018796
 10
91.64608558906765
 20
-118.1209553741156
 10
91.53584253353965
 20
-118.1209553741156
 10
91.271603709821
 20
-118.1209553741156
 10
91.26299097110787
 20
-118.3538438289185
 10
91.25885685652557
 20
-118.4255018150117
 10
91.25885685652557
 20
-118.4255018150117
 10
91.05559622289583
 20
-118.4255018150117
 10
91.05559622289583
 20
-118.4255018150117
 10
91.06420896160895
 20
-118.3007893584456
 10
91.09176972549095
 20
-117.9242404219078
 10
91.54858938683508
 20
-117.9242404219078
 10
91.77286510292484
 20
-117.9242404219078
 10
92.01402178689233
 20
-118.0513644453136
 10
92.01402178689233
 20
-118.3472981474965
 10
92.01402178689233
 20
-118.5336778132485
 10
91.91893715149943
 20
-118.616015595346
 10
91.81937389197572
 20
-118.6773382949834
 10
91.88069659161316
 20
-118.7048990588655
 10
92.06259763323436
 20
-118.7851697836718
 10
92.06259763323436
 20
-119.0624999702344
 10
92.06259763323436
 20
-119.4008083468859
 10
91.81523977739342
 20
-119.5678954779205
 10
91.53825410037933
 20
-119.5678954779205
 97
        0
 97
        0
 75
     2
 76
     1
 98
        0
  0
SPLINE
  5
5C
330
56
100
AcDbEntity
  8
_U+30EC_U+30A4_U+30E4_U+30FC 1
370
     0
100
AcDbSpline
210
0.0
220
0.0
230
1.0
 70
    11
 71
     3
 72
    29
 73
    25
 74
     0
 42
0.0000000001
 43
0.0000000001
 12
1.0
 22
0.0
 32
0.0
 13
1.0
 23
0.0
 33
0.0
 40
0.0
 40
0.0
 40
0.0
 40
0.0
 40
1.0
 40
1.0
 40
1.0
 40
2.0
 40
2.0
 40
2.0
 40
3.0
 40
3.0
 40
3.0
 40
4.0
 40
4.0
 40
4.0
 40
5.0
 40
5.0
 40
5.0
 40
6.0
 40
6.0
 40
6.0
 40
7.0
 40
7.0
 40
7.0
 40
8.0
 40
8.0
 40
8.0
 40
8.0
 10
93.12127547585163
 20
-119.3394856472485
 30
0.0
 10
93.01309947761479
 20
-119.5489474527517
 30
0.0
 10
92.83981117470672
 20
-119.5678954779205
 30
0.0
 10
92.72336694730528
 20
-119.5678954779205
 30
0.0
 10
92.5624809881441
 20
-119.5678954779205
 30
0.0
 10
92.42088756370033
 20
-119.5213866888697
 30
0.0
 10
92.32580292830744
 20
-119.3394856472485
 30
0.0
 10
92.22210555420142
 20
-119.1448377523319
 30
0.0
 10
92.20315752903255
 20
-118.9078151829467
 30
0.0
 10
92.20315752903255
 20
-118.7452066760429
 30
0.0
 10
92.20315752903255
 20
-118.6012016847594
 30
0.0
 10
92.22003849691028
 20
-118.3493652047877
 30
0.0
 10
92.32580292830744
 20
-118.1505831952887
 30
0.0
 10
92.43363441699576
 20
-117.9476670712075
 30
0.0
 10
92.59452037615694
 20
-117.9242404219078
 30
0.0
 10
92.72336694730528
 20
-117.9242404219078
 30
0.0
 10
92.88218584917529
 20
-117.9242404219078
 30
0.0
 10
93.02584633091021
 20
-117.9686821536676
 30
0.0
 10
93.12127547585163
 20
-118.1505831952887
 30
0.0
 10
93.22049422582683
 20
-118.3431640329142
 30
0.0
 10
93.24392087512652
 20
-118.5715738635863
 30
0.0
 10
93.24392087512652
 20
-118.7452066760429
 30
0.0
 10
93.24392087512652
 20
-118.9164279216598
 30
0.0
 10
93.22256128311797
 20
-119.146904809623
 30
0.0
 10
93.12127547585163
 20
-119.3394856472485
 30
0.0
  0
SPLINE
  5
5D
330
56
100
AcDbEntity
  8
_U+30EC_U+30A4_U+30E4_U+30FC 1
370
     0
100
AcDbSpline
210
0.0
220
0.0
230
1.0
 70
    11
 71
     3
 72
    17
 73
    13
 74
     0
 42
0.0000000001
 43
0.0000000001
 12
1.0
 22
0.0
 32
0.0
 13
1.0
 23
0.0
 33
0.0
 40
0.0
 40
0.0
 40
0.0
 40
0.0
 40
1.0
 40
1.0
 40
1.0
 40
2.0
 40
2.0
 40
2.0
 40
3.0
 40
3.0
 40
3.0
 40
4.0
 40
4.0
 40
4.0
 40
4.0
 10
92.72336694730528
 20
-118.1168212595333
 30
0.0
 10
92.47394203417319
 20
-118.1168212595333
 30
0.0
 10
92.42708873557379
 20
-118.4003526179694
 30
0.0
 10
92.42708873557379
 20
-118.7452066760429
 30
0.0
 10
92.42708873557379
 20
-119.0645670275255
 30
0.0
 10
92.46326223816891
 20
-119.3732475830039
 30
0.0
 10
92.72336694730528
 20
-119.3732475830039
 30
0.0
 10
92.97106931269474
 20
-119.3732475830039
 30
0.0
 10
93.01964515903676
 20
-119.0921277914075
 30
0.0
 10
93.01964515903676
 20
-118.7452066760429
 30
0.0
 10
93.01964515903676
 20
-118.4255018150117
 30
0.0
 10
92.98140459915048
 20
-118.1168212595333
 30
0.0
 10
92.72336694730528
 20
-118.1168212595333
 30
0.0
  0
HATCH
  5
5E
330
56
100
AcDbEntity
  8
_U+30EC_U+30A4_U+30E4_U+30FC 1
 62
   179
420
  2234388
100
AcDbHatch
 10
0.0
 20
0.0
 30
0.0
210
0.0
220
0.0
230
1.0
  2
SOLID
 70
     1
 71
     0
 91
        2
 92
        1
 93
        1
 72
     4
 94
        3
 73
     0
 74
     1
 95
       29
 96
       25
 40
0.0
 40
0.0
 40
0.0
 40
0.0
 40
1.0
 40
1.0
 40
1.0
 40
2.0
 40
2.0
 40
2.0
 40
3.0
 40
3.0
 40
3.0
 40
4.0
 40
4.0
 40
4.0
 40
5.0
 40
5.0
 40
5.0
 40
6.0
 40
6.0
 40
6.0
 40
7.0
 40
7.0
 40
7.0
 40
8.0
 40
8.0
 40
8.0
 40
8.0
 10
93.12127547585163
 20
-119.3394856472485
 10
93.01309947761479
 20
-119.5489474527517
 10
92.83981117470672
 20
-119.5678954779205
 10
92.72336694730528
 20
-119.5678954779205
 10
92.5624809881441
 20
-119.5678954779205
 10
92.42088756370033
 20
-119.5213866888697
 10
92.32580292830744
 20
-119.3394856472485
 10
92.22210555420142
 20
-119.1448377523319
 10
92.20315752903255
 20
-118.9078151829467
 10
92.20315752903255
 20
-118.7452066760429
 10
92.20315752903255
 20
-118.6012016847594
 10
92.22003849691028
 20
-118.3493652047877
 10
92.32580292830744
 20
-118.1505831952887
 10
92.43363441699576
 20
-117.9476670712075
 10
92.59452037615694
 20
-117.9242404219078
 10
92.72336694730528
 20
-117.9242404219078
 10
92.88218584917529
 20
-117.9242404219078
 10
93.02584633091021
 20
-117.9686821536676
 10
93.12127547585163
 20
-118.1505831952887
 10
93.22049422582683
 20
-118.3431640329142
 10
93.24392087512652
 20
-118.5715738635863
 10
93.24392087512652
 20
-118.7452066760429
 10
93.24392087512652
 20
-118.9164279216598
 10
93.22256128311797
 20
-119.146904809623
 10
93.12127547585163
 20
-119.3394856472485
 97
        0
 97
        0
 92
        1
 93
        1
 72
     4
 94
        3
 73
     0
 74
     1
 95
       17
 96
       13
 40
0.0
 40
0.0
 40
0.0
 40
0.0
 40
1.0
 40
1.0
 40
1.0
 40
2.0
 40
2.0
 40
2.0
 40
3.0
 40
3.0
 40
3.0
 40
4.0
 40
4.0
 40
4.0
 40
4.0
 10
92.72336694730528
 20
-118.1168212595333
 10
92.47394203417319
 20
-118.1168212595333
 10
92.42708873557379
 20
-118.4003526179694
 10
92.42708873557379
 20
-118.7452066760429
 10
92.42708873557379
 20
-119.0645670275255
 10
92.46326223816891
 20
-119.3732475830039
 10
92.72336694730528
 20
-119.3732475830039
 10
92.97106931269474
 20
-119.3732475830039
 10
93.01964515903676
 20
-119.0921277914075
 10
93.01964515903676
 20
-118.7452066760429
 10
93.01964515903676
 20
-118.4255018150117
 10
92.98140459915048
 20
-118.1168212595333
 10
92.72336694730528
 20
-118.1168212595333
 97
        0
 97
        0
 75
     2
 76
     1
 98
        0
  0
ENDBLK
  5
59
330
56
100
AcDbEntity
  8
0
100
AcDbBlockEnd
  0
BLOCK
  5
61
330
5F
100
AcDbEntity
  8
0
100
AcDbBlockBegin
  2
block 4
 70
     0
 10
0.0
 20
0.0
 30
0.0
  3
block 4
  1

  0
SPLINE
  5
63
330
5F
100
AcDbEntity
  8
_U+30EC_U+30A4_U+30E4_U+30FC 1
370
     0
100
AcDbSpline
210
0.0
220
0.0
230
1.0
 70
    11
 71
     3
 72
    62
 73
    58
 74
     0
 42
0.0000000001
 43
0.0000000001
 12
1.0
 22
0.0
 32
0.0
 13
1.0
 23
0.0
 33
0.0
 40
0.0
 40
0.0
 40
0.0
 40
0.0
 40
1.0
 40
1.0
 40
1.0
 40
2.0
 40
2.0
 40
2.0
 40
3.0
 40
3.0
 40
3.0
 40
4.0
 40
4.0
 40
4.0
 40
5.0
 40
5.0
 40
5.0
 40
6.0
 40
6.0
 40
6.0
 40
7.0
 40
7.0
 40
7.0
 40
8.0
 40
8.0
 40
8.0
 40
9.0
 40
9.0
 40
9.0
 40
10.0
 40
10.0
 40
10.0
 40
11.0
 40
11.0
 40
11.0
 40
12.0
 40
12.0
 40
12.0
 40
13.0
 40
13.0
 40
13.0
 40
14.0
 40
14.0
 40
14.0
 40
15.0
 40
15.0
 40
15.0
 40
16.0
 40
16.0
 40
16.0
 40
17.0
 40
17.0
 40
17.0
 40
18.0
 40
18.0
 40
18.0
 40
19.0
 40
19.0
 40
19.0
 40
19.0
 10
97.09450409899027
 20
-135.8838676960638
 30
0.0
 10
96.99907495404885
 20
-135.8838676960638
 30
0.0
 10
96.78134491938106
 20
-135.8628526136037
 30
0.0
 10
96.65628795326649
 20
-135.6768174574002
 30
0.0
 10
96.58256290988214
 20
-135.5645073445811
 30
0.0
 10
96.57808428575132
 20
-135.4652885946059
 30
0.0
 10
96.57395017116902
 20
-135.3805392456688
 30
0.0
 10
96.57395017116902
 20
-135.3805392456688
 30
0.0
 10
96.79409177267648
 20
-135.3805392456688
 30
0.0
 10
96.79409177267648
 20
-135.3805392456688
 30
0.0
 10
96.79615882996764
 20
-135.4546087986016
 30
0.0
 10
96.80649411642338
 20
-135.6892198011471
 30
0.0
 10
97.09002547485944
 20
-135.6892198011471
 30
0.0
 10
97.22748478472091
 20
-135.6892198011471
 30
0.0
 10
97.38010251471748
 20
-135.6196288723451
 30
0.0
 10
97.38010251471748
 20
-135.391219041673
 30
0.0
 10
97.38010251471748
 20
-135.2747748142716
 30
0.0
 10
97.3418619548312
 20
-135.2261989679296
 30
0.0
 10
97.31016707636691
 20
-135.1945040894653
 30
0.0
 10
97.23609752343404
 20
-135.1204345365324
 30
0.0
 10
97.1196532960326
 20
-135.107687683237
 30
0.0
 10
97.06487627781712
 20
-135.107687683237
 30
0.0
 10
97.04558374309973
 20
-135.107687683237
 30
0.0
 10
97.00975475005312
 20
-135.1097547405281
 30
0.0
 10
96.98219398617113
 20
-135.1138888551104
 30
0.0
 10
96.98219398617113
 20
-135.1138888551104
 30
0.0
 10
96.98219398617113
 20
-134.9192409601938
 30
0.0
 10
96.98219398617113
 20
-134.9192409601938
 30
0.0
 10
97.0204345460574
 20
-134.9257866416158
 30
0.0
 10
97.06246471097744
 20
-134.9278536989069
 30
0.0
 10
97.06901039239942
 20
-134.9278536989069
 30
0.0
 10
97.13446720661916
 20
-134.9278536989069
 30
0.0
 10
97.33324921611808
 20
-134.9064941068984
 30
0.0
 10
97.33324921611808
 20
-134.6698160470617
 30
0.0
 10
97.33324921611808
 20
-134.4920491200228
 30
0.0
 10
97.20233558767859
 20
-134.4369275922588
 30
0.0
 10
97.09209253215059
 20
-134.4369275922588
 30
0.0
 10
96.82785370843193
 20
-134.4369275922588
 30
0.0
 10
96.8192409697188
 20
-134.6698160470617
 30
0.0
 10
96.8151068551365
 20
-134.7414740331549
 30
0.0
 10
96.8151068551365
 20
-134.7414740331549
 30
0.0
 10
96.61184622150677
 20
-134.7414740331549
 30
0.0
 10
96.61184622150677
 20
-134.7414740331549
 30
0.0
 10
96.62045896021989
 20
-134.6167615765889
 30
0.0
 10
96.64801972410189
 20
-134.2402126400511
 30
0.0
 10
97.10483938544601
 20
-134.2402126400511
 30
0.0
 10
97.32911510153578
 20
-134.2402126400511
 30
0.0
 10
97.57027178550327
 20
-134.3673366634568
 30
0.0
 10
97.57027178550327
 20
-134.6632703656397
 30
0.0
 10
97.57027178550327
 20
-134.8496500313917
 30
0.0
 10
97.47518715011037
 20
-134.9319878134892
 30
0.0
 10
97.37562389058665
 20
-134.9933105131267
 30
0.0
 10
97.4369465902241
 20
-135.0208712770087
 30
0.0
 10
97.6188476318453
 20
-135.101142001815
 30
0.0
 10
97.6188476318453
 20
-135.3784721883776
 30
0.0
 10
97.6188476318453
 20
-135.7167805650292
 30
0.0
 10
97.37148977600435
 20
-135.8838676960638
 30
0.0
 10
97.09450409899027
 20
-135.8838676960638
 30
0.0
  0
HATCH
  5
64
330
5F
100
AcDbEntity
  8
_U+30EC_U+30A4_U+30E4_U+30FC 1
 62
   179
420
  2234388
100
AcDbHatch
 10
0.0
 20
0.0
 30
0.0
210
0.0
220
0.0
230
1.0
  2
SOLID
 70
     1
 71
     0
 91
        1
 92
        1
 93
        1
 72
     4
 94
        3
 73
     0
 74
     1
 95
       62
 96
       58
 40
0.0
 40
0.0
 40
0.0
 40
0.0
 40
1.0
 40
1.0
 40
1.0
 40
2.0
 40
2.0
 40
2.0
 40
3.0
 40
3.0
 40
3.0
 40
4.0
 40
4.0
 40
4.0
 40
5.0
 40
5.0
 40
5.0
 40
6.0
 40
6.0
 40
6.0
 40
7.0
 40
7.0
 40
7.0
 40
8.0
 40
8.0
 40
8.0
 40
9.0
 40
9.0
 40
9.0
 40
10.0
 40
10.0
 40
10.0
 40
11.0
 40
11.0
 40
11.0
 40
12.0
 40
12.0
 40
12.0
 40
13.0
 40
13.0
 40
13.0
 40
14.0
 40
14.0
 40
14.0
 40
15.0
 40
15.0
 40
15.0
 40
16.0
 40
16.0
 40
16.0
 40
17.0
 40
17.0
 40
17.0
 40
18.0
 40
18.0
 40
18.0
 40
19.0
 40
19.0
 40
19.0
 40
19.0
 10
97.09450409899027
 20
-135.8838676960638
 10
96.99907495404885
 20
-135.8838676960638
 10
96.78134491938106
 20
-135.8628526136037
 10
96.65628795326649
 20
-135.6768174574002
 10
96.58256290988214
 20
-135.5645073445811
 10
96.57808428575132
 20
-135.4652885946059
 10
96.57395017116902
 20
-135.3805392456688
 10
96.57395017116902
 20
-135.3805392456688
 10
96.79409177267648
 20
-135.3805392456688
 10
96.79409177267648
 20
-135.3805392456688
 10
96.79615882996764
 20
-135.4546087986016
 10
96.80649411642338
 20
-135.6892198011471
 10
97.09002547485944
 20
-135.6892198011471
 10
97.22748478472091
 20
-135.6892198011471
 10
97.38010251471748
 20
-135.6196288723451
 10
97.38010251471748
 20
-135.391219041673
 10
97.38010251471748
 20
-135.2747748142716
 10
97.3418619548312
 20
-135.2261989679296
 10
97.31016707636691
 20
-135.1945040894653
 10
97.23609752343404
 20
-135.1204345365324
 10
97.1196532960326
 20
-135.107687683237
 10
97.06487627781712
 20
-135.107687683237
 10
97.04558374309973
 20
-135.107687683237
 10
97.00975475005312
 20
-135.1097547405281
 10
96.98219398617113
 20
-135.1138888551104
 10
96.98219398617113
 20
-135.1138888551104
 10
96.98219398617113
 20
-134.9192409601938
 10
96.98219398617113
 20
-134.9192409601938
 10
97.0204345460574
 20
-134.9257866416158
 10
97.06246471097744
 20
-134.9278536989069
 10
97.06901039239942
 20
-134.9278536989069
 10
97.13446720661916
 20
-134.9278536989069
 10
97.33324921611808
 20
-134.9064941068984
 10
97.33324921611808
 20
-134.6698160470617
 10
97.33324921611808
 20
-134.4920491200228
 10
97.20233558767859
 20
-134.4369275922588
 10
97.09209253215059
 20
-134.4369275922588
 10
96.82785370843193
 20
-134.4369275922588
 10
96.8192409697188
 20
-134.6698160470617
 10
96.8151068551365
 20
-134.7414740331549
 10
96.8151068551365
 20
-134.7414740331549
 10
96.61184622150677
 20
-134.7414740331549
 10
96.61184622150677
 20
-134.7414740331549
 10
96.62045896021989
 20
-134.6167615765889
 10
96.64801972410189
 20
-134.2402126400511
 10
97.10483938544601
 20
-134.2402126400511
 10
97.32911510153578
 20
-134.2402126400511
 10
97.57027178550327
 20
-134.3673366634568
 10
97.57027178550327
 20
-134.6632703656397
 10
97.57027178550327
 20
-134.8496500313917
 10
97.47518715011037
 20
-134.9319878134892
 10
97.37562389058665
 20
-134.9933105131267
 10
97.4369465902241
 20
-135.0208712770087
 10
97.6188476318453
 20
-135.101142001815
 10
97.6188476318453
 20
-135.3784721883776
 10
97.6188476318453
 20
-135.7167805650292
 10
97.37148977600435
 20
-135.8838676960638
 10
97.09450409899027
 20
-135.8838676960638
 97
        0
 97
        0
 75
     2
 76
     1
 98
        0
  0
SPLINE
  5
65
330
5F
100
AcDbEntity
  8
_U+30EC_U+30A4_U+30E4_U+30FC 1
370
     0
100
AcDbSpline
210
0.0
220
0.0
230
1.0
 70
    11
 71
     3
 72
    29
 73
    25
 74
     0
 42
0.0000000001
 43
0.0000000001
 12
1.0
 22
0.0
 32
0.0
 13
1.0
 23
0.0
 33
0.0
 40
0.0
 40
0.0
 40
0.0
 40
0.0
 40
1.0
 40
1.0
 40
1.0
 40
2.0
 40
2.0
 40
2.0
 40
3.0
 40
3.0
 40
3.0
 40
4.0
 40
4.0
 40
4.0
 40
5.0
 40
5.0
 40
5.0
 40
6.0
 40
6.0
 40
6.0
 40
7.0
 40
7.0
 40
7.0
 40
8.0
 40
8.0
 40
8.0
 40
8.0
 10
98.67752547446257
 20
-135.6554578653917
 30
0.0
 10
98.56934947622572
 20
-135.8649196708949
 30
0.0
 10
98.39606117331766
 20
-135.8838676960638
 30
0.0
 10
98.27961694591622
 20
-135.8838676960638
 30
0.0
 10
98.11873098675504
 20
-135.8838676960638
 30
0.0
 10
97.97713756231127
 20
-135.8373589070129
 30
0.0
 10
97.88205292691838
 20
-135.6554578653917
 30
0.0
 10
97.77835555281236
 20
-135.4608099704751
 30
0.0
 10
97.75940752764349
 20
-135.2237874010899
 30
0.0
 10
97.75940752764349
 20
-135.0611788941861
 30
0.0
 10
97.75940752764349
 20
-134.9171739029026
 30
0.0
 10
97.77628849552121
 20
-134.6653374229309
 30
0.0
 10
97.88205292691838
 20
-134.466555413432
 30
0.0
 10
97.9898844156067
 20
-134.2636392893507
 30
0.0
 10
98.15077037476787
 20
-134.2402126400511
 30
0.0
 10
98.27961694591622
 20
-134.2402126400511
 30
0.0
 10
98.43843584778622
 20
-134.2402126400511
 30
0.0
 10
98.58209632952115
 20
-134.2846543718108
 30
0.0
 10
98.67752547446257
 20
-134.466555413432
 30
0.0
 10
98.77674422443776
 20
-134.6591362510574
 30
0.0
 10
98.80017087373746
 20
-134.8875460817295
 30
0.0
 10
98.80017087373746
 20
-135.0611788941861
 30
0.0
 10
98.80017087373746
 20
-135.232400139803
 30
0.0
 10
98.7788112817289
 20
-135.4628770277662
 30
0.0
 10
98.67752547446257
 20
-135.6554578653917
 30
0.0
  0
SPLINE
  5
66
330
5F
100
AcDbEntity
  8
_U+30EC_U+30A4_U+30E4_U+30FC 1
370
     0
100
AcDbSpline
210
0.0
220
0.0
230
1.0
 70
    11
 71
     3
 72
    17
 73
    13
 74
     0
 42
0.0000000001
 43
0.0000000001
 12
1.0
 22
0.0
 32
0.0
 13
1.0
 23
0.0
 33
0.0
 40
0.0
 40
0.0
 40
0.0
 40
0.0
 40
1.0
 40
1.0
 40
1.0
 40
2.0
 40
2.0
 40
2.0
 40
3.0
 40
3.0
 40
3.0
 40
4.0
 40
4.0
 40
4.0
 40
4.0
 10
98.27961694591622
 20
-134.4327934776765
 30
0.0
 10
98.03019203278413
 20
-134.4327934776765
 30
0.0
 10
97.98333873418473
 20
-134.7163248361126
 30
0.0
 10
97.98333873418473
 20
-135.0611788941861
 30
0.0
 10
97.98333873418473
 20
-135.3805392456688
 30
0.0
 10
98.01951223677985
 20
-135.6892198011471
 30
0.0
 10
98.27961694591622
 20
-135.6892198011471
 30
0.0
 10
98.52731931130567
 20
-135.6892198011471
 30
0.0
 10
98.5758951576477
 20
-135.4081000095508
 30
0.0
 10
98.5758951576477
 20
-135.0611788941861
 30
0.0
 10
98.5758951576477
 20
-134.7414740331549
 30
0.0
 10
98.53765459776142
 20
-134.4327934776765
 30
0.0
 10
98.27961694591622
 20
-134.4327934776765
 30
0.0
  0
HATCH
  5
67
330
5F
100
AcDbEntity
  8
_U+30EC_U+30A4_U+30E4_U+30FC 1
 62
   179
420
  2234388
100
AcDbHatch
 10
0.0
 20
0.0
 30
0.0
210
0.0
220
0.0
230
1.0
  2
SOLID
 70
     1
 71
     0
 91
        2
 92
        1
 93
        1
 72
     4
 94
        3
 73
     0
 74
     1
 95
       29
 96
       25
 40
0.0
 40
0.0
 40
0.0
 40
0.0
 40
1.0
 40
1.0
 40
1.0
 40
2.0
 40
2.0
 40
2.0
 40
3.0
 40
3.0
 40
3.0
 40
4.0
 40
4.0
 40
4.0
 40
5.0
 40
5.0
 40
5.0
 40
6.0
 40
6.0
 40
6.0
 40
7.0
 40
7.0
 40
7.0
 40
8.0
 40
8.0
 40
8.0
 40
8.0
 10
98.67752547446257
 20
-135.6554578653917
 10
98.56934947622572
 20
-135.8649196708949
 10
98.39606117331766
 20
-135.8838676960638
 10
98.27961694591622
 20
-135.8838676960638
 10
98.11873098675504
 20
-135.8838676960638
 10
97.97713756231127
 20
-135.8373589070129
 10
97.88205292691838
 20
-135.6554578653917
 10
97.77835555281236
 20
-135.4608099704751
 10
97.75940752764349
 20
-135.2237874010899
 10
97.75940752764349
 20
-135.0611788941861
 10
97.75940752764349
 20
-134.9171739029026
 10
97.77628849552121
 20
-134.6653374229309
 10
97.88205292691838
 20
-134.466555413432
 10
97.9898844156067
 20
-134.2636392893507
 10
98.15077037476787
 20
-134.2402126400511
 10
98.27961694591622
 20
-134.2402126400511
 10
98.43843584778622
 20
-134.2402126400511
 10
98.58209632952115
 20
-134.2846543718108
 10
98.67752547446257
 20
-134.466555413432
 10
98.77674422443776
 20
-134.6591362510574
 10
98.80017087373746
 20
-134.8875460817295
 10
98.80017087373746
 20
-135.0611788941861
 10
98.80017087373746
 20
-135.232400139803
 10
98.7788112817289
 20
-135.4628770277662
 10
98.67752547446257
 20
-135.6554578653917
 97
        0
 97
        0
 92
        1
 93
        1
 72
     4
 94
        3
 73
     0
 74
     1
 95
       17
 96
       13
 40
0.0
 40
0.0
 40
0.0
 40
0.0
 40
1.0
 40
1.0
 40
1.0
 40
2.0
 40
2.0
 40
2.0
 40
3.0
 40
3.0
 40
3.0
 40
4.0
 40
4.0
 40
4.0
 40
4.0
 10
98.27961694591622
 20
-134.4327934776765
 10
98.03019203278413
 20
-134.4327934776765
 10
97.98333873418473
 20
-134.7163248361126
 10
97.98333873418473
 20
-135.0611788941861
 10
97.98333873418473
 20
-135.3805392456688
 10
98.01951223677985
 20
-135.6892198011471
 10
98.27961694591622
 20
-135.6892198011471
 10
98.52731931130567
 20
-135.6892198011471
 10
98.5758951576477
 20
-135.4081000095508
 10
98.5758951576477
 20
-135.0611788941861
 10
98.5758951576477
 20
-134.7414740331549
 10
98.53765459776142
 20
-134.4327934776765
 10
98.27961694591622
 20
-134.4327934776765
 97
        0
 97
        0
 75
     2
 76
     1
 98
        0
  0
ENDBLK
  5
62
330
5F
100
AcDbEntity
  8
0
100
AcDbBlockEnd
  0
BLOCK
  5
6A
330
68
100
AcDbEntity
  8
0
100
AcDbBlockBegin
  2
block 5
 70
     0
 10
0.0
 20
0.0
 30
0.0
  3
block 5
  1

  0
POLYLINE
  5
6C
330
68
100
AcDbEntity
  8
_U+30EC_U+30A4_U+30E4_U+30FC 1
 62
   179
420
  2234388
370
    25
100
AcDb2dPolyline
 66
     1
 10
0.0
 20
0.0
 30
0.0
  0
VERTEX
  5
6D
330
6C
100
AcDbEntity
  8
_U+30EC_U+30A4_U+30E4_U+30FC 1
 62
   179
420
  2234388
370
    25
100
AcDbVertex
100
AcDb2dVertex
 10
76.77982359673906
 20
-134.6787727441084
 30
0.0
  0
VERTEX
  5
6E
330
6C
100
AcDbEntity
  8
_U+30EC_U+30A4_U+30E4_U+30FC 1
 62
   179
420
  2234388
370
    25
100
AcDbVertex
100
AcDb2dVertex
 10
79.96067962669977
 20
-135.9248544104634
 30
0.0
  0
VERTEX
  5
6F
330
6C
100
AcDbEntity
  8
_U+30EC_U+30A4_U+30E4_U+30FC 1
 62
   179
420
  2234388
370
    25
100
AcDbVertex
100
AcDb2dVertex
 10
79.89005553558306
 20
-140.6635771870565
 30
0.0
  0
VERTEX
  5
70
330
6C
100
AcDbEntity
  8
_U+30EC_U+30A4_U+30E4_U+30FC 1
 62
   179
420
  2234388
370
    25
100
AcDbVertex
100
AcDb2dVertex
 10
79.72569435491697
 20
-140.8110382981307
 30
0.0
  0
SEQEND
  5
71
330
6C
100
AcDbEntity
  8
_U+30EC_U+30A4_U+30E4_U+30FC 1
 62
   179
420
  2234388
370
    25
  0
POLYLINE
  5
72
330
68
100
AcDbEntity
  8
_U+30EC_U+30A4_U+30E4_U+30FC 1
 62
   179
420
  2234388
370
    25
100
AcDb2dPolyline
 66
     1
 10
0.0
 20
0.0
 30
0.0
  0
VERTEX
  5
73
330
72
100
AcDbEntity
  8
_U+30EC_U+30A4_U+30E4_U+30FC 1
 62
   179
420
  2234388
370
    25
100
AcDbVertex
100
AcDb2dVertex
 10
77.96406328874882
 20
-135.4112099661473
 30
0.0
  0
VERTEX
  5
74
330
72
100
AcDbEntity
  8
_U+30EC_U+30A4_U+30E4_U+30FC 1
 62
   179
420
  2234388
370
    25
100
AcDbVertex
100
AcDb2dVertex
 10
79.61961407984553
 20
-136.0609560770961
 30
0.0
  0
VERTEX
  5
75
330
72
100
AcDbEntity
  8
_U+30EC_U+30A4_U+30E4_U+30FC 1
 62
   179
420
  2234388
370
    25
100
AcDbVertex
100
AcDb2dVertex
 10
79.61961407984553
 20
-140.6518649648373
 30
0.0
  0
VERTEX
  5
76
330
72
100
AcDbEntity
  8
_U+30EC_U+30A4_U+30E4_U+30FC 1
 62
   179
420
  2234388
370
    25
100
AcDbVertex
100
AcDb2dVertex
 10
79.2199521455973
 20
-140.8637432981176
 30
0.0
  0
SEQEND
  5
77
330
72
100
AcDbEntity
  8
_U+30EC_U+30A4_U+30E4_U+30FC 1
 62
   179
420
  2234388
370
    25
  0
POLYLINE
  5
78
330
68
100
AcDbEntity
  8
_U+30EC_U+30A4_U+30E4_U+30FC 1
 62
   179
420
  2234388
370
    25
100
AcDb2dPolyline
 66
     1
 10
0.0
 20
0.0
 30
0.0
  0
VERTEX
  5
79
330
78
100
AcDbEntity
  8
_U+30EC_U+30A4_U+30E4_U+30FC 1
 62
   179
420
  2234388
370
    25
100
AcDbVertex
100
AcDb2dVertex
 10
75.20989197012469
 20
-120.3850638587926
 30
0.0
  0
VERTEX
  5
7A
330
78
100
AcDbEntity
  8
_U+30EC_U+30A4_U+30E4_U+30FC 1
 62
   179
420
  2234388
370
    25
100
AcDbVertex
100
AcDb2dVertex
 10
91.21439628403799
 20
-125.6829394130237
 30
0.0
  0
VERTEX
  5
7B
330
78
100
AcDbEntity
  8
_U+30EC_U+30A4_U+30E4_U+30FC 1
 62
   179
420
  2234388
370
    25
100
AcDbVertex
100
AcDb2dVertex
 10
76.7269422091993
 20
-134.619506077456
 30
0.0
  0
VERTEX
  5
7C
330
78
100
AcDbEntity
  8
_U+30EC_U+30A4_U+30E4_U+30FC 1
 62
   179
420
  2234388
370
    25
100
AcDbVertex
100
AcDb2dVertex
 10
76.7269422091993
 20
-134.9254349662686
 30
0.0
  0
VERTEX
  5
7D
330
78
100
AcDbEntity
  8
_U+30EC_U+30A4_U+30E4_U+30FC 1
 62
   179
420
  2234388
370
    25
100
AcDbVertex
100
AcDb2dVertex
 10
77.96406328874882
 20
-135.4112099661473
 30
0.0
  0
SEQEND
  5
7E
330
78
100
AcDbEntity
  8
_U+30EC_U+30A4_U+30E4_U+30FC 1
 62
   179
420
  2234388
370
    25
  0
POLYLINE
  5
7F
330
68
100
AcDbEntity
  8
_U+30EC_U+30A4_U+30E4_U+30FC 1
 62
   179
420
  2234388
370
    25
100
AcDb2dPolyline
 66
     1
 10
0.0
 20
0.0
 30
0.0
  0
VERTEX
  5
80
330
7F
100
AcDbEntity
  8
_U+30EC_U+30A4_U+30E4_U+30FC 1
 62
   179
420
  2234388
370
    25
100
AcDbVertex
100
AcDb2dVertex
 10
81.44686386852703
 20
-120.0129891366635
 30
0.0
  0
VERTEX
  5
81
330
7F
100
AcDbEntity
  8
_U+30EC_U+30A4_U+30E4_U+30FC 1
 62
   179
420
  2234388
370
    25
100
AcDbVertex
100
AcDb2dVertex
 10
77.8557252359572
 20
-118.8619810813956
 30
0.0
  0
VERTEX
  5
82
330
7F
100
AcDbEntity
  8
_U+30EC_U+30A4_U+30E4_U+30FC 1
 62
   179
420
  2234388
370
    25
100
AcDbVertex
100
AcDb2dVertex
 10
75.15129558273073
 20
-120.3674955254637
 30
0.0
  0
VERTEX
  5
83
330
7F
100
AcDbEntity
  8
_U+30EC_U+30A4_U+30E4_U+30FC 1
 62
   179
420
  2234388
370
    25
100
AcDbVertex
100
AcDb2dVertex
 10
75.15129558273073
 20
-120.8143238586853
 30
0.0
  0
VERTEX
  5
84
330
7F
100
AcDbEntity
  8
_U+30EC_U+30A4_U+30E4_U+30FC 1
 62
   179
420
  2234388
370
    25
100
AcDbVertex
100
AcDb2dVertex
 10
90.27357325248484
 20
-126.2410338573287
 30
0.0
  0
SEQEND
  5
85
330
7F
100
AcDbEntity
  8
_U+30EC_U+30A4_U+30E4_U+30FC 1
 62
   179
420
  2234388
370
    25
  0
POLYLINE
  5
86
330
68
100
AcDbEntity
  8
_U+30EC_U+30A4_U+30E4_U+30FC 1
 62
   179
420
  2234388
370
    25
100
AcDb2dPolyline
 66
     1
 10
0.0
 20
0.0
 30
0.0
  0
VERTEX
  5
87
330
86
100
AcDbEntity
  8
_U+30EC_U+30A4_U+30E4_U+30FC 1
 62
   179
420
  2234388
370
    25
100
AcDbVertex
100
AcDb2dVertex
 10
97.82347611542632
 20
-129.0384558010737
 30
0.0
  0
VERTEX
  5
88
330
86
100
AcDbEntity
  8
_U+30EC_U+30A4_U+30E4_U+30FC 1
 62
   179
420
  2234388
370
    25
100
AcDbVertex
100
AcDb2dVertex
 10
97.82347611542632
 20
-125.3301616353341
 30
0.0
  0
VERTEX
  5
89
330
86
100
AcDbEntity
  8
_U+30EC_U+30A4_U+30E4_U+30FC 1
 62
   179
420
  2234388
370
    25
100
AcDbVertex
100
AcDb2dVertex
 10
81.44686386852703
 20
-120.0129891366635
 30
0.0
  0
SEQEND
  5
8A
330
86
100
AcDbEntity
  8
_U+30EC_U+30A4_U+30E4_U+30FC 1
 62
   179
420
  2234388
370
    25
  0
POLYLINE
  5
8B
330
68
100
AcDbEntity
  8
_U+30EC_U+30A4_U+30E4_U+30FC 1
 62
   179
420
  2234388
370
    25
100
AcDb2dPolyline
 66
     1
 10
0.0
 20
0.0
 30
0.0
  0
VERTEX
  5
8C
330
8B
100
AcDbEntity
  8
_U+30EC_U+30A4_U+30E4_U+30FC 1
 62
   179
420
  2234388
370
    25
100
AcDbVertex
100
AcDb2dVertex
 10
79.2199521455973
 20
-140.8637432981176
 30
0.0
  0
VERTEX
  5
8D
330
8B
100
AcDbEntity
  8
_U+30EC_U+30A4_U+30E4_U+30FC 1
 62
   179
420
  2234388
370
    25
100
AcDbVertex
100
AcDb2dVertex
 10
79.9723918486232
 20
-140.7883194092471
 30
0.0
  0
VERTEX
  5
8E
330
8B
100
AcDbEntity
  8
_U+30EC_U+30A4_U+30E4_U+30FC 1
 62
   179
420
  2234388
370
    25
100
AcDbVertex
100
AcDb2dVertex
 10
97.80555500477242
 20
-131.1261946894406
 30
0.0
  0
VERTEX
  5
8F
330
8B
100
AcDbEntity
  8
_U+30EC_U+30A4_U+30E4_U+30FC 1
 62
   179
420
  2234388
370
    25
100
AcDbVertex
100
AcDb2dVertex
 10
97.82347611542632
 20
-129.0384558010737
 30
0.0
  0
SEQEND
  5
90
330
8B
100
AcDbEntity
  8
_U+30EC_U+30A4_U+30E4_U+30FC 1
 62
   179
420
  2234388
370
    25
  0
POLYLINE
  5
91
330
68
100
AcDbEntity
  8
_U+30EC_U+30A4_U+30E4_U+30FC 1
 62
   179
420
  2234388
370
    25
100
AcDb2dPolyline
 66
     1
 10
0.0
 20
0.0
 30
0.0
  0
VERTEX
  5
92
330
91
100
AcDbEntity
  8
_U+30EC_U+30A4_U+30E4_U+30FC 1
 62
   179
420
  2234388
370
    25
100
AcDbVertex
100
AcDb2dVertex
 10
77.73239412799252
 20
-121.7782538584443
 30
0.0
  0
VERTEX
  5
93
330
91
100
AcDbEntity
  8
_U+30EC_U+30A4_U+30E4_U+30FC 1
 62
   179
420
  2234388
370
    25
100
AcDbVertex
100
AcDb2dVertex
 10
77.73239412799252
 20
-124.2125616356136
 30
0.0
  0
VERTEX
  5
94
330
91
100
AcDbEntity
  8
_U+30EC_U+30A4_U+30E4_U+30FC 1
 62
   179
420
  2234388
370
    25
100
AcDbVertex
100
AcDb2dVertex
 10
77.52069218894904
 20
-124.70659163549
 30
0.0
  0
VERTEX
  5
95
330
91
100
AcDbEntity
  8
_U+30EC_U+30A4_U+30E4_U+30FC 1
 62
   179
420
  2234388
370
    25
100
AcDbVertex
100
AcDb2dVertex
 10
87.04569194594606
 20
-128.1992327457281
 30
0.0
  0
SEQEND
  5
96
330
91
100
AcDbEntity
  8
_U+30EC_U+30A4_U+30E4_U+30FC 1
 62
   179
420
  2234388
370
    25
  0
POLYLINE
  5
97
330
68
100
AcDbEntity
  8
_U+30EC_U+30A4_U+30E4_U+30FC 1
 62
   179
420
  2234388
370
    25
100
AcDb2dPolyline
 66
     1
 10
0.0
 20
0.0
 30
0.0
  0
VERTEX
  5
98
330
97
100
AcDbEntity
  8
_U+30EC_U+30A4_U+30E4_U+30FC 1
 62
   179
420
  2234388
370
    25
100
AcDbVertex
100
AcDb2dVertex
 10
77.73239412799252
 20
-124.2125616356136
 30
0.0
  0
VERTEX
  5
99
330
97
100
AcDbEntity
  8
_U+30EC_U+30A4_U+30E4_U+30FC 1
 62
   179
420
  2234388
370
    25
100
AcDbVertex
100
AcDb2dVertex
 10
87.73350276173187
 20
-127.810965523603
 30
0.0
  0
SEQEND
  5
9A
330
97
100
AcDbEntity
  8
_U+30EC_U+30A4_U+30E4_U+30FC 1
 62
   179
420
  2234388
370
    25
  0
SPLINE
  5
9B
330
68
100
AcDbEntity
  8
_U+30EC_U+30A4_U+30E4_U+30FC 1
 62
   179
420
  2234388
370
    25
100
AcDbSpline
210
0.0
220
0.0
230
1.0
 70
     8
 71
     3
 72
    11
 73
     7
 74
     0
 42
0.0000000001
 43
0.0000000001
 12
1.0
 22
0.0
 32
0.0
 13
1.0
 23
0.0
 33
0.0
 40
0.0
 40
0.0
 40
0.0
 40
0.0
 40
1.0
 40
1.0
 40
1.0
 40
2.0
 40
2.0
 40
2.0
 40
2.0
 10
80.36048267205551
 20
-135.6778394105248
 30
0.0
 10
80.36048267205551
 20
-135.6778394105248
 30
0.0
 10
91.6846843275955
 20
-129.2927027454545
 30
0.0
 10
92.49600264023037
 20
-128.8692988566717
 30
0.0
 10
93.30763845285716
 20
-128.4458949678886
 30
0.0
 10
96.94086386465356
 20
-126.1528394129063
 30
0.0
 10
96.94086386465356
 20
-126.1528394129063
 30
0.0
  0
ENDBLK
  5
6B
330
68
100
AcDbEntity
  8
0
100
AcDbBlockEnd
  0
ENDSEC
  0
SECTION
  2
ENTITIES
  0
POLYLINE
  5
41
330
1F
100
AcDbEntity
  8
_U+30EC_U+30A4_U+30E4_U+30FC 1
 62
   179
420
  2234388
370
     9
100
AcDb2dPolyline
 66
     1
 10
0.0
 20
0.0
 30
0.0
  0
VERTEX
  5
42
330
41
100
AcDbEntity
  8
_U+30EC_U+30A4_U+30E4_U+30FC 1
 62
   179
420
  2234388
370
     9
100
AcDbVertex
100
AcDb2dVertex
 10
101.6727049061132
 20
-124.3176541355872
 30
0.0
  0
VERTEX
  5
43
330
41
100
AcDbEntity
  8
_U+30EC_U+30A4_U+30E4_U+30FC 1
 62
   179
420
  2234388
370
     9
100
AcDbVertex
100
AcDb2dVertex
 10
97.64295973114278
 20
-125.8017902463274
 30
0.0
  0
SEQEND
  5
44
330
41
100
AcDbEntity
  8
_U+30EC_U+30A4_U+30E4_U+30FC 1
 62
   179
420
  2234388
370
     9
  0
POLYLINE
  5
45
330
1F
100
AcDbEntity
  8
_U+30EC_U+30A4_U+30E4_U+30FC 1
 62
   179
420
  2234388
370
     9
100
AcDb2dPolyline
 66
     1
 10
0.0
 20
0.0
 30
0.0
  0
VERTEX
  5
46
330
45
100
AcDbEntity
  8
_U+30EC_U+30A4_U+30E4_U+30FC 1
 62
   179
420
  2234388
370
     9
100
AcDbVertex
100
AcDb2dVertex
 10
98.83771220066211
 20
-125.6915471907994
 30
0.0
  0
VERTEX
  5
47
330
45
100
AcDbEntity
  8
_U+30EC_U+30A4_U+30E4_U+30FC 1
 62
   179
420
  2234388
370
     9
100
AcDbVertex
100
AcDb2dVertex
 10
97.64295973114278
 20
-125.8017902463274
 30
0.0
  0
SEQEND
  5
48
330
45
100
AcDbEntity
  8
_U+30EC_U+30A4_U+30E4_U+30FC 1
 62
   179
420
  2234388
370
     9
  0
POLYLINE
  5
49
330
1F
100
AcDbEntity
  8
_U+30EC_U+30A4_U+30E4_U+30FC 1
 62
   179
420
  2234388
370
     9
100
AcDb2dPolyline
 66
     1
 10
0.0
 20
0.0
 30
0.0
  0
VERTEX
  5
4A
330
49
100
AcDbEntity
  8
_U+30EC_U+30A4_U+30E4_U+30FC 1
 62
   179
420
  2234388
370
     9
100
AcDbVertex
100
AcDb2dVertex
 10
98.622729428369
 20
-125.1093227465004
 30
0.0
  0
VERTEX
  5
4B
330
49
100
AcDbEntity
  8
_U+30EC_U+30A4_U+30E4_U+30FC 1
 62
   179
420
  2234388
370
     9
100
AcDbVertex
100
AcDb2dVertex
 10
97.64295973114278
 20
-125.8017902463274
 30
0.0
  0
SEQEND
  5
4C
330
49
100
AcDbEntity
  8
_U+30EC_U+30A4_U+30E4_U+30FC 1
 62
   179
420
  2234388
370
     9
  0
INSERT
  5
4E
330
1F
100
AcDbEntity
  8
_U+30EC_U+30A4_U+30E4_U+30FC 1
100
AcDbBlockReference
  2
block 2
 10
0.0
 20
0.0
 30
0.0
  0
INSERT
  5
57
330
1F
100
AcDbEntity
  8
_U+30EC_U+30A4_U+30E4_U+30FC 1
100
AcDbBlockReference
  2
block 3
 10
0.0
 20
0.0
 30
0.0
  0
INSERT
  5
60
330
1F
100
AcDbEntity
  8
_U+30EC_U+30A4_U+30E4_U+30FC 1
100
AcDbBlockReference
  2
block 4
 10
0.0
 20
0.0
 30
0.0
  0
INSERT
  5
69
330
1F
100
AcDbEntity
  8
_U+30EC_U+30A4_U+30E4_U+30FC 1
100
AcDbBlockReference
  2
block 5
 10
0.0
 20
0.0
 30
0.0
  0
POLYLINE
  5
9C
330
1F
100
AcDbEntity
  8
_U+30EC_U+30A4_U+30E4_U+30FC 1
 62
   179
420
  2234388
370
     9
100
AcDb2dPolyline
 66
     1
 10
0.0
 20
0.0
 30
0.0
  0
VERTEX
  5
9D
330
9C
100
AcDbEntity
  8
_U+30EC_U+30A4_U+30E4_U+30FC 1
 62
   179
420
  2234388
370
     9
100
AcDbVertex
100
AcDb2dVertex
 10
81.0307251549562
 20
-136.2421427437175
 30
0.0
  0
VERTEX
  5
9E
330
9C
100
AcDbEntity
  8
_U+30EC_U+30A4_U+30E4_U+30FC 1
 62
   179
420
  2234388
370
     9
100
AcDbVertex
100
AcDb2dVertex
 10
89.49739160562021
 20
-139.2762432985145
 30
0.0
  0
SEQEND
  5
9F
330
9C
100
AcDbEntity
  8
_U+30EC_U+30A4_U+30E4_U+30FC 1
 62
   179
420
  2234388
370
     9
  0
POLYLINE
  5
A0
330
1F
100
AcDbEntity
  8
_U+30EC_U+30A4_U+30E4_U+30FC 1
 62
   179
420
  2234388
370
     9
100
AcDb2dPolyline
 66
     1
 10
0.0
 20
0.0
 30
0.0
  0
VERTEX
  5
A1
330
A0
100
AcDbEntity
  8
_U+30EC_U+30A4_U+30E4_U+30FC 1
 62
   179
420
  2234388
370
     9
100
AcDbVertex
100
AcDb2dVertex
 10
99.14226524844787
 20
-125.8017902463274
 30
0.0
  0
VERTEX
  5
A2
330
A0
100
AcDbEntity
  8
_U+30EC_U+30A4_U+30E4_U+30FC 1
 62
   179
420
  2234388
370
     9
100
AcDbVertex
100
AcDb2dVertex
 10
107.2069061538129
 20
-128.6929099678269
 30
0.0
  0
SEQEND
  5
A3
330
A0
100
AcDbEntity
  8
_U+30EC_U+30A4_U+30E4_U+30FC 1
 62
   179
420
  2234388
370
     9
  0
POLYLINE
  5
A4
330
1F
100
AcDbEntity
  8
_U+30EC_U+30A4_U+30E4_U+30FC 1
 62
   179
420
  2234388
370
     9
100
AcDb2dPolyline
 66
     1
 10
0.0
 20
0.0
 30
0.0
  0
VERTEX
  5
A5
330
A4
100
AcDbEntity
  8
_U+30EC_U+30A4_U+30E4_U+30FC 1
 62
   179
420
  2234388
370
     9
100
AcDbVertex
100
AcDb2dVertex
 10
78.27912911404415
 20
-118.5326277481445
 30
0.0
  0
VERTEX
  5
A6
330
A4
100
AcDbEntity
  8
_U+30EC_U+30A4_U+30E4_U+30FC 1
 62
   179
420
  2234388
370
     9
100
AcDbVertex
100
AcDb2dVertex
 10
82.44183623006687
 20
-116.1341621931887
 30
0.0
  0
SEQEND
  5
A7
330
A4
100
AcDbEntity
  8
_U+30EC_U+30A4_U+30E4_U+30FC 1
 62
   179
420
  2234388
370
     9
  0
POLYLINE
  5
A8
330
1F
100
AcDbEntity
  8
_U+30EC_U+30A4_U+30E4_U+30FC 1
 62
   179
420
  2234388
370
     9
100
AcDb2dPolyline
 66
     1
 10
0.0
 20
0.0
 30
0.0
  0
VERTEX
  5
A9
330
A8
100
AcDbEntity
  8
_U+30EC_U+30A4_U+30E4_U+30FC 1
 62
   179
420
  2234388
370
     9
100
AcDbVertex
100
AcDb2dVertex
 10
98.745390258573
 20
-124.7875541354698
 30
0.0
  0
VERTEX
  5
AA
330
A8
100
AcDbEntity
  8
_U+30EC_U+30A4_U+30E4_U+30FC 1
 62
   179
420
  2234388
370
     9
100
AcDbVertex
100
AcDb2dVertex
 10
102.4089194188421
 20
-122.695687747104
 30
0.0
  0
SEQEND
  5
AB
330
A8
100
AcDbEntity
  8
_U+30EC_U+30A4_U+30E4_U+30FC 1
 62
   179
420
  2234388
370
     9
  0
POLYLINE
  5
AC
330
1F
100
AcDbEntity
  8
_U+30EC_U+30A4_U+30E4_U+30FC 1
 62
   179
420
  2234388
370
     9
100
AcDb2dPolyline
 66
     1
 10
0.0
 20
0.0
 30
0.0
  0
VERTEX
  5
AD
330
AC
100
AcDbEntity
  8
_U+30EC_U+30A4_U+30E4_U+30FC 1
 62
   179
420
  2234388
370
     9
100
AcDbVertex
100
AcDb2dVertex
 10
80.9602754345313
 20
-116.9806171929772
 30
0.0
  0
VERTEX
  5
AE
330
AC
100
AcDbEntity
  8
_U+30EC_U+30A4_U+30E4_U+30FC 1
 62
   179
420
  2234388
370
     9
100
AcDbVertex
100
AcDb2dVertex
 10
101.045324922119
 20
-123.4718694135764
 30
0.0
  0
SEQEND
  5
AF
330
AC
100
AcDbEntity
  8
_U+30EC_U+30A4_U+30E4_U+30FC 1
 62
   179
420
  2234388
370
     9
  0
POLYLINE
  5
B0
330
1F
100
AcDbEntity
  8
_U+30EC_U+30A4_U+30E4_U+30FC 1
 62
   179
420
  2234388
370
     9
100
AcDb2dPolyline
 66
     1
 10
0.0
 20
0.0
 30
0.0
  0
VERTEX
  5
B1
330
B0
100
AcDbEntity
  8
_U+30EC_U+30A4_U+30E4_U+30FC 1
 62
   179
420
  2234388
370
     9
100
AcDbVertex
100
AcDb2dVertex
 10
87.87475498035045
 20
-138.6413138542285
 30
0.0
  0
VERTEX
  5
B2
330
B0
100
AcDbEntity
  8
_U+30EC_U+30A4_U+30E4_U+30FC 1
 62
   179
420
  2234388
370
     9
100
AcDbVertex
100
AcDb2dVertex
 10
105.8664211880115
 20
-128.2695060790438
 30
0.0
  0
SEQEND
  5
B3
330
B0
100
AcDbEntity
  8
_U+30EC_U+30A4_U+30E4_U+30FC 1
 62
   179
420
  2234388
370
     9
  0
ENDSEC
  0
SECTION
  2
OBJECTS
  0
DICTIONARY
  5
C
330
0
100
AcDbDictionary
281
     1
  3
ACAD_GROUP
350
D
  3
ACAD_LAYOUT
350
1A
  3
ACAD_MATERIAL
350
3B
  3
ACAD_MLEADERSTYLE
350
B5
  3
ACAD_MLINESTYLE
350
17
  3
ACAD_PLOTSETTINGS
350
19
  3
ACAD_PLOTSTYLENAME
350
E
  3
ACAD_TABLESTYLE
350
B4
  3
ACAD_VISUALSTYLE
350
2A
  0
SUN
  5
3F
330
29
100
AcDbSun
 90
        1
290
     0
 63
     7
421
 16777215
 40
1.0
291
     1
 91
  2455826
 92
 54000000
292
     0
 70
     2
 71
   256
280
     1
  0
DICTIONARY
  5
D
102
{ACAD_REACTORS
330
C
102
}
330
C
100
AcDbDictionary
281
     1
  0
DICTIONARY
  5
1A
102
{ACAD_REACTORS
330
C
102
}
330
C
100
AcDbDictionary
281
     1
  3
Layout1
350
1E
  3
Layout2
350
26
  3
Model
350
22
  0
DICTIONARY
  5
3B
102
{ACAD_REACTORS
330
C
102
}
330
C
100
AcDbDictionary
281
     1
  3
ByBlock
350
3D
  3
ByLayer
350
3C
  3
Global
350
3E
  0
DICTIONARY
  5
B5
102
{ACAD_REACTORS
330
C
102
}
330
C
100
AcDbDictionary
281
     1
  0
DICTIONARY
  5
17
102
{ACAD_REACTORS
330
C
102
}
330
C
100
AcDbDictionary
281
     1
  3
Standard
350
18
  0
DICTIONARY
  5
19
102
{ACAD_REACTORS
330
C
102
}
330
C
100
AcDbDictionary
281
     1
  0
ACDBDICTIONARYWDFLT
  5
E
102
{ACAD_REACTORS
330
C
102
}
330
C
100
AcDbDictionary
281
     1
  3
Normal
350
F
100
AcDbDictionaryWithDefault
340
F
  0
DICTIONARY
  5
B4
102
{ACAD_REACTORS
330
C
102
}
330
C
100
AcDbDictionary
281
     1
  0
DICTIONARY
  5
2A
102
{ACAD_REACTORS
330
C
102
}
330
C
100
AcDbDictionary
281
     1
  3
2dWireframe
350
2F
  3
3D Hidden
350
31
  3
3dWireframe
350
30
  3
Basic
350
32
  3
Brighten
350
36
  3
ColorChange
350
3A
  3
Conceptual
350
34
  3
Dim
350
35
  3
Facepattern
350
39
  3
Flat
350
2B
  3
FlatWithEdges
350
2C
  3
Gouraud
350
2D
  3
GouraudWithEdges
350
2E
  3
Linepattern
350
38
  3
Realistic
350
33
  3
Thicken
350
37
  0
LAYOUT
  5
1E
102
{ACAD_REACTORS
330
1A
102
}
330
1A
100
AcDbPlotSettings
  1

  2
none_device
  4

  6

 40
0.0
 41
0.0
 42
0.0
 43
0.0
 44
0.0
 45
0.0
 46
0.0
 47
0.0
 48
0.0
 49
0.0
140
0.0
141
0.0
142
1.0
143
1.0
 70
   688
 72
     0
 73
     0
 74
     5
  7

 75
    16
 76
     0
 77
     2
 78
   300
147
1.0
148
0.0
149
0.0
100
AcDbLayout
  1
Layout1
 70
     1
 71
     1
 10
0.0
 20
0.0
 11
12.0
 21
9.0
 12
0.0
 22
0.0
 32
0.0
 14
1.000000000000000E+20
 24
1.000000000000000E+20
 34
1.000000000000000E+20
 15
-1.000000000000000E+20
 25
-1.000000000000000E+20
 35
-1.000000000000000E+20
146
0.0
 13
0.0
 23
0.0
 33
0.0
 16
1.0
 26
0.0
 36
0.0
 17
0.0
 27
1.0
 37
0.0
 76
     0
330
1B
  0
LAYOUT
  5
26
102
{ACAD_REACTORS
330
1A
102
}
330
1A
100
AcDbPlotSettings
  1

  2
none_device
  4

  6

 40
0.0
 41
0.0
 42
0.0
 43
0.0
 44
0.0
 45
0.0
 46
0.0
 47
0.0
 48
0.0
 49
0.0
140
0.0
141
0.0
142
1.0
143
1.0
 70
   688
 72
     0
 73
     0
 74
     5
  7

 75
    16
 76
     0
 77
     2
 78
   300
147
1.0
148
0.0
149
0.0
100
AcDbLayout
  1
Layout2
 70
     1
 71
     2
 10
0.0
 20
0.0
 11
0.0
 21
0.0
 12
0.0
 22
0.0
 32
0.0
 14
0.0
 24
0.0
 34
0.0
 15
0.0
 25
0.0
 35
0.0
146
0.0
 13
0.0
 23
0.0
 33
0.0
 16
1.0
 26
0.0
 36
0.0
 17
0.0
 27
1.0
 37
0.0
 76
     0
330
23
  0
LAYOUT
  5
22
102
{ACAD_REACTORS
330
1A
102
}
330
1A
100
AcDbPlotSettings
  1

  2
none_device
  4

  6

 40
0.0
 41
0.0
 42
0.0
 43
0.0
 44
0.0
 45
0.0
 46
0.0
 47
0.0
 48
0.0
 49
0.0
140
0.0
141
0.0
142
1.0
143
1.0
 70
  1712
 72
     0
 73
     0
 74
     0
  7

 75
     0
 76
     0
 77
     2
 78
   300
147
1.0
148
0.0
149
0.0
100
AcDbLayout
  1
Model
 70
     1
 71
     0
 10
0.0
 20
0.0
 11
12.0
 21
9.0
 12
0.0
 22
0.0
 32
0.0
 14
1.000000000000000E+20
 24
1.000000000000000E+20
 34
1.000000000000000E+20
 15
-1.000000000000000E+20
 25
-1.000000000000000E+20
 35
-1.000000000000000E+20
146
0.0
 13
0.0
 23
0.0
 33
0.0
 16
1.0
 26
0.0
 36
0.0
 17
0.0
 27
1.0
 37
0.0
 76
     0
330
1F
331
29
  0
MATERIAL
  5
3D
102
{ACAD_REACTORS
330
3B
102
}
330
3B
100
AcDbMaterial
  1
ByBlock
 72
     1
 94
      127
  0
MATERIAL
  5
3C
102
{ACAD_REACTORS
330
3B
102
}
330
3B
100
AcDbMaterial
  1
ByLayer
 72
     1
 94
      127
  0
MATERIAL
  5
3E
102
{ACAD_REACTORS
330
3B
102
}
330
3B
100
AcDbMaterial
  1
Global
 72
     1
 94
      127
  0
MLINESTYLE
  5
18
102
{ACAD_REACTORS
330
17
102
}
330
17
100
AcDbMlineStyle
  2
Standard
 70
     0
  3

 62
   256
 51
90.0
 52
90.0
 71
     2
 49
0.5
 62
   256
  6
BYLAYER
 49
-0.5
 62
   256
  6
BYLAYER
  0
ACDBPLACEHOLDER
  5
F
102
{ACAD_REACTORS
330
E
102
}
330
E
  0
VISUALSTYLE
  5
2F
102
{ACAD_REACTORS
330
2A
102
}
330
2A
100
AcDbVisualStyle
  2
2dWireframe
 70
     4
177
     2
291
     0
 71
     0
176
     1
 72
     2
176
     1
 73
     0
176
     1
 90
        0
176
     1
 40
-0.6
176
     1
 41
-30.0
176
     1
 62
     5
 63
     7
421
 16777215
176
     1
 74
     1
176
     1
 91
        4
176
     1
 64
     7
176
     1
 65
   257
176
     1
 75
     1
176
     1
175
     1
176
     1
 42
1.0
176
     1
 92
        0
176
     1
 66
   257
176
     1
 43
1.0
176
     1
 76
     1
176
     1
 77
     6
176
     1
 78
     2
176
     1
 67
     7
176
     1
 79
     5
176
     1
170
     0
176
     1
171
     0
176
     1
290
     0
176
     1
 93
        1
176
     1
 44
0.0
176
     1
173
     0
176
     1
  0
VISUALSTYLE
  5
31
102
{ACAD_REACTORS
330
2A
102
}
330
2A
100
AcDbVisualStyle
  2
3D Hidden
 70
     6
177
     2
291
     0
 71
     1
176
     1
 72
     2
176
     1
 73
     2
176
     1
 90
        0
176
     1
 40
-0.6
176
     1
 41
-30.0
176
     1
 62
     5
 63
     7
421
 16777215
176
     1
 74
     2
176
     1
 91
        2
176
     1
 64
     7
176
     1
 65
   257
176
     1
 75
     2
176
     1
175
     1
176
     1
 42
40.0
176
     1
 92
        0
176
     1
 66
   257
176
     1
 43
1.0
176
     1
 76
     1
176
     1
 77
     6
176
     1
 78
     2
176
     1
 67
     7
176
     1
 79
     3
176
     1
170
     0
176
     1
171
     0
176
     1
290
     0
176
     1
 93
        1
176
     1
 44
0.0
176
     1
173
     0
176
     1
  0
VISUALSTYLE
  5
30
102
{ACAD_REACTORS
330
2A
102
}
330
2A
100
AcDbVisualStyle
  2
3dWireframe
 70
     5
177
     2
291
     0
 71
     0
176
     1
 72
     2
176
     1
 73
     0
176
     1
 90
        0
176
     1
 40
-0.6
176
     1
 41
-30.0
176
     1
 62
     5
 63
     7
421
 16777215
176
     1
 74
     1
176
     1
 91
        4
176
     1
 64
     7
176
     1
 65
   257
176
     1
 75
     1
176
     1
175
     1
176
     1
 42
1.0
176
     1
 92
        0
176
     1
 66
   257
176
     1
 43
1.0
176
     1
 76
     1
176
     1
 77
     6
176
     1
 78
     2
176
     1
 67
     7
176
     1
 79
     5
176
     1
170
     0
176
     1
171
     0
176
     1
290
     0
176
     1
 93
        1
176
     1
 44
0.0
176
     1
173
     0
176
     1
  0
VISUALSTYLE
  5
32
102
{ACAD_REACTORS
330
2A
102
}
330
2A
100
AcDbVisualStyle
  2
Basic
 70
     7
177
     2
291
     1
 71
     1
176
     1
 72
     0
176
     1
 73
     1
176
     1
 90
        0
176
     1
 40
-0.6
176
     1
 41
-30.0
176
     1
 62
     5
 63
     7
421
 16777215
176
     1
 74
     0
176
     1
 91
        4
176
     1
 64
     7
176
     1
 65
   257
176
     1
 75
     1
176
     1
175
     1
176
     1
 42
1.0
176
     1
 92
        8
176
     1
 66
     7
176
     1
 43
1.0
176
     1
 76
     1
176
     1
 77
     6
176
     1
 78
     2
176
     1
 67
     7
176
     1
 79
     5
176
     1
170
     0
176
     1
171
     0
176
     1
290
     0
176
     1
 93
        1
176
     1
 44
0.0
176
     1
173
     0
176
     1
  0
VISUALSTYLE
  5
36
102
{ACAD_REACTORS
330
2A
102
}
330
2A
100
AcDbVisualStyle
  2
Brighten
 70
    12
177
     2
291
     1
 71
     2
176
     1
 72
     2
176
     1
 73
     0
176
     1
 90
        0
176
     1
 40
-0.6
176
     1
 41
-30.0
176
     1
 62
     5
 63
     7
421
 16777215
176
     1
 74
     1
176
     1
 91
        4
176
     1
 64
     7
176
     1
 65
   257
176
     1
 75
     1
176
     1
175
     1
176
     1
 42
1.0
176
     1
 92
        8
176
     1
 66
     7
176
     1
 43
1.0
176
     1
 76
     1
176
     1
 77
     6
176
     1
 78
     2
176
     1
 67
     7
176
     1
 79
     5
176
     1
170
     0
176
     1
171
     0
176
     1
290
     0
176
     1
 93
        1
176
     1
 44
50.0
176
     1
173
     0
176
     1
  0
VISUALSTYLE
  5
3A
102
{ACAD_REACTORS
330
2A
102
}
330
2A
100
AcDbVisualStyle
  2
ColorChange
 70
    16
177
     2
291
     1
 71
     2
176
     1
 72
     2
176
     1
 73
     3
176
     1
 90
        0
176
     1
 40
-0.6
176
     1
 41
-30.0
176
     1
 62
     5
 63
     8
421
  8421504
176
     1
 74
     1
176
     1
 91
        4
176
     1
 64
     7
176
     1
 65
   257
176
     1
 75
     1
176
     1
175
     1
176
     1
 42
1.0
176
     1
 92
        8
176
     1
 66
     8
424
  8421504
176
     1
 43
1.0
176
     1
 76
     1
176
     1
 77
     6
176
     1
 78
     2
176
     1
 67
     7
176
     1
 79
     5
176
     1
170
     0
176
     1
171
     0
176
     1
290
     0
176
     1
 93
        1
176
     1
 44
0.0
176
     1
173
     0
176
     1
  0
VISUALSTYLE
  5
34
102
{ACAD_REACTORS
330
2A
102
}
330
2A
100
AcDbVisualStyle
  2
Conceptual
 70
     9
177
     2
291
     0
 71
     3
176
     1
 72
     2
176
     1
 73
     0
176
     1
 90
        0
176
     1
 40
-0.6
176
     1
 41
-30.0
176
     1
 62
     5
 63
     7
421
 16777215
176
     1
 74
     2
176
     1
 91
        2
176
     1
 64
     7
176
     1
 65
   257
176
     1
 75
     1
176
     1
175
     1
176
     1
 42
40.0
176
     1
 92
        8
176
     1
 66
     7
176
     1
 43
1.0
176
     1
 76
     1
176
     1
 77
     6
176
     1
 78
     2
176
     1
 67
     7
176
     1
 79
     3
176
     1
170
     0
176
     1
171
     0
176
     1
290
     0
176
     1
 93
        1
176
     1
 44
0.0
176
     1
173
     0
176
     1
  0
VISUALSTYLE
  5
35
102
{ACAD_REACTORS
330
2A
102
}
330
2A
100
AcDbVisualStyle
  2
Dim
 70
    11
177
     2
291
     1
 71
     2
176
     1
 72
     2
176
     1
 73
     0
176
     1
 90
        0
176
     1
 40
-0.6
176
     1
 41
-30.0
176
     1
 62
     5
 63
     7
421
 16777215
176
     1
 74
     1
176
     1
 91
        4
176
     1
 64
     7
176
     1
 65
   257
176
     1
 75
     1
176
     1
175
     1
176
     1
 42
1.0
176
     1
 92
        8
176
     1
 66
     7
176
     1
 43
1.0
176
     1
 76
     1
176
     1
 77
     6
176
     1
 78
     2
176
     1
 67
     7
176
     1
 79
     5
176
     1
170
     0
176
     1
171
     0
176
     1
290
     0
176
     1
 93
        1
176
     1
 44
-50.0
176
     1
173
     0
176
     1
  0
VISUALSTYLE
  5
39
102
{ACAD_REACTORS
330
2A
102
}
330
2A
100
AcDbVisualStyle
  2
Facepattern
 70
    15
177
     2
291
     1
 71
     2
176
     1
 72
     2
176
     1
 73
     0
176
     1
 90
        0
176
     1
 40
-0.6
176
     1
 41
-30.0
176
     1
 62
     5
 63
     7
421
 16777215
176
     1
 74
     1
176
     1
 91
        4
176
     1
 64
     7
176
     1
 65
   257
176
     1
 75
     1
176
     1
175
     1
176
     1
 42
1.0
176
     1
 92
        8
176
     1
 66
     7
176
     1
 43
1.0
176
     1
 76
     1
176
     1
 77
     6
176
     1
 78
     2
176
     1
 67
     7
176
     1
 79
     5
176
     1
170
     0
176
     1
171
     0
176
     1
290
     0
176
     1
 93
        1
176
     1
 44
0.0
176
     1
173
     0
176
     1
  0
VISUALSTYLE
  5
2B
102
{ACAD_REACTORS
330
2A
102
}
330
2A
100
AcDbVisualStyle
  2
Flat
 70
     0
177
     2
291
     1
 71
     2
176
     1
 72
     1
176
     1
 73
     1
176
     1
 90
        2
176
     1
 40
-0.6
176
     1
 41
30.0
176
     1
 62
     5
 63
     7
421
 16777215
176
     1
 74
     0
176
     1
 91
        4
176
     1
 64
     7
176
     1
 65
   257
176
     1
 75
     1
176
     1
175
     1
176
     1
 42
1.0
176
     1
 92
        8
176
     1
 66
     7
176
     1
 43
1.0
176
     1
 76
     1
176
     1
 77
     6
176
     1
 78
     2
176
     1
 67
     7
176
     1
 79
     5
176
     1
170
     0
176
     1
171
     0
176
     1
290
     0
176
     1
 93
       13
176
     1
 44
0.0
176
     1
173
     0
176
     1
  0
VISUALSTYLE
  5
2C
102
{ACAD_REACTORS
330
2A
102
}
330
2A
100
AcDbVisualStyle
  2
FlatWithEdges
 70
     1
177
     2
291
     1
 71
     2
176
     1
 72
     1
176
     1
 73
     1
176
     1
 90
        2
176
     1
 40
-0.6
176
     1
 41
30.0
176
     1
 62
     5
 63
     7
421
 16777215
176
     1
 74
     1
176
     1
 91
        4
176
     1
 64
     7
176
     1
 65
   257
176
     1
 75
     1
176
     1
175
     1
176
     1
 42
1.0
176
     1
 92
        0
176
     1
 66
   257
176
     1
 43
1.0
176
     1
 76
     1
176
     1
 77
     6
176
     1
 78
     2
176
     1
 67
     7
176
     1
 79
     5
176
     1
170
     0
176
     1
171
     0
176
     1
290
     0
176
     1
 93
       13
176
     1
 44
0.0
176
     1
173
     0
176
     1
  0
VISUALSTYLE
  5
2D
102
{ACAD_REACTORS
330
2A
102
}
330
2A
100
AcDbVisualStyle
  2
Gouraud
 70
     2
177
     2
291
     1
 71
     2
176
     1
 72
     2
176
     1
 73
     1
176
     1
 90
        2
176
     1
 40
-0.6
176
     1
 41
30.0
176
     1
 62
     5
 63
     7
421
 16777215
176
     1
 74
     0
176
     1
 91
        4
176
     1
 64
     7
176
     1
 65
   257
176
     1
 75
     1
176
     1
175
     1
176
     1
 42
1.0
176
     1
 92
        0
176
     1
 66
     7
176
     1
 43
1.0
176
     1
 76
     1
176
     1
 77
     6
176
     1
 78
     2
176
     1
 67
     7
176
     1
 79
     5
176
     1
170
     0
176
     1
171
     0
176
     1
290
     0
176
     1
 93
       13
176
     1
 44
0.0
176
     1
173
     0
176
     1
  0
VISUALSTYLE
  5
2E
102
{ACAD_REACTORS
330
2A
102
}
330
2A
100
AcDbVisualStyle
  2
GouraudWithEdges
 70
     3
177
     2
291
     1
 71
     2
176
     1
 72
     2
176
     1
 73
     1
176
     1
 90
        2
176
     1
 40
-0.6
176
     1
 41
30.0
176
     1
 62
     5
 63
     7
421
 16777215
176
     1
 74
     1
176
     1
 91
        4
176
     1
 64
     7
176
     1
 65
   257
176
     1
 75
     1
176
     1
175
     1
176
     1
 42
1.0
176
     1
 92
        0
176
     1
 66
   257
176
     1
 43
1.0
176
     1
 76
     1
176
     1
 77
     6
176
     1
 78
     2
176
     1
 67
     7
176
     1
 79
     5
176
     1
170
     0
176
     1
171
     0
176
     1
290
     0
176
     1
 93
       13
176
     1
 44
0.0
176
     1
173
     0
176
     1
  0
VISUALSTYLE
  5
38
102
{ACAD_REACTORS
330
2A
102
}
330
2A
100
AcDbVisualStyle
  2
Linepattern
 70
    14
177
     2
291
     1
 71
     2
176
     1
 72
     2
176
     1
 73
     0
176
     1
 90
        0
176
     1
 40
-0.6
176
     1
 41
-30.0
176
     1
 62
     5
 63
     7
421
 16777215
176
     1
 74
     1
176
     1
 91
        4
176
     1
 64
     7
176
     1
 65
   257
176
     1
 75
     7
176
     1
175
     7
176
     1
 42
1.0
176
     1
 92
        8
176
     1
 66
     7
176
     1
 43
1.0
176
     1
 76
     1
176
     1
 77
     6
176
     1
 78
     2
176
     1
 67
     7
176
     1
 79
     5
176
     1
170
     0
176
     1
171
     0
176
     1
290
     0
176
     1
 93
        1
176
     1
 44
0.0
176
     1
173
     0
176
     1
  0
VISUALSTYLE
  5
33
102
{ACAD_REACTORS
330
2A
102
}
330
2A
100
AcDbVisualStyle
  2
Realistic
 70
     8
177
     2
291
     0
 71
     2
176
     1
 72
     2
176
     1
 73
     0
176
     1
 90
        0
176
     1
 40
-0.6
176
     1
 41
-30.0
176
     1
 62
     5
 63
     7
421
 16777215
176
     1
 74
     1
176
     1
 91
        0
176
     1
 64
     7
176
     1
 65
   257
176
     1
 75
     1
176
     1
175
     1
176
     1
 42
1.0
176
     1
 92
        8
176
     1
 66
     8
424
  7895160
176
     1
 43
1.0
176
     1
 76
     1
176
     1
 77
     6
176
     1
 78
     2
176
     1
 67
     7
176
     1
 79
     5
176
     1
170
     0
176
     1
171
     0
176
     1
290
     0
176
     1
 93
       13
176
     1
 44
0.0
176
     1
173
     0
176
     1
  0
VISUALSTYLE
  5
37
102
{ACAD_REACTORS
330
2A
102
}
330
2A
100
AcDbVisualStyle
  2
Thicken
 70
    13
177
     2
291
     1
 71
     2
176
     1
 72
     2
176
     1
 73
     0
176
     1
 90
        0
176
     1
 40
-0.6
176
     1
 41
-30.0
176
     1
 62
     5
 63
     7
421
 16777215
176
     1
 74
     1
176
     1
 91
        4
176
     1
 64
     7
176
     1
 65
   257
176
     1
 75
     1
176
     1
175
     1
176
     1
 42
1.0
176
     1
 92
       12
176
     1
 66
     7
176
     1
 43
1.0
176
     1
 76
     1
176
     1
 77
     6
176
     1
 78
     2
176
     1
 67
     7
176
     1
 79
     5
176
     1
170
     0
176
     1
171
     0
176
     1
290
     0
176
     1
 93
        1
176
     1
 44
0.0
176
     1
173
     0
176
     1
  0
ENDSEC
  0
EOF
