  0
SECTION
  2
HEADER
  9
$ACADVER
  1
AC1024
  9
$ACADMAINTVER
 70
     6
  9
$DWGCODEPAGE
  3
UNDEFINED
  9
$INSBASE
 10
0.0
 20
0.0
 30
0.0
  9
$EXTMIN
 10
1.000000000000000E+20
 20
1.000000000000000E+20
 30
1.000000000000000E+20
  9
$EXTMAX
 10
-1.000000000000000E+20
 20
-1.000000000000000E+20
 30
-1.000000000000000E+20
  9
$LIMMIN
 10
0.0
 20
0.0
  9
$LIMMAX
 10
12.0
 20
9.0
  9
$ORTHOMODE
 70
     0
  9
$REGENMODE
 70
     1
  9
$FILLMODE
 70
     1
  9
$QTEXTMODE
 70
     0
  9
$MIRRTEXT
 70
     1
  9
$LTSCALE
 40
1.0
  9
$ATTMODE
 70
     1
  9
$TEXTSIZE
 40
0.2
  9
$TRACEWID
 40
0.05
  9
$TEXTSTYLE
  7
Standard
  9
$CLAYER
  8
0
  9
$CELTYPE
  6
ByLayer
  9
$CECOLOR
 62
   256
  9
$CELTSCALE
 40
1.0
  9
$DISPSILH
 70
     0
  9
$DIMSCALE
 40
1.0
  9
$DIMASZ
 40
0.18
  9
$DIMEXO
 40
0.0625
  9
$DIMDLI
 40
0.38
  9
$DIMRND
 40
0.0
  9
$DIMDLE
 40
0.0
  9
$DIMEXE
 40
0.18
  9
$DIMTP
 40
0.0
  9
$DIMTM
 40
0.0
  9
$DIMTXT
 40
0.18
  9
$DIMCEN
 40
0.09
  9
$DIMTSZ
 40
0.0
  9
$DIMTOL
 70
     0
  9
$DIMLIM
 70
     0
  9
$DIMTIH
 70
     1
  9
$DIMTOH
 70
     1
  9
$DIMSE1
 70
     0
  9
$DIMSE2
 70
     0
  9
$DIMTAD
 70
     0
  9
$DIMZIN
 70
     0
  9
$DIMBLK
  1

  9
$DIMASO
 70
     1
  9
$DIMSHO
 70
     1
  9
$DIMPOST
  1

  9
$DIMAPOST
  1

  9
$DIMALT
 70
     0
  9
$DIMALTD
 70
     2
  9
$DIMALTF
 40
25.4
  9
$DIMLFAC
 40
1.0
  9
$DIMTOFL
 70
     0
  9
$DIMTVP
 40
0.0
  9
$DIMTIX
 70
     0
  9
$DIMSOXD
 70
     0
  9
$DIMSAH
 70
     0
  9
$DIMBLK1
  1

  9
$DIMBLK2
  1

  9
$DIMSTYLE
  2
Standard
  9
$DIMCLRD
 70
     0
  9
$DIMCLRE
 70
     0
  9
$DIMCLRT
 70
     0
  9
$DIMTFAC
 40
1.0
  9
$DIMGAP
 40
0.09
  9
$DIMJUST
 70
     0
  9
$DIMSD1
 70
     0
  9
$DIMSD2
 70
     0
  9
$DIMTOLJ
 70
     1
  9
$DIMTZIN
 70
     0
  9
$DIMALTZ
 70
     0
  9
$DIMALTTZ
 70
     0
  9
$DIMUPT
 70
     0
  9
$DIMDEC
 70
     4
  9
$DIMTDEC
 70
     4
  9
$DIMALTU
 70
     2
  9
$DIMALTTD
 70
     2
  9
$DIMTXSTY
  7
Standard
  9
$DIMAUNIT
 70
     0
  9
$DIMADEC
 70
     0
  9
$DIMALTRND
 40
0.0
  9
$DIMAZIN
 70
     0
  9
$DIMDSEP
 70
    46
  9
$DIMATFIT
 70
     3
  9
$DIMFRAC
 70
     0
  9
$DIMLDRBLK
  1

  9
$DIMLUNIT
 70
     2
  9
$DIMLWD
 70
    -2
  9
$DIMLWE
 70
    -2
  9
$DIMTMOVE
 70
     0
  9
$DIMFXL
 40
1.0
  9
$DIMFXLON
 70
     0
  9
$DIMJOGANG
 40
0.7853981633974483
  9
$DIMTFILL
 70
     0
  9
$DIMTFILLCLR
 70
     0
  9
$DIMARCSYM
 70
     0
  9
$DIMLTYPE
  6

  9
$DIMLTEX1
  6

  9
$DIMLTEX2
  6

  9
$DIMTXTDIRECTION
 70
     0
  9
$LUNITS
 70
     2
  9
$LUPREC
 70
     4
  9
$SKETCHINC
 40
0.1
  9
$FILLETRAD
 40
0.5
  9
$AUNITS
 70
     0
  9
$AUPREC
 70
     0
  9
$MENU
  1
.
  9
$ELEVATION
 40
0.0
  9
$PELEVATION
 40
0.0
  9
$THICKNESS
 40
0.0
  9
$LIMCHECK
 70
     0
  9
$CHAMFERA
 40
0.5
  9
$CHAMFERB
 40
0.5
  9
$CHAMFERC
 40
1.0
  9
$CHAMFERD
 40
0.0
  9
$SKPOLY
 70
     0
  9
$TDCREATE
 40
2457917.594166667
  9
$TDUCREATE
 40
2457917.219166667
  9
$TDUPDATE
 40
2457917.594166667
  9
$TDUUPDATE
 40
2457917.219166667
  9
$TDINDWG
 40
0.0000000116
  9
$TDUSRTIMER
 40
0.0000000116
  9
$USRTIMER
 70
     1
  9
$ANGBASE
 50
0.0
  9
$ANGDIR
 70
     0
  9
$PDMODE
 70
     0
  9
$PDSIZE
 40
0.0
  9
$PLINEWID
 40
0.0
  9
$SPLFRAME
 70
     0
  9
$SPLINETYPE
 70
     6
  9
$SPLINESEGS
 70
     8
  9
$HANDSEED
  5
C7
  9
$SURFTAB1
 70
     6
  9
$SURFTAB2
 70
     6
  9
$SURFTYPE
 70
     6
  9
$SURFU
 70
     6
  9
$SURFV
 70
     6
  9
$UCSBASE
  2

  9
$UCSNAME
  2

  9
$UCSORG
 10
0.0
 20
0.0
 30
0.0
  9
$UCSXDIR
 10
1.0
 20
0.0
 30
0.0
  9
$UCSYDIR
 10
0.0
 20
1.0
 30
0.0
  9
$UCSORTHOREF
  2

  9
$UCSORTHOVIEW
 70
     0
  9
$UCSORGTOP
 10
0.0
 20
0.0
 30
0.0
  9
$UCSORGBOTTOM
 10
0.0
 20
0.0
 30
0.0
  9
$UCSORGLEFT
 10
0.0
 20
0.0
 30
0.0
  9
$UCSORGRIGHT
 10
0.0
 20
0.0
 30
0.0
  9
$UCSORGFRONT
 10
0.0
 20
0.0
 30
0.0
  9
$UCSORGBACK
 10
0.0
 20
0.0
 30
0.0
  9
$PUCSBASE
  2

  9
$PUCSNAME
  2

  9
$PUCSORG
 10
0.0
 20
0.0
 30
0.0
  9
$PUCSXDIR
 10
1.0
 20
0.0
 30
0.0
  9
$PUCSYDIR
 10
0.0
 20
1.0
 30
0.0
  9
$PUCSORTHOREF
  2

  9
$PUCSORTHOVIEW
 70
     0
  9
$PUCSORGTOP
 10
0.0
 20
0.0
 30
0.0
  9
$PUCSORGBOTTOM
 10
0.0
 20
0.0
 30
0.0
  9
$PUCSORGLEFT
 10
0.0
 20
0.0
 30
0.0
  9
$PUCSORGRIGHT
 10
0.0
 20
0.0
 30
0.0
  9
$PUCSORGFRONT
 10
0.0
 20
0.0
 30
0.0
  9
$PUCSORGBACK
 10
0.0
 20
0.0
 30
0.0
  9
$USERI1
 70
     0
  9
$USERI2
 70
     0
  9
$USERI3
 70
     0
  9
$USERI4
 70
     0
  9
$USERI5
 70
     0
  9
$USERR1
 40
0.0
  9
$USERR2
 40
0.0
  9
$USERR3
 40
0.0
  9
$USERR4
 40
0.0
  9
$USERR5
 40
0.0
  9
$WORLDVIEW
 70
     1
  9
$SHADEDGE
 70
     3
  9
$SHADEDIF
 70
    70
  9
$TILEMODE
 70
     1
  9
$MAXACTVP
 70
    64
  9
$PINSBASE
 10
0.0
 20
0.0
 30
0.0
  9
$PLIMCHECK
 70
     0
  9
$PEXTMIN
 10
1.000000000000000E+20
 20
1.000000000000000E+20
 30
1.000000000000000E+20
  9
$PEXTMAX
 10
-1.000000000000000E+20
 20
-1.000000000000000E+20
 30
-1.000000000000000E+20
  9
$PLIMMIN
 10
0.0
 20
0.0
  9
$PLIMMAX
 10
12.0
 20
9.0
  9
$UNITMODE
 70
     0
  9
$VISRETAIN
 70
     1
  9
$PLINEGEN
 70
     0
  9
$PSLTSCALE
 70
     1
  9
$TREEDEPTH
 70
  3020
  9
$CMLSTYLE
  2
Standard
  9
$CMLJUST
 70
     0
  9
$CMLSCALE
 40
1.0
  9
$PROXYGRAPHICS
 70
     1
  9
$MEASUREMENT
 70
     0
  9
$CELWEIGHT
370
    -1
  9
$ENDCAPS
280
     0
  9
$JOINSTYLE
280
     0
  9
$LWDISPLAY
290
     1
  9
$INSUNITS
 70
     1
  9
$HYPERLINKBASE
  1

  9
$STYLESHEET
  1

  9
$XEDIT
290
     1
  9
$CEPSNTYPE
380
     0
  9
$PSTYLEMODE
290
     1
  9
$FINGERPRINTGUID
  2
{ED93FC4F-87E1-ED58-165F-F14072ADA51D}
  9
$VERSIONGUID
  2
{FAEB1C32-E019-11D5-929B-00C0DF256EC4}
  9
$EXTNAMES
290
     1
  9
$PSVPSCALE
 40
0.0
  9
$OLESTARTUP
290
     0
  9
$SORTENTS
280
   127
  9
$INDEXCTL
280
     0
  9
$HIDETEXT
280
     1
  9
$XCLIPFRAME
280
     2
  9
$HALOGAP
280
     0
  9
$OBSCOLOR
 70
   257
  9
$OBSLTYPE
280
     0
  9
$INTERSECTIONDISPLAY
280
     0
  9
$INTERSECTIONCOLOR
 70
   257
  9
$DIMASSOC
280
     2
  9
$PROJECTNAME
  1

  9
$CAMERADISPLAY
290
     0
  9
$LENSLENGTH
 40
50.0
  9
$CAMERAHEIGHT
 40
0.0
  9
$STEPSPERSEC
 40
2.0
  9
$STEPSIZE
 40
6.0
  9
$3DDWFPREC
 40
2.0
  9
$PSOLWIDTH
 40
0.25
  9
$PSOLHEIGHT
 40
4.0
  9
$LOFTANG1
 40
1.570796326794897
  9
$LOFTANG2
 40
1.570796326794897
  9
$LOFTMAG1
 40
0.0
  9
$LOFTMAG2
 40
0.0
  9
$LOFTPARAM
 70
     7
  9
$LOFTNORMALS
280
     1
  9
$LATITUDE
 40
37.795
  9
$LONGITUDE
 40
-122.394
  9
$NORTHDIRECTION
 40
0.0
  9
$TIMEZONE
 70
 -8000
  9
$LIGHTGLYPHDISPLAY
280
     1
  9
$TILEMODELIGHTSYNCH
280
     1
  9
$CMATERIAL
347
3C
  9
$SOLIDHIST
280
     1
  9
$SHOWHIST
280
     1
  9
$DWFFRAME
280
     2
  9
$DGNFRAME
280
     2
  9
$REALWORLDSCALE
290
     1
  9
$INTERFERECOLOR
 62
   256
  9
$CSHADOW
280
     0
  9
$SHADOWPLANELOCATION
 40
0.0
  0
ENDSEC
  0
SECTION
  2
CLASSES
  0
CLASS
  1
ACDBDICTIONARYWDFLT
  2
AcDbDictionaryWithDefault
  3
ObjectDBX Classes
 90
        0
 91
        4
280
     0
281
     0
  0
CLASS
  1
VISUALSTYLE
  2
AcDbVisualStyle
  3
ObjectDBX Classes
 90
     4095
 91
        4
280
     0
281
     0
  0
CLASS
  1
MATERIAL
  2
AcDbMaterial
  3
ObjectDBX Classes
 90
     1153
 91
        4
280
     0
281
     0
  0
CLASS
  1
SUN
  2
AcDbSun
  3
SCENEOE
 90
     1024
 91
        4
280
     0
281
     0
  0
ENDSEC
  0
SECTION
  2
TABLES
  0
TABLE
  2
VPORT
  5
8
330
0
100
AcDbSymbolTable
 70
     1
  0
VPORT
  5
29
330
8
100
AcDbSymbolTableRecord
100
AcDbViewportTableRecord
  2
*Active
 70
     0
 10
0.0
 20
0.0
 11
1.0
 21
1.0
 12
0.0
 22
0.0
 13
0.0
 23
0.0
 14
0.5
 24
0.5
 15
0.5
 25
0.5
 16
0.0
 26
0.0
 36
1.0
 17
91.00082462281999
 27
-128.4993055234307
 37
0.0
 40
256.9986110468615
 41
0.7081814508812795
 42
50.0
 43
0.0
 44
0.0
 50
0.0
 51
0.0
 71
     0
 72
   100
 73
     1
 74
     3
 75
     0
 76
     0
 77
     0
 78
     0
281
     0
 65
     1
110
0.0
120
0.0
130
0.0
111
1.0
121
0.0
131
0.0
112
0.0
122
1.0
132
0.0
 79
     0
146
0.0
 60
     3
 61
     5
292
     1
282
     1
141
0.0
142
0.0
 63
   250
361
3F
  0
ENDTAB
  0
TABLE
  2
LTYPE
  5
5
330
0
100
AcDbSymbolTable
 70
     1
  0
LTYPE
  5
14
330
5
100
AcDbSymbolTableRecord
100
AcDbLinetypeTableRecord
  2
ByBlock
 70
     0
  3

 72
    65
 73
     0
 40
0.0
  0
LTYPE
  5
15
330
5
100
AcDbSymbolTableRecord
100
AcDbLinetypeTableRecord
  2
ByLayer
 70
     0
  3

 72
    65
 73
     0
 40
0.0
  0
LTYPE
  5
16
330
5
100
AcDbSymbolTableRecord
100
AcDbLinetypeTableRecord
  2
Continuous
 70
     0
  3
Solid line
 72
    65
 73
     0
 40
0.0
  0
ENDTAB
  0
TABLE
  2
LAYER
  5
2
330
0
100
AcDbSymbolTable
 70
     2
  0
LAYER
  5
10
330
2
100
AcDbSymbolTableRecord
100
AcDbLayerTableRecord
  2
0
 70
     0
 62
     7
  6
Continuous
370
    -3
390
F
347
3E
  0
LAYER
  5
40
330
2
100
AcDbSymbolTableRecord
100
AcDbLayerTableRecord
  2
_U+30EC_U+30A4_U+30E4_U+30FC 1
 70
     0
 62
     7
  6
Continuous
370
    -3
390
F
347
3E
  0
ENDTAB
  0
TABLE
  2
STYLE
  5
3
330
0
100
AcDbSymbolTable
 70
     1
  0
STYLE
  5
11
330
3
100
AcDbSymbolTableRecord
100
AcDbTextStyleTableRecord
  2
Standard
 70
     0
 40
0.0
 41
1.0
 50
0.0
 71
     0
 42
0.2
  3
txt
  4

  0
ENDTAB
  0
TABLE
  2
VIEW
  5
6
330
0
100
AcDbSymbolTable
 70
     0
  0
ENDTAB
  0
TABLE
  2
UCS
  5
7
330
0
100
AcDbSymbolTable
 70
     0
  0
ENDTAB
  0
TABLE
  2
APPID
  5
9
330
0
100
AcDbSymbolTable
 70
     1
  0
APPID
  5
12
330
9
100
AcDbSymbolTableRecord
100
AcDbRegAppTableRecord
  2
ACAD
 70
     0
  0
ENDTAB
  0
TABLE
  2
DIMSTYLE
  5
A
330
0
100
AcDbSymbolTable
 70
     1
100
AcDbDimStyleTable
  0
DIMSTYLE
105
27
330
A
100
AcDbSymbolTableRecord
100
AcDbDimStyleTableRecord
  2
Standard
 70
     0
178
     0
340
11
  0
ENDTAB
  0
TABLE
  2
BLOCK_RECORD
  5
1
330
0
100
AcDbSymbolTable
 70
     6
  0
BLOCK_RECORD
  5
1F
330
1
100
AcDbSymbolTableRecord
100
AcDbBlockTableRecord
  2
*Model_Space
340
22
 70
     0
280
     1
281
     0
  0
BLOCK_RECORD
  5
1B
330
1
100
AcDbSymbolTableRecord
100
AcDbBlockTableRecord
  2
*Paper_Space
340
1E
 70
     0
280
     1
281
     0
  0
BLOCK_RECORD
  5
23
330
1
100
AcDbSymbolTableRecord
100
AcDbBlockTableRecord
  2
*Paper_Space0
340
26
 70
     0
280
     1
281
     0
  0
BLOCK_RECORD
  5
41
330
1
100
AcDbSymbolTableRecord
100
AcDbBlockTableRecord
  2
block 2
340
0
102
{BLKREFS
331
42
102
}
 70
     0
280
     1
281
     0
  0
BLOCK_RECORD
  5
4D
330
1
100
AcDbSymbolTableRecord
100
AcDbBlockTableRecord
  2
block 3
340
0
102
{BLKREFS
331
4E
102
}
 70
     0
280
     1
281
     0
  0
BLOCK_RECORD
  5
6C
330
1
100
AcDbSymbolTableRecord
100
AcDbBlockTableRecord
  2
block 4
340
0
102
{BLKREFS
331
6D
102
}
 70
     0
280
     1
281
     0
  0
BLOCK_RECORD
  5
BC
330
1
100
AcDbSymbolTableRecord
100
AcDbBlockTableRecord
  2
block 5
340
0
102
{BLKREFS
331
BD
102
}
 70
     0
280
     1
281
     0
  0
BLOCK_RECORD
  5
C0
330
1
100
AcDbSymbolTableRecord
100
AcDbBlockTableRecord
  2
block 6
340
0
102
{BLKREFS
331
C1
102
}
 70
     0
280
     1
281
     0
  0
ENDTAB
  0
ENDSEC
  0
SECTION
  2
BLOCKS
  0
BLOCK
  5
20
330
1F
100
AcDbEntity
  8
0
100
AcDbBlockBegin
  2
*Model_Space
 70
     0
 10
0.0
 20
0.0
 30
0.0
  3
*Model_Space
  1

  0
ENDBLK
  5
21
330
1F
100
AcDbEntity
  8
0
100
AcDbBlockEnd
  0
BLOCK
  5
1C
330
1B
100
AcDbEntity
 67
     1
  8
0
100
AcDbBlockBegin
  2
*Paper_Space
 70
     0
 10
0.0
 20
0.0
 30
0.0
  3
*Paper_Space
  1

  0
ENDBLK
  5
1D
330
1B
100
AcDbEntity
 67
     1
  8
0
100
AcDbBlockEnd
  0
BLOCK
  5
24
330
23
100
AcDbEntity
  8
0
100
AcDbBlockBegin
  2
*Paper_Space0
 70
     0
 10
0.0
 20
0.0
 30
0.0
  3
*Paper_Space0
  1

  0
ENDBLK
  5
25
330
23
100
AcDbEntity
  8
0
100
AcDbBlockEnd
  0
BLOCK
  5
43
330
41
100
AcDbEntity
  8
0
100
AcDbBlockBegin
  2
block 2
 70
     0
 10
0.0
 20
0.0
 30
0.0
  3
block 2
  1

  0
SPLINE
  5
45
330
41
100
AcDbEntity
  8
_U+30EC_U+30A4_U+30E4_U+30FC 1
370
     0
100
AcDbSpline
210
0.0
220
0.0
230
1.0
 70
    11
 71
     3
 72
    44
 73
    40
 74
     0
 42
0.0000000001
 43
0.0000000001
 12
1.0
 22
0.0
 32
0.0
 13
1.0
 23
0.0
 33
0.0
 40
0.0
 40
0.0
 40
0.0
 40
0.0
 40
1.0
 40
1.0
 40
1.0
 40
2.0
 40
2.0
 40
2.0
 40
3.0
 40
3.0
 40
3.0
 40
4.0
 40
4.0
 40
4.0
 40
5.0
 40
5.0
 40
5.0
 40
6.0
 40
6.0
 40
6.0
 40
7.0
 40
7.0
 40
7.0
 40
8.0
 40
8.0
 40
8.0
 40
9.0
 40
9.0
 40
9.0
 40
10.0
 40
10.0
 40
10.0
 40
11.0
 40
11.0
 40
11.0
 40
12.0
 40
12.0
 40
12.0
 40
13.0
 40
13.0
 40
13.0
 40
13.0
 10
67.87130939058426
 20
-127.7200249246672
 30
0.0
 10
67.65357935591646
 20
-127.8788438265372
 30
0.0
 10
67.56056177781473
 20
-127.9529133794701
 30
0.0
 10
67.51164142192418
 20
-128.096573861205
 30
0.0
 10
67.51164142192418
 20
-128.096573861205
 30
0.0
 10
68.29023300159064
 20
-128.096573861205
 30
0.0
 10
68.29023300159064
 20
-128.096573861205
 30
0.0
 10
68.29023300159064
 20
-128.096573861205
 30
0.0
 10
68.29023300159064
 20
-128.3019015521259
 30
0.0
 10
68.29023300159064
 20
-128.3019015521259
 30
0.0
 10
68.29023300159064
 20
-128.3019015521259
 30
0.0
 10
67.2622165087921
 20
-128.3019015521259
 30
0.0
 10
67.2622165087921
 20
-128.3019015521259
 30
0.0
 10
67.29391138725639
 20
-127.944300640757
 30
0.0
 10
67.35936820147613
 20
-127.8660969732418
 30
0.0
 10
67.74452987672707
 20
-127.5677517042192
 30
0.0
 10
68.00050047128113
 20
-127.3689696947203
 30
0.0
 10
68.06595728550087
 20
-127.3011013136608
 30
0.0
 10
68.06595728550087
 20
-127.1636420037994
 30
0.0
 10
68.06595728550087
 20
-127.0451307191068
 30
0.0
 10
67.99395478985916
 20
-126.9142170906673
 30
0.0
 10
67.79723983765139
 20
-126.9142170906673
 30
0.0
 10
67.53713512851502
 20
-126.9142170906673
 30
0.0
 10
67.52886689935042
 20
-127.1446939786305
 30
0.0
 10
67.52438827521961
 20
-127.2611382060319
 30
0.0
 10
67.52438827521961
 20
-127.2611382060319
 30
0.0
 10
67.30011255912983
 20
-127.2611382060319
 30
0.0
 10
67.30011255912983
 20
-127.2611382060319
 30
0.0
 10
67.30872529784295
 20
-127.1340141826262
 30
0.0
 10
67.31940509384724
 20
-127.0220485793556
 30
0.0
 10
67.39967581865356
 20
-126.903537294663
 30
0.0
 10
67.50957436463302
 20
-126.7426513355018
 30
0.0
 10
67.69595403038504
 20
-126.7088893997464
 30
0.0
 10
67.81205374823796
 20
-126.7088893997464
 30
0.0
 10
68.08938393480058
 20
-126.7088893997464
 30
0.0
 10
68.29677868301262
 20
-126.8928574986587
 30
0.0
 10
68.29677868301262
 20
-127.1657090610905
 30
0.0
 10
68.29677868301262
 20
-127.3944634013111
 30
0.0
 10
68.18033445561117
 20
-127.4936821512863
 30
0.0
 10
67.87130939058426
 20
-127.7200249246672
 30
0.0
  0
HATCH
  5
46
330
41
100
AcDbEntity
  8
_U+30EC_U+30A4_U+30E4_U+30FC 1
 62
   179
420
  2234388
100
AcDbHatch
 10
0.0
 20
0.0
 30
0.0
210
0.0
220
0.0
230
1.0
  2
SOLID
 70
     1
 71
     0
 91
        1
 92
        1
 93
        1
 72
     4
 94
        3
 73
     0
 74
     1
 95
       44
 96
       40
 40
0.0
 40
0.0
 40
0.0
 40
0.0
 40
1.0
 40
1.0
 40
1.0
 40
2.0
 40
2.0
 40
2.0
 40
3.0
 40
3.0
 40
3.0
 40
4.0
 40
4.0
 40
4.0
 40
5.0
 40
5.0
 40
5.0
 40
6.0
 40
6.0
 40
6.0
 40
7.0
 40
7.0
 40
7.0
 40
8.0
 40
8.0
 40
8.0
 40
9.0
 40
9.0
 40
9.0
 40
10.0
 40
10.0
 40
10.0
 40
11.0
 40
11.0
 40
11.0
 40
12.0
 40
12.0
 40
12.0
 40
13.0
 40
13.0
 40
13.0
 40
13.0
 10
67.87130939058426
 20
-127.7200249246672
 10
67.65357935591646
 20
-127.8788438265372
 10
67.56056177781473
 20
-127.9529133794701
 10
67.51164142192418
 20
-128.096573861205
 10
67.51164142192418
 20
-128.096573861205
 10
68.29023300159064
 20
-128.096573861205
 10
68.29023300159064
 20
-128.096573861205
 10
68.29023300159064
 20
-128.096573861205
 10
68.29023300159064
 20
-128.3019015521259
 10
68.29023300159064
 20
-128.3019015521259
 10
68.29023300159064
 20
-128.3019015521259
 10
67.2622165087921
 20
-128.3019015521259
 10
67.2622165087921
 20
-128.3019015521259
 10
67.29391138725639
 20
-127.944300640757
 10
67.35936820147613
 20
-127.8660969732418
 10
67.74452987672707
 20
-127.5677517042192
 10
68.00050047128113
 20
-127.3689696947203
 10
68.06595728550087
 20
-127.3011013136608
 10
68.06595728550087
 20
-127.1636420037994
 10
68.06595728550087
 20
-127.0451307191068
 10
67.99395478985916
 20
-126.9142170906673
 10
67.79723983765139
 20
-126.9142170906673
 10
67.53713512851502
 20
-126.9142170906673
 10
67.52886689935042
 20
-127.1446939786305
 10
67.52438827521961
 20
-127.2611382060319
 10
67.52438827521961
 20
-127.2611382060319
 10
67.30011255912983
 20
-127.2611382060319
 10
67.30011255912983
 20
-127.2611382060319
 10
67.30872529784295
 20
-127.1340141826262
 10
67.31940509384724
 20
-127.0220485793556
 10
67.39967581865356
 20
-126.903537294663
 10
67.50957436463302
 20
-126.7426513355018
 10
67.69595403038504
 20
-126.7088893997464
 10
67.81205374823796
 20
-126.7088893997464
 10
68.08938393480058
 20
-126.7088893997464
 10
68.29677868301262
 20
-126.8928574986587
 10
68.29677868301262
 20
-127.1657090610905
 10
68.29677868301262
 20
-127.3944634013111
 10
68.18033445561117
 20
-127.4936821512863
 10
67.87130939058426
 20
-127.7200249246672
 97
        0
 97
        0
 75
     2
 76
     1
 98
        0
  0
SPLINE
  5
47
330
41
100
AcDbEntity
  8
_U+30EC_U+30A4_U+30E4_U+30FC 1
370
     0
100
AcDbSpline
210
0.0
220
0.0
230
1.0
 70
    11
 71
     3
 72
    29
 73
    25
 74
     0
 42
0.0000000001
 43
0.0000000001
 12
1.0
 22
0.0
 32
0.0
 13
1.0
 23
0.0
 33
0.0
 40
0.0
 40
0.0
 40
0.0
 40
0.0
 40
1.0
 40
1.0
 40
1.0
 40
2.0
 40
2.0
 40
2.0
 40
3.0
 40
3.0
 40
3.0
 40
4.0
 40
4.0
 40
4.0
 40
5.0
 40
5.0
 40
5.0
 40
6.0
 40
6.0
 40
6.0
 40
7.0
 40
7.0
 40
7.0
 40
8.0
 40
8.0
 40
8.0
 40
8.0
 10
69.35304495879022
 20
-128.124134625087
 30
0.0
 10
69.24486896055338
 20
-128.3335964305902
 30
0.0
 10
69.0715806576453
 20
-128.3525444557591
 30
0.0
 10
68.95513643024385
 20
-128.3525444557591
 30
0.0
 10
68.79425047108269
 20
-128.3525444557591
 30
0.0
 10
68.65265704663892
 20
-128.3060356667082
 30
0.0
 10
68.55757241124603
 20
-128.124134625087
 30
0.0
 10
68.45387503714001
 20
-127.9294867301704
 30
0.0
 10
68.43492701197113
 20
-127.6924641607852
 30
0.0
 10
68.43492701197113
 20
-127.5298556538814
 30
0.0
 10
68.43492701197113
 20
-127.385850662598
 30
0.0
 10
68.45180797984885
 20
-127.1340141826262
 30
0.0
 10
68.55757241124603
 20
-126.9352321731273
 30
0.0
 10
68.66540389993435
 20
-126.7323160490461
 30
0.0
 10
68.82628985909551
 20
-126.7088893997464
 30
0.0
 10
68.95513643024385
 20
-126.7088893997464
 30
0.0
 10
69.11395533211387
 20
-126.7088893997464
 30
0.0
 10
69.25761581384879
 20
-126.7533311315061
 30
0.0
 10
69.35304495879022
 20
-126.9352321731273
 30
0.0
 10
69.45226370876541
 20
-127.1278130107528
 30
0.0
 10
69.47569035806511
 20
-127.3562228414248
 30
0.0
 10
69.47569035806511
 20
-127.5298556538814
 30
0.0
 10
69.47569035806511
 20
-127.7010768994983
 30
0.0
 10
69.45433076605656
 20
-127.9315537874616
 30
0.0
 10
69.35304495879022
 20
-128.124134625087
 30
0.0
  0
SPLINE
  5
48
330
41
100
AcDbEntity
  8
_U+30EC_U+30A4_U+30E4_U+30FC 1
370
     0
100
AcDbSpline
210
0.0
220
0.0
230
1.0
 70
    11
 71
     3
 72
    17
 73
    13
 74
     0
 42
0.0000000001
 43
0.0000000001
 12
1.0
 22
0.0
 32
0.0
 13
1.0
 23
0.0
 33
0.0
 40
0.0
 40
0.0
 40
0.0
 40
0.0
 40
1.0
 40
1.0
 40
1.0
 40
2.0
 40
2.0
 40
2.0
 40
3.0
 40
3.0
 40
3.0
 40
4.0
 40
4.0
 40
4.0
 40
4.0
 10
68.95513643024385
 20
-126.9014702373719
 30
0.0
 10
68.70571151711177
 20
-126.9014702373719
 30
0.0
 10
68.65885821851238
 20
-127.1850015958079
 30
0.0
 10
68.65885821851238
 20
-127.5298556538814
 30
0.0
 10
68.65885821851238
 20
-127.8492160053641
 30
0.0
 10
68.6950317211075
 20
-128.1578965608425
 30
0.0
 10
68.95513643024385
 20
-128.1578965608425
 30
0.0
 10
69.20283879563333
 20
-128.1578965608425
 30
0.0
 10
69.25141464197534
 20
-127.8767767692461
 30
0.0
 10
69.25141464197534
 20
-127.5298556538814
 30
0.0
 10
69.25141464197534
 20
-127.2101507928502
 30
0.0
 10
69.21317408208907
 20
-126.9014702373719
 30
0.0
 10
68.95513643024385
 20
-126.9014702373719
 30
0.0
  0
HATCH
  5
49
330
41
100
AcDbEntity
  8
_U+30EC_U+30A4_U+30E4_U+30FC 1
 62
   179
420
  2234388
100
AcDbHatch
 10
0.0
 20
0.0
 30
0.0
210
0.0
220
0.0
230
1.0
  2
SOLID
 70
     1
 71
     0
 91
        2
 92
        1
 93
        1
 72
     4
 94
        3
 73
     0
 74
     1
 95
       29
 96
       25
 40
0.0
 40
0.0
 40
0.0
 40
0.0
 40
1.0
 40
1.0
 40
1.0
 40
2.0
 40
2.0
 40
2.0
 40
3.0
 40
3.0
 40
3.0
 40
4.0
 40
4.0
 40
4.0
 40
5.0
 40
5.0
 40
5.0
 40
6.0
 40
6.0
 40
6.0
 40
7.0
 40
7.0
 40
7.0
 40
8.0
 40
8.0
 40
8.0
 40
8.0
 10
69.35304495879022
 20
-128.124134625087
 10
69.24486896055338
 20
-128.3335964305902
 10
69.0715806576453
 20
-128.3525444557591
 10
68.95513643024385
 20
-128.3525444557591
 10
68.79425047108269
 20
-128.3525444557591
 10
68.65265704663892
 20
-128.3060356667082
 10
68.55757241124603
 20
-128.124134625087
 10
68.45387503714001
 20
-127.9294867301704
 10
68.43492701197113
 20
-127.6924641607852
 10
68.43492701197113
 20
-127.5298556538814
 10
68.43492701197113
 20
-127.385850662598
 10
68.45180797984885
 20
-127.1340141826262
 10
68.55757241124603
 20
-126.9352321731273
 10
68.66540389993435
 20
-126.7323160490461
 10
68.82628985909551
 20
-126.7088893997464
 10
68.95513643024385
 20
-126.7088893997464
 10
69.11395533211387
 20
-126.7088893997464
 10
69.25761581384879
 20
-126.7533311315061
 10
69.35304495879022
 20
-126.9352321731273
 10
69.45226370876541
 20
-127.1278130107528
 10
69.47569035806511
 20
-127.3562228414248
 10
69.47569035806511
 20
-127.5298556538814
 10
69.47569035806511
 20
-127.7010768994983
 10
69.45433076605656
 20
-127.9315537874616
 10
69.35304495879022
 20
-128.124134625087
 97
        0
 97
        0
 92
        1
 93
        1
 72
     4
 94
        3
 73
     0
 74
     1
 95
       17
 96
       13
 40
0.0
 40
0.0
 40
0.0
 40
0.0
 40
1.0
 40
1.0
 40
1.0
 40
2.0
 40
2.0
 40
2.0
 40
3.0
 40
3.0
 40
3.0
 40
4.0
 40
4.0
 40
4.0
 40
4.0
 10
68.95513643024385
 20
-126.9014702373719
 10
68.70571151711177
 20
-126.9014702373719
 10
68.65885821851238
 20
-127.1850015958079
 10
68.65885821851238
 20
-127.5298556538814
 10
68.65885821851238
 20
-127.8492160053641
 10
68.6950317211075
 20
-128.1578965608425
 10
68.95513643024385
 20
-128.1578965608425
 10
69.20283879563333
 20
-128.1578965608425
 10
69.25141464197534
 20
-127.8767767692461
 10
69.25141464197534
 20
-127.5298556538814
 10
69.25141464197534
 20
-127.2101507928502
 10
69.21317408208907
 20
-126.9014702373719
 10
68.95513643024385
 20
-126.9014702373719
 97
        0
 97
        0
 75
     2
 76
     1
 98
        0
  0
SPLINE
  5
4A
330
41
100
AcDbEntity
  8
_U+30EC_U+30A4_U+30E4_U+30FC 1
370
     0
100
AcDbSpline
210
0.0
220
0.0
230
1.0
 70
    11
 71
     3
 72
    29
 73
    25
 74
     0
 42
0.0000000001
 43
0.0000000001
 12
1.0
 22
0.0
 32
0.0
 13
1.0
 23
0.0
 33
0.0
 40
0.0
 40
0.0
 40
0.0
 40
0.0
 40
1.0
 40
1.0
 40
1.0
 40
2.0
 40
2.0
 40
2.0
 40
3.0
 40
3.0
 40
3.0
 40
4.0
 40
4.0
 40
4.0
 40
5.0
 40
5.0
 40
5.0
 40
6.0
 40
6.0
 40
6.0
 40
7.0
 40
7.0
 40
7.0
 40
8.0
 40
8.0
 40
8.0
 40
8.0
 10
70.52988957655155
 20
-128.124134625087
 30
0.0
 10
70.42171357831471
 20
-128.3335964305902
 30
0.0
 10
70.24842527540665
 20
-128.3525444557591
 30
0.0
 10
70.1319810480052
 20
-128.3525444557591
 30
0.0
 10
69.97109508884404
 20
-128.3525444557591
 30
0.0
 10
69.82950166440027
 20
-128.3060356667082
 30
0.0
 10
69.73441702900737
 20
-128.124134625087
 30
0.0
 10
69.63071965490136
 20
-127.9294867301704
 30
0.0
 10
69.61177162973247
 20
-127.6924641607852
 30
0.0
 10
69.61177162973247
 20
-127.5298556538814
 30
0.0
 10
69.61177162973247
 20
-127.385850662598
 30
0.0
 10
69.6286525976102
 20
-127.1340141826262
 30
0.0
 10
69.73441702900737
 20
-126.9352321731273
 30
0.0
 10
69.8422485176957
 20
-126.7323160490461
 30
0.0
 10
70.00313447685686
 20
-126.7088893997464
 30
0.0
 10
70.1319810480052
 20
-126.7088893997464
 30
0.0
 10
70.29079994987522
 20
-126.7088893997464
 30
0.0
 10
70.43446043161013
 20
-126.7533311315061
 30
0.0
 10
70.52988957655155
 20
-126.9352321731273
 30
0.0
 10
70.62910832652675
 20
-127.1278130107528
 30
0.0
 10
70.65253497582646
 20
-127.3562228414248
 30
0.0
 10
70.65253497582646
 20
-127.5298556538814
 30
0.0
 10
70.65253497582646
 20
-127.7010768994983
 30
0.0
 10
70.6311753838179
 20
-127.9315537874616
 30
0.0
 10
70.52988957655155
 20
-128.124134625087
 30
0.0
  0
SPLINE
  5
4B
330
41
100
AcDbEntity
  8
_U+30EC_U+30A4_U+30E4_U+30FC 1
370
     0
100
AcDbSpline
210
0.0
220
0.0
230
1.0
 70
    11
 71
     3
 72
    17
 73
    13
 74
     0
 42
0.0000000001
 43
0.0000000001
 12
1.0
 22
0.0
 32
0.0
 13
1.0
 23
0.0
 33
0.0
 40
0.0
 40
0.0
 40
0.0
 40
0.0
 40
1.0
 40
1.0
 40
1.0
 40
2.0
 40
2.0
 40
2.0
 40
3.0
 40
3.0
 40
3.0
 40
4.0
 40
4.0
 40
4.0
 40
4.0
 10
70.1319810480052
 20
-126.9014702373719
 30
0.0
 10
69.88255613487311
 20
-126.9014702373719
 30
0.0
 10
69.83570283627371
 20
-127.1850015958079
 30
0.0
 10
69.83570283627371
 20
-127.5298556538814
 30
0.0
 10
69.83570283627371
 20
-127.8492160053641
 30
0.0
 10
69.87187633886884
 20
-128.1578965608425
 30
0.0
 10
70.1319810480052
 20
-128.1578965608425
 30
0.0
 10
70.37968341339466
 20
-128.1578965608425
 30
0.0
 10
70.42825925973669
 20
-127.8767767692461
 30
0.0
 10
70.42825925973669
 20
-127.5298556538814
 30
0.0
 10
70.42825925973669
 20
-127.2101507928502
 30
0.0
 10
70.39001869985042
 20
-126.9014702373719
 30
0.0
 10
70.1319810480052
 20
-126.9014702373719
 30
0.0
  0
HATCH
  5
4C
330
41
100
AcDbEntity
  8
_U+30EC_U+30A4_U+30E4_U+30FC 1
 62
   179
420
  2234388
100
AcDbHatch
 10
0.0
 20
0.0
 30
0.0
210
0.0
220
0.0
230
1.0
  2
SOLID
 70
     1
 71
     0
 91
        2
 92
        1
 93
        1
 72
     4
 94
        3
 73
     0
 74
     1
 95
       29
 96
       25
 40
0.0
 40
0.0
 40
0.0
 40
0.0
 40
1.0
 40
1.0
 40
1.0
 40
2.0
 40
2.0
 40
2.0
 40
3.0
 40
3.0
 40
3.0
 40
4.0
 40
4.0
 40
4.0
 40
5.0
 40
5.0
 40
5.0
 40
6.0
 40
6.0
 40
6.0
 40
7.0
 40
7.0
 40
7.0
 40
8.0
 40
8.0
 40
8.0
 40
8.0
 10
70.52988957655155
 20
-128.124134625087
 10
70.42171357831471
 20
-128.3335964305902
 10
70.24842527540665
 20
-128.3525444557591
 10
70.1319810480052
 20
-128.3525444557591
 10
69.97109508884404
 20
-128.3525444557591
 10
69.82950166440027
 20
-128.3060356667082
 10
69.73441702900737
 20
-128.124134625087
 10
69.63071965490136
 20
-127.9294867301704
 10
69.61177162973247
 20
-127.6924641607852
 10
69.61177162973247
 20
-127.5298556538814
 10
69.61177162973247
 20
-127.385850662598
 10
69.6286525976102
 20
-127.1340141826262
 10
69.73441702900737
 20
-126.9352321731273
 10
69.8422485176957
 20
-126.7323160490461
 10
70.00313447685686
 20
-126.7088893997464
 10
70.1319810480052
 20
-126.7088893997464
 10
70.29079994987522
 20
-126.7088893997464
 10
70.43446043161013
 20
-126.7533311315061
 10
70.52988957655155
 20
-126.9352321731273
 10
70.62910832652675
 20
-127.1278130107528
 10
70.65253497582646
 20
-127.3562228414248
 10
70.65253497582646
 20
-127.5298556538814
 10
70.65253497582646
 20
-127.7010768994983
 10
70.6311753838179
 20
-127.9315537874616
 10
70.52988957655155
 20
-128.124134625087
 97
        0
 97
        0
 92
        1
 93
        1
 72
     4
 94
        3
 73
     0
 74
     1
 95
       17
 96
       13
 40
0.0
 40
0.0
 40
0.0
 40
0.0
 40
1.0
 40
1.0
 40
1.0
 40
2.0
 40
2.0
 40
2.0
 40
3.0
 40
3.0
 40
3.0
 40
4.0
 40
4.0
 40
4.0
 40
4.0
 10
70.1319810480052
 20
-126.9014702373719
 10
69.88255613487311
 20
-126.9014702373719
 10
69.83570283627371
 20
-127.1850015958079
 10
69.83570283627371
 20
-127.5298556538814
 10
69.83570283627371
 20
-127.8492160053641
 10
69.87187633886884
 20
-128.1578965608425
 10
70.1319810480052
 20
-128.1578965608425
 10
70.37968341339466
 20
-128.1578965608425
 10
70.42825925973669
 20
-127.8767767692461
 10
70.42825925973669
 20
-127.5298556538814
 10
70.42825925973669
 20
-127.2101507928502
 10
70.39001869985042
 20
-126.9014702373719
 10
70.1319810480052
 20
-126.9014702373719
 97
        0
 97
        0
 75
     2
 76
     1
 98
        0
  0
ENDBLK
  5
44
330
41
100
AcDbEntity
  8
0
100
AcDbBlockEnd
  0
BLOCK
  5
4F
330
4D
100
AcDbEntity
  8
0
100
AcDbBlockBegin
  2
block 3
 70
     0
 10
0.0
 20
0.0
 30
0.0
  3
block 3
  1

  0
POLYLINE
  5
51
330
4D
100
AcDbEntity
  8
_U+30EC_U+30A4_U+30E4_U+30FC 1
370
     0
100
AcDb2dPolyline
 66
     1
 10
0.0
 20
0.0
 30
0.0
  0
VERTEX
  5
52
330
51
100
AcDbEntity
  8
_U+30EC_U+30A4_U+30E4_U+30FC 1
370
     0
100
AcDbVertex
100
AcDb2dVertex
 10
98.36126570891663
 20
-133.5994248797946
 30
0.0
  0
VERTEX
  5
53
330
51
100
AcDbEntity
  8
_U+30EC_U+30A4_U+30E4_U+30FC 1
370
     0
100
AcDbVertex
100
AcDb2dVertex
 10
98.36126570891663
 20
-133.9463459951592
 30
0.0
  0
VERTEX
  5
54
330
51
100
AcDbEntity
  8
_U+30EC_U+30A4_U+30E4_U+30FC 1
370
     0
100
AcDbVertex
100
AcDb2dVertex
 10
98.14353567424884
 20
-133.9463459951592
 30
0.0
  0
VERTEX
  5
55
330
51
100
AcDbEntity
  8
_U+30EC_U+30A4_U+30E4_U+30FC 1
370
     0
100
AcDbVertex
100
AcDb2dVertex
 10
98.14353567424884
 20
-133.5994248797946
 30
0.0
  0
VERTEX
  5
56
330
51
100
AcDbEntity
  8
_U+30EC_U+30A4_U+30E4_U+30FC 1
370
     0
100
AcDbVertex
100
AcDb2dVertex
 10
97.48758949385727
 20
-133.5994248797946
 30
0.0
  0
VERTEX
  5
57
330
51
100
AcDbEntity
  8
_U+30EC_U+30A4_U+30E4_U+30FC 1
370
     0
100
AcDbVertex
100
AcDb2dVertex
 10
97.48758949385727
 20
-133.3751491637048
 30
0.0
  0
VERTEX
  5
58
330
51
100
AcDbEntity
  8
_U+30EC_U+30A4_U+30E4_U+30FC 1
370
     0
100
AcDbVertex
100
AcDb2dVertex
 10
98.16661781400002
 20
-132.4019096891217
 30
0.0
  0
VERTEX
  5
59
330
51
100
AcDbEntity
  8
_U+30EC_U+30A4_U+30E4_U+30FC 1
370
     0
100
AcDbVertex
100
AcDb2dVertex
 10
98.36126570891663
 20
-132.4019096891217
 30
0.0
  0
VERTEX
  5
5A
330
51
100
AcDbEntity
  8
_U+30EC_U+30A4_U+30E4_U+30FC 1
370
     0
100
AcDbVertex
100
AcDb2dVertex
 10
98.36126570891663
 20
-133.4006428702957
 30
0.0
  0
VERTEX
  5
5B
330
51
100
AcDbEntity
  8
_U+30EC_U+30A4_U+30E4_U+30FC 1
370
     0
100
AcDbVertex
100
AcDb2dVertex
 10
98.56866045712867
 20
-133.4006428702957
 30
0.0
  0
VERTEX
  5
5C
330
51
100
AcDbEntity
  8
_U+30EC_U+30A4_U+30E4_U+30FC 1
370
     0
100
AcDbVertex
100
AcDb2dVertex
 10
98.56866045712867
 20
-133.5994248797946
 30
0.0
  0
VERTEX
  5
5D
330
51
100
AcDbEntity
  8
_U+30EC_U+30A4_U+30E4_U+30FC 1
370
     0
100
AcDbVertex
100
AcDb2dVertex
 10
98.36126570891663
 20
-133.5994248797946
 30
0.0
  0
SEQEND
  5
5E
330
51
100
AcDbEntity
  8
_U+30EC_U+30A4_U+30E4_U+30FC 1
370
     0
  0
POLYLINE
  5
5F
330
4D
100
AcDbEntity
  8
_U+30EC_U+30A4_U+30E4_U+30FC 1
370
     0
100
AcDb2dPolyline
 66
     1
 10
0.0
 20
0.0
 30
0.0
  0
VERTEX
  5
60
330
5F
100
AcDbEntity
  8
_U+30EC_U+30A4_U+30E4_U+30FC 1
370
     0
100
AcDbVertex
100
AcDb2dVertex
 10
98.14353567424884
 20
-132.7446966899041
 30
0.0
  0
VERTEX
  5
61
330
5F
100
AcDbEntity
  8
_U+30EC_U+30A4_U+30E4_U+30FC 1
370
     0
100
AcDbVertex
100
AcDb2dVertex
 10
97.68637150335618
 20
-133.4006428702957
 30
0.0
  0
VERTEX
  5
62
330
5F
100
AcDbEntity
  8
_U+30EC_U+30A4_U+30E4_U+30FC 1
370
     0
100
AcDbVertex
100
AcDb2dVertex
 10
98.14353567424884
 20
-133.4006428702957
 30
0.0
  0
VERTEX
  5
63
330
5F
100
AcDbEntity
  8
_U+30EC_U+30A4_U+30E4_U+30FC 1
370
     0
100
AcDbVertex
100
AcDb2dVertex
 10
98.14353567424884
 20
-132.7446966899041
 30
0.0
  0
SEQEND
  5
64
330
5F
100
AcDbEntity
  8
_U+30EC_U+30A4_U+30E4_U+30FC 1
370
     0
  0
HATCH
  5
65
330
4D
100
AcDbEntity
  8
_U+30EC_U+30A4_U+30E4_U+30FC 1
 62
   179
420
  2234388
100
AcDbHatch
 10
0.0
 20
0.0
 30
0.0
210
0.0
220
0.0
230
1.0
  2
SOLID
 70
     1
 71
     0
 91
        2
 92
        1
 93
       11
 72
     1
 10
98.36126570891663
 20
-133.5994248797946
 11
98.36126570891663
 21
-133.9463459951592
 72
     1
 10
98.36126570891663
 20
-133.9463459951592
 11
98.14353567424884
 21
-133.9463459951592
 72
     1
 10
98.14353567424884
 20
-133.9463459951592
 11
98.14353567424884
 21
-133.5994248797946
 72
     1
 10
98.14353567424884
 20
-133.5994248797946
 11
97.48758949385727
 21
-133.5994248797946
 72
     1
 10
97.48758949385727
 20
-133.5994248797946
 11
97.48758949385727
 21
-133.3751491637048
 72
     1
 10
97.48758949385727
 20
-133.3751491637048
 11
98.16661781400002
 21
-132.4019096891217
 72
     1
 10
98.16661781400002
 20
-132.4019096891217
 11
98.36126570891663
 21
-132.4019096891217
 72
     1
 10
98.36126570891663
 20
-132.4019096891217
 11
98.36126570891663
 21
-133.4006428702957
 72
     1
 10
98.36126570891663
 20
-133.4006428702957
 11
98.56866045712867
 21
-133.4006428702957
 72
     1
 10
98.56866045712867
 20
-133.4006428702957
 11
98.56866045712867
 21
-133.5994248797946
 72
     1
 10
98.56866045712867
 20
-133.5994248797946
 11
98.36126570891663
 21
-133.5994248797946
 97
        0
 92
        1
 93
        3
 72
     1
 10
98.14353567424884
 20
-132.7446966899041
 11
97.68637150335618
 21
-133.4006428702957
 72
     1
 10
97.68637150335618
 20
-133.4006428702957
 11
98.14353567424884
 21
-133.4006428702957
 72
     1
 10
98.14353567424884
 20
-133.4006428702957
 11
98.14353567424884
 21
-132.7446966899041
 97
        0
 75
     2
 76
     1
 98
        0
  0
SPLINE
  5
66
330
4D
100
AcDbEntity
  8
_U+30EC_U+30A4_U+30E4_U+30FC 1
370
     0
100
AcDbSpline
210
0.0
220
0.0
230
1.0
 70
    11
 71
     3
 72
    29
 73
    25
 74
     0
 42
0.0000000001
 43
0.0000000001
 12
1.0
 22
0.0
 32
0.0
 13
1.0
 23
0.0
 33
0.0
 40
0.0
 40
0.0
 40
0.0
 40
0.0
 40
1.0
 40
1.0
 40
1.0
 40
2.0
 40
2.0
 40
2.0
 40
3.0
 40
3.0
 40
3.0
 40
4.0
 40
4.0
 40
4.0
 40
5.0
 40
5.0
 40
5.0
 40
6.0
 40
6.0
 40
6.0
 40
7.0
 40
7.0
 40
7.0
 40
8.0
 40
8.0
 40
8.0
 40
8.0
 10
99.60391165044625
 20
-133.7685790681204
 30
0.0
 10
99.4957356522094
 20
-133.9780408736235
 30
0.0
 10
99.32244734930134
 20
-133.9969888987924
 30
0.0
 10
99.2060031218999
 20
-133.9969888987924
 30
0.0
 10
99.04511716273872
 20
-133.9969888987924
 30
0.0
 10
98.90352373829495
 20
-133.9504801097416
 30
0.0
 10
98.80843910290206
 20
-133.7685790681204
 30
0.0
 10
98.70474172879604
 20
-133.5739311732037
 30
0.0
 10
98.68579370362717
 20
-133.3369086038186
 30
0.0
 10
98.68579370362717
 20
-133.1743000969148
 30
0.0
 10
98.68579370362717
 20
-133.0302951056313
 30
0.0
 10
98.7026746715049
 20
-132.7784586256596
 30
0.0
 10
98.80843910290206
 20
-132.5796766161606
 30
0.0
 10
98.91627059159038
 20
-132.3767604920794
 30
0.0
 10
99.07715655075155
 20
-132.3533338427797
 30
0.0
 10
99.2060031218999
 20
-132.3533338427797
 30
0.0
 10
99.3648220237699
 20
-132.3533338427797
 30
0.0
 10
99.50848250550483
 20
-132.3977755745395
 30
0.0
 10
99.60391165044625
 20
-132.5796766161606
 30
0.0
 10
99.70313040042144
 20
-132.7722574537861
 30
0.0
 10
99.72655704972114
 20
-133.0006672844582
 30
0.0
 10
99.72655704972114
 20
-133.1743000969148
 30
0.0
 10
99.72655704972114
 20
-133.3455213425317
 30
0.0
 10
99.7051974577126
 20
-133.5759982304949
 30
0.0
 10
99.60391165044625
 20
-133.7685790681204
 30
0.0
  0
SPLINE
  5
67
330
4D
100
AcDbEntity
  8
_U+30EC_U+30A4_U+30E4_U+30FC 1
370
     0
100
AcDbSpline
210
0.0
220
0.0
230
1.0
 70
    11
 71
     3
 72
    17
 73
    13
 74
     0
 42
0.0000000001
 43
0.0000000001
 12
1.0
 22
0.0
 32
0.0
 13
1.0
 23
0.0
 33
0.0
 40
0.0
 40
0.0
 40
0.0
 40
0.0
 40
1.0
 40
1.0
 40
1.0
 40
2.0
 40
2.0
 40
2.0
 40
3.0
 40
3.0
 40
3.0
 40
4.0
 40
4.0
 40
4.0
 40
4.0
 10
99.2060031218999
 20
-132.5459146804052
 30
0.0
 10
98.95657820876781
 20
-132.5459146804052
 30
0.0
 10
98.9097249101684
 20
-132.8294460388413
 30
0.0
 10
98.9097249101684
 20
-133.1743000969148
 30
0.0
 10
98.9097249101684
 20
-133.4936604483974
 30
0.0
 10
98.94589841276353
 20
-133.8023410038758
 30
0.0
 10
99.2060031218999
 20
-133.8023410038758
 30
0.0
 10
99.45370548728935
 20
-133.8023410038758
 30
0.0
 10
99.50228133363137
 20
-133.5212212122794
 30
0.0
 10
99.50228133363137
 20
-133.1743000969148
 30
0.0
 10
99.50228133363137
 20
-132.8545952358836
 30
0.0
 10
99.46404077374511
 20
-132.5459146804052
 30
0.0
 10
99.2060031218999
 20
-132.5459146804052
 30
0.0
  0
HATCH
  5
68
330
4D
100
AcDbEntity
  8
_U+30EC_U+30A4_U+30E4_U+30FC 1
 62
   179
420
  2234388
100
AcDbHatch
 10
0.0
 20
0.0
 30
0.0
210
0.0
220
0.0
230
1.0
  2
SOLID
 70
     1
 71
     0
 91
        2
 92
        1
 93
        1
 72
     4
 94
        3
 73
     0
 74
     1
 95
       29
 96
       25
 40
0.0
 40
0.0
 40
0.0
 40
0.0
 40
1.0
 40
1.0
 40
1.0
 40
2.0
 40
2.0
 40
2.0
 40
3.0
 40
3.0
 40
3.0
 40
4.0
 40
4.0
 40
4.0
 40
5.0
 40
5.0
 40
5.0
 40
6.0
 40
6.0
 40
6.0
 40
7.0
 40
7.0
 40
7.0
 40
8.0
 40
8.0
 40
8.0
 40
8.0
 10
99.60391165044625
 20
-133.7685790681204
 10
99.4957356522094
 20
-133.9780408736235
 10
99.32244734930134
 20
-133.9969888987924
 10
99.2060031218999
 20
-133.9969888987924
 10
99.04511716273872
 20
-133.9969888987924
 10
98.90352373829495
 20
-133.9504801097416
 10
98.80843910290206
 20
-133.7685790681204
 10
98.70474172879604
 20
-133.5739311732037
 10
98.68579370362717
 20
-133.3369086038186
 10
98.68579370362717
 20
-133.1743000969148
 10
98.68579370362717
 20
-133.0302951056313
 10
98.7026746715049
 20
-132.7784586256596
 10
98.80843910290206
 20
-132.5796766161606
 10
98.91627059159038
 20
-132.3767604920794
 10
99.07715655075155
 20
-132.3533338427797
 10
99.2060031218999
 20
-132.3533338427797
 10
99.3648220237699
 20
-132.3533338427797
 10
99.50848250550483
 20
-132.3977755745395
 10
99.60391165044625
 20
-132.5796766161606
 10
99.70313040042144
 20
-132.7722574537861
 10
99.72655704972114
 20
-133.0006672844582
 10
99.72655704972114
 20
-133.1743000969148
 10
99.72655704972114
 20
-133.3455213425317
 10
99.7051974577126
 20
-133.5759982304949
 10
99.60391165044625
 20
-133.7685790681204
 97
        0
 97
        0
 92
        1
 93
        1
 72
     4
 94
        3
 73
     0
 74
     1
 95
       17
 96
       13
 40
0.0
 40
0.0
 40
0.0
 40
0.0
 40
1.0
 40
1.0
 40
1.0
 40
2.0
 40
2.0
 40
2.0
 40
3.0
 40
3.0
 40
3.0
 40
4.0
 40
4.0
 40
4.0
 40
4.0
 10
99.2060031218999
 20
-132.5459146804052
 10
98.95657820876781
 20
-132.5459146804052
 10
98.9097249101684
 20
-132.8294460388413
 10
98.9097249101684
 20
-133.1743000969148
 10
98.9097249101684
 20
-133.4936604483974
 10
98.94589841276353
 20
-133.8023410038758
 10
99.2060031218999
 20
-133.8023410038758
 10
99.45370548728935
 20
-133.8023410038758
 10
99.50228133363137
 20
-133.5212212122794
 10
99.50228133363137
 20
-133.1743000969148
 10
99.50228133363137
 20
-132.8545952358836
 10
99.46404077374511
 20
-132.5459146804052
 10
99.2060031218999
 20
-132.5459146804052
 97
        0
 97
        0
 75
     2
 76
     1
 98
        0
  0
SPLINE
  5
69
330
4D
100
AcDbEntity
  8
_U+30EC_U+30A4_U+30E4_U+30FC 1
370
     0
100
AcDbSpline
210
0.0
220
0.0
230
1.0
 70
    11
 71
     3
 72
    29
 73
    25
 74
     0
 42
0.0000000001
 43
0.0000000001
 12
1.0
 22
0.0
 32
0.0
 13
1.0
 23
0.0
 33
0.0
 40
0.0
 40
0.0
 40
0.0
 40
0.0
 40
1.0
 40
1.0
 40
1.0
 40
2.0
 40
2.0
 40
2.0
 40
3.0
 40
3.0
 40
3.0
 40
4.0
 40
4.0
 40
4.0
 40
5.0
 40
5.0
 40
5.0
 40
6.0
 40
6.0
 40
6.0
 40
7.0
 40
7.0
 40
7.0
 40
8.0
 40
8.0
 40
8.0
 40
8.0
 10
100.7807562682076
 20
-133.7685790681204
 30
0.0
 10
100.6725802699708
 20
-133.9780408736235
 30
0.0
 10
100.4992919670627
 20
-133.9969888987924
 30
0.0
 10
100.3828477396612
 20
-133.9969888987924
 30
0.0
 10
100.2219617805001
 20
-133.9969888987924
 30
0.0
 10
100.0803683560563
 20
-133.9504801097416
 30
0.0
 10
99.9852837206634
 20
-133.7685790681204
 30
0.0
 10
99.88158634655738
 20
-133.5739311732037
 30
0.0
 10
99.86263832138852
 20
-133.3369086038186
 30
0.0
 10
99.86263832138852
 20
-133.1743000969148
 30
0.0
 10
99.86263832138852
 20
-133.0302951056313
 30
0.0
 10
99.87951928926624
 20
-132.7784586256596
 30
0.0
 10
99.9852837206634
 20
-132.5796766161606
 30
0.0
 10
100.0931152093517
 20
-132.3767604920794
 30
0.0
 10
100.2540011685129
 20
-132.3533338427797
 30
0.0
 10
100.3828477396612
 20
-132.3533338427797
 30
0.0
 10
100.5416666415313
 20
-132.3533338427797
 30
0.0
 10
100.6853271232662
 20
-132.3977755745395
 30
0.0
 10
100.7807562682076
 20
-132.5796766161606
 30
0.0
 10
100.8799750181828
 20
-132.7722574537861
 30
0.0
 10
100.9034016674825
 20
-133.0006672844582
 30
0.0
 10
100.9034016674825
 20
-133.1743000969148
 30
0.0
 10
100.9034016674825
 20
-133.3455213425317
 30
0.0
 10
100.8820420754739
 20
-133.5759982304949
 30
0.0
 10
100.7807562682076
 20
-133.7685790681204
 30
0.0
  0
SPLINE
  5
6A
330
4D
100
AcDbEntity
  8
_U+30EC_U+30A4_U+30E4_U+30FC 1
370
     0
100
AcDbSpline
210
0.0
220
0.0
230
1.0
 70
    11
 71
     3
 72
    17
 73
    13
 74
     0
 42
0.0000000001
 43
0.0000000001
 12
1.0
 22
0.0
 32
0.0
 13
1.0
 23
0.0
 33
0.0
 40
0.0
 40
0.0
 40
0.0
 40
0.0
 40
1.0
 40
1.0
 40
1.0
 40
2.0
 40
2.0
 40
2.0
 40
3.0
 40
3.0
 40
3.0
 40
4.0
 40
4.0
 40
4.0
 40
4.0
 10
100.3828477396612
 20
-132.5459146804052
 30
0.0
 10
100.1334228265292
 20
-132.5459146804052
 30
0.0
 10
100.0865695279298
 20
-132.8294460388413
 30
0.0
 10
100.0865695279298
 20
-133.1743000969148
 30
0.0
 10
100.0865695279298
 20
-133.4936604483974
 30
0.0
 10
100.1227430305249
 20
-133.8023410038758
 30
0.0
 10
100.3828477396612
 20
-133.8023410038758
 30
0.0
 10
100.6305501050507
 20
-133.8023410038758
 30
0.0
 10
100.6791259513927
 20
-133.5212212122794
 30
0.0
 10
100.6791259513927
 20
-133.1743000969148
 30
0.0
 10
100.6791259513927
 20
-132.8545952358836
 30
0.0
 10
100.6408853915064
 20
-132.5459146804052
 30
0.0
 10
100.3828477396612
 20
-132.5459146804052
 30
0.0
  0
HATCH
  5
6B
330
4D
100
AcDbEntity
  8
_U+30EC_U+30A4_U+30E4_U+30FC 1
 62
   179
420
  2234388
100
AcDbHatch
 10
0.0
 20
0.0
 30
0.0
210
0.0
220
0.0
230
1.0
  2
SOLID
 70
     1
 71
     0
 91
        2
 92
        1
 93
        1
 72
     4
 94
        3
 73
     0
 74
     1
 95
       29
 96
       25
 40
0.0
 40
0.0
 40
0.0
 40
0.0
 40
1.0
 40
1.0
 40
1.0
 40
2.0
 40
2.0
 40
2.0
 40
3.0
 40
3.0
 40
3.0
 40
4.0
 40
4.0
 40
4.0
 40
5.0
 40
5.0
 40
5.0
 40
6.0
 40
6.0
 40
6.0
 40
7.0
 40
7.0
 40
7.0
 40
8.0
 40
8.0
 40
8.0
 40
8.0
 10
100.7807562682076
 20
-133.7685790681204
 10
100.6725802699708
 20
-133.9780408736235
 10
100.4992919670627
 20
-133.9969888987924
 10
100.3828477396612
 20
-133.9969888987924
 10
100.2219617805001
 20
-133.9969888987924
 10
100.0803683560563
 20
-133.9504801097416
 10
99.9852837206634
 20
-133.7685790681204
 10
99.88158634655738
 20
-133.5739311732037
 10
99.86263832138852
 20
-133.3369086038186
 10
99.86263832138852
 20
-133.1743000969148
 10
99.86263832138852
 20
-133.0302951056313
 10
99.87951928926624
 20
-132.7784586256596
 10
99.9852837206634
 20
-132.5796766161606
 10
100.0931152093517
 20
-132.3767604920794
 10
100.2540011685129
 20
-132.3533338427797
 10
100.3828477396612
 20
-132.3533338427797
 10
100.5416666415313
 20
-132.3533338427797
 10
100.6853271232662
 20
-132.3977755745395
 10
100.7807562682076
 20
-132.5796766161606
 10
100.8799750181828
 20
-132.7722574537861
 10
100.9034016674825
 20
-133.0006672844582
 10
100.9034016674825
 20
-133.1743000969148
 10
100.9034016674825
 20
-133.3455213425317
 10
100.8820420754739
 20
-133.5759982304949
 10
100.7807562682076
 20
-133.7685790681204
 97
        0
 97
        0
 92
        1
 93
        1
 72
     4
 94
        3
 73
     0
 74
     1
 95
       17
 96
       13
 40
0.0
 40
0.0
 40
0.0
 40
0.0
 40
1.0
 40
1.0
 40
1.0
 40
2.0
 40
2.0
 40
2.0
 40
3.0
 40
3.0
 40
3.0
 40
4.0
 40
4.0
 40
4.0
 40
4.0
 10
100.3828477396612
 20
-132.5459146804052
 10
100.1334228265292
 20
-132.5459146804052
 10
100.0865695279298
 20
-132.8294460388413
 10
100.0865695279298
 20
-133.1743000969148
 10
100.0865695279298
 20
-133.4936604483974
 10
100.1227430305249
 20
-133.8023410038758
 10
100.3828477396612
 20
-133.8023410038758
 10
100.6305501050507
 20
-133.8023410038758
 10
100.6791259513927
 20
-133.5212212122794
 10
100.6791259513927
 20
-133.1743000969148
 10
100.6791259513927
 20
-132.8545952358836
 10
100.6408853915064
 20
-132.5459146804052
 10
100.3828477396612
 20
-132.5459146804052
 97
        0
 97
        0
 75
     2
 76
     1
 98
        0
  0
ENDBLK
  5
50
330
4D
100
AcDbEntity
  8
0
100
AcDbBlockEnd
  0
BLOCK
  5
6E
330
6C
100
AcDbEntity
  8
0
100
AcDbBlockBegin
  2
block 4
 70
     0
 10
0.0
 20
0.0
 30
0.0
  3
block 4
  1

  0
SPLINE
  5
70
330
6C
100
AcDbEntity
  8
_U+30EC_U+30A4_U+30E4_U+30FC 1
370
     0
100
AcDbSpline
210
0.0
220
0.0
230
1.0
 70
    11
 71
     3
 72
    44
 73
    40
 74
     0
 42
0.0000000001
 43
0.0000000001
 12
1.0
 22
0.0
 32
0.0
 13
1.0
 23
0.0
 33
0.0
 40
0.0
 40
0.0
 40
0.0
 40
0.0
 40
1.0
 40
1.0
 40
1.0
 40
2.0
 40
2.0
 40
2.0
 40
3.0
 40
3.0
 40
3.0
 40
4.0
 40
4.0
 40
4.0
 40
5.0
 40
5.0
 40
5.0
 40
6.0
 40
6.0
 40
6.0
 40
7.0
 40
7.0
 40
7.0
 40
8.0
 40
8.0
 40
8.0
 40
9.0
 40
9.0
 40
9.0
 40
10.0
 40
10.0
 40
10.0
 40
11.0
 40
11.0
 40
11.0
 40
12.0
 40
12.0
 40
12.0
 40
13.0
 40
13.0
 40
13.0
 40
13.0
 10
98.65134274877467
 20
-114.3144693724631
 30
0.0
 10
98.43361271410689
 20
-114.4732882743331
 30
0.0
 10
98.34059513600513
 20
-114.5473578272659
 30
0.0
 10
98.29167478011459
 20
-114.6910183090009
 30
0.0
 10
98.29167478011459
 20
-114.6910183090009
 30
0.0
 10
99.07026635978104
 20
-114.6910183090009
 30
0.0
 10
99.07026635978104
 20
-114.6910183090009
 30
0.0
 10
99.07026635978104
 20
-114.6910183090009
 30
0.0
 10
99.07026635978104
 20
-114.8963459999217
 30
0.0
 10
99.07026635978104
 20
-114.8963459999217
 30
0.0
 10
99.07026635978104
 20
-114.8963459999217
 30
0.0
 10
98.0422498669825
 20
-114.8963459999217
 30
0.0
 10
98.0422498669825
 20
-114.8963459999217
 30
0.0
 10
98.0739447454468
 20
-114.5387450885528
 30
0.0
 10
98.13940155966654
 20
-114.4605414210376
 30
0.0
 10
98.52456323491748
 20
-114.162196152015
 30
0.0
 10
98.78053382947154
 20
-113.9634141425161
 30
0.0
 10
98.84599064369128
 20
-113.8955457614567
 30
0.0
 10
98.84599064369128
 20
-113.7580864515952
 30
0.0
 10
98.84599064369128
 20
-113.6395751669026
 30
0.0
 10
98.77398814804957
 20
-113.5086615384631
 30
0.0
 10
98.5772731958418
 20
-113.5086615384631
 30
0.0
 10
98.31716848670544
 20
-113.5086615384631
 30
0.0
 10
98.30890025754084
 20
-113.7391384264263
 30
0.0
 10
98.30442163341002
 20
-113.8555826538278
 30
0.0
 10
98.30442163341002
 20
-113.8555826538278
 30
0.0
 10
98.08014591732025
 20
-113.8555826538278
 30
0.0
 10
98.08014591732025
 20
-113.8555826538278
 30
0.0
 10
98.08875865603338
 20
-113.7284586304221
 30
0.0
 10
98.09943845203765
 20
-113.6164930271514
 30
0.0
 10
98.17970917684397
 20
-113.4979817424588
 30
0.0
 10
98.28960772282343
 20
-113.3370957832977
 30
0.0
 10
98.47598738857545
 20
-113.3033338475422
 30
0.0
 10
98.59208710642837
 20
-113.3033338475422
 30
0.0
 10
98.86941729299099
 20
-113.3033338475422
 30
0.0
 10
99.07681204120303
 20
-113.4873019464546
 30
0.0
 10
99.07681204120303
 20
-113.7601535088864
 30
0.0
 10
99.07681204120303
 20
-113.988907849107
 30
0.0
 10
98.96036781380158
 20
-114.0881265990821
 30
0.0
 10
98.65134274877467
 20
-114.3144693724631
 30
0.0
  0
HATCH
  5
71
330
6C
100
AcDbEntity
  8
_U+30EC_U+30A4_U+30E4_U+30FC 1
 62
   179
420
  2234388
100
AcDbHatch
 10
0.0
 20
0.0
 30
0.0
210
0.0
220
0.0
230
1.0
  2
SOLID
 70
     1
 71
     0
 91
        1
 92
        1
 93
        1
 72
     4
 94
        3
 73
     0
 74
     1
 95
       44
 96
       40
 40
0.0
 40
0.0
 40
0.0
 40
0.0
 40
1.0
 40
1.0
 40
1.0
 40
2.0
 40
2.0
 40
2.0
 40
3.0
 40
3.0
 40
3.0
 40
4.0
 40
4.0
 40
4.0
 40
5.0
 40
5.0
 40
5.0
 40
6.0
 40
6.0
 40
6.0
 40
7.0
 40
7.0
 40
7.0
 40
8.0
 40
8.0
 40
8.0
 40
9.0
 40
9.0
 40
9.0
 40
10.0
 40
10.0
 40
10.0
 40
11.0
 40
11.0
 40
11.0
 40
12.0
 40
12.0
 40
12.0
 40
13.0
 40
13.0
 40
13.0
 40
13.0
 10
98.65134274877467
 20
-114.3144693724631
 10
98.43361271410689
 20
-114.4732882743331
 10
98.34059513600513
 20
-114.5473578272659
 10
98.29167478011459
 20
-114.6910183090009
 10
98.29167478011459
 20
-114.6910183090009
 10
99.07026635978104
 20
-114.6910183090009
 10
99.07026635978104
 20
-114.6910183090009
 10
99.07026635978104
 20
-114.6910183090009
 10
99.07026635978104
 20
-114.8963459999217
 10
99.07026635978104
 20
-114.8963459999217
 10
99.07026635978104
 20
-114.8963459999217
 10
98.0422498669825
 20
-114.8963459999217
 10
98.0422498669825
 20
-114.8963459999217
 10
98.0739447454468
 20
-114.5387450885528
 10
98.13940155966654
 20
-114.4605414210376
 10
98.52456323491748
 20
-114.162196152015
 10
98.78053382947154
 20
-113.9634141425161
 10
98.84599064369128
 20
-113.8955457614567
 10
98.84599064369128
 20
-113.7580864515952
 10
98.84599064369128
 20
-113.6395751669026
 10
98.77398814804957
 20
-113.5086615384631
 10
98.5772731958418
 20
-113.5086615384631
 10
98.31716848670544
 20
-113.5086615384631
 10
98.30890025754084
 20
-113.7391384264263
 10
98.30442163341002
 20
-113.8555826538278
 10
98.30442163341002
 20
-113.8555826538278
 10
98.08014591732025
 20
-113.8555826538278
 10
98.08014591732025
 20
-113.8555826538278
 10
98.08875865603338
 20
-113.7284586304221
 10
98.09943845203765
 20
-113.6164930271514
 10
98.17970917684397
 20
-113.4979817424588
 10
98.28960772282343
 20
-113.3370957832977
 10
98.47598738857545
 20
-113.3033338475422
 10
98.59208710642837
 20
-113.3033338475422
 10
98.86941729299099
 20
-113.3033338475422
 10
99.07681204120303
 20
-113.4873019464546
 10
99.07681204120303
 20
-113.7601535088864
 10
99.07681204120303
 20
-113.988907849107
 10
98.96036781380158
 20
-114.0881265990821
 10
98.65134274877467
 20
-114.3144693724631
 97
        0
 97
        0
 75
     2
 76
     1
 98
        0
  0
SPLINE
  5
72
330
6C
100
AcDbEntity
  8
_U+30EC_U+30A4_U+30E4_U+30FC 1
370
     0
100
AcDbSpline
210
0.0
220
0.0
230
1.0
 70
    11
 71
     3
 72
    29
 73
    25
 74
     0
 42
0.0000000001
 43
0.0000000001
 12
1.0
 22
0.0
 32
0.0
 13
1.0
 23
0.0
 33
0.0
 40
0.0
 40
0.0
 40
0.0
 40
0.0
 40
1.0
 40
1.0
 40
1.0
 40
2.0
 40
2.0
 40
2.0
 40
3.0
 40
3.0
 40
3.0
 40
4.0
 40
4.0
 40
4.0
 40
5.0
 40
5.0
 40
5.0
 40
6.0
 40
6.0
 40
6.0
 40
7.0
 40
7.0
 40
7.0
 40
8.0
 40
8.0
 40
8.0
 40
8.0
 10
100.1330783169806
 20
-114.7185790728829
 30
0.0
 10
100.0249023187438
 20
-114.9280408783861
 30
0.0
 10
99.85161401583571
 20
-114.9469889035549
 30
0.0
 10
99.73516978843426
 20
-114.9469889035549
 30
0.0
 10
99.5742838292731
 20
-114.9469889035549
 30
0.0
 10
99.43269040482933
 20
-114.900480114504
 30
0.0
 10
99.33760576943644
 20
-114.7185790728829
 30
0.0
 10
99.23390839533042
 20
-114.5239311779662
 30
0.0
 10
99.21496037016155
 20
-114.2869086085811
 30
0.0
 10
99.21496037016155
 20
-114.1243001016773
 30
0.0
 10
99.21496037016155
 20
-113.9802951103938
 30
0.0
 10
99.23184133803926
 20
-113.7284586304221
 30
0.0
 10
99.33760576943644
 20
-113.5296766209231
 30
0.0
 10
99.44543725812476
 20
-113.3267604968419
 30
0.0
 10
99.60632321728592
 20
-113.3033338475422
 30
0.0
 10
99.73516978843426
 20
-113.3033338475422
 30
0.0
 10
99.89398869030428
 20
-113.3033338475422
 30
0.0
 10
100.0376491720392
 20
-113.347775579302
 30
0.0
 10
100.1330783169806
 20
-113.5296766209231
 30
0.0
 10
100.2322970669558
 20
-113.7222574585486
 30
0.0
 10
100.2557237162555
 20
-113.9506672892207
 30
0.0
 10
100.2557237162555
 20
-114.1243001016773
 30
0.0
 10
100.2557237162555
 20
-114.2955213472942
 30
0.0
 10
100.234364124247
 20
-114.5259982352574
 30
0.0
 10
100.1330783169806
 20
-114.7185790728829
 30
0.0
  0
SPLINE
  5
73
330
6C
100
AcDbEntity
  8
_U+30EC_U+30A4_U+30E4_U+30FC 1
370
     0
100
AcDbSpline
210
0.0
220
0.0
230
1.0
 70
    11
 71
     3
 72
    17
 73
    13
 74
     0
 42
0.0000000001
 43
0.0000000001
 12
1.0
 22
0.0
 32
0.0
 13
1.0
 23
0.0
 33
0.0
 40
0.0
 40
0.0
 40
0.0
 40
0.0
 40
1.0
 40
1.0
 40
1.0
 40
2.0
 40
2.0
 40
2.0
 40
3.0
 40
3.0
 40
3.0
 40
4.0
 40
4.0
 40
4.0
 40
4.0
 10
99.73516978843426
 20
-113.4959146851677
 30
0.0
 10
99.48574487530217
 20
-113.4959146851677
 30
0.0
 10
99.43889157670279
 20
-113.7794460436038
 30
0.0
 10
99.43889157670279
 20
-114.1243001016773
 30
0.0
 10
99.43889157670279
 20
-114.4436604531599
 30
0.0
 10
99.4750650792979
 20
-114.7523410086383
 30
0.0
 10
99.73516978843426
 20
-114.7523410086383
 30
0.0
 10
99.98287215382373
 20
-114.7523410086383
 30
0.0
 10
100.0314480001658
 20
-114.4712212170419
 30
0.0
 10
100.0314480001658
 20
-114.1243001016773
 30
0.0
 10
100.0314480001658
 20
-113.8045952406461
 30
0.0
 10
99.99320744027948
 20
-113.4959146851677
 30
0.0
 10
99.73516978843426
 20
-113.4959146851677
 30
0.0
  0
HATCH
  5
74
330
6C
100
AcDbEntity
  8
_U+30EC_U+30A4_U+30E4_U+30FC 1
 62
   179
420
  2234388
100
AcDbHatch
 10
0.0
 20
0.0
 30
0.0
210
0.0
220
0.0
230
1.0
  2
SOLID
 70
     1
 71
     0
 91
        2
 92
        1
 93
        1
 72
     4
 94
        3
 73
     0
 74
     1
 95
       29
 96
       25
 40
0.0
 40
0.0
 40
0.0
 40
0.0
 40
1.0
 40
1.0
 40
1.0
 40
2.0
 40
2.0
 40
2.0
 40
3.0
 40
3.0
 40
3.0
 40
4.0
 40
4.0
 40
4.0
 40
5.0
 40
5.0
 40
5.0
 40
6.0
 40
6.0
 40
6.0
 40
7.0
 40
7.0
 40
7.0
 40
8.0
 40
8.0
 40
8.0
 40
8.0
 10
100.1330783169806
 20
-114.7185790728829
 10
100.0249023187438
 20
-114.9280408783861
 10
99.85161401583571
 20
-114.9469889035549
 10
99.73516978843426
 20
-114.9469889035549
 10
99.5742838292731
 20
-114.9469889035549
 10
99.43269040482933
 20
-114.900480114504
 10
99.33760576943644
 20
-114.7185790728829
 10
99.23390839533042
 20
-114.5239311779662
 10
99.21496037016155
 20
-114.2869086085811
 10
99.21496037016155
 20
-114.1243001016773
 10
99.21496037016155
 20
-113.9802951103938
 10
99.23184133803926
 20
-113.7284586304221
 10
99.33760576943644
 20
-113.5296766209231
 10
99.44543725812476
 20
-113.3267604968419
 10
99.60632321728592
 20
-113.3033338475422
 10
99.73516978843426
 20
-113.3033338475422
 10
99.89398869030428
 20
-113.3033338475422
 10
100.0376491720392
 20
-113.347775579302
 10
100.1330783169806
 20
-113.5296766209231
 10
100.2322970669558
 20
-113.7222574585486
 10
100.2557237162555
 20
-113.9506672892207
 10
100.2557237162555
 20
-114.1243001016773
 10
100.2557237162555
 20
-114.2955213472942
 10
100.234364124247
 20
-114.5259982352574
 10
100.1330783169806
 20
-114.7185790728829
 97
        0
 97
        0
 92
        1
 93
        1
 72
     4
 94
        3
 73
     0
 74
     1
 95
       17
 96
       13
 40
0.0
 40
0.0
 40
0.0
 40
0.0
 40
1.0
 40
1.0
 40
1.0
 40
2.0
 40
2.0
 40
2.0
 40
3.0
 40
3.0
 40
3.0
 40
4.0
 40
4.0
 40
4.0
 40
4.0
 10
99.73516978843426
 20
-113.4959146851677
 10
99.48574487530217
 20
-113.4959146851677
 10
99.43889157670279
 20
-113.7794460436038
 10
99.43889157670279
 20
-114.1243001016773
 10
99.43889157670279
 20
-114.4436604531599
 10
99.4750650792979
 20
-114.7523410086383
 10
99.73516978843426
 20
-114.7523410086383
 10
99.98287215382373
 20
-114.7523410086383
 10
100.0314480001658
 20
-114.4712212170419
 10
100.0314480001658
 20
-114.1243001016773
 10
100.0314480001658
 20
-113.8045952406461
 10
99.99320744027948
 20
-113.4959146851677
 10
99.73516978843426
 20
-113.4959146851677
 97
        0
 97
        0
 75
     2
 76
     1
 98
        0
  0
SPLINE
  5
75
330
6C
100
AcDbEntity
  8
_U+30EC_U+30A4_U+30E4_U+30FC 1
370
     0
100
AcDbSpline
210
0.0
220
0.0
230
1.0
 70
    11
 71
     3
 72
    29
 73
    25
 74
     0
 42
0.0000000001
 43
0.0000000001
 12
1.0
 22
0.0
 32
0.0
 13
1.0
 23
0.0
 33
0.0
 40
0.0
 40
0.0
 40
0.0
 40
0.0
 40
1.0
 40
1.0
 40
1.0
 40
2.0
 40
2.0
 40
2.0
 40
3.0
 40
3.0
 40
3.0
 40
4.0
 40
4.0
 40
4.0
 40
5.0
 40
5.0
 40
5.0
 40
6.0
 40
6.0
 40
6.0
 40
7.0
 40
7.0
 40
7.0
 40
8.0
 40
8.0
 40
8.0
 40
8.0
 10
101.309922934742
 20
-114.7185790728829
 30
0.0
 10
101.2017469365051
 20
-114.9280408783861
 30
0.0
 10
101.0284586335971
 20
-114.9469889035549
 30
0.0
 10
100.9120144061956
 20
-114.9469889035549
 30
0.0
 10
100.7511284470344
 20
-114.9469889035549
 30
0.0
 10
100.6095350225907
 20
-114.900480114504
 30
0.0
 10
100.5144503871978
 20
-114.7185790728829
 30
0.0
 10
100.4107530130918
 20
-114.5239311779662
 30
0.0
 10
100.3918049879229
 20
-114.2869086085811
 30
0.0
 10
100.3918049879229
 20
-114.1243001016773
 30
0.0
 10
100.3918049879229
 20
-113.9802951103938
 30
0.0
 10
100.4086859558006
 20
-113.7284586304221
 30
0.0
 10
100.5144503871978
 20
-113.5296766209231
 30
0.0
 10
100.6222818758861
 20
-113.3267604968419
 30
0.0
 10
100.7831678350473
 20
-113.3033338475422
 30
0.0
 10
100.9120144061956
 20
-113.3033338475422
 30
0.0
 10
101.0708333080656
 20
-113.3033338475422
 30
0.0
 10
101.2144937898005
 20
-113.347775579302
 30
0.0
 10
101.309922934742
 20
-113.5296766209231
 30
0.0
 10
101.4091416847172
 20
-113.7222574585486
 30
0.0
 10
101.4325683340169
 20
-113.9506672892207
 30
0.0
 10
101.4325683340169
 20
-114.1243001016773
 30
0.0
 10
101.4325683340169
 20
-114.2955213472942
 30
0.0
 10
101.4112087420083
 20
-114.5259982352574
 30
0.0
 10
101.309922934742
 20
-114.7185790728829
 30
0.0
  0
SPLINE
  5
76
330
6C
100
AcDbEntity
  8
_U+30EC_U+30A4_U+30E4_U+30FC 1
370
     0
100
AcDbSpline
210
0.0
220
0.0
230
1.0
 70
    11
 71
     3
 72
    17
 73
    13
 74
     0
 42
0.0000000001
 43
0.0000000001
 12
1.0
 22
0.0
 32
0.0
 13
1.0
 23
0.0
 33
0.0
 40
0.0
 40
0.0
 40
0.0
 40
0.0
 40
1.0
 40
1.0
 40
1.0
 40
2.0
 40
2.0
 40
2.0
 40
3.0
 40
3.0
 40
3.0
 40
4.0
 40
4.0
 40
4.0
 40
4.0
 10
100.9120144061956
 20
-113.4959146851677
 30
0.0
 10
100.6625894930635
 20
-113.4959146851677
 30
0.0
 10
100.6157361944641
 20
-113.7794460436038
 30
0.0
 10
100.6157361944641
 20
-114.1243001016773
 30
0.0
 10
100.6157361944641
 20
-114.4436604531599
 30
0.0
 10
100.6519096970593
 20
-114.7523410086383
 30
0.0
 10
100.9120144061956
 20
-114.7523410086383
 30
0.0
 10
101.1597167715851
 20
-114.7523410086383
 30
0.0
 10
101.2082926179271
 20
-114.4712212170419
 30
0.0
 10
101.2082926179271
 20
-114.1243001016773
 30
0.0
 10
101.2082926179271
 20
-113.8045952406461
 30
0.0
 10
101.1700520580408
 20
-113.4959146851677
 30
0.0
 10
100.9120144061956
 20
-113.4959146851677
 30
0.0
  0
HATCH
  5
77
330
6C
100
AcDbEntity
  8
_U+30EC_U+30A4_U+30E4_U+30FC 1
 62
   179
420
  2234388
100
AcDbHatch
 10
0.0
 20
0.0
 30
0.0
210
0.0
220
0.0
230
1.0
  2
SOLID
 70
     1
 71
     0
 91
        2
 92
        1
 93
        1
 72
     4
 94
        3
 73
     0
 74
     1
 95
       29
 96
       25
 40
0.0
 40
0.0
 40
0.0
 40
0.0
 40
1.0
 40
1.0
 40
1.0
 40
2.0
 40
2.0
 40
2.0
 40
3.0
 40
3.0
 40
3.0
 40
4.0
 40
4.0
 40
4.0
 40
5.0
 40
5.0
 40
5.0
 40
6.0
 40
6.0
 40
6.0
 40
7.0
 40
7.0
 40
7.0
 40
8.0
 40
8.0
 40
8.0
 40
8.0
 10
101.309922934742
 20
-114.7185790728829
 10
101.2017469365051
 20
-114.9280408783861
 10
101.0284586335971
 20
-114.9469889035549
 10
100.9120144061956
 20
-114.9469889035549
 10
100.7511284470344
 20
-114.9469889035549
 10
100.6095350225907
 20
-114.900480114504
 10
100.5144503871978
 20
-114.7185790728829
 10
100.4107530130918
 20
-114.5239311779662
 10
100.3918049879229
 20
-114.2869086085811
 10
100.3918049879229
 20
-114.1243001016773
 10
100.3918049879229
 20
-113.9802951103938
 10
100.4086859558006
 20
-113.7284586304221
 10
100.5144503871978
 20
-113.5296766209231
 10
100.6222818758861
 20
-113.3267604968419
 10
100.7831678350473
 20
-113.3033338475422
 10
100.9120144061956
 20
-113.3033338475422
 10
101.0708333080656
 20
-113.3033338475422
 10
101.2144937898005
 20
-113.347775579302
 10
101.309922934742
 20
-113.5296766209231
 10
101.4091416847172
 20
-113.7222574585486
 10
101.4325683340169
 20
-113.9506672892207
 10
101.4325683340169
 20
-114.1243001016773
 10
101.4325683340169
 20
-114.2955213472942
 10
101.4112087420083
 20
-114.5259982352574
 10
101.309922934742
 20
-114.7185790728829
 97
        0
 97
        0
 92
        1
 93
        1
 72
     4
 94
        3
 73
     0
 74
     1
 95
       17
 96
       13
 40
0.0
 40
0.0
 40
0.0
 40
0.0
 40
1.0
 40
1.0
 40
1.0
 40
2.0
 40
2.0
 40
2.0
 40
3.0
 40
3.0
 40
3.0
 40
4.0
 40
4.0
 40
4.0
 40
4.0
 10
100.9120144061956
 20
-113.4959146851677
 10
100.6625894930635
 20
-113.4959146851677
 10
100.6157361944641
 20
-113.7794460436038
 10
100.6157361944641
 20
-114.1243001016773
 10
100.6157361944641
 20
-114.4436604531599
 10
100.6519096970593
 20
-114.7523410086383
 10
100.9120144061956
 20
-114.7523410086383
 10
101.1597167715851
 20
-114.7523410086383
 10
101.2082926179271
 20
-114.4712212170419
 10
101.2082926179271
 20
-114.1243001016773
 10
101.2082926179271
 20
-113.8045952406461
 10
101.1700520580408
 20
-113.4959146851677
 10
100.9120144061956
 20
-113.4959146851677
 97
        0
 97
        0
 75
     2
 76
     1
 98
        0
  0
ENDBLK
  5
6F
330
6C
100
AcDbEntity
  8
0
100
AcDbBlockEnd
  0
BLOCK
  5
BE
330
BC
100
AcDbEntity
  8
0
100
AcDbBlockBegin
  2
block 5
 70
     0
 10
0.0
 20
0.0
 30
0.0
  3
block 5
  1

  0
INSERT
  5
C1
330
BC
100
AcDbEntity
  8
_U+30EC_U+30A4_U+30E4_U+30FC 1
100
AcDbBlockReference
  2
block 6
 10
0.0
 20
0.0
 30
0.0
  0
ENDBLK
  5
BF
330
BC
100
AcDbEntity
  8
0
100
AcDbBlockEnd
  0
BLOCK
  5
C2
330
C0
100
AcDbEntity
  8
0
100
AcDbBlockBegin
  2
block 6
 70
     0
 10
0.0
 20
0.0
 30
0.0
  3
block 6
  1

  0
SPLINE
  5
C4
330
C0
100
AcDbEntity
  8
_U+30EC_U+30A4_U+30E4_U+30FC 1
 62
   179
420
  2234388
370
    25
100
AcDbSpline
210
0.0
220
0.0
230
1.0
 70
    11
 71
     3
 72
    53
 73
    49
 74
     0
 42
0.0000000001
 43
0.0000000001
 12
1.0
 22
0.0
 32
0.0
 13
1.0
 23
0.0
 33
0.0
 40
0.0
 40
0.0
 40
0.0
 40
0.0
 40
1.0
 40
1.0
 40
1.0
 40
2.0
 40
2.0
 40
2.0
 40
3.0
 40
3.0
 40
3.0
 40
4.0
 40
4.0
 40
4.0
 40
5.0
 40
5.0
 40
5.0
 40
6.0
 40
6.0
 40
6.0
 40
7.0
 40
7.0
 40
7.0
 40
8.0
 40
8.0
 40
8.0
 40
9.0
 40
9.0
 40
9.0
 40
10.0
 40
10.0
 40
10.0
 40
11.0
 40
11.0
 40
11.0
 40
12.0
 40
12.0
 40
12.0
 40
13.0
 40
13.0
 40
13.0
 40
14.0
 40
14.0
 40
14.0
 40
15.0
 40
15.0
 40
15.0
 40
16.0
 40
16.0
 40
16.0
 40
16.0
 10
58.22039684800727
 20
-141.2330663535806
 30
0.0
 10
58.21489351481434
 20
-141.0938955202819
 30
0.0
 10
58.05501463000429
 20
-140.8344627425691
 30
0.0
 10
57.85830574613387
 20
-140.6491132981709
 30
0.0
 10
57.85830574613387
 20
-140.6491132981709
 30
0.0
 10
57.23921603970594
 20
-140.0662185760945
 30
0.0
 10
57.23921603970594
 20
-140.0662185760945
 30
0.0
 10
57.07609159942314
 20
-139.9125485761333
 30
0.0
 10
56.9422477139489
 20
-139.8553632983693
 30
0.0
 10
56.89645715956156
 20
-139.9046463539125
 30
0.0
 10
56.89645715956156
 20
-139.9046463539125
 30
0.0
 10
56.87423216012856
 20
-139.8839735761404
 30
0.0
 10
56.87423216012856
 20
-139.8839735761404
 30
0.0
 10
56.87423216012856
 20
-139.8839735761404
 30
0.0
 10
56.87627827118747
 20
-139.9473677427908
 30
0.0
 10
56.87627827118747
 20
-139.9473677427908
 30
0.0
 10
56.87627827118747
 20
-139.9483907983465
 30
0.0
 10
56.87525521565802
 20
-139.9483907983465
 30
0.0
 10
56.87525521565802
 20
-139.9494138539017
 30
0.0
 10
56.87525521565802
 20
-139.9507896872345
 30
0.0
 10
56.87645466007186
 20
-139.9532238539007
 30
0.0
 10
56.87645466007186
 20
-139.9545996872336
 30
0.0
 10
56.87645466007186
 20
-139.9545996872336
 30
0.0
 10
57.05026826674862
 20
-145.3740777414345
 30
0.0
 10
57.05026826674862
 20
-145.3740777414345
 30
0.0
 10
57.05026826674862
 20
-145.3740777414345
 30
0.0
 10
57.27421159436869
 20
-145.5284180191737
 30
0.0
 10
57.27421159436869
 20
-145.5284180191737
 30
0.0
 10
57.27421159436869
 20
-145.5284180191737
 30
0.0
 10
57.27421159436869
 20
-140.5650463537478
 30
0.0
 10
57.27421159436869
 20
-140.5650463537478
 30
0.0
 10
57.27421159436869
 20
-140.5650463537478
 30
0.0
 10
57.86469102374875
 20
-141.1421202424924
 30
0.0
 10
57.86469102374875
 20
-141.1421202424924
 30
0.0
 10
57.88416435658527
 20
-141.1610644091545
 30
0.0
 10
57.90102713393284
 20
-141.1717535758179
 30
0.0
 10
57.91961852234743
 20
-141.1879460758143
 30
0.0
 10
57.91961852234743
 20
-141.1879460758143
 30
0.0
 10
57.99835852033861
 20
-143.4117513530362
 30
0.0
 10
57.99835852033861
 20
-143.4117513530362
 30
0.0
 10
57.99835852033861
 20
-143.4117513530362
 30
0.0
 10
58.22230184795867
 20
-143.5660916307754
 30
0.0
 10
58.22230184795867
 20
-143.5660916307754
 30
0.0
 10
58.22230184795867
 20
-143.5660916307754
 30
0.0
 10
58.22230184795867
 20
-141.235147742469
 30
0.0
 10
58.22230184795867
 20
-141.235147742469
 30
0.0
 10
58.22230184795867
 20
-141.235147742469
 30
0.0
 10
58.22039684800727
 20
-141.2330663535806
 30
0.0
 10
58.22039684800727
 20
-141.2330663535806
 30
0.0
  0
ENDBLK
  5
C3
330
C0
100
AcDbEntity
  8
0
100
AcDbBlockEnd
  0
ENDSEC
  0
SECTION
  2
ENTITIES
  0
INSERT
  5
42
330
1F
100
AcDbEntity
  8
_U+30EC_U+30A4_U+30E4_U+30FC 1
100
AcDbBlockReference
  2
block 2
 10
0.0
 20
0.0
 30
0.0
  0
INSERT
  5
4E
330
1F
100
AcDbEntity
  8
_U+30EC_U+30A4_U+30E4_U+30FC 1
100
AcDbBlockReference
  2
block 3
 10
0.0
 20
0.0
 30
0.0
  0
INSERT
  5
6D
330
1F
100
AcDbEntity
  8
_U+30EC_U+30A4_U+30E4_U+30FC 1
100
AcDbBlockReference
  2
block 4
 10
0.0
 20
0.0
 30
0.0
  0
POLYLINE
  5
78
330
1F
100
AcDbEntity
  8
_U+30EC_U+30A4_U+30E4_U+30FC 1
 62
   179
420
  2234388
370
     9
100
AcDb2dPolyline
 66
     1
 10
0.0
 20
0.0
 30
0.0
  0
VERTEX
  5
79
330
78
100
AcDbEntity
  8
_U+30EC_U+30A4_U+30E4_U+30FC 1
 62
   179
420
  2234388
370
     9
100
AcDbVertex
100
AcDb2dVertex
 10
52.62950554239807
 20
-136.4223416325613
 30
0.0
  0
VERTEX
  5
7A
330
78
100
AcDbEntity
  8
_U+30EC_U+30A4_U+30E4_U+30FC 1
 62
   179
420
  2234388
370
     9
100
AcDbVertex
100
AcDb2dVertex
 10
115.5712317737545
 20
-109.0083333060813
 30
0.0
  0
SEQEND
  5
7B
330
78
100
AcDbEntity
  8
_U+30EC_U+30A4_U+30E4_U+30FC 1
 62
   179
420
  2234388
370
     9
  0
POLYLINE
  5
7C
330
1F
100
AcDbEntity
  8
_U+30EC_U+30A4_U+30E4_U+30FC 1
 62
   179
420
  2234388
370
     9
100
AcDb2dPolyline
 66
     1
 10
0.0
 20
0.0
 30
0.0
  0
VERTEX
  5
7D
330
7C
100
AcDbEntity
  8
_U+30EC_U+30A4_U+30E4_U+30FC 1
 62
   179
420
  2234388
370
     9
100
AcDbVertex
100
AcDb2dVertex
 10
51.99147034025376
 20
-135.8821330215851
 30
0.0
  0
VERTEX
  5
7E
330
7C
100
AcDbEntity
  8
_U+30EC_U+30A4_U+30E4_U+30FC 1
 62
   179
420
  2234388
370
     9
100
AcDbVertex
100
AcDb2dVertex
 10
55.81554607602678
 20
-139.0908938541162
 30
0.0
  0
SEQEND
  5
7F
330
7C
100
AcDbEntity
  8
_U+30EC_U+30A4_U+30E4_U+30FC 1
 62
   179
420
  2234388
370
     9
  0
SPLINE
  5
80
330
1F
100
AcDbEntity
  8
_U+30EC_U+30A4_U+30E4_U+30FC 1
 62
   179
420
  2234388
370
     9
100
AcDbSpline
210
0.0
220
0.0
230
1.0
 70
    11
 71
     3
 72
    17
 73
    13
 74
     0
 42
0.0000000001
 43
0.0000000001
 12
1.0
 22
0.0
 32
0.0
 13
1.0
 23
0.0
 33
0.0
 40
0.0
 40
0.0
 40
0.0
 40
0.0
 40
1.0
 40
1.0
 40
1.0
 40
2.0
 40
2.0
 40
2.0
 40
3.0
 40
3.0
 40
3.0
 40
4.0
 40
4.0
 40
4.0
 40
4.0
 10
52.73561976571337
 20
-136.4219888547836
 30
0.0
 10
52.73561976571337
 20
-136.366884965908
 30
0.0
 10
52.69085226685548
 20
-136.3227877436968
 30
0.0
 10
52.63518393494236
 20
-136.3227877436968
 30
0.0
 10
52.58025643634368
 20
-136.3227877436968
 30
0.0
 10
52.53545365970891
 20
-136.366884965908
 30
0.0
 10
52.53545365970891
 20
-136.4219888547836
 30
0.0
 10
52.53545365970891
 20
-136.4785038547695
 30
0.0
 10
52.58025643634368
 20
-136.5226010769807
 30
0.0
 10
52.63518393494236
 20
-136.5226010769807
 30
0.0
 10
52.69085226685548
 20
-136.5226010769807
 30
0.0
 10
52.73561976571337
 20
-136.4785038547695
 30
0.0
 10
52.73561976571337
 20
-136.4219888547836
 30
0.0
  0
HATCH
  5
81
330
1F
100
AcDbEntity
  8
_U+30EC_U+30A4_U+30E4_U+30FC 1
 62
   179
420
  2234388
100
AcDbHatch
 10
0.0
 20
0.0
 30
0.0
210
0.0
220
0.0
230
1.0
  2
SOLID
 70
     1
 71
     0
 91
        1
 92
        1
 93
        1
 72
     4
 94
        3
 73
     0
 74
     1
 95
       17
 96
       13
 40
0.0
 40
0.0
 40
0.0
 40
0.0
 40
1.0
 40
1.0
 40
1.0
 40
2.0
 40
2.0
 40
2.0
 40
3.0
 40
3.0
 40
3.0
 40
4.0
 40
4.0
 40
4.0
 40
4.0
 10
52.73561976571337
 20
-136.4219888547836
 10
52.73561976571337
 20
-136.366884965908
 10
52.69085226685548
 20
-136.3227877436968
 10
52.63518393494236
 20
-136.3227877436968
 10
52.58025643634368
 20
-136.3227877436968
 10
52.53545365970891
 20
-136.366884965908
 10
52.53545365970891
 20
-136.4219888547836
 10
52.53545365970891
 20
-136.4785038547695
 10
52.58025643634368
 20
-136.5226010769807
 10
52.63518393494236
 20
-136.5226010769807
 10
52.69085226685548
 20
-136.5226010769807
 10
52.73561976571337
 20
-136.4785038547695
 10
52.73561976571337
 20
-136.4219888547836
 97
        0
 97
        0
 75
     2
 76
     1
 98
        0
  0
POLYLINE
  5
82
330
1F
100
AcDbEntity
  8
_U+30EC_U+30A4_U+30E4_U+30FC 1
 62
   179
420
  2234388
370
    25
100
AcDb2dPolyline
 66
     1
 10
0.0
 20
0.0
 30
0.0
  0
VERTEX
  5
83
330
82
100
AcDbEntity
  8
_U+30EC_U+30A4_U+30E4_U+30FC 1
 62
   179
420
  2234388
370
    25
100
AcDbVertex
100
AcDb2dVertex
 10
92.62208541479151
 20
-127.4502855236929
 30
0.0
  0
VERTEX
  5
84
330
82
100
AcDbEntity
  8
_U+30EC_U+30A4_U+30E4_U+30FC 1
 62
   179
420
  2234388
370
    25
100
AcDbVertex
100
AcDb2dVertex
 10
92.62208541479151
 20
-128.7494249678126
 30
0.0
  0
VERTEX
  5
85
330
82
100
AcDbEntity
  8
_U+30EC_U+30A4_U+30E4_U+30FC 1
 62
   179
420
  2234388
370
    25
100
AcDbVertex
100
AcDb2dVertex
 10
119.3746347322771
 20
-116.0411346932118
 30
0.0
  0
VERTEX
  5
86
330
82
100
AcDbEntity
  8
_U+30EC_U+30A4_U+30E4_U+30FC 1
 62
   179
420
  2234388
370
    25
100
AcDbVertex
100
AcDb2dVertex
 10
119.3746347322771
 20
-114.6514019157817
 30
0.0
  0
SEQEND
  5
87
330
82
100
AcDbEntity
  8
_U+30EC_U+30A4_U+30E4_U+30FC 1
 62
   179
420
  2234388
370
    25
  0
POLYLINE
  5
88
330
1F
100
AcDbEntity
  8
_U+30EC_U+30A4_U+30E4_U+30FC 1
 62
   179
420
  2234388
370
    25
100
AcDb2dPolyline
 66
     1
 10
0.0
 20
0.0
 30
0.0
  0
VERTEX
  5
89
330
88
100
AcDbEntity
  8
_U+30EC_U+30A4_U+30E4_U+30FC 1
 62
   179
420
  2234388
370
    25
100
AcDbVertex
100
AcDb2dVertex
 10
57.27421159436869
 20
-145.5284180191737
 30
0.0
  0
VERTEX
  5
8A
330
88
100
AcDbEntity
  8
_U+30EC_U+30A4_U+30E4_U+30FC 1
 62
   179
420
  2234388
370
    25
100
AcDbVertex
100
AcDb2dVertex
 10
89.91751465045753
 20
-130.0282444119377
 30
0.0
  0
VERTEX
  5
8B
330
88
100
AcDbEntity
  8
_U+30EC_U+30A4_U+30E4_U+30FC 1
 62
   179
420
  2234388
370
    25
100
AcDbVertex
100
AcDb2dVertex
 10
89.91751465045753
 20
-128.7291049678176
 30
0.0
  0
SEQEND
  5
8C
330
88
100
AcDbEntity
  8
_U+30EC_U+30A4_U+30E4_U+30FC 1
 62
   179
420
  2234388
370
    25
  0
POLYLINE
  5
8D
330
1F
100
AcDbEntity
  8
_U+30EC_U+30A4_U+30E4_U+30FC 1
 62
   179
420
  2234388
370
     9
100
AcDb2dPolyline
 66
     1
 10
0.0
 20
0.0
 30
0.0
  0
VERTEX
  5
8E
330
8D
100
AcDbEntity
  8
_U+30EC_U+30A4_U+30E4_U+30FC 1
 62
   179
420
  2234388
370
     9
100
AcDbVertex
100
AcDb2dVertex
 10
66.22249025496797
 20
-147.5568902408888
 30
0.0
  0
VERTEX
  5
8F
330
8D
100
AcDbEntity
  8
_U+30EC_U+30A4_U+30E4_U+30FC 1
 62
   179
420
  2234388
370
     9
100
AcDbVertex
100
AcDb2dVertex
 10
128.5323928319766
 20
-116.6013105264052
 30
0.0
  0
SEQEND
  5
90
330
8D
100
AcDbEntity
  8
_U+30EC_U+30A4_U+30E4_U+30FC 1
 62
   179
420
  2234388
370
     9
  0
POLYLINE
  5
91
330
1F
100
AcDbEntity
  8
_U+30EC_U+30A4_U+30E4_U+30FC 1
 62
   179
420
  2234388
370
    25
100
AcDb2dPolyline
 66
     1
 10
0.0
 20
0.0
 30
0.0
  0
VERTEX
  5
92
330
91
100
AcDbEntity
  8
_U+30EC_U+30A4_U+30E4_U+30FC 1
 62
   179
420
  2234388
370
    25
100
AcDbVertex
100
AcDb2dVertex
 10
58.22230184795867
 20
-143.5660916307754
 30
0.0
  0
VERTEX
  5
93
330
91
100
AcDbEntity
  8
_U+30EC_U+30A4_U+30E4_U+30FC 1
 62
   179
420
  2234388
370
    25
100
AcDbVertex
100
AcDb2dVertex
 10
92.54906041665454
 20
-127.4926541347935
 30
0.0
  0
VERTEX
  5
94
330
91
100
AcDbEntity
  8
_U+30EC_U+30A4_U+30E4_U+30FC 1
 62
   179
420
  2234388
370
    25
100
AcDbVertex
100
AcDb2dVertex
 10
120.3681980402625
 20
-114.1335946936888
 30
0.0
  0
VERTEX
  5
95
330
91
100
AcDbEntity
  8
_U+30EC_U+30A4_U+30E4_U+30FC 1
 62
   179
420
  2234388
370
    25
100
AcDbVertex
100
AcDb2dVertex
 10
120.3681980402625
 20
-111.7785208053887
 30
0.0
  0
VERTEX
  5
96
330
91
100
AcDbEntity
  8
_U+30EC_U+30A4_U+30E4_U+30FC 1
 62
   179
420
  2234388
370
    25
100
AcDbVertex
100
AcDb2dVertex
 10
119.1665311264752
 20
-111.0845363611177
 30
0.0
  0
VERTEX
  5
97
330
91
100
AcDbEntity
  8
_U+30EC_U+30A4_U+30E4_U+30FC 1
 62
   179
420
  2234388
370
    25
100
AcDbVertex
100
AcDb2dVertex
 10
92.42431819761475
 20
-123.3512899691621
 30
0.0
  0
VERTEX
  5
98
330
91
100
AcDbEntity
  8
_U+30EC_U+30A4_U+30E4_U+30FC 1
 62
   179
420
  2234388
370
    25
100
AcDbVertex
100
AcDb2dVertex
 10
92.42431819761475
 20
-124.9791124687552
 30
0.0
  0
VERTEX
  5
99
330
91
100
AcDbEntity
  8
_U+30EC_U+30A4_U+30E4_U+30FC 1
 62
   179
420
  2234388
370
    25
100
AcDbVertex
100
AcDb2dVertex
 10
89.41865160762903
 20
-124.7386238577041
 30
0.0
  0
VERTEX
  5
9A
330
91
100
AcDbEntity
  8
_U+30EC_U+30A4_U+30E4_U+30FC 1
 62
   179
420
  2234388
370
    25
100
AcDbVertex
100
AcDb2dVertex
 10
56.917976603457
 20
-139.8254124650435
 30
0.0
  0
SEQEND
  5
9B
330
91
100
AcDbEntity
  8
_U+30EC_U+30A4_U+30E4_U+30FC 1
 62
   179
420
  2234388
370
    25
  0
POLYLINE
  5
9C
330
1F
100
AcDbEntity
  8
_U+30EC_U+30A4_U+30E4_U+30FC 1
 62
   179
420
  2234388
370
     9
100
AcDb2dPolyline
 66
     1
 10
0.0
 20
0.0
 30
0.0
  0
VERTEX
  5
9D
330
9C
100
AcDbEntity
  8
_U+30EC_U+30A4_U+30E4_U+30FC 1
 62
   179
420
  2234388
370
     9
100
AcDbVertex
100
AcDb2dVertex
 10
59.13557293577029
 20
-141.6147719090408
 30
0.0
  0
VERTEX
  5
9E
330
9C
100
AcDbEntity
  8
_U+30EC_U+30A4_U+30E4_U+30FC 1
 62
   179
420
  2234388
370
     9
100
AcDbVertex
100
AcDb2dVertex
 10
67.96052220523218
 20
-149.0196832960783
 30
0.0
  0
SEQEND
  5
9F
330
9C
100
AcDbEntity
  8
_U+30EC_U+30A4_U+30E4_U+30FC 1
 62
   179
420
  2234388
370
     9
  0
POLYLINE
  5
A0
330
1F
100
AcDbEntity
  8
_U+30EC_U+30A4_U+30E4_U+30FC 1
 62
   179
420
  2234388
370
     9
100
AcDb2dPolyline
 66
     1
 10
0.0
 20
0.0
 30
0.0
  0
VERTEX
  5
A1
330
A0
100
AcDbEntity
  8
_U+30EC_U+30A4_U+30E4_U+30FC 1
 62
   179
420
  2234388
370
     9
100
AcDbVertex
100
AcDb2dVertex
 10
121.4010255139129
 20
-112.4234691385608
 30
0.0
  0
VERTEX
  5
A2
330
A0
100
AcDbEntity
  8
_U+30EC_U+30A4_U+30E4_U+30FC 1
 62
   179
420
  2234388
370
     9
100
AcDbVertex
100
AcDb2dVertex
 10
130.1639900125733
 20
-117.5711319150517
 30
0.0
  0
SEQEND
  5
A3
330
A0
100
AcDbEntity
  8
_U+30EC_U+30A4_U+30E4_U+30FC 1
 62
   179
420
  2234388
370
     9
  0
POLYLINE
  5
A4
330
1F
100
AcDbEntity
  8
_U+30EC_U+30A4_U+30E4_U+30FC 1
 62
   179
420
  2234388
370
     9
100
AcDb2dPolyline
 66
     1
 10
0.0
 20
0.0
 30
0.0
  0
VERTEX
  5
A5
330
A4
100
AcDbEntity
  8
_U+30EC_U+30A4_U+30E4_U+30FC 1
 62
   179
420
  2234388
370
     9
100
AcDbVertex
100
AcDb2dVertex
 10
114.1056870889214
 20
-108.1453330285194
 30
0.0
  0
VERTEX
  5
A6
330
A4
100
AcDbEntity
  8
_U+30EC_U+30A4_U+30E4_U+30FC 1
 62
   179
420
  2234388
370
     9
100
AcDbVertex
100
AcDb2dVertex
 10
118.2763317047416
 20
-110.5705038612464
 30
0.0
  0
SEQEND
  5
A7
330
A4
100
AcDbEntity
  8
_U+30EC_U+30A4_U+30E4_U+30FC 1
 62
   179
420
  2234388
370
     9
  0
POLYLINE
  5
A8
330
1F
100
AcDbEntity
  8
_U+30EC_U+30A4_U+30E4_U+30FC 1
 62
   179
420
  2234388
370
     9
100
AcDb2dPolyline
 66
     1
 10
0.0
 20
0.0
 30
0.0
  0
VERTEX
  5
A9
330
A8
100
AcDbEntity
  8
_U+30EC_U+30A4_U+30E4_U+30FC 1
 62
   179
420
  2234388
370
     9
100
AcDbVertex
100
AcDb2dVertex
 10
86.15478696867494
 20
-120.481195803213
 30
0.0
  0
VERTEX
  5
AA
330
A8
100
AcDbEntity
  8
_U+30EC_U+30A4_U+30E4_U+30FC 1
 62
   179
420
  2234388
370
     9
100
AcDbVertex
100
AcDb2dVertex
 10
90.56450907839577
 20
-123.7443902468416
 30
0.0
  0
SEQEND
  5
AB
330
A8
100
AcDbEntity
  8
_U+30EC_U+30A4_U+30E4_U+30FC 1
 62
   179
420
  2234388
370
     9
  0
SPLINE
  5
AC
330
1F
100
AcDbEntity
  8
_U+30EC_U+30A4_U+30E4_U+30FC 1
 62
   179
420
  2234388
370
     9
100
AcDbSpline
210
0.0
220
0.0
230
1.0
 70
    11
 71
     3
 72
    17
 73
    13
 74
     0
 42
0.0000000001
 43
0.0000000001
 12
1.0
 22
0.0
 32
0.0
 13
1.0
 23
0.0
 33
0.0
 40
0.0
 40
0.0
 40
0.0
 40
0.0
 40
1.0
 40
1.0
 40
1.0
 40
2.0
 40
2.0
 40
2.0
 40
3.0
 40
3.0
 40
3.0
 40
4.0
 40
4.0
 40
4.0
 40
4.0
 10
66.32860580781629
 20
-147.5565374631111
 30
0.0
 10
66.32860580781629
 20
-147.5014335742355
 30
0.0
 10
66.28380303118152
 20
-147.4573363520243
 30
0.0
 10
66.22816997704528
 20
-147.4573363520243
 30
0.0
 10
66.17320720066972
 20
-147.4573363520243
 30
0.0
 10
66.12843970181184
 20
-147.5014335742355
 30
0.0
 10
66.12843970181184
 20
-147.5565374631111
 30
0.0
 10
66.12843970181184
 20
-147.613052463097
 30
0.0
 10
66.17320720066972
 20
-147.6571496853082
 30
0.0
 10
66.22816997704528
 20
-147.6571496853082
 30
0.0
 10
66.28380303118152
 20
-147.6571496853082
 30
0.0
 10
66.32860580781629
 20
-147.613052463097
 30
0.0
 10
66.32860580781629
 20
-147.5565374631111
 30
0.0
  0
HATCH
  5
AD
330
1F
100
AcDbEntity
  8
_U+30EC_U+30A4_U+30E4_U+30FC 1
 62
   179
420
  2234388
100
AcDbHatch
 10
0.0
 20
0.0
 30
0.0
210
0.0
220
0.0
230
1.0
  2
SOLID
 70
     1
 71
     0
 91
        1
 92
        1
 93
        1
 72
     4
 94
        3
 73
     0
 74
     1
 95
       17
 96
       13
 40
0.0
 40
0.0
 40
0.0
 40
0.0
 40
1.0
 40
1.0
 40
1.0
 40
2.0
 40
2.0
 40
2.0
 40
3.0
 40
3.0
 40
3.0
 40
4.0
 40
4.0
 40
4.0
 40
4.0
 10
66.32860580781629
 20
-147.5565374631111
 10
66.32860580781629
 20
-147.5014335742355
 10
66.28380303118152
 20
-147.4573363520243
 10
66.22816997704528
 20
-147.4573363520243
 10
66.17320720066972
 20
-147.4573363520243
 10
66.12843970181184
 20
-147.5014335742355
 10
66.12843970181184
 20
-147.5565374631111
 10
66.12843970181184
 20
-147.613052463097
 10
66.17320720066972
 20
-147.6571496853082
 10
66.22816997704528
 20
-147.6571496853082
 10
66.28380303118152
 20
-147.6571496853082
 10
66.32860580781629
 20
-147.613052463097
 10
66.32860580781629
 20
-147.5565374631111
 97
        0
 97
        0
 75
     2
 76
     1
 98
        0
  0
SPLINE
  5
AE
330
1F
100
AcDbEntity
  8
_U+30EC_U+30A4_U+30E4_U+30FC 1
 62
   179
420
  2234388
370
     9
100
AcDbSpline
210
0.0
220
0.0
230
1.0
 70
    11
 71
     3
 72
    17
 73
    13
 74
     0
 42
0.0000000001
 43
0.0000000001
 12
1.0
 22
0.0
 32
0.0
 13
1.0
 23
0.0
 33
0.0
 40
0.0
 40
0.0
 40
0.0
 40
0.0
 40
1.0
 40
1.0
 40
1.0
 40
2.0
 40
2.0
 40
2.0
 40
3.0
 40
3.0
 40
3.0
 40
4.0
 40
4.0
 40
4.0
 40
4.0
 10
87.39226082599323
 20
-121.318690247448
 30
0.0
 10
87.39226082599323
 20
-121.2635863585731
 30
0.0
 10
87.34745804935847
 20
-121.2194891363619
 30
0.0
 10
87.2923541618754
 20
-121.2194891363619
 30
0.0
 10
87.23721499661545
 20
-121.2194891363619
 30
0.0
 10
87.19244749775757
 20
-121.2635863585731
 30
0.0
 10
87.19244749775757
 20
-121.318690247448
 30
0.0
 10
87.19244749775757
 20
-121.3752052474339
 30
0.0
 10
87.23721499661545
 20
-121.4193024696451
 30
0.0
 10
87.2923541618754
 20
-121.4193024696451
 30
0.0
 10
87.34745804935847
 20
-121.4193024696451
 30
0.0
 10
87.39226082599323
 20
-121.3752052474339
 30
0.0
 10
87.39226082599323
 20
-121.318690247448
 30
0.0
  0
HATCH
  5
AF
330
1F
100
AcDbEntity
  8
_U+30EC_U+30A4_U+30E4_U+30FC 1
 62
   179
420
  2234388
100
AcDbHatch
 10
0.0
 20
0.0
 30
0.0
210
0.0
220
0.0
230
1.0
  2
SOLID
 70
     1
 71
     0
 91
        1
 92
        1
 93
        1
 72
     4
 94
        3
 73
     0
 74
     1
 95
       17
 96
       13
 40
0.0
 40
0.0
 40
0.0
 40
0.0
 40
1.0
 40
1.0
 40
1.0
 40
2.0
 40
2.0
 40
2.0
 40
3.0
 40
3.0
 40
3.0
 40
4.0
 40
4.0
 40
4.0
 40
4.0
 10
87.39226082599323
 20
-121.318690247448
 10
87.39226082599323
 20
-121.2635863585731
 10
87.34745804935847
 20
-121.2194891363619
 10
87.2923541618754
 20
-121.2194891363619
 10
87.23721499661545
 20
-121.2194891363619
 10
87.19244749775757
 20
-121.2635863585731
 10
87.19244749775757
 20
-121.318690247448
 10
87.19244749775757
 20
-121.3752052474339
 10
87.23721499661545
 20
-121.4193024696451
 10
87.2923541618754
 20
-121.4193024696451
 10
87.34745804935847
 20
-121.4193024696451
 10
87.39226082599323
 20
-121.3752052474339
 10
87.39226082599323
 20
-121.318690247448
 97
        0
 97
        0
 75
     2
 76
     1
 98
        0
  0
SPLINE
  5
B0
330
1F
100
AcDbEntity
  8
_U+30EC_U+30A4_U+30E4_U+30FC 1
 62
   179
420
  2234388
370
     9
100
AcDbSpline
210
0.0
220
0.0
230
1.0
 70
    11
 71
     3
 72
    17
 73
    13
 74
     0
 42
0.0000000001
 43
0.0000000001
 12
1.0
 22
0.0
 32
0.0
 13
1.0
 23
0.0
 33
0.0
 40
0.0
 40
0.0
 40
0.0
 40
0.0
 40
1.0
 40
1.0
 40
1.0
 40
2.0
 40
2.0
 40
2.0
 40
3.0
 40
3.0
 40
3.0
 40
4.0
 40
4.0
 40
4.0
 40
4.0
 10
115.6821833044127
 20
-109.0110849727473
 30
0.0
 10
115.6821833044127
 20
-108.9559810838721
 30
0.0
 10
115.637380526646
 20
-108.9111783061054
 30
0.0
 10
115.5822737179172
 20
-108.9111783061054
 30
0.0
 10
115.5271345526573
 20
-108.9111783061054
 30
0.0
 10
115.4823670537994
 20
-108.9559810838721
 30
0.0
 10
115.4823670537994
 20
-109.0110849727473
 30
0.0
 10
115.4823670537994
 20
-109.0668944171778
 30
0.0
 10
115.5271345526573
 20
-109.1113444171667
 30
0.0
 10
115.5822737179172
 20
-109.1113444171667
 30
0.0
 10
115.637380526646
 20
-109.1113444171667
 30
0.0
 10
115.6821833044127
 20
-109.0668944171778
 30
0.0
 10
115.6821833044127
 20
-109.0110849727473
 30
0.0
  0
HATCH
  5
B1
330
1F
100
AcDbEntity
  8
_U+30EC_U+30A4_U+30E4_U+30FC 1
 62
   179
420
  2234388
100
AcDbHatch
 10
0.0
 20
0.0
 30
0.0
210
0.0
220
0.0
230
1.0
  2
SOLID
 70
     1
 71
     0
 91
        1
 92
        1
 93
        1
 72
     4
 94
        3
 73
     0
 74
     1
 95
       17
 96
       13
 40
0.0
 40
0.0
 40
0.0
 40
0.0
 40
1.0
 40
1.0
 40
1.0
 40
2.0
 40
2.0
 40
2.0
 40
3.0
 40
3.0
 40
3.0
 40
4.0
 40
4.0
 40
4.0
 40
4.0
 10
115.6821833044127
 20
-109.0110849727473
 10
115.6821833044127
 20
-108.9559810838721
 10
115.637380526646
 20
-108.9111783061054
 10
115.5822737179172
 20
-108.9111783061054
 10
115.5271345526573
 20
-108.9111783061054
 10
115.4823670537994
 20
-108.9559810838721
 10
115.4823670537994
 20
-109.0110849727473
 10
115.4823670537994
 20
-109.0668944171778
 10
115.5271345526573
 20
-109.1113444171667
 10
115.5822737179172
 20
-109.1113444171667
 10
115.637380526646
 20
-109.1113444171667
 10
115.6821833044127
 20
-109.0668944171778
 10
115.6821833044127
 20
-109.0110849727473
 97
        0
 97
        0
 75
     2
 76
     1
 98
        0
  0
SPLINE
  5
B2
330
1F
100
AcDbEntity
  8
_U+30EC_U+30A4_U+30E4_U+30FC 1
 62
   179
420
  2234388
370
     9
100
AcDbSpline
210
0.0
220
0.0
230
1.0
 70
    11
 71
     3
 72
    17
 73
    13
 74
     0
 42
0.0000000001
 43
0.0000000001
 12
1.0
 22
0.0
 32
0.0
 13
1.0
 23
0.0
 33
0.0
 40
0.0
 40
0.0
 40
0.0
 40
0.0
 40
1.0
 40
1.0
 40
1.0
 40
2.0
 40
2.0
 40
2.0
 40
3.0
 40
3.0
 40
3.0
 40
4.0
 40
4.0
 40
4.0
 40
4.0
 10
128.6012903302189
 20
-116.6085424708478
 30
0.0
 10
128.6012903302189
 20
-116.5534385819728
 30
0.0
 10
128.5564875535841
 20
-116.5086358042061
 30
0.0
 10
128.501383666101
 20
-116.5086358042061
 30
0.0
 10
128.4462445008411
 20
-116.5086358042061
 30
0.0
 10
128.4014770019832
 20
-116.5534385819728
 30
0.0
 10
128.4014770019832
 20
-116.6085424708478
 30
0.0
 10
128.4014770019832
 20
-116.6643519152785
 30
0.0
 10
128.4462445008411
 20
-116.7084491374897
 30
0.0
 10
128.501383666101
 20
-116.7084491374897
 30
0.0
 10
128.5564875535841
 20
-116.7084491374897
 30
0.0
 10
128.6012903302189
 20
-116.6643519152785
 30
0.0
 10
128.6012903302189
 20
-116.6085424708478
 30
0.0
  0
HATCH
  5
B3
330
1F
100
AcDbEntity
  8
_U+30EC_U+30A4_U+30E4_U+30FC 1
 62
   179
420
  2234388
100
AcDbHatch
 10
0.0
 20
0.0
 30
0.0
210
0.0
220
0.0
230
1.0
  2
SOLID
 70
     1
 71
     0
 91
        1
 92
        1
 93
        1
 72
     4
 94
        3
 73
     0
 74
     1
 95
       17
 96
       13
 40
0.0
 40
0.0
 40
0.0
 40
0.0
 40
1.0
 40
1.0
 40
1.0
 40
2.0
 40
2.0
 40
2.0
 40
3.0
 40
3.0
 40
3.0
 40
4.0
 40
4.0
 40
4.0
 40
4.0
 10
128.6012903302189
 20
-116.6085424708478
 10
128.6012903302189
 20
-116.5534385819728
 10
128.5564875535841
 20
-116.5086358042061
 10
128.501383666101
 20
-116.5086358042061
 10
128.4462445008411
 20
-116.5086358042061
 10
128.4014770019832
 20
-116.5534385819728
 10
128.4014770019832
 20
-116.6085424708478
 10
128.4014770019832
 20
-116.6643519152785
 10
128.4462445008411
 20
-116.7084491374897
 10
128.501383666101
 20
-116.7084491374897
 10
128.5564875535841
 20
-116.7084491374897
 10
128.6012903302189
 20
-116.6643519152785
 10
128.6012903302189
 20
-116.6085424708478
 97
        0
 97
        0
 75
     2
 76
     1
 98
        0
  0
POLYLINE
  5
B4
330
1F
100
AcDbEntity
  8
_U+30EC_U+30A4_U+30E4_U+30FC 1
 62
   179
420
  2234388
370
    25
100
AcDb2dPolyline
 66
     1
 10
0.0
 20
0.0
 30
0.0
  0
VERTEX
  5
B5
330
B4
100
AcDbEntity
  8
_U+30EC_U+30A4_U+30E4_U+30FC 1
 62
   179
420
  2234388
370
    25
100
AcDbVertex
100
AcDb2dVertex
 10
58.17164442990144
 20
-140.9171538536594
 30
0.0
  0
VERTEX
  5
B6
330
B4
100
AcDbEntity
  8
_U+30EC_U+30A4_U+30E4_U+30FC 1
 62
   179
420
  2234388
370
    25
100
AcDbVertex
100
AcDb2dVertex
 10
92.42431819761475
 20
-125.0793719131746
 30
0.0
  0
SEQEND
  5
B7
330
B4
100
AcDbEntity
  8
_U+30EC_U+30A4_U+30E4_U+30FC 1
 62
   179
420
  2234388
370
    25
  0
POLYLINE
  5
B8
330
1F
100
AcDbEntity
  8
_U+30EC_U+30A4_U+30E4_U+30FC 1
 62
   179
420
  2234388
370
    25
100
AcDb2dPolyline
 66
     1
 10
0.0
 20
0.0
 30
0.0
  0
VERTEX
  5
B9
330
B8
100
AcDbEntity
  8
_U+30EC_U+30A4_U+30E4_U+30FC 1
 62
   179
420
  2234388
370
    25
100
AcDbVertex
100
AcDb2dVertex
 10
92.42431819761475
 20
-125.0793719131746
 30
0.0
  0
VERTEX
  5
BA
330
B8
100
AcDbEntity
  8
_U+30EC_U+30A4_U+30E4_U+30FC 1
 62
   179
420
  2234388
370
    25
100
AcDbVertex
100
AcDb2dVertex
 10
120.2972221921479
 20
-111.8067783053817
 30
0.0
  0
SEQEND
  5
BB
330
B8
100
AcDbEntity
  8
_U+30EC_U+30A4_U+30E4_U+30FC 1
 62
   179
420
  2234388
370
    25
  0
INSERT
  5
BD
330
1F
100
AcDbEntity
  8
_U+30EC_U+30A4_U+30E4_U+30FC 1
100
AcDbBlockReference
  2
block 5
 10
0.0
 20
0.0
 30
0.0
  0
ENDSEC
  0
SECTION
  2
OBJECTS
  0
DICTIONARY
  5
C
330
0
100
AcDbDictionary
281
     1
  3
ACAD_GROUP
350
D
  3
ACAD_LAYOUT
350
1A
  3
ACAD_MATERIAL
350
3B
  3
ACAD_MLEADERSTYLE
350
C6
  3
ACAD_MLINESTYLE
350
17
  3
ACAD_PLOTSETTINGS
350
19
  3
ACAD_PLOTSTYLENAME
350
E
  3
ACAD_TABLESTYLE
350
C5
  3
ACAD_VISUALSTYLE
350
2A
  0
SUN
  5
3F
330
29
100
AcDbSun
 90
        1
290
     0
 63
     7
421
 16777215
 40
1.0
291
     1
 91
  2455826
 92
 54000000
292
     0
 70
     2
 71
   256
280
     1
  0
DICTIONARY
  5
D
102
{ACAD_REACTORS
330
C
102
}
330
C
100
AcDbDictionary
281
     1
  0
DICTIONARY
  5
1A
102
{ACAD_REACTORS
330
C
102
}
330
C
100
AcDbDictionary
281
     1
  3
Layout1
350
1E
  3
Layout2
350
26
  3
Model
350
22
  0
DICTIONARY
  5
3B
102
{ACAD_REACTORS
330
C
102
}
330
C
100
AcDbDictionary
281
     1
  3
ByBlock
350
3D
  3
ByLayer
350
3C
  3
Global
350
3E
  0
DICTIONARY
  5
C6
102
{ACAD_REACTORS
330
C
102
}
330
C
100
AcDbDictionary
281
     1
  0
DICTIONARY
  5
17
102
{ACAD_REACTORS
330
C
102
}
330
C
100
AcDbDictionary
281
     1
  3
Standard
350
18
  0
DICTIONARY
  5
19
102
{ACAD_REACTORS
330
C
102
}
330
C
100
AcDbDictionary
281
     1
  0
ACDBDICTIONARYWDFLT
  5
E
102
{ACAD_REACTORS
330
C
102
}
330
C
100
AcDbDictionary
281
     1
  3
Normal
350
F
100
AcDbDictionaryWithDefault
340
F
  0
DICTIONARY
  5
C5
102
{ACAD_REACTORS
330
C
102
}
330
C
100
AcDbDictionary
281
     1
  0
DICTIONARY
  5
2A
102
{ACAD_REACTORS
330
C
102
}
330
C
100
AcDbDictionary
281
     1
  3
2dWireframe
350
2F
  3
3D Hidden
350
31
  3
3dWireframe
350
30
  3
Basic
350
32
  3
Brighten
350
36
  3
ColorChange
350
3A
  3
Conceptual
350
34
  3
Dim
350
35
  3
Facepattern
350
39
  3
Flat
350
2B
  3
FlatWithEdges
350
2C
  3
Gouraud
350
2D
  3
GouraudWithEdges
350
2E
  3
Linepattern
350
38
  3
Realistic
350
33
  3
Thicken
350
37
  0
LAYOUT
  5
1E
102
{ACAD_REACTORS
330
1A
102
}
330
1A
100
AcDbPlotSettings
  1

  2
none_device
  4

  6

 40
0.0
 41
0.0
 42
0.0
 43
0.0
 44
0.0
 45
0.0
 46
0.0
 47
0.0
 48
0.0
 49
0.0
140
0.0
141
0.0
142
1.0
143
1.0
 70
   688
 72
     0
 73
     0
 74
     5
  7

 75
    16
 76
     0
 77
     2
 78
   300
147
1.0
148
0.0
149
0.0
100
AcDbLayout
  1
Layout1
 70
     1
 71
     1
 10
0.0
 20
0.0
 11
12.0
 21
9.0
 12
0.0
 22
0.0
 32
0.0
 14
1.000000000000000E+20
 24
1.000000000000000E+20
 34
1.000000000000000E+20
 15
-1.000000000000000E+20
 25
-1.000000000000000E+20
 35
-1.000000000000000E+20
146
0.0
 13
0.0
 23
0.0
 33
0.0
 16
1.0
 26
0.0
 36
0.0
 17
0.0
 27
1.0
 37
0.0
 76
     0
330
1B
  0
LAYOUT
  5
26
102
{ACAD_REACTORS
330
1A
102
}
330
1A
100
AcDbPlotSettings
  1

  2
none_device
  4

  6

 40
0.0
 41
0.0
 42
0.0
 43
0.0
 44
0.0
 45
0.0
 46
0.0
 47
0.0
 48
0.0
 49
0.0
140
0.0
141
0.0
142
1.0
143
1.0
 70
   688
 72
     0
 73
     0
 74
     5
  7

 75
    16
 76
     0
 77
     2
 78
   300
147
1.0
148
0.0
149
0.0
100
AcDbLayout
  1
Layout2
 70
     1
 71
     2
 10
0.0
 20
0.0
 11
0.0
 21
0.0
 12
0.0
 22
0.0
 32
0.0
 14
0.0
 24
0.0
 34
0.0
 15
0.0
 25
0.0
 35
0.0
146
0.0
 13
0.0
 23
0.0
 33
0.0
 16
1.0
 26
0.0
 36
0.0
 17
0.0
 27
1.0
 37
0.0
 76
     0
330
23
  0
LAYOUT
  5
22
102
{ACAD_REACTORS
330
1A
102
}
330
1A
100
AcDbPlotSettings
  1

  2
none_device
  4

  6

 40
0.0
 41
0.0
 42
0.0
 43
0.0
 44
0.0
 45
0.0
 46
0.0
 47
0.0
 48
0.0
 49
0.0
140
0.0
141
0.0
142
1.0
143
1.0
 70
  1712
 72
     0
 73
     0
 74
     0
  7

 75
     0
 76
     0
 77
     2
 78
   300
147
1.0
148
0.0
149
0.0
100
AcDbLayout
  1
Model
 70
     1
 71
     0
 10
0.0
 20
0.0
 11
12.0
 21
9.0
 12
0.0
 22
0.0
 32
0.0
 14
1.000000000000000E+20
 24
1.000000000000000E+20
 34
1.000000000000000E+20
 15
-1.000000000000000E+20
 25
-1.000000000000000E+20
 35
-1.000000000000000E+20
146
0.0
 13
0.0
 23
0.0
 33
0.0
 16
1.0
 26
0.0
 36
0.0
 17
0.0
 27
1.0
 37
0.0
 76
     0
330
1F
331
29
  0
MATERIAL
  5
3D
102
{ACAD_REACTORS
330
3B
102
}
330
3B
100
AcDbMaterial
  1
ByBlock
 72
     1
 94
      127
  0
MATERIAL
  5
3C
102
{ACAD_REACTORS
330
3B
102
}
330
3B
100
AcDbMaterial
  1
ByLayer
 72
     1
 94
      127
  0
MATERIAL
  5
3E
102
{ACAD_REACTORS
330
3B
102
}
330
3B
100
AcDbMaterial
  1
Global
 72
     1
 94
      127
  0
MLINESTYLE
  5
18
102
{ACAD_REACTORS
330
17
102
}
330
17
100
AcDbMlineStyle
  2
Standard
 70
     0
  3

 62
   256
 51
90.0
 52
90.0
 71
     2
 49
0.5
 62
   256
  6
BYLAYER
 49
-0.5
 62
   256
  6
BYLAYER
  0
ACDBPLACEHOLDER
  5
F
102
{ACAD_REACTORS
330
E
102
}
330
E
  0
VISUALSTYLE
  5
2F
102
{ACAD_REACTORS
330
2A
102
}
330
2A
100
AcDbVisualStyle
  2
2dWireframe
 70
     4
177
     2
291
     0
 71
     0
176
     1
 72
     2
176
     1
 73
     0
176
     1
 90
        0
176
     1
 40
-0.6
176
     1
 41
-30.0
176
     1
 62
     5
 63
     7
421
 16777215
176
     1
 74
     1
176
     1
 91
        4
176
     1
 64
     7
176
     1
 65
   257
176
     1
 75
     1
176
     1
175
     1
176
     1
 42
1.0
176
     1
 92
        0
176
     1
 66
   257
176
     1
 43
1.0
176
     1
 76
     1
176
     1
 77
     6
176
     1
 78
     2
176
     1
 67
     7
176
     1
 79
     5
176
     1
170
     0
176
     1
171
     0
176
     1
290
     0
176
     1
 93
        1
176
     1
 44
0.0
176
     1
173
     0
176
     1
  0
VISUALSTYLE
  5
31
102
{ACAD_REACTORS
330
2A
102
}
330
2A
100
AcDbVisualStyle
  2
3D Hidden
 70
     6
177
     2
291
     0
 71
     1
176
     1
 72
     2
176
     1
 73
     2
176
     1
 90
        0
176
     1
 40
-0.6
176
     1
 41
-30.0
176
     1
 62
     5
 63
     7
421
 16777215
176
     1
 74
     2
176
     1
 91
        2
176
     1
 64
     7
176
     1
 65
   257
176
     1
 75
     2
176
     1
175
     1
176
     1
 42
40.0
176
     1
 92
        0
176
     1
 66
   257
176
     1
 43
1.0
176
     1
 76
     1
176
     1
 77
     6
176
     1
 78
     2
176
     1
 67
     7
176
     1
 79
     3
176
     1
170
     0
176
     1
171
     0
176
     1
290
     0
176
     1
 93
        1
176
     1
 44
0.0
176
     1
173
     0
176
     1
  0
VISUALSTYLE
  5
30
102
{ACAD_REACTORS
330
2A
102
}
330
2A
100
AcDbVisualStyle
  2
3dWireframe
 70
     5
177
     2
291
     0
 71
     0
176
     1
 72
     2
176
     1
 73
     0
176
     1
 90
        0
176
     1
 40
-0.6
176
     1
 41
-30.0
176
     1
 62
     5
 63
     7
421
 16777215
176
     1
 74
     1
176
     1
 91
        4
176
     1
 64
     7
176
     1
 65
   257
176
     1
 75
     1
176
     1
175
     1
176
     1
 42
1.0
176
     1
 92
        0
176
     1
 66
   257
176
     1
 43
1.0
176
     1
 76
     1
176
     1
 77
     6
176
     1
 78
     2
176
     1
 67
     7
176
     1
 79
     5
176
     1
170
     0
176
     1
171
     0
176
     1
290
     0
176
     1
 93
        1
176
     1
 44
0.0
176
     1
173
     0
176
     1
  0
VISUALSTYLE
  5
32
102
{ACAD_REACTORS
330
2A
102
}
330
2A
100
AcDbVisualStyle
  2
Basic
 70
     7
177
     2
291
     1
 71
     1
176
     1
 72
     0
176
     1
 73
     1
176
     1
 90
        0
176
     1
 40
-0.6
176
     1
 41
-30.0
176
     1
 62
     5
 63
     7
421
 16777215
176
     1
 74
     0
176
     1
 91
        4
176
     1
 64
     7
176
     1
 65
   257
176
     1
 75
     1
176
     1
175
     1
176
     1
 42
1.0
176
     1
 92
        8
176
     1
 66
     7
176
     1
 43
1.0
176
     1
 76
     1
176
     1
 77
     6
176
     1
 78
     2
176
     1
 67
     7
176
     1
 79
     5
176
     1
170
     0
176
     1
171
     0
176
     1
290
     0
176
     1
 93
        1
176
     1
 44
0.0
176
     1
173
     0
176
     1
  0
VISUALSTYLE
  5
36
102
{ACAD_REACTORS
330
2A
102
}
330
2A
100
AcDbVisualStyle
  2
Brighten
 70
    12
177
     2
291
     1
 71
     2
176
     1
 72
     2
176
     1
 73
     0
176
     1
 90
        0
176
     1
 40
-0.6
176
     1
 41
-30.0
176
     1
 62
     5
 63
     7
421
 16777215
176
     1
 74
     1
176
     1
 91
        4
176
     1
 64
     7
176
     1
 65
   257
176
     1
 75
     1
176
     1
175
     1
176
     1
 42
1.0
176
     1
 92
        8
176
     1
 66
     7
176
     1
 43
1.0
176
     1
 76
     1
176
     1
 77
     6
176
     1
 78
     2
176
     1
 67
     7
176
     1
 79
     5
176
     1
170
     0
176
     1
171
     0
176
     1
290
     0
176
     1
 93
        1
176
     1
 44
50.0
176
     1
173
     0
176
     1
  0
VISUALSTYLE
  5
3A
102
{ACAD_REACTORS
330
2A
102
}
330
2A
100
AcDbVisualStyle
  2
ColorChange
 70
    16
177
     2
291
     1
 71
     2
176
     1
 72
     2
176
     1
 73
     3
176
     1
 90
        0
176
     1
 40
-0.6
176
     1
 41
-30.0
176
     1
 62
     5
 63
     8
421
  8421504
176
     1
 74
     1
176
     1
 91
        4
176
     1
 64
     7
176
     1
 65
   257
176
     1
 75
     1
176
     1
175
     1
176
     1
 42
1.0
176
     1
 92
        8
176
     1
 66
     8
424
  8421504
176
     1
 43
1.0
176
     1
 76
     1
176
     1
 77
     6
176
     1
 78
     2
176
     1
 67
     7
176
     1
 79
     5
176
     1
170
     0
176
     1
171
     0
176
     1
290
     0
176
     1
 93
        1
176
     1
 44
0.0
176
     1
173
     0
176
     1
  0
VISUALSTYLE
  5
34
102
{ACAD_REACTORS
330
2A
102
}
330
2A
100
AcDbVisualStyle
  2
Conceptual
 70
     9
177
     2
291
     0
 71
     3
176
     1
 72
     2
176
     1
 73
     0
176
     1
 90
        0
176
     1
 40
-0.6
176
     1
 41
-30.0
176
     1
 62
     5
 63
     7
421
 16777215
176
     1
 74
     2
176
     1
 91
        2
176
     1
 64
     7
176
     1
 65
   257
176
     1
 75
     1
176
     1
175
     1
176
     1
 42
40.0
176
     1
 92
        8
176
     1
 66
     7
176
     1
 43
1.0
176
     1
 76
     1
176
     1
 77
     6
176
     1
 78
     2
176
     1
 67
     7
176
     1
 79
     3
176
     1
170
     0
176
     1
171
     0
176
     1
290
     0
176
     1
 93
        1
176
     1
 44
0.0
176
     1
173
     0
176
     1
  0
VISUALSTYLE
  5
35
102
{ACAD_REACTORS
330
2A
102
}
330
2A
100
AcDbVisualStyle
  2
Dim
 70
    11
177
     2
291
     1
 71
     2
176
     1
 72
     2
176
     1
 73
     0
176
     1
 90
        0
176
     1
 40
-0.6
176
     1
 41
-30.0
176
     1
 62
     5
 63
     7
421
 16777215
176
     1
 74
     1
176
     1
 91
        4
176
     1
 64
     7
176
     1
 65
   257
176
     1
 75
     1
176
     1
175
     1
176
     1
 42
1.0
176
     1
 92
        8
176
     1
 66
     7
176
     1
 43
1.0
176
     1
 76
     1
176
     1
 77
     6
176
     1
 78
     2
176
     1
 67
     7
176
     1
 79
     5
176
     1
170
     0
176
     1
171
     0
176
     1
290
     0
176
     1
 93
        1
176
     1
 44
-50.0
176
     1
173
     0
176
     1
  0
VISUALSTYLE
  5
39
102
{ACAD_REACTORS
330
2A
102
}
330
2A
100
AcDbVisualStyle
  2
Facepattern
 70
    15
177
     2
291
     1
 71
     2
176
     1
 72
     2
176
     1
 73
     0
176
     1
 90
        0
176
     1
 40
-0.6
176
     1
 41
-30.0
176
     1
 62
     5
 63
     7
421
 16777215
176
     1
 74
     1
176
     1
 91
        4
176
     1
 64
     7
176
     1
 65
   257
176
     1
 75
     1
176
     1
175
     1
176
     1
 42
1.0
176
     1
 92
        8
176
     1
 66
     7
176
     1
 43
1.0
176
     1
 76
     1
176
     1
 77
     6
176
     1
 78
     2
176
     1
 67
     7
176
     1
 79
     5
176
     1
170
     0
176
     1
171
     0
176
     1
290
     0
176
     1
 93
        1
176
     1
 44
0.0
176
     1
173
     0
176
     1
  0
VISUALSTYLE
  5
2B
102
{ACAD_REACTORS
330
2A
102
}
330
2A
100
AcDbVisualStyle
  2
Flat
 70
     0
177
     2
291
     1
 71
     2
176
     1
 72
     1
176
     1
 73
     1
176
     1
 90
        2
176
     1
 40
-0.6
176
     1
 41
30.0
176
     1
 62
     5
 63
     7
421
 16777215
176
     1
 74
     0
176
     1
 91
        4
176
     1
 64
     7
176
     1
 65
   257
176
     1
 75
     1
176
     1
175
     1
176
     1
 42
1.0
176
     1
 92
        8
176
     1
 66
     7
176
     1
 43
1.0
176
     1
 76
     1
176
     1
 77
     6
176
     1
 78
     2
176
     1
 67
     7
176
     1
 79
     5
176
     1
170
     0
176
     1
171
     0
176
     1
290
     0
176
     1
 93
       13
176
     1
 44
0.0
176
     1
173
     0
176
     1
  0
VISUALSTYLE
  5
2C
102
{ACAD_REACTORS
330
2A
102
}
330
2A
100
AcDbVisualStyle
  2
FlatWithEdges
 70
     1
177
     2
291
     1
 71
     2
176
     1
 72
     1
176
     1
 73
     1
176
     1
 90
        2
176
     1
 40
-0.6
176
     1
 41
30.0
176
     1
 62
     5
 63
     7
421
 16777215
176
     1
 74
     1
176
     1
 91
        4
176
     1
 64
     7
176
     1
 65
   257
176
     1
 75
     1
176
     1
175
     1
176
     1
 42
1.0
176
     1
 92
        0
176
     1
 66
   257
176
     1
 43
1.0
176
     1
 76
     1
176
     1
 77
     6
176
     1
 78
     2
176
     1
 67
     7
176
     1
 79
     5
176
     1
170
     0
176
     1
171
     0
176
     1
290
     0
176
     1
 93
       13
176
     1
 44
0.0
176
     1
173
     0
176
     1
  0
VISUALSTYLE
  5
2D
102
{ACAD_REACTORS
330
2A
102
}
330
2A
100
AcDbVisualStyle
  2
Gouraud
 70
     2
177
     2
291
     1
 71
     2
176
     1
 72
     2
176
     1
 73
     1
176
     1
 90
        2
176
     1
 40
-0.6
176
     1
 41
30.0
176
     1
 62
     5
 63
     7
421
 16777215
176
     1
 74
     0
176
     1
 91
        4
176
     1
 64
     7
176
     1
 65
   257
176
     1
 75
     1
176
     1
175
     1
176
     1
 42
1.0
176
     1
 92
        0
176
     1
 66
     7
176
     1
 43
1.0
176
     1
 76
     1
176
     1
 77
     6
176
     1
 78
     2
176
     1
 67
     7
176
     1
 79
     5
176
     1
170
     0
176
     1
171
     0
176
     1
290
     0
176
     1
 93
       13
176
     1
 44
0.0
176
     1
173
     0
176
     1
  0
VISUALSTYLE
  5
2E
102
{ACAD_REACTORS
330
2A
102
}
330
2A
100
AcDbVisualStyle
  2
GouraudWithEdges
 70
     3
177
     2
291
     1
 71
     2
176
     1
 72
     2
176
     1
 73
     1
176
     1
 90
        2
176
     1
 40
-0.6
176
     1
 41
30.0
176
     1
 62
     5
 63
     7
421
 16777215
176
     1
 74
     1
176
     1
 91
        4
176
     1
 64
     7
176
     1
 65
   257
176
     1
 75
     1
176
     1
175
     1
176
     1
 42
1.0
176
     1
 92
        0
176
     1
 66
   257
176
     1
 43
1.0
176
     1
 76
     1
176
     1
 77
     6
176
     1
 78
     2
176
     1
 67
     7
176
     1
 79
     5
176
     1
170
     0
176
     1
171
     0
176
     1
290
     0
176
     1
 93
       13
176
     1
 44
0.0
176
     1
173
     0
176
     1
  0
VISUALSTYLE
  5
38
102
{ACAD_REACTORS
330
2A
102
}
330
2A
100
AcDbVisualStyle
  2
Linepattern
 70
    14
177
     2
291
     1
 71
     2
176
     1
 72
     2
176
     1
 73
     0
176
     1
 90
        0
176
     1
 40
-0.6
176
     1
 41
-30.0
176
     1
 62
     5
 63
     7
421
 16777215
176
     1
 74
     1
176
     1
 91
        4
176
     1
 64
     7
176
     1
 65
   257
176
     1
 75
     7
176
     1
175
     7
176
     1
 42
1.0
176
     1
 92
        8
176
     1
 66
     7
176
     1
 43
1.0
176
     1
 76
     1
176
     1
 77
     6
176
     1
 78
     2
176
     1
 67
     7
176
     1
 79
     5
176
     1
170
     0
176
     1
171
     0
176
     1
290
     0
176
     1
 93
        1
176
     1
 44
0.0
176
     1
173
     0
176
     1
  0
VISUALSTYLE
  5
33
102
{ACAD_REACTORS
330
2A
102
}
330
2A
100
AcDbVisualStyle
  2
Realistic
 70
     8
177
     2
291
     0
 71
     2
176
     1
 72
     2
176
     1
 73
     0
176
     1
 90
        0
176
     1
 40
-0.6
176
     1
 41
-30.0
176
     1
 62
     5
 63
     7
421
 16777215
176
     1
 74
     1
176
     1
 91
        0
176
     1
 64
     7
176
     1
 65
   257
176
     1
 75
     1
176
     1
175
     1
176
     1
 42
1.0
176
     1
 92
        8
176
     1
 66
     8
424
  7895160
176
     1
 43
1.0
176
     1
 76
     1
176
     1
 77
     6
176
     1
 78
     2
176
     1
 67
     7
176
     1
 79
     5
176
     1
170
     0
176
     1
171
     0
176
     1
290
     0
176
     1
 93
       13
176
     1
 44
0.0
176
     1
173
     0
176
     1
  0
VISUALSTYLE
  5
37
102
{ACAD_REACTORS
330
2A
102
}
330
2A
100
AcDbVisualStyle
  2
Thicken
 70
    13
177
     2
291
     1
 71
     2
176
     1
 72
     2
176
     1
 73
     0
176
     1
 90
        0
176
     1
 40
-0.6
176
     1
 41
-30.0
176
     1
 62
     5
 63
     7
421
 16777215
176
     1
 74
     1
176
     1
 91
        4
176
     1
 64
     7
176
     1
 65
   257
176
     1
 75
     1
176
     1
175
     1
176
     1
 42
1.0
176
     1
 92
       12
176
     1
 66
     7
176
     1
 43
1.0
176
     1
 76
     1
176
     1
 77
     6
176
     1
 78
     2
176
     1
 67
     7
176
     1
 79
     5
176
     1
170
     0
176
     1
171
     0
176
     1
290
     0
176
     1
 93
        1
176
     1
 44
0.0
176
     1
173
     0
176
     1
  0
ENDSEC
  0
EOF
