  0
SECTION
  2
HEADER
  9
$ACADVER
  1
AC1024
  9
$ACADMAINTVER
 70
     6
  9
$DWGCODEPAGE
  3
UNDEFINED
  9
$INSBASE
 10
0.0
 20
0.0
 30
0.0
  9
$EXTMIN
 10
1.000000000000000E+20
 20
1.000000000000000E+20
 30
1.000000000000000E+20
  9
$EXTMAX
 10
-1.000000000000000E+20
 20
-1.000000000000000E+20
 30
-1.000000000000000E+20
  9
$LIMMIN
 10
0.0
 20
0.0
  9
$LIMMAX
 10
12.0
 20
9.0
  9
$ORTHOMODE
 70
     0
  9
$REGENMODE
 70
     1
  9
$FILLMODE
 70
     1
  9
$QTEXTMODE
 70
     0
  9
$MIRRTEXT
 70
     1
  9
$LTSCALE
 40
1.0
  9
$ATTMODE
 70
     1
  9
$TEXTSIZE
 40
0.2
  9
$TRACEWID
 40
0.05
  9
$TEXTSTYLE
  7
Standard
  9
$CLAYER
  8
0
  9
$CELTYPE
  6
ByLayer
  9
$CECOLOR
 62
   256
  9
$CELTSCALE
 40
1.0
  9
$DISPSILH
 70
     0
  9
$DIMSCALE
 40
1.0
  9
$DIMASZ
 40
0.18
  9
$DIMEXO
 40
0.0625
  9
$DIMDLI
 40
0.38
  9
$DIMRND
 40
0.0
  9
$DIMDLE
 40
0.0
  9
$DIMEXE
 40
0.18
  9
$DIMTP
 40
0.0
  9
$DIMTM
 40
0.0
  9
$DIMTXT
 40
0.18
  9
$DIMCEN
 40
0.09
  9
$DIMTSZ
 40
0.0
  9
$DIMTOL
 70
     0
  9
$DIMLIM
 70
     0
  9
$DIMTIH
 70
     1
  9
$DIMTOH
 70
     1
  9
$DIMSE1
 70
     0
  9
$DIMSE2
 70
     0
  9
$DIMTAD
 70
     0
  9
$DIMZIN
 70
     0
  9
$DIMBLK
  1

  9
$DIMASO
 70
     1
  9
$DIMSHO
 70
     1
  9
$DIMPOST
  1

  9
$DIMAPOST
  1

  9
$DIMALT
 70
     0
  9
$DIMALTD
 70
     2
  9
$DIMALTF
 40
25.4
  9
$DIMLFAC
 40
1.0
  9
$DIMTOFL
 70
     0
  9
$DIMTVP
 40
0.0
  9
$DIMTIX
 70
     0
  9
$DIMSOXD
 70
     0
  9
$DIMSAH
 70
     0
  9
$DIMBLK1
  1

  9
$DIMBLK2
  1

  9
$DIMSTYLE
  2
Standard
  9
$DIMCLRD
 70
     0
  9
$DIMCLRE
 70
     0
  9
$DIMCLRT
 70
     0
  9
$DIMTFAC
 40
1.0
  9
$DIMGAP
 40
0.09
  9
$DIMJUST
 70
     0
  9
$DIMSD1
 70
     0
  9
$DIMSD2
 70
     0
  9
$DIMTOLJ
 70
     1
  9
$DIMTZIN
 70
     0
  9
$DIMALTZ
 70
     0
  9
$DIMALTTZ
 70
     0
  9
$DIMUPT
 70
     0
  9
$DIMDEC
 70
     4
  9
$DIMTDEC
 70
     4
  9
$DIMALTU
 70
     2
  9
$DIMALTTD
 70
     2
  9
$DIMTXSTY
  7
Standard
  9
$DIMAUNIT
 70
     0
  9
$DIMADEC
 70
     0
  9
$DIMALTRND
 40
0.0
  9
$DIMAZIN
 70
     0
  9
$DIMDSEP
 70
    46
  9
$DIMATFIT
 70
     3
  9
$DIMFRAC
 70
     0
  9
$DIMLDRBLK
  1

  9
$DIMLUNIT
 70
     2
  9
$DIMLWD
 70
    -2
  9
$DIMLWE
 70
    -2
  9
$DIMTMOVE
 70
     0
  9
$DIMFXL
 40
1.0
  9
$DIMFXLON
 70
     0
  9
$DIMJOGANG
 40
0.7853981633974483
  9
$DIMTFILL
 70
     0
  9
$DIMTFILLCLR
 70
     0
  9
$DIMARCSYM
 70
     0
  9
$DIMLTYPE
  6

  9
$DIMLTEX1
  6

  9
$DIMLTEX2
  6

  9
$DIMTXTDIRECTION
 70
     0
  9
$LUNITS
 70
     2
  9
$LUPREC
 70
     4
  9
$SKETCHINC
 40
0.1
  9
$FILLETRAD
 40
0.5
  9
$AUNITS
 70
     0
  9
$AUPREC
 70
     0
  9
$MENU
  1
.
  9
$ELEVATION
 40
0.0
  9
$PELEVATION
 40
0.0
  9
$THICKNESS
 40
0.0
  9
$LIMCHECK
 70
     0
  9
$CHAMFERA
 40
0.5
  9
$CHAMFERB
 40
0.5
  9
$CHAMFERC
 40
1.0
  9
$CHAMFERD
 40
0.0
  9
$SKPOLY
 70
     0
  9
$TDCREATE
 40
2457933.453055544
  9
$TDUCREATE
 40
2457933.078055555
  9
$TDUPDATE
 40
2457933.453055544
  9
$TDUUPDATE
 40
2457933.078055555
  9
$TDINDWG
 40
0.0000000116
  9
$TDUSRTIMER
 40
0.0000000116
  9
$USRTIMER
 70
     1
  9
$ANGBASE
 50
0.0
  9
$ANGDIR
 70
     0
  9
$PDMODE
 70
     0
  9
$PDSIZE
 40
0.0
  9
$PLINEWID
 40
0.0
  9
$SPLFRAME
 70
     0
  9
$SPLINETYPE
 70
     6
  9
$SPLINESEGS
 70
     8
  9
$HANDSEED
  5
DE
  9
$SURFTAB1
 70
     6
  9
$SURFTAB2
 70
     6
  9
$SURFTYPE
 70
     6
  9
$SURFU
 70
     6
  9
$SURFV
 70
     6
  9
$UCSBASE
  2

  9
$UCSNAME
  2

  9
$UCSORG
 10
0.0
 20
0.0
 30
0.0
  9
$UCSXDIR
 10
1.0
 20
0.0
 30
0.0
  9
$UCSYDIR
 10
0.0
 20
1.0
 30
0.0
  9
$UCSORTHOREF
  2

  9
$UCSORTHOVIEW
 70
     0
  9
$UCSORGTOP
 10
0.0
 20
0.0
 30
0.0
  9
$UCSORGBOTTOM
 10
0.0
 20
0.0
 30
0.0
  9
$UCSORGLEFT
 10
0.0
 20
0.0
 30
0.0
  9
$UCSORGRIGHT
 10
0.0
 20
0.0
 30
0.0
  9
$UCSORGFRONT
 10
0.0
 20
0.0
 30
0.0
  9
$UCSORGBACK
 10
0.0
 20
0.0
 30
0.0
  9
$PUCSBASE
  2

  9
$PUCSNAME
  2

  9
$PUCSORG
 10
0.0
 20
0.0
 30
0.0
  9
$PUCSXDIR
 10
1.0
 20
0.0
 30
0.0
  9
$PUCSYDIR
 10
0.0
 20
1.0
 30
0.0
  9
$PUCSORTHOREF
  2

  9
$PUCSORTHOVIEW
 70
     0
  9
$PUCSORGTOP
 10
0.0
 20
0.0
 30
0.0
  9
$PUCSORGBOTTOM
 10
0.0
 20
0.0
 30
0.0
  9
$PUCSORGLEFT
 10
0.0
 20
0.0
 30
0.0
  9
$PUCSORGRIGHT
 10
0.0
 20
0.0
 30
0.0
  9
$PUCSORGFRONT
 10
0.0
 20
0.0
 30
0.0
  9
$PUCSORGBACK
 10
0.0
 20
0.0
 30
0.0
  9
$USERI1
 70
     0
  9
$USERI2
 70
     0
  9
$USERI3
 70
     0
  9
$USERI4
 70
     0
  9
$USERI5
 70
     0
  9
$USERR1
 40
0.0
  9
$USERR2
 40
0.0
  9
$USERR3
 40
0.0
  9
$USERR4
 40
0.0
  9
$USERR5
 40
0.0
  9
$WORLDVIEW
 70
     1
  9
$SHADEDGE
 70
     3
  9
$SHADEDIF
 70
    70
  9
$TILEMODE
 70
     1
  9
$MAXACTVP
 70
    64
  9
$PINSBASE
 10
0.0
 20
0.0
 30
0.0
  9
$PLIMCHECK
 70
     0
  9
$PEXTMIN
 10
1.000000000000000E+20
 20
1.000000000000000E+20
 30
1.000000000000000E+20
  9
$PEXTMAX
 10
-1.000000000000000E+20
 20
-1.000000000000000E+20
 30
-1.000000000000000E+20
  9
$PLIMMIN
 10
0.0
 20
0.0
  9
$PLIMMAX
 10
12.0
 20
9.0
  9
$UNITMODE
 70
     0
  9
$VISRETAIN
 70
     1
  9
$PLINEGEN
 70
     0
  9
$PSLTSCALE
 70
     1
  9
$TREEDEPTH
 70
  3020
  9
$CMLSTYLE
  2
Standard
  9
$CMLJUST
 70
     0
  9
$CMLSCALE
 40
1.0
  9
$PROXYGRAPHICS
 70
     1
  9
$MEASUREMENT
 70
     0
  9
$CELWEIGHT
370
    -1
  9
$ENDCAPS
280
     0
  9
$JOINSTYLE
280
     0
  9
$LWDISPLAY
290
     1
  9
$INSUNITS
 70
     1
  9
$HYPERLINKBASE
  1

  9
$STYLESHEET
  1

  9
$XEDIT
290
     1
  9
$CEPSNTYPE
380
     0
  9
$PSTYLEMODE
290
     1
  9
$FINGERPRINTGUID
  2
{2CB28761-CD11-F62F-F702-FEF9DAF344B1}
  9
$VERSIONGUID
  2
{FAEB1C32-E019-11D5-929B-00C0DF256EC4}
  9
$EXTNAMES
290
     1
  9
$PSVPSCALE
 40
0.0
  9
$OLESTARTUP
290
     0
  9
$SORTENTS
280
   127
  9
$INDEXCTL
280
     0
  9
$HIDETEXT
280
     1
  9
$XCLIPFRAME
280
     2
  9
$HALOGAP
280
     0
  9
$OBSCOLOR
 70
   257
  9
$OBSLTYPE
280
     0
  9
$INTERSECTIONDISPLAY
280
     0
  9
$INTERSECTIONCOLOR
 70
   257
  9
$DIMASSOC
280
     2
  9
$PROJECTNAME
  1

  9
$CAMERADISPLAY
290
     0
  9
$LENSLENGTH
 40
50.0
  9
$CAMERAHEIGHT
 40
0.0
  9
$STEPSPERSEC
 40
2.0
  9
$STEPSIZE
 40
6.0
  9
$3DDWFPREC
 40
2.0
  9
$PSOLWIDTH
 40
0.25
  9
$PSOLHEIGHT
 40
4.0
  9
$LOFTANG1
 40
1.570796326794897
  9
$LOFTANG2
 40
1.570796326794897
  9
$LOFTMAG1
 40
0.0
  9
$LOFTMAG2
 40
0.0
  9
$LOFTPARAM
 70
     7
  9
$LOFTNORMALS
280
     1
  9
$LATITUDE
 40
37.795
  9
$LONGITUDE
 40
-122.394
  9
$NORTHDIRECTION
 40
0.0
  9
$TIMEZONE
 70
 -8000
  9
$LIGHTGLYPHDISPLAY
280
     1
  9
$TILEMODELIGHTSYNCH
280
     1
  9
$CMATERIAL
347
3C
  9
$SOLIDHIST
280
     1
  9
$SHOWHIST
280
     1
  9
$DWFFRAME
280
     2
  9
$DGNFRAME
280
     2
  9
$REALWORLDSCALE
290
     1
  9
$INTERFERECOLOR
 62
   256
  9
$CSHADOW
280
     0
  9
$SHADOWPLANELOCATION
 40
0.0
  0
ENDSEC
  0
SECTION
  2
CLASSES
  0
CLASS
  1
ACDBDICTIONARYWDFLT
  2
AcDbDictionaryWithDefault
  3
ObjectDBX Classes
 90
        0
 91
        4
280
     0
281
     0
  0
CLASS
  1
VISUALSTYLE
  2
AcDbVisualStyle
  3
ObjectDBX Classes
 90
     4095
 91
        4
280
     0
281
     0
  0
CLASS
  1
MATERIAL
  2
AcDbMaterial
  3
ObjectDBX Classes
 90
     1153
 91
        4
280
     0
281
     0
  0
CLASS
  1
SUN
  2
AcDbSun
  3
SCENEOE
 90
     1024
 91
        4
280
     0
281
     0
  0
ENDSEC
  0
SECTION
  2
TABLES
  0
TABLE
  2
VPORT
  5
8
330
0
100
AcDbSymbolTable
 70
     1
  0
VPORT
  5
29
330
8
100
AcDbSymbolTableRecord
100
AcDbViewportTableRecord
  2
*Active
 70
     0
 10
0.0
 20
0.0
 11
1.0
 21
1.0
 12
0.0
 22
0.0
 13
0.0
 23
0.0
 14
0.5
 24
0.5
 15
0.5
 25
0.5
 16
0.0
 26
0.0
 36
1.0
 17
105.0007777515277
 27
-148.5000416295416
 37
0.0
 40
297.0000832590831
 41
0.7070757462376333
 42
50.0
 43
0.0
 44
0.0
 50
0.0
 51
0.0
 71
     0
 72
   100
 73
     1
 74
     3
 75
     0
 76
     0
 77
     0
 78
     0
281
     0
 65
     1
110
0.0
120
0.0
130
0.0
111
1.0
121
0.0
131
0.0
112
0.0
122
1.0
132
0.0
 79
     0
146
0.0
 60
     3
 61
     5
292
     1
282
     1
141
0.0
142
0.0
 63
   250
361
3F
  0
ENDTAB
  0
TABLE
  2
LTYPE
  5
5
330
0
100
AcDbSymbolTable
 70
     1
  0
LTYPE
  5
14
330
5
100
AcDbSymbolTableRecord
100
AcDbLinetypeTableRecord
  2
ByBlock
 70
     0
  3

 72
    65
 73
     0
 40
0.0
  0
LTYPE
  5
15
330
5
100
AcDbSymbolTableRecord
100
AcDbLinetypeTableRecord
  2
ByLayer
 70
     0
  3

 72
    65
 73
     0
 40
0.0
  0
LTYPE
  5
16
330
5
100
AcDbSymbolTableRecord
100
AcDbLinetypeTableRecord
  2
Continuous
 70
     0
  3
Solid line
 72
    65
 73
     0
 40
0.0
  0
ENDTAB
  0
TABLE
  2
LAYER
  5
2
330
0
100
AcDbSymbolTable
 70
     2
  0
LAYER
  5
10
330
2
100
AcDbSymbolTableRecord
100
AcDbLayerTableRecord
  2
0
 70
     0
 62
     7
  6
Continuous
370
    -3
390
F
347
3E
  0
LAYER
  5
40
330
2
100
AcDbSymbolTableRecord
100
AcDbLayerTableRecord
  2
_U+30EC_U+30A4_U+30E4_U+30FC 1
 70
     0
 62
     7
  6
Continuous
370
    -3
390
F
347
3E
  0
ENDTAB
  0
TABLE
  2
STYLE
  5
3
330
0
100
AcDbSymbolTable
 70
     1
  0
STYLE
  5
11
330
3
100
AcDbSymbolTableRecord
100
AcDbTextStyleTableRecord
  2
Standard
 70
     0
 40
0.0
 41
1.0
 50
0.0
 71
     0
 42
0.2
  3
txt
  4

  0
ENDTAB
  0
TABLE
  2
VIEW
  5
6
330
0
100
AcDbSymbolTable
 70
     0
  0
ENDTAB
  0
TABLE
  2
UCS
  5
7
330
0
100
AcDbSymbolTable
 70
     0
  0
ENDTAB
  0
TABLE
  2
APPID
  5
9
330
0
100
AcDbSymbolTable
 70
     1
  0
APPID
  5
12
330
9
100
AcDbSymbolTableRecord
100
AcDbRegAppTableRecord
  2
ACAD
 70
     0
  0
ENDTAB
  0
TABLE
  2
DIMSTYLE
  5
A
330
0
100
AcDbSymbolTable
 70
     1
100
AcDbDimStyleTable
  0
DIMSTYLE
105
27
330
A
100
AcDbSymbolTableRecord
100
AcDbDimStyleTableRecord
  2
Standard
 70
     0
178
     0
340
11
  0
ENDTAB
  0
TABLE
  2
BLOCK_RECORD
  5
1
330
0
100
AcDbSymbolTable
 70
     2
  0
BLOCK_RECORD
  5
1F
330
1
100
AcDbSymbolTableRecord
100
AcDbBlockTableRecord
  2
*Model_Space
340
22
 70
     0
280
     1
281
     0
  0
BLOCK_RECORD
  5
1B
330
1
100
AcDbSymbolTableRecord
100
AcDbBlockTableRecord
  2
*Paper_Space
340
1E
 70
     0
280
     1
281
     0
  0
BLOCK_RECORD
  5
23
330
1
100
AcDbSymbolTableRecord
100
AcDbBlockTableRecord
  2
*Paper_Space0
340
26
 70
     0
280
     1
281
     0
  0
BLOCK_RECORD
  5
41
330
1
100
AcDbSymbolTableRecord
100
AcDbBlockTableRecord
  2
block 2
340
0
102
{BLKREFS
331
42
102
}
 70
     0
280
     1
281
     0
  0
ENDTAB
  0
ENDSEC
  0
SECTION
  2
BLOCKS
  0
BLOCK
  5
20
330
1F
100
AcDbEntity
  8
0
100
AcDbBlockBegin
  2
*Model_Space
 70
     0
 10
0.0
 20
0.0
 30
0.0
  3
*Model_Space
  1

  0
ENDBLK
  5
21
330
1F
100
AcDbEntity
  8
0
100
AcDbBlockEnd
  0
BLOCK
  5
1C
330
1B
100
AcDbEntity
 67
     1
  8
0
100
AcDbBlockBegin
  2
*Paper_Space
 70
     0
 10
0.0
 20
0.0
 30
0.0
  3
*Paper_Space
  1

  0
ENDBLK
  5
1D
330
1B
100
AcDbEntity
 67
     1
  8
0
100
AcDbBlockEnd
  0
BLOCK
  5
24
330
23
100
AcDbEntity
  8
0
100
AcDbBlockBegin
  2
*Paper_Space0
 70
     0
 10
0.0
 20
0.0
 30
0.0
  3
*Paper_Space0
  1

  0
ENDBLK
  5
25
330
23
100
AcDbEntity
  8
0
100
AcDbBlockEnd
  0
BLOCK
  5
43
330
41
100
AcDbEntity
  8
0
100
AcDbBlockBegin
  2
block 2
 70
     0
 10
0.0
 20
0.0
 30
0.0
  3
block 2
  1

  0
POLYLINE
  5
45
330
41
100
AcDbEntity
  8
_U+30EC_U+30A4_U+30E4_U+30FC 1
 62
   179
420
  2234388
370
    25
100
AcDb2dPolyline
 66
     1
 10
0.0
 20
0.0
 30
0.0
  0
VERTEX
  5
46
330
45
100
AcDbEntity
  8
_U+30EC_U+30A4_U+30E4_U+30FC 1
 62
   179
420
  2234388
370
    25
100
AcDbVertex
100
AcDb2dVertex
 10
95.20349745397458
 20
-153.4831335727401
 30
0.0
  0
VERTEX
  5
47
330
45
100
AcDbEntity
  8
_U+30EC_U+30A4_U+30E4_U+30FC 1
 62
   179
420
  2234388
370
    25
100
AcDbVertex
100
AcDb2dVertex
 10
100.3394478785011
 20
-153.4831335727401
 30
0.0
  0
SEQEND
  5
48
330
45
100
AcDbEntity
  8
_U+30EC_U+30A4_U+30E4_U+30FC 1
 62
   179
420
  2234388
370
    25
  0
POLYLINE
  5
49
330
41
100
AcDbEntity
  8
_U+30EC_U+30A4_U+30E4_U+30FC 1
 62
   179
420
  2234388
370
    25
100
AcDb2dPolyline
 66
     1
 10
0.0
 20
0.0
 30
0.0
  0
VERTEX
  5
4A
330
49
100
AcDbEntity
  8
_U+30EC_U+30A4_U+30E4_U+30FC 1
 62
   179
420
  2234388
370
    25
100
AcDbVertex
100
AcDb2dVertex
 10
94.8393249632654
 20
-144.9384324637655
 30
0.0
  0
VERTEX
  5
4B
330
49
100
AcDbEntity
  8
_U+30EC_U+30A4_U+30E4_U+30FC 1
 62
   179
420
  2234388
370
    25
100
AcDbVertex
100
AcDb2dVertex
 10
100.3394478785011
 20
-144.9384324637655
 30
0.0
  0
SEQEND
  5
4C
330
49
100
AcDbEntity
  8
_U+30EC_U+30A4_U+30E4_U+30FC 1
 62
   179
420
  2234388
370
    25
  0
POLYLINE
  5
4D
330
41
100
AcDbEntity
  8
_U+30EC_U+30A4_U+30E4_U+30FC 1
 62
   179
420
  2234388
370
    25
100
AcDb2dPolyline
 66
     1
 10
0.0
 20
0.0
 30
0.0
  0
VERTEX
  5
4E
330
4D
100
AcDbEntity
  8
_U+30EC_U+30A4_U+30E4_U+30FC 1
 62
   179
420
  2234388
370
    25
100
AcDbVertex
100
AcDb2dVertex
 10
95.20349745397458
 20
-143.9383427417931
 30
0.0
  0
VERTEX
  5
4F
330
4D
100
AcDbEntity
  8
_U+30EC_U+30A4_U+30E4_U+30FC 1
 62
   179
420
  2234388
370
    25
100
AcDbVertex
100
AcDb2dVertex
 10
106.4751352219667
 20
-143.9383427417931
 30
0.0
  0
SEQEND
  5
50
330
4D
100
AcDbEntity
  8
_U+30EC_U+30A4_U+30E4_U+30FC 1
 62
   179
420
  2234388
370
    25
  0
POLYLINE
  5
51
330
41
100
AcDbEntity
  8
_U+30EC_U+30A4_U+30E4_U+30FC 1
 62
   179
420
  2234388
370
    25
100
AcDb2dPolyline
 66
     1
 10
0.0
 20
0.0
 30
0.0
  0
VERTEX
  5
52
330
51
100
AcDbEntity
  8
_U+30EC_U+30A4_U+30E4_U+30FC 1
 62
   179
420
  2234388
370
    25
100
AcDbVertex
100
AcDb2dVertex
 10
94.8393249632654
 20
-154.4829057947127
 30
0.0
  0
VERTEX
  5
53
330
51
100
AcDbEntity
  8
_U+30EC_U+30A4_U+30E4_U+30FC 1
 62
   179
420
  2234388
370
    25
100
AcDbVertex
100
AcDb2dVertex
 10
117.8391302098248
 20
-154.4829057947127
 30
0.0
  0
SEQEND
  5
54
330
51
100
AcDbEntity
  8
_U+30EC_U+30A4_U+30E4_U+30FC 1
 62
   179
420
  2234388
370
    25
  0
SPLINE
  5
55
330
41
100
AcDbEntity
  8
_U+30EC_U+30A4_U+30E4_U+30FC 1
370
     0
100
AcDbSpline
210
0.0
220
0.0
230
1.0
 70
    11
 71
     3
 72
   281
 73
   277
 74
     0
 42
0.0000000001
 43
0.0000000001
 12
1.0
 22
0.0
 32
0.0
 13
1.0
 23
0.0
 33
0.0
 40
0.0
 40
0.0
 40
0.0
 40
0.0
 40
1.0
 40
1.0
 40
1.0
 40
2.0
 40
2.0
 40
2.0
 40
3.0
 40
3.0
 40
3.0
 40
4.0
 40
4.0
 40
4.0
 40
5.0
 40
5.0
 40
5.0
 40
6.0
 40
6.0
 40
6.0
 40
7.0
 40
7.0
 40
7.0
 40
8.0
 40
8.0
 40
8.0
 40
9.0
 40
9.0
 40
9.0
 40
10.0
 40
10.0
 40
10.0
 40
11.0
 40
11.0
 40
11.0
 40
12.0
 40
12.0
 40
12.0
 40
13.0
 40
13.0
 40
13.0
 40
14.0
 40
14.0
 40
14.0
 40
15.0
 40
15.0
 40
15.0
 40
16.0
 40
16.0
 40
16.0
 40
17.0
 40
17.0
 40
17.0
 40
18.0
 40
18.0
 40
18.0
 40
19.0
 40
19.0
 40
19.0
 40
20.0
 40
20.0
 40
20.0
 40
21.0
 40
21.0
 40
21.0
 40
22.0
 40
22.0
 40
22.0
 40
23.0
 40
23.0
 40
23.0
 40
24.0
 40
24.0
 40
24.0
 40
25.0
 40
25.0
 40
25.0
 40
26.0
 40
26.0
 40
26.0
 40
27.0
 40
27.0
 40
27.0
 40
28.0
 40
28.0
 40
28.0
 40
29.0
 40
29.0
 40
29.0
 40
30.0
 40
30.0
 40
30.0
 40
31.0
 40
31.0
 40
31.0
 40
32.0
 40
32.0
 40
32.0
 40
33.0
 40
33.0
 40
33.0
 40
34.0
 40
34.0
 40
34.0
 40
35.0
 40
35.0
 40
35.0
 40
36.0
 40
36.0
 40
36.0
 40
37.0
 40
37.0
 40
37.0
 40
38.0
 40
38.0
 40
38.0
 40
39.0
 40
39.0
 40
39.0
 40
40.0
 40
40.0
 40
40.0
 40
41.0
 40
41.0
 40
41.0
 40
42.0
 40
42.0
 40
42.0
 40
43.0
 40
43.0
 40
43.0
 40
44.0
 40
44.0
 40
44.0
 40
45.0
 40
45.0
 40
45.0
 40
46.0
 40
46.0
 40
46.0
 40
47.0
 40
47.0
 40
47.0
 40
48.0
 40
48.0
 40
48.0
 40
49.0
 40
49.0
 40
49.0
 40
50.0
 40
50.0
 40
50.0
 40
51.0
 40
51.0
 40
51.0
 40
52.0
 40
52.0
 40
52.0
 40
53.0
 40
53.0
 40
53.0
 40
54.0
 40
54.0
 40
54.0
 40
55.0
 40
55.0
 40
55.0
 40
56.0
 40
56.0
 40
56.0
 40
57.0
 40
57.0
 40
57.0
 40
58.0
 40
58.0
 40
58.0
 40
59.0
 40
59.0
 40
59.0
 40
60.0
 40
60.0
 40
60.0
 40
61.0
 40
61.0
 40
61.0
 40
62.0
 40
62.0
 40
62.0
 40
63.0
 40
63.0
 40
63.0
 40
64.0
 40
64.0
 40
64.0
 40
65.0
 40
65.0
 40
65.0
 40
66.0
 40
66.0
 40
66.0
 40
67.0
 40
67.0
 40
67.0
 40
68.0
 40
68.0
 40
68.0
 40
69.0
 40
69.0
 40
69.0
 40
70.0
 40
70.0
 40
70.0
 40
71.0
 40
71.0
 40
71.0
 40
72.0
 40
72.0
 40
72.0
 40
73.0
 40
73.0
 40
73.0
 40
74.0
 40
74.0
 40
74.0
 40
75.0
 40
75.0
 40
75.0
 40
76.0
 40
76.0
 40
76.0
 40
77.0
 40
77.0
 40
77.0
 40
78.0
 40
78.0
 40
78.0
 40
79.0
 40
79.0
 40
79.0
 40
80.0
 40
80.0
 40
80.0
 40
81.0
 40
81.0
 40
81.0
 40
82.0
 40
82.0
 40
82.0
 40
83.0
 40
83.0
 40
83.0
 40
84.0
 40
84.0
 40
84.0
 40
85.0
 40
85.0
 40
85.0
 40
86.0
 40
86.0
 40
86.0
 40
87.0
 40
87.0
 40
87.0
 40
88.0
 40
88.0
 40
88.0
 40
89.0
 40
89.0
 40
89.0
 40
90.0
 40
90.0
 40
90.0
 40
91.0
 40
91.0
 40
91.0
 40
92.0
 40
92.0
 40
92.0
 40
92.0
 10
117.964899746527
 20
-154.5152907947046
 30
0.0
 10
117.9672943732217
 20
-154.5056599613731
 30
0.0
 10
117.970398817587
 20
-154.4963466280425
 30
0.0
 10
117.9707515953558
 20
-154.4861866280451
 30
0.0
 10
117.9707515953558
 20
-154.4849871836011
 30
0.0
 10
117.9714218731164
 20
-154.4841052391567
 30
0.0
 10
117.9714218731164
 20
-154.4829057947127
 30
0.0
 10
117.9714218731164
 20
-154.4751446836038
 30
0.0
 10
117.9683174287512
 20
-154.4684419058277
 30
0.0
 10
117.966941595453
 20
-154.4610335724959
 30
0.0
 10
117.9655657621547
 20
-154.4530960724982
 30
0.0
 10
117.9662713176923
 20
-154.4453702391663
 30
0.0
 10
117.9635196510958
 20
-154.4376091280575
 30
0.0
 10
117.9635196510958
 20
-154.4376091280575
 30
0.0
 10
117.708919935369
 20
-153.7375569060098
 30
0.0
 10
117.708919935369
 20
-153.7375569060098
 30
0.0
 10
117.7085671576002
 20
-153.7363574615658
 30
0.0
 10
117.7075441020707
 20
-153.735651906011
 30
0.0
 10
117.707191324302
 20
-153.7346288504552
 30
0.0
 10
117.7030638244073
 20
-153.7244688504577
 30
0.0
 10
117.696502157908
 20
-153.7160374615709
 30
0.0
 10
117.6903285469544
 20
-153.7072532949069
 30
0.0
 10
117.6865185470516
 20
-153.7022438504632
 30
0.0
 10
117.6841196582239
 20
-153.6962113504644
 30
0.0
 10
117.6796393805604
 20
-153.691731072688
 30
0.0
 10
117.6710358577114
 20
-153.6825941282456
 30
0.0
 10
117.6599896588395
 20
-153.676067739359
 30
0.0
 10
117.6489829924537
 20
-153.6696824615824
 30
0.0
 10
117.6455257703196
 20
-153.6678127393604
 30
0.0
 10
117.6427741037232
 20
-153.6647082949169
 30
0.0
 10
117.6389641038204
 20
-153.6629796838062
 30
0.0
 10
117.6296860485015
 20
-153.6586757949187
 30
0.0
 10
117.6193496598763
 20
-153.6574763504747
 30
0.0
 10
117.6090132712511
 20
-153.6555713504752
 30
0.0
 10
117.60213410476
 20
-153.6540191282534
 30
0.0
 10
117.5955724382607
 20
-153.6516202393647
 30
0.0
 10
117.5883404940008
 20
-153.6512674615876
 30
0.0
 10
117.5869646607025
 20
-153.6512674615876
 30
0.0
 10
117.5859416051731
 20
-153.6505619060321
 30
0.0
 10
117.5845657718748
 20
-153.6505619060321
 30
0.0
 10
117.5845657718748
 20
-153.6505619060321
 30
0.0
 10
111.1938906571368
 20
-153.6505619060321
 30
0.0
 10
111.1938906571368
 20
-153.6505619060321
 30
0.0
 10
111.1938906571368
 20
-153.6505619060321
 30
0.0
 10
110.9331173304563
 20
-153.3896121838744
 30
0.0
 10
110.9331173304563
 20
-153.3896121838744
 30
0.0
 10
110.9331173304563
 20
-153.3896121838744
 30
0.0
 10
110.9327645526875
 20
-153.3894357949862
 30
0.0
 10
110.9327645526875
 20
-153.3894357949862
 30
0.0
 10
110.9086386371798
 20
-153.3656585727699
 30
0.0
 10
110.8759320541375
 20
-153.3508419061065
 30
0.0
 10
110.8393842772921
 20
-153.3508419061065
 30
0.0
 10
110.8393842772921
 20
-153.3508419061065
 30
0.0
 10
101.4714803062057
 20
-153.3508419061065
 30
0.0
 10
101.4714803062057
 20
-153.3508419061065
 30
0.0
 10
101.4714803062057
 20
-153.3508419061065
 30
0.0
 10
101.4714803062057
 20
-145.0707241303991
 30
0.0
 10
101.4714803062057
 20
-145.0707241303991
 30
0.0
 10
101.4714803062057
 20
-145.0707241303991
 30
0.0
 10
106.8393077126759
 20
-145.0707241303991
 30
0.0
 10
106.8393077126759
 20
-145.0707241303991
 30
0.0
 10
106.8544418789565
 20
-145.0707241303991
 30
0.0
 10
106.8696113230139
 20
-145.0681488526219
 30
0.0
 10
106.8844279893026
 20
-145.0628219081786
 30
0.0
 10
106.885451044832
 20
-145.0624691304012
 30
0.0
 10
106.8861566003696
 20
-145.0614460748457
 30
0.0
 10
106.8875324336678
 20
-145.061093297068
 30
0.0
 10
106.8964969715163
 20
-145.0574596859578
 30
0.0
 10
106.9040777110235
 20
-145.0512507970704
 30
0.0
 10
106.9123327108129
 20
-145.0457474637386
 30
0.0
 10
106.9185415995433
 20
-145.0416199637396
 30
0.0
 10
106.925424749287
 20
-145.0383391304072
 30
0.0
 10
106.9309240992275
 20
-145.0331885748527
 30
0.0
 10
106.9367802101892
 20
-145.027508852632
 30
0.0
 10
106.9405941937275
 20
-145.0202769081895
 30
0.0
 10
106.9453879877473
 20
-145.0135388526355
 30
0.0
 10
106.9502210431796
 20
-145.0064832970818
 30
0.0
 10
106.9560771541413
 20
-144.9999216304167
 30
0.0
 10
106.9598871540441
 20
-144.9920194081965
 30
0.0
 10
106.9626388206406
 20
-144.9854577415314
 30
0.0
 10
106.9633090984012
 20
-144.9778730193111
 30
0.0
 10
106.9650377094682
 20
-144.9708174637572
 30
0.0
 10
106.9674365982959
 20
-144.9611866304263
 30
0.0
 10
106.9705410426612
 20
-144.9518732970954
 30
0.0
 10
106.97089382043
 20
-144.9417132970979
 30
0.0
 10
106.97089382043
 20
-144.9405138526536
 30
0.0
 10
106.9715993759675
 20
-144.9396319082095
 30
0.0
 10
106.9715993759675
 20
-144.9384324637655
 30
0.0
 10
106.9715993759675
 20
-144.9306713526564
 30
0.0
 10
106.9684949316023
 20
-144.9239685748802
 30
0.0
 10
106.967119098304
 20
-144.9165602415485
 30
0.0
 10
106.9657432650058
 20
-144.9086227415508
 30
0.0
 10
106.9664135427665
 20
-144.9008969082192
 30
0.0
 10
106.96366187617
 20
-144.89313579711
 30
0.0
 10
106.96366187617
 20
-144.89313579711
 30
0.0
 10
106.5995246632377
 20
-143.89301079736
 30
0.0
 10
106.5995246632377
 20
-143.89301079736
 30
0.0
 10
106.5991718854689
 20
-143.891811352916
 30
0.0
 10
106.5981488299395
 20
-143.8911410751383
 30
0.0
 10
106.5977960521707
 20
-143.8900827418054
 30
0.0
 10
106.5940213300448
 20
-143.8802755195853
 30
0.0
 10
106.5874636382602
 20
-143.8723380195876
 30
0.0
 10
106.5816035525838
 20
-143.8639066307008
 30
0.0
 10
106.5774760526891
 20
-143.8582269084797
 30
0.0
 10
106.5747243860926
 20
-143.8517005195928
 30
0.0
 10
106.5702441084292
 20
-143.8468674640383
 30
0.0
 10
106.5626593864004
 20
-143.8391063529291
 30
0.0
 10
106.5529932755359
 20
-143.833955797375
 30
0.0
 10
106.5440719716045
 20
-143.8280996862651
 30
0.0
 10
106.5388821647848
 20
-143.8249952418215
 30
0.0
 10
106.5347546648901
 20
-143.8206913529337
 30
0.0
 10
106.5292553049411
 20
-143.818080797379
 30
0.0
 10
106.5209610541309
 20
-143.8144824640463
 30
0.0
 10
106.512000498804
 20
-143.8136005196022
 30
0.0
 10
106.503039943477
 20
-143.8117307973805
 30
0.0
 10
106.4947849436876
 20
-143.809825797381
 30
0.0
 10
106.4868474438901
 20
-143.806897741826
 30
0.0
 10
106.4785924441007
 20
-143.8067213529372
 30
0.0
 10
106.4772166108025
 20
-143.8067213529372
 30
0.0
 10
106.476193555273
 20
-143.8060510751595
 30
0.0
 10
106.4751352219667
 20
-143.8060510751595
 30
0.0
 10
106.4751352219667
 20
-143.8060510751595
 30
0.0
 10
95.20349745397458
 20
-143.8060510751595
 30
0.0
 10
95.20349745397458
 20
-143.8060510751595
 30
0.0
 10
95.20243912066825
 20
-143.8060510751595
 30
0.0
 10
95.2014160651388
 20
-143.8067213529372
 30
0.0
 10
95.20004023184056
 20
-143.8067213529372
 30
0.0
 10
95.19143245428239
 20
-143.806897741826
 30
0.0
 10
95.18349495448489
 20
-143.809825797381
 30
0.0
 10
95.17488717692672
 20
-143.8117307973805
 30
0.0
 10
95.1662830855599
 20
-143.8137769084911
 30
0.0
 10
95.15731884404158
 20
-143.8144824640463
 30
0.0
 10
95.14938134424409
 20
-143.818080797379
 30
0.0
 10
95.14352523328238
 20
-143.8208677418226
 30
0.0
 10
95.138727455627
 20
-143.8256655195992
 30
0.0
 10
95.13322412243407
 20
-143.8292991307094
 30
0.0
 10
95.12458106709902
 20
-143.8348024640412
 30
0.0
 10
95.11562051177206
 20
-143.8394591307069
 30
0.0
 10
95.1087413452809
 20
-143.8468674640383
 30
0.0
 10
95.10359078985675
 20
-143.8518416307038
 30
0.0
 10
95.10083912326029
 20
-143.8585796862575
 30
0.0
 10
95.0966763455887
 20
-143.8644357973671
 30
0.0
 10
95.090820234627
 20
-143.8726907973651
 30
0.0
 10
95.0846466236734
 20
-143.8806282973631
 30
0.0
 10
95.0808366237706
 20
-143.8900827418054
 30
0.0
 10
95.08048384600181
 20
-143.8911410751383
 30
0.0
 10
95.07946079047235
 20
-143.891811352916
 30
0.0
 10
95.0791080127039
 20
-143.89301079736
 30
0.0
 10
95.0791080127039
 20
-143.89301079736
 30
0.0
 10
94.71497079977127
 20
-144.89313579711
 30
0.0
 10
94.71497079977127
 20
-144.89313579711
 30
0.0
 10
94.7122191331748
 20
-144.9008969082192
 30
0.0
 10
94.71288941093549
 20
-144.9086227415508
 30
0.0
 10
94.71151357763725
 20
-144.9165602415485
 30
0.0
 10
94.71014141900739
 20
-144.9239685748802
 30
0.0
 10
94.70703329997377
 20
-144.9306713526564
 30
0.0
 10
94.70703329997377
 20
-144.9384324637655
 30
0.0
 10
94.70703329997377
 20
-144.9396319082095
 30
0.0
 10
94.70773885551132
 20
-144.9405138526536
 30
0.0
 10
94.70773885551132
 20
-144.9417132970979
 30
0.0
 10
94.7080916332801
 20
-144.9518732970954
 30
0.0
 10
94.71119975234004
 20
-144.9611866304263
 30
0.0
 10
94.71359496647304
 20
-144.9708174637572
 30
0.0
 10
94.71532357754005
 20
-144.9778730193111
 30
0.0
 10
94.71599385530072
 20
-144.9854577415314
 30
0.0
 10
94.71874552189719
 20
-144.9920194081965
 30
0.0
 10
94.72255552179999
 20
-144.9999216304167
 30
0.0
 10
94.7284116327617
 20
-145.0064832970818
 30
0.0
 10
94.73324468819395
 20
-145.0135388526355
 30
0.0
 10
94.73804246584933
 20
-145.0202769081895
 30
0.0
 10
94.74185246575213
 20
-145.027508852632
 30
0.0
 10
94.74770857671383
 20
-145.0331885748527
 30
0.0
 10
94.75321190990677
 20
-145.0383391304072
 30
0.0
 10
94.76009107639794
 20
-145.0416199637396
 30
0.0
 10
94.76629996512843
 20
-145.0457474637386
 30
0.0
 10
94.77455496491783
 20
-145.0512507970704
 30
0.0
 10
94.78213968694654
 20
-145.0574596859578
 30
0.0
 10
94.79110024227381
 20
-145.061093297068
 30
0.0
 10
94.79247607557173
 20
-145.0614460748457
 30
0.0
 10
94.79318163110928
 20
-145.0624691304012
 30
0.0
 10
94.79420468663874
 20
-145.0628219081786
 30
0.0
 10
94.8090213529274
 20
-145.0681488526219
 30
0.0
 10
94.82419079698484
 20
-145.0707241303991
 30
0.0
 10
94.8393249632654
 20
-145.0707241303991
 30
0.0
 10
94.8393249632654
 20
-145.0707241303991
 30
0.0
 10
100.2071562152095
 20
-145.0707241303991
 30
0.0
 10
100.2071562152095
 20
-145.0707241303991
 30
0.0
 10
100.2071562152095
 20
-145.0707241303991
 30
0.0
 10
100.2071562152095
 20
-153.3508419061065
 30
0.0
 10
100.2071562152095
 20
-153.3508419061065
 30
0.0
 10
100.2071562152095
 20
-153.3508419061065
 30
0.0
 10
95.20349745397458
 20
-153.3508419061065
 30
0.0
 10
95.20349745397458
 20
-153.3508419061065
 30
0.0
 10
95.20212162067635
 20
-153.3508419061065
 30
0.0
 10
95.20106328737002
 20
-153.3515474616621
 30
0.0
 10
95.19968745407178
 20
-153.3515474616621
 30
0.0
 10
95.19210273204307
 20
-153.3518649616616
 30
0.0
 10
95.18487078778313
 20
-153.3546519061056
 30
0.0
 10
95.17763884352318
 20
-153.3560277394385
 30
0.0
 10
95.16800801043556
 20
-153.3580738505493
 30
0.0
 10
95.15802439957915
 20
-153.359132183882
 30
0.0
 10
95.14938134424409
 20
-153.3630832949924
 30
0.0
 10
95.14423078881994
 20
-153.3653057949922
 30
0.0
 10
95.14045606669401
 20
-153.3692921838795
 30
0.0
 10
95.13562301126208
 20
-153.3722202394348
 30
0.0
 10
95.12595690039726
 20
-153.3780763505441
 30
0.0
 10
95.11632606730963
 20
-153.3837560727651
 30
0.0
 10
95.10838856751212
 20
-153.3918346838742
 30
0.0
 10
95.10390828984865
 20
-153.3966677394284
 30
0.0
 10
95.10115662325218
 20
-153.403053017205
 30
0.0
 10
95.09702912335749
 20
-153.4085563505365
 30
0.0
 10
95.09117301239577
 20
-153.4169877394233
 30
0.0
 10
95.08496412366529
 20
-153.4251016283106
 30
0.0
 10
95.0808366237706
 20
-153.4349088505303
 30
0.0
 10
95.08048384600181
 20
-153.4359319060854
 30
0.0
 10
95.07946079047235
 20
-153.4366374616409
 30
0.0
 10
95.0791080127039
 20
-153.4378369060849
 30
0.0
 10
95.0791080127039
 20
-153.4378369060849
 30
0.0
 10
94.71497079977127
 20
-154.4376091280575
 30
0.0
 10
94.71497079977127
 20
-154.4376091280575
 30
0.0
 10
94.7122191331748
 20
-154.4453702391663
 30
0.0
 10
94.71288941093549
 20
-154.4530960724982
 30
0.0
 10
94.71151357763725
 20
-154.4610335724959
 30
0.0
 10
94.71014141900739
 20
-154.4684419058277
 30
0.0
 10
94.70703329997377
 20
-154.4751446836038
 30
0.0
 10
94.70703329997377
 20
-154.4829057947127
 30
0.0
 10
94.70703329997377
 20
-154.4841052391567
 30
0.0
 10
94.70773885551132
 20
-154.4849871836011
 30
0.0
 10
94.70773885551132
 20
-154.4861866280451
 30
0.0
 10
94.7080916332801
 20
-154.4961702391537
 30
0.0
 10
94.71119975234004
 20
-154.5054835724849
 30
0.0
 10
94.71359496647304
 20
-154.5151144058158
 30
0.0
 10
94.71532357754005
 20
-154.5221699613691
 30
0.0
 10
94.71599385530072
 20
-154.5297546835896
 30
0.0
 10
94.71874552189719
 20
-154.5364927391433
 30
0.0
 10
94.72220274403121
 20
-154.5442185724746
 30
0.0
 10
94.72805885499292
 20
-154.5502510724735
 30
0.0
 10
94.73289191042518
 20
-154.5571302391385
 30
0.0
 10
94.73772496585742
 20
-154.56422107247
 30
0.0
 10
94.74149968798335
 20
-154.5718057946899
 30
0.0
 10
94.74770857671383
 20
-154.5778030169112
 30
0.0
 10
94.752859132138
 20
-154.5828124613543
 30
0.0
 10
94.75977357640603
 20
-154.5857405169096
 30
0.0
 10
94.76562968736775
 20
-154.5898680169082
 30
0.0
 10
94.77388468715714
 20
-154.5955477391293
 30
0.0
 10
94.78182218695464
 20
-154.6017566280164
 30
0.0
 10
94.79145302004227
 20
-154.6055666280154
 30
0.0
 10
94.79247607557173
 20
-154.605884128015
 30
0.0
 10
94.79318163110928
 20
-154.6069424613483
 30
0.0
 10
94.79420468663874
 20
-154.6072599613479
 30
0.0
 10
94.8090213529274
 20
-154.6126221835694
 30
0.0
 10
94.82419079698484
 20
-154.6151974613463
 30
0.0
 10
94.8393249632654
 20
-154.6151974613463
 30
0.0
 10
94.8393249632654
 20
-154.6151974613463
 30
0.0
 10
117.8391302098248
 20
-154.6151974613463
 30
0.0
 10
117.8391302098248
 20
-154.6151974613463
 30
0.0
 10
117.8542996538823
 20
-154.6151974613463
 30
0.0
 10
117.8694690979397
 20
-154.6126221835694
 30
0.0
 10
117.8842857642284
 20
-154.6072599613479
 30
0.0
 10
117.8853088197578
 20
-154.6069424613483
 30
0.0
 10
117.8859790975185
 20
-154.605884128015
 30
0.0
 10
117.8870374308248
 20
-154.6055666280154
 30
0.0
 10
117.8963154861437
 20
-154.6017566280164
 30
0.0
 10
117.9039002081724
 20
-154.5959005169064
 30
0.0
 10
117.9121904857387
 20
-154.590220794686
 30
0.0
 10
117.9183640966923
 20
-154.5860932946867
 30
0.0
 10
117.9255960409522
 20
-154.5828124613543
 30
0.0
 10
117.9307818741533
 20
-154.5776619057999
 30
0.0
 10
117.936637985115
 20
-154.5719469058013
 30
0.0
 10
117.9404127072409
 20
-154.5647149613591
 30
0.0
 10
117.9452457626731
 20
-154.5580121835829
 30
0.0
 10
117.9500830798642
 20
-154.550956628029
 30
0.0
 10
117.9559349290671
 20
-154.5443949613642
 30
0.0
 10
117.959709651193
 20
-154.5364927391433
 30
0.0
 10
117.9624613177895
 20
-154.5299310724785
 30
0.0
 10
117.963166873327
 20
-154.5223463502586
 30
0.0
 10
117.964899746527
 20
-154.5152907947046
 30
0.0
  0
HATCH
  5
56
330
41
100
AcDbEntity
  8
_U+30EC_U+30A4_U+30E4_U+30FC 1
 62
   179
420
  2234388
100
AcDbHatch
 10
0.0
 20
0.0
 30
0.0
210
0.0
220
0.0
230
1.0
  2
SOLID
 70
     1
 71
     0
 91
        1
 92
        1
 93
        1
 72
     4
 94
        3
 73
     0
 74
     1
 95
      281
 96
      277
 40
0.0
 40
0.0
 40
0.0
 40
0.0
 40
1.0
 40
1.0
 40
1.0
 40
2.0
 40
2.0
 40
2.0
 40
3.0
 40
3.0
 40
3.0
 40
4.0
 40
4.0
 40
4.0
 40
5.0
 40
5.0
 40
5.0
 40
6.0
 40
6.0
 40
6.0
 40
7.0
 40
7.0
 40
7.0
 40
8.0
 40
8.0
 40
8.0
 40
9.0
 40
9.0
 40
9.0
 40
10.0
 40
10.0
 40
10.0
 40
11.0
 40
11.0
 40
11.0
 40
12.0
 40
12.0
 40
12.0
 40
13.0
 40
13.0
 40
13.0
 40
14.0
 40
14.0
 40
14.0
 40
15.0
 40
15.0
 40
15.0
 40
16.0
 40
16.0
 40
16.0
 40
17.0
 40
17.0
 40
17.0
 40
18.0
 40
18.0
 40
18.0
 40
19.0
 40
19.0
 40
19.0
 40
20.0
 40
20.0
 40
20.0
 40
21.0
 40
21.0
 40
21.0
 40
22.0
 40
22.0
 40
22.0
 40
23.0
 40
23.0
 40
23.0
 40
24.0
 40
24.0
 40
24.0
 40
25.0
 40
25.0
 40
25.0
 40
26.0
 40
26.0
 40
26.0
 40
27.0
 40
27.0
 40
27.0
 40
28.0
 40
28.0
 40
28.0
 40
29.0
 40
29.0
 40
29.0
 40
30.0
 40
30.0
 40
30.0
 40
31.0
 40
31.0
 40
31.0
 40
32.0
 40
32.0
 40
32.0
 40
33.0
 40
33.0
 40
33.0
 40
34.0
 40
34.0
 40
34.0
 40
35.0
 40
35.0
 40
35.0
 40
36.0
 40
36.0
 40
36.0
 40
37.0
 40
37.0
 40
37.0
 40
38.0
 40
38.0
 40
38.0
 40
39.0
 40
39.0
 40
39.0
 40
40.0
 40
40.0
 40
40.0
 40
41.0
 40
41.0
 40
41.0
 40
42.0
 40
42.0
 40
42.0
 40
43.0
 40
43.0
 40
43.0
 40
44.0
 40
44.0
 40
44.0
 40
45.0
 40
45.0
 40
45.0
 40
46.0
 40
46.0
 40
46.0
 40
47.0
 40
47.0
 40
47.0
 40
48.0
 40
48.0
 40
48.0
 40
49.0
 40
49.0
 40
49.0
 40
50.0
 40
50.0
 40
50.0
 40
51.0
 40
51.0
 40
51.0
 40
52.0
 40
52.0
 40
52.0
 40
53.0
 40
53.0
 40
53.0
 40
54.0
 40
54.0
 40
54.0
 40
55.0
 40
55.0
 40
55.0
 40
56.0
 40
56.0
 40
56.0
 40
57.0
 40
57.0
 40
57.0
 40
58.0
 40
58.0
 40
58.0
 40
59.0
 40
59.0
 40
59.0
 40
60.0
 40
60.0
 40
60.0
 40
61.0
 40
61.0
 40
61.0
 40
62.0
 40
62.0
 40
62.0
 40
63.0
 40
63.0
 40
63.0
 40
64.0
 40
64.0
 40
64.0
 40
65.0
 40
65.0
 40
65.0
 40
66.0
 40
66.0
 40
66.0
 40
67.0
 40
67.0
 40
67.0
 40
68.0
 40
68.0
 40
68.0
 40
69.0
 40
69.0
 40
69.0
 40
70.0
 40
70.0
 40
70.0
 40
71.0
 40
71.0
 40
71.0
 40
72.0
 40
72.0
 40
72.0
 40
73.0
 40
73.0
 40
73.0
 40
74.0
 40
74.0
 40
74.0
 40
75.0
 40
75.0
 40
75.0
 40
76.0
 40
76.0
 40
76.0
 40
77.0
 40
77.0
 40
77.0
 40
78.0
 40
78.0
 40
78.0
 40
79.0
 40
79.0
 40
79.0
 40
80.0
 40
80.0
 40
80.0
 40
81.0
 40
81.0
 40
81.0
 40
82.0
 40
82.0
 40
82.0
 40
83.0
 40
83.0
 40
83.0
 40
84.0
 40
84.0
 40
84.0
 40
85.0
 40
85.0
 40
85.0
 40
86.0
 40
86.0
 40
86.0
 40
87.0
 40
87.0
 40
87.0
 40
88.0
 40
88.0
 40
88.0
 40
89.0
 40
89.0
 40
89.0
 40
90.0
 40
90.0
 40
90.0
 40
91.0
 40
91.0
 40
91.0
 40
92.0
 40
92.0
 40
92.0
 40
92.0
 10
117.964899746527
 20
-154.5152907947046
 10
117.9672943732217
 20
-154.5056599613731
 10
117.970398817587
 20
-154.4963466280425
 10
117.9707515953558
 20
-154.4861866280451
 10
117.9707515953558
 20
-154.4849871836011
 10
117.9714218731164
 20
-154.4841052391567
 10
117.9714218731164
 20
-154.4829057947127
 10
117.9714218731164
 20
-154.4751446836038
 10
117.9683174287512
 20
-154.4684419058277
 10
117.966941595453
 20
-154.4610335724959
 10
117.9655657621547
 20
-154.4530960724982
 10
117.9662713176923
 20
-154.4453702391663
 10
117.9635196510958
 20
-154.4376091280575
 10
117.9635196510958
 20
-154.4376091280575
 10
117.708919935369
 20
-153.7375569060098
 10
117.708919935369
 20
-153.7375569060098
 10
117.7085671576002
 20
-153.7363574615658
 10
117.7075441020707
 20
-153.735651906011
 10
117.707191324302
 20
-153.7346288504552
 10
117.7030638244073
 20
-153.7244688504577
 10
117.696502157908
 20
-153.7160374615709
 10
117.6903285469544
 20
-153.7072532949069
 10
117.6865185470516
 20
-153.7022438504632
 10
117.6841196582239
 20
-153.6962113504644
 10
117.6796393805604
 20
-153.691731072688
 10
117.6710358577114
 20
-153.6825941282456
 10
117.6599896588395
 20
-153.676067739359
 10
117.6489829924537
 20
-153.6696824615824
 10
117.6455257703196
 20
-153.6678127393604
 10
117.6427741037232
 20
-153.6647082949169
 10
117.6389641038204
 20
-153.6629796838062
 10
117.6296860485015
 20
-153.6586757949187
 10
117.6193496598763
 20
-153.6574763504747
 10
117.6090132712511
 20
-153.6555713504752
 10
117.60213410476
 20
-153.6540191282534
 10
117.5955724382607
 20
-153.6516202393647
 10
117.5883404940008
 20
-153.6512674615876
 10
117.5869646607025
 20
-153.6512674615876
 10
117.5859416051731
 20
-153.6505619060321
 10
117.5845657718748
 20
-153.6505619060321
 10
117.5845657718748
 20
-153.6505619060321
 10
111.1938906571368
 20
-153.6505619060321
 10
111.1938906571368
 20
-153.6505619060321
 10
111.1938906571368
 20
-153.6505619060321
 10
110.9331173304563
 20
-153.3896121838744
 10
110.9331173304563
 20
-153.3896121838744
 10
110.9331173304563
 20
-153.3896121838744
 10
110.9327645526875
 20
-153.3894357949862
 10
110.9327645526875
 20
-153.3894357949862
 10
110.9086386371798
 20
-153.3656585727699
 10
110.8759320541375
 20
-153.3508419061065
 10
110.8393842772921
 20
-153.3508419061065
 10
110.8393842772921
 20
-153.3508419061065
 10
101.4714803062057
 20
-153.3508419061065
 10
101.4714803062057
 20
-153.3508419061065
 10
101.4714803062057
 20
-153.3508419061065
 10
101.4714803062057
 20
-145.0707241303991
 10
101.4714803062057
 20
-145.0707241303991
 10
101.4714803062057
 20
-145.0707241303991
 10
106.8393077126759
 20
-145.0707241303991
 10
106.8393077126759
 20
-145.0707241303991
 10
106.8544418789565
 20
-145.0707241303991
 10
106.8696113230139
 20
-145.0681488526219
 10
106.8844279893026
 20
-145.0628219081786
 10
106.885451044832
 20
-145.0624691304012
 10
106.8861566003696
 20
-145.0614460748457
 10
106.8875324336678
 20
-145.061093297068
 10
106.8964969715163
 20
-145.0574596859578
 10
106.9040777110235
 20
-145.0512507970704
 10
106.9123327108129
 20
-145.0457474637386
 10
106.9185415995433
 20
-145.0416199637396
 10
106.925424749287
 20
-145.0383391304072
 10
106.9309240992275
 20
-145.0331885748527
 10
106.9367802101892
 20
-145.027508852632
 10
106.9405941937275
 20
-145.0202769081895
 10
106.9453879877473
 20
-145.0135388526355
 10
106.9502210431796
 20
-145.0064832970818
 10
106.9560771541413
 20
-144.9999216304167
 10
106.9598871540441
 20
-144.9920194081965
 10
106.9626388206406
 20
-144.9854577415314
 10
106.9633090984012
 20
-144.9778730193111
 10
106.9650377094682
 20
-144.9708174637572
 10
106.9674365982959
 20
-144.9611866304263
 10
106.9705410426612
 20
-144.9518732970954
 10
106.97089382043
 20
-144.9417132970979
 10
106.97089382043
 20
-144.9405138526536
 10
106.9715993759675
 20
-144.9396319082095
 10
106.9715993759675
 20
-144.9384324637655
 10
106.9715993759675
 20
-144.9306713526564
 10
106.9684949316023
 20
-144.9239685748802
 10
106.967119098304
 20
-144.9165602415485
 10
106.9657432650058
 20
-144.9086227415508
 10
106.9664135427665
 20
-144.9008969082192
 10
106.96366187617
 20
-144.89313579711
 10
106.96366187617
 20
-144.89313579711
 10
106.5995246632377
 20
-143.89301079736
 10
106.5995246632377
 20
-143.89301079736
 10
106.5991718854689
 20
-143.891811352916
 10
106.5981488299395
 20
-143.8911410751383
 10
106.5977960521707
 20
-143.8900827418054
 10
106.5940213300448
 20
-143.8802755195853
 10
106.5874636382602
 20
-143.8723380195876
 10
106.5816035525838
 20
-143.8639066307008
 10
106.5774760526891
 20
-143.8582269084797
 10
106.5747243860926
 20
-143.8517005195928
 10
106.5702441084292
 20
-143.8468674640383
 10
106.5626593864004
 20
-143.8391063529291
 10
106.5529932755359
 20
-143.833955797375
 10
106.5440719716045
 20
-143.8280996862651
 10
106.5388821647848
 20
-143.8249952418215
 10
106.5347546648901
 20
-143.8206913529337
 10
106.5292553049411
 20
-143.818080797379
 10
106.5209610541309
 20
-143.8144824640463
 10
106.512000498804
 20
-143.8136005196022
 10
106.503039943477
 20
-143.8117307973805
 10
106.4947849436876
 20
-143.809825797381
 10
106.4868474438901
 20
-143.806897741826
 10
106.4785924441007
 20
-143.8067213529372
 10
106.4772166108025
 20
-143.8067213529372
 10
106.476193555273
 20
-143.8060510751595
 10
106.4751352219667
 20
-143.8060510751595
 10
106.4751352219667
 20
-143.8060510751595
 10
95.20349745397458
 20
-143.8060510751595
 10
95.20349745397458
 20
-143.8060510751595
 10
95.20243912066825
 20
-143.8060510751595
 10
95.2014160651388
 20
-143.8067213529372
 10
95.20004023184056
 20
-143.8067213529372
 10
95.19143245428239
 20
-143.806897741826
 10
95.18349495448489
 20
-143.809825797381
 10
95.17488717692672
 20
-143.8117307973805
 10
95.1662830855599
 20
-143.8137769084911
 10
95.15731884404158
 20
-143.8144824640463
 10
95.14938134424409
 20
-143.818080797379
 10
95.14352523328238
 20
-143.8208677418226
 10
95.138727455627
 20
-143.8256655195992
 10
95.13322412243407
 20
-143.8292991307094
 10
95.12458106709902
 20
-143.8348024640412
 10
95.11562051177206
 20
-143.8394591307069
 10
95.1087413452809
 20
-143.8468674640383
 10
95.10359078985675
 20
-143.8518416307038
 10
95.10083912326029
 20
-143.8585796862575
 10
95.0966763455887
 20
-143.8644357973671
 10
95.090820234627
 20
-143.8726907973651
 10
95.0846466236734
 20
-143.8806282973631
 10
95.0808366237706
 20
-143.8900827418054
 10
95.08048384600181
 20
-143.8911410751383
 10
95.07946079047235
 20
-143.891811352916
 10
95.0791080127039
 20
-143.89301079736
 10
95.0791080127039
 20
-143.89301079736
 10
94.71497079977127
 20
-144.89313579711
 10
94.71497079977127
 20
-144.89313579711
 10
94.7122191331748
 20
-144.9008969082192
 10
94.71288941093549
 20
-144.9086227415508
 10
94.71151357763725
 20
-144.9165602415485
 10
94.71014141900739
 20
-144.9239685748802
 10
94.70703329997377
 20
-144.9306713526564
 10
94.70703329997377
 20
-144.9384324637655
 10
94.70703329997377
 20
-144.9396319082095
 10
94.70773885551132
 20
-144.9405138526536
 10
94.70773885551132
 20
-144.9417132970979
 10
94.7080916332801
 20
-144.9518732970954
 10
94.71119975234004
 20
-144.9611866304263
 10
94.71359496647304
 20
-144.9708174637572
 10
94.71532357754005
 20
-144.9778730193111
 10
94.71599385530072
 20
-144.9854577415314
 10
94.71874552189719
 20
-144.9920194081965
 10
94.72255552179999
 20
-144.9999216304167
 10
94.7284116327617
 20
-145.0064832970818
 10
94.73324468819395
 20
-145.0135388526355
 10
94.73804246584933
 20
-145.0202769081895
 10
94.74185246575213
 20
-145.027508852632
 10
94.74770857671383
 20
-145.0331885748527
 10
94.75321190990677
 20
-145.0383391304072
 10
94.76009107639794
 20
-145.0416199637396
 10
94.76629996512843
 20
-145.0457474637386
 10
94.77455496491783
 20
-145.0512507970704
 10
94.78213968694654
 20
-145.0574596859578
 10
94.79110024227381
 20
-145.061093297068
 10
94.79247607557173
 20
-145.0614460748457
 10
94.79318163110928
 20
-145.0624691304012
 10
94.79420468663874
 20
-145.0628219081786
 10
94.8090213529274
 20
-145.0681488526219
 10
94.82419079698484
 20
-145.0707241303991
 10
94.8393249632654
 20
-145.0707241303991
 10
94.8393249632654
 20
-145.0707241303991
 10
100.2071562152095
 20
-145.0707241303991
 10
100.2071562152095
 20
-145.0707241303991
 10
100.2071562152095
 20
-145.0707241303991
 10
100.2071562152095
 20
-153.3508419061065
 10
100.2071562152095
 20
-153.3508419061065
 10
100.2071562152095
 20
-153.3508419061065
 10
95.20349745397458
 20
-153.3508419061065
 10
95.20349745397458
 20
-153.3508419061065
 10
95.20212162067635
 20
-153.3508419061065
 10
95.20106328737002
 20
-153.3515474616621
 10
95.19968745407178
 20
-153.3515474616621
 10
95.19210273204307
 20
-153.3518649616616
 10
95.18487078778313
 20
-153.3546519061056
 10
95.17763884352318
 20
-153.3560277394385
 10
95.16800801043556
 20
-153.3580738505493
 10
95.15802439957915
 20
-153.359132183882
 10
95.14938134424409
 20
-153.3630832949924
 10
95.14423078881994
 20
-153.3653057949922
 10
95.14045606669401
 20
-153.3692921838795
 10
95.13562301126208
 20
-153.3722202394348
 10
95.12595690039726
 20
-153.3780763505441
 10
95.11632606730963
 20
-153.3837560727651
 10
95.10838856751212
 20
-153.3918346838742
 10
95.10390828984865
 20
-153.3966677394284
 10
95.10115662325218
 20
-153.403053017205
 10
95.09702912335749
 20
-153.4085563505365
 10
95.09117301239577
 20
-153.4169877394233
 10
95.08496412366529
 20
-153.4251016283106
 10
95.0808366237706
 20
-153.4349088505303
 10
95.08048384600181
 20
-153.4359319060854
 10
95.07946079047235
 20
-153.4366374616409
 10
95.0791080127039
 20
-153.4378369060849
 10
95.0791080127039
 20
-153.4378369060849
 10
94.71497079977127
 20
-154.4376091280575
 10
94.71497079977127
 20
-154.4376091280575
 10
94.7122191331748
 20
-154.4453702391663
 10
94.71288941093549
 20
-154.4530960724982
 10
94.71151357763725
 20
-154.4610335724959
 10
94.71014141900739
 20
-154.4684419058277
 10
94.70703329997377
 20
-154.4751446836038
 10
94.70703329997377
 20
-154.4829057947127
 10
94.70703329997377
 20
-154.4841052391567
 10
94.70773885551132
 20
-154.4849871836011
 10
94.70773885551132
 20
-154.4861866280451
 10
94.7080916332801
 20
-154.4961702391537
 10
94.71119975234004
 20
-154.5054835724849
 10
94.71359496647304
 20
-154.5151144058158
 10
94.71532357754005
 20
-154.5221699613691
 10
94.71599385530072
 20
-154.5297546835896
 10
94.71874552189719
 20
-154.5364927391433
 10
94.72220274403121
 20
-154.5442185724746
 10
94.72805885499292
 20
-154.5502510724735
 10
94.73289191042518
 20
-154.5571302391385
 10
94.73772496585742
 20
-154.56422107247
 10
94.74149968798335
 20
-154.5718057946899
 10
94.74770857671383
 20
-154.5778030169112
 10
94.752859132138
 20
-154.5828124613543
 10
94.75977357640603
 20
-154.5857405169096
 10
94.76562968736775
 20
-154.5898680169082
 10
94.77388468715714
 20
-154.5955477391293
 10
94.78182218695464
 20
-154.6017566280164
 10
94.79145302004227
 20
-154.6055666280154
 10
94.79247607557173
 20
-154.605884128015
 10
94.79318163110928
 20
-154.6069424613483
 10
94.79420468663874
 20
-154.6072599613479
 10
94.8090213529274
 20
-154.6126221835694
 10
94.82419079698484
 20
-154.6151974613463
 10
94.8393249632654
 20
-154.6151974613463
 10
94.8393249632654
 20
-154.6151974613463
 10
117.8391302098248
 20
-154.6151974613463
 10
117.8391302098248
 20
-154.6151974613463
 10
117.8542996538823
 20
-154.6151974613463
 10
117.8694690979397
 20
-154.6126221835694
 10
117.8842857642284
 20
-154.6072599613479
 10
117.8853088197578
 20
-154.6069424613483
 10
117.8859790975185
 20
-154.605884128015
 10
117.8870374308248
 20
-154.6055666280154
 10
117.8963154861437
 20
-154.6017566280164
 10
117.9039002081724
 20
-154.5959005169064
 10
117.9121904857387
 20
-154.590220794686
 10
117.9183640966923
 20
-154.5860932946867
 10
117.9255960409522
 20
-154.5828124613543
 10
117.9307818741533
 20
-154.5776619057999
 10
117.936637985115
 20
-154.5719469058013
 10
117.9404127072409
 20
-154.5647149613591
 10
117.9452457626731
 20
-154.5580121835829
 10
117.9500830798642
 20
-154.550956628029
 10
117.9559349290671
 20
-154.5443949613642
 10
117.959709651193
 20
-154.5364927391433
 10
117.9624613177895
 20
-154.5299310724785
 10
117.963166873327
 20
-154.5223463502586
 10
117.964899746527
 20
-154.5152907947046
 97
        0
 97
        0
 75
     2
 76
     1
 98
        0
  0
POLYLINE
  5
57
330
41
100
AcDbEntity
  8
_U+30EC_U+30A4_U+30E4_U+30FC 1
 62
   179
420
  2234388
370
    25
100
AcDb2dPolyline
 66
     1
 10
0.0
 20
0.0
 30
0.0
  0
VERTEX
  5
58
330
57
100
AcDbEntity
  8
_U+30EC_U+30A4_U+30E4_U+30FC 1
 62
   179
420
  2234388
370
    25
100
AcDbVertex
100
AcDb2dVertex
 10
111.1391042696456
 20
-153.7828535726657
 30
0.0
  0
VERTEX
  5
59
330
57
100
AcDbEntity
  8
_U+30EC_U+30A4_U+30E4_U+30FC 1
 62
   179
420
  2234388
370
    25
100
AcDbVertex
100
AcDb2dVertex
 10
117.5845657718748
 20
-153.7828535726657
 30
0.0
  0
SEQEND
  5
5A
330
57
100
AcDbEntity
  8
_U+30EC_U+30A4_U+30E4_U+30FC 1
 62
   179
420
  2234388
370
    25
  0
POLYLINE
  5
5B
330
41
100
AcDbEntity
  8
_U+30EC_U+30A4_U+30E4_U+30FC 1
 62
   179
420
  2234388
370
    25
100
AcDb2dPolyline
 66
     1
 10
0.0
 20
0.0
 30
0.0
  0
VERTEX
  5
5C
330
5B
100
AcDbEntity
  8
_U+30EC_U+30A4_U+30E4_U+30FC 1
 62
   179
420
  2234388
370
    25
100
AcDbVertex
100
AcDb2dVertex
 10
106.4751352219667
 20
-143.9383427417931
 30
0.0
  0
VERTEX
  5
5D
330
5B
100
AcDbEntity
  8
_U+30EC_U+30A4_U+30E4_U+30FC 1
 62
   179
420
  2234388
370
    25
100
AcDbVertex
100
AcDb2dVertex
 10
106.8393077126759
 20
-144.9384324637655
 30
0.0
  0
SEQEND
  5
5E
330
5B
100
AcDbEntity
  8
_U+30EC_U+30A4_U+30E4_U+30FC 1
 62
   179
420
  2234388
370
    25
  0
POLYLINE
  5
5F
330
41
100
AcDbEntity
  8
_U+30EC_U+30A4_U+30E4_U+30FC 1
 62
   179
420
  2234388
370
    25
100
AcDb2dPolyline
 66
     1
 10
0.0
 20
0.0
 30
0.0
  0
VERTEX
  5
60
330
5F
100
AcDbEntity
  8
_U+30EC_U+30A4_U+30E4_U+30FC 1
 62
   179
420
  2234388
370
    25
100
AcDbVertex
100
AcDb2dVertex
 10
117.5845657718748
 20
-153.7828535726657
 30
0.0
  0
VERTEX
  5
61
330
5F
100
AcDbEntity
  8
_U+30EC_U+30A4_U+30E4_U+30FC 1
 62
   179
420
  2234388
370
    25
100
AcDbVertex
100
AcDb2dVertex
 10
117.8391302098248
 20
-154.4829057947127
 30
0.0
  0
SEQEND
  5
62
330
5F
100
AcDbEntity
  8
_U+30EC_U+30A4_U+30E4_U+30FC 1
 62
   179
420
  2234388
370
    25
  0
POLYLINE
  5
63
330
41
100
AcDbEntity
  8
_U+30EC_U+30A4_U+30E4_U+30FC 1
 62
   179
420
  2234388
370
    25
100
AcDb2dPolyline
 66
     1
 10
0.0
 20
0.0
 30
0.0
  0
VERTEX
  5
64
330
63
100
AcDbEntity
  8
_U+30EC_U+30A4_U+30E4_U+30FC 1
 62
   179
420
  2234388
370
    25
100
AcDbVertex
100
AcDb2dVertex
 10
110.8393842772921
 20
-153.4831335727401
 30
0.0
  0
VERTEX
  5
65
330
63
100
AcDbEntity
  8
_U+30EC_U+30A4_U+30E4_U+30FC 1
 62
   179
420
  2234388
370
    25
100
AcDbVertex
100
AcDb2dVertex
 10
111.1391042696456
 20
-153.7828535726657
 30
0.0
  0
SEQEND
  5
66
330
63
100
AcDbEntity
  8
_U+30EC_U+30A4_U+30E4_U+30FC 1
 62
   179
420
  2234388
370
    25
  0
POLYLINE
  5
67
330
41
100
AcDbEntity
  8
_U+30EC_U+30A4_U+30E4_U+30FC 1
 62
   179
420
  2234388
370
    25
100
AcDb2dPolyline
 66
     1
 10
0.0
 20
0.0
 30
0.0
  0
VERTEX
  5
68
330
67
100
AcDbEntity
  8
_U+30EC_U+30A4_U+30E4_U+30FC 1
 62
   179
420
  2234388
370
    25
100
AcDbVertex
100
AcDb2dVertex
 10
94.8393249632654
 20
-144.9384324637655
 30
0.0
  0
VERTEX
  5
69
330
67
100
AcDbEntity
  8
_U+30EC_U+30A4_U+30E4_U+30FC 1
 62
   179
420
  2234388
370
    25
100
AcDbVertex
100
AcDb2dVertex
 10
95.20349745397458
 20
-143.9383427417931
 30
0.0
  0
SEQEND
  5
6A
330
67
100
AcDbEntity
  8
_U+30EC_U+30A4_U+30E4_U+30FC 1
 62
   179
420
  2234388
370
    25
  0
POLYLINE
  5
6B
330
41
100
AcDbEntity
  8
_U+30EC_U+30A4_U+30E4_U+30FC 1
 62
   179
420
  2234388
370
    25
100
AcDb2dPolyline
 66
     1
 10
0.0
 20
0.0
 30
0.0
  0
VERTEX
  5
6C
330
6B
100
AcDbEntity
  8
_U+30EC_U+30A4_U+30E4_U+30FC 1
 62
   179
420
  2234388
370
    25
100
AcDbVertex
100
AcDb2dVertex
 10
94.8393249632654
 20
-154.4829057947127
 30
0.0
  0
VERTEX
  5
6D
330
6B
100
AcDbEntity
  8
_U+30EC_U+30A4_U+30E4_U+30FC 1
 62
   179
420
  2234388
370
    25
100
AcDbVertex
100
AcDb2dVertex
 10
95.20349745397458
 20
-153.4831335727401
 30
0.0
  0
SEQEND
  5
6E
330
6B
100
AcDbEntity
  8
_U+30EC_U+30A4_U+30E4_U+30FC 1
 62
   179
420
  2234388
370
    25
  0
POLYLINE
  5
6F
330
41
100
AcDbEntity
  8
_U+30EC_U+30A4_U+30E4_U+30FC 1
 62
   179
420
  2234388
370
    25
100
AcDb2dPolyline
 66
     1
 10
0.0
 20
0.0
 30
0.0
  0
VERTEX
  5
70
330
6F
100
AcDbEntity
  8
_U+30EC_U+30A4_U+30E4_U+30FC 1
 62
   179
420
  2234388
370
    25
100
AcDbVertex
100
AcDb2dVertex
 10
100.3394478785011
 20
-144.9384324637655
 30
0.0
  0
VERTEX
  5
71
330
6F
100
AcDbEntity
  8
_U+30EC_U+30A4_U+30E4_U+30FC 1
 62
   179
420
  2234388
370
    25
100
AcDbVertex
100
AcDb2dVertex
 10
100.3394478785011
 20
-153.4383660727516
 30
0.0
  0
SEQEND
  5
72
330
6F
100
AcDbEntity
  8
_U+30EC_U+30A4_U+30E4_U+30FC 1
 62
   179
420
  2234388
370
    25
  0
POLYLINE
  5
73
330
41
100
AcDbEntity
  8
_U+30EC_U+30A4_U+30E4_U+30FC 1
 62
   179
420
  2234388
370
    25
100
AcDb2dPolyline
 66
     1
 10
0.0
 20
0.0
 30
0.0
  0
VERTEX
  5
74
330
73
100
AcDbEntity
  8
_U+30EC_U+30A4_U+30E4_U+30FC 1
 62
   179
420
  2234388
370
    25
100
AcDbVertex
100
AcDb2dVertex
 10
101.3391886395721
 20
-144.9384324637655
 30
0.0
  0
VERTEX
  5
75
330
73
100
AcDbEntity
  8
_U+30EC_U+30A4_U+30E4_U+30FC 1
 62
   179
420
  2234388
370
    25
100
AcDbVertex
100
AcDb2dVertex
 10
101.3391886395721
 20
-153.4383660727516
 30
0.0
  0
SEQEND
  5
76
330
73
100
AcDbEntity
  8
_U+30EC_U+30A4_U+30E4_U+30FC 1
 62
   179
420
  2234388
370
    25
  0
POLYLINE
  5
77
330
41
100
AcDbEntity
  8
_U+30EC_U+30A4_U+30E4_U+30FC 1
 62
   179
420
  2234388
370
    25
100
AcDb2dPolyline
 66
     1
 10
0.0
 20
0.0
 30
0.0
  0
VERTEX
  5
78
330
77
100
AcDbEntity
  8
_U+30EC_U+30A4_U+30E4_U+30FC 1
 62
   179
420
  2234388
370
    25
100
AcDbVertex
100
AcDb2dVertex
 10
101.3391886395721
 20
-144.9384324637655
 30
0.0
  0
VERTEX
  5
79
330
77
100
AcDbEntity
  8
_U+30EC_U+30A4_U+30E4_U+30FC 1
 62
   179
420
  2234388
370
    25
100
AcDbVertex
100
AcDb2dVertex
 10
106.8393077126759
 20
-144.9384324637655
 30
0.0
  0
SEQEND
  5
7A
330
77
100
AcDbEntity
  8
_U+30EC_U+30A4_U+30E4_U+30FC 1
 62
   179
420
  2234388
370
    25
  0
POLYLINE
  5
7B
330
41
100
AcDbEntity
  8
_U+30EC_U+30A4_U+30E4_U+30FC 1
 62
   179
420
  2234388
370
    25
100
AcDb2dPolyline
 66
     1
 10
0.0
 20
0.0
 30
0.0
  0
VERTEX
  5
7C
330
7B
100
AcDbEntity
  8
_U+30EC_U+30A4_U+30E4_U+30FC 1
 62
   179
420
  2234388
370
    25
100
AcDbVertex
100
AcDb2dVertex
 10
101.3391886395721
 20
-153.4831335727401
 30
0.0
  0
VERTEX
  5
7D
330
7B
100
AcDbEntity
  8
_U+30EC_U+30A4_U+30E4_U+30FC 1
 62
   179
420
  2234388
370
    25
100
AcDbVertex
100
AcDb2dVertex
 10
110.8393842772921
 20
-153.4831335727401
 30
0.0
  0
SEQEND
  5
7E
330
7B
100
AcDbEntity
  8
_U+30EC_U+30A4_U+30E4_U+30FC 1
 62
   179
420
  2234388
370
    25
  0
SPLINE
  5
7F
330
41
100
AcDbEntity
  8
_U+30EC_U+30A4_U+30E4_U+30FC 1
 62
   179
420
  2234388
370
     9
100
AcDbSpline
210
0.0
220
0.0
230
1.0
 70
    11
 71
     3
 72
    17
 73
    13
 74
     0
 42
0.0000000001
 43
0.0000000001
 12
1.0
 22
0.0
 32
0.0
 13
1.0
 23
0.0
 33
0.0
 40
0.0
 40
0.0
 40
0.0
 40
0.0
 40
1.0
 40
1.0
 40
1.0
 40
2.0
 40
2.0
 40
2.0
 40
3.0
 40
3.0
 40
3.0
 40
4.0
 40
4.0
 40
4.0
 40
4.0
 10
121.9391487163357
 20
-153.7828535726657
 30
0.0
 10
121.9391487163357
 20
-153.7277496837901
 30
0.0
 10
121.894345939701
 20
-153.6829469060234
 30
0.0
 10
121.8392420522179
 20
-153.6829469060234
 30
0.0
 10
121.784102886958
 20
-153.6829469060234
 30
0.0
 10
121.7393353881001
 20
-153.7277496837901
 30
0.0
 10
121.7393353881001
 20
-153.7828535726657
 30
0.0
 10
121.7393353881001
 20
-153.8386630170955
 30
0.0
 10
121.784102886958
 20
-153.8834657948622
 30
0.0
 10
121.8392420522179
 20
-153.8834657948622
 30
0.0
 10
121.894345939701
 20
-153.8834657948622
 30
0.0
 10
121.9391487163357
 20
-153.8386630170955
 30
0.0
 10
121.9391487163357
 20
-153.7828535726657
 30
0.0
  0
SPLINE
  5
80
330
41
100
AcDbEntity
  8
_U+30EC_U+30A4_U+30E4_U+30FC 1
 62
   179
420
  2234388
370
     9
100
AcDbSpline
210
0.0
220
0.0
230
1.0
 70
    11
 71
     3
 72
    17
 73
    13
 74
     0
 42
0.0000000001
 43
0.0000000001
 12
1.0
 22
0.0
 32
0.0
 13
1.0
 23
0.0
 33
0.0
 40
0.0
 40
0.0
 40
0.0
 40
0.0
 40
1.0
 40
1.0
 40
1.0
 40
2.0
 40
2.0
 40
2.0
 40
3.0
 40
3.0
 40
3.0
 40
4.0
 40
4.0
 40
4.0
 40
4.0
 10
121.9391487163357
 20
-154.4829057947127
 30
0.0
 10
121.9391487163357
 20
-154.4277666280596
 30
0.0
 10
121.894345939701
 20
-154.382999128071
 30
0.0
 10
121.8392420522179
 20
-154.382999128071
 30
0.0
 10
121.784102886958
 20
-154.382999128071
 30
0.0
 10
121.7393353881001
 20
-154.4277666280596
 30
0.0
 10
121.7393353881001
 20
-154.4829057947127
 30
0.0
 10
121.7393353881001
 20
-154.5380096835876
 30
0.0
 10
121.784102886958
 20
-154.5828124613543
 30
0.0
 10
121.8392420522179
 20
-154.5828124613543
 30
0.0
 10
121.894345939701
 20
-154.5828124613543
 30
0.0
 10
121.9391487163357
 20
-154.5380096835876
 30
0.0
 10
121.9391487163357
 20
-154.4829057947127
 30
0.0
  0
SPLINE
  5
81
330
41
100
AcDbEntity
  8
_U+30EC_U+30A4_U+30E4_U+30FC 1
 62
   179
420
  2234388
370
     9
100
AcDbSpline
210
0.0
220
0.0
230
1.0
 70
    11
 71
     3
 72
    17
 73
    13
 74
     0
 42
0.0000000001
 43
0.0000000001
 12
1.0
 22
0.0
 32
0.0
 13
1.0
 23
0.0
 33
0.0
 40
0.0
 40
0.0
 40
0.0
 40
0.0
 40
1.0
 40
1.0
 40
1.0
 40
2.0
 40
2.0
 40
2.0
 40
3.0
 40
3.0
 40
3.0
 40
4.0
 40
4.0
 40
4.0
 40
4.0
 10
117.9393896517114
 20
-158.4833352381569
 30
0.0
 10
117.9393896517114
 20
-158.428231349282
 30
0.0
 10
117.8946221528535
 20
-158.3834285715153
 30
0.0
 10
117.8391302098248
 20
-158.3834285715153
 30
0.0
 10
117.7840263223417
 20
-158.3834285715153
 30
0.0
 10
117.739223545707
 20
-158.428231349282
 30
0.0
 10
117.739223545707
 20
-158.4833352381569
 30
0.0
 10
117.739223545707
 20
-158.53847440481
 30
0.0
 10
117.7840263223417
 20
-158.5832419047985
 30
0.0
 10
117.8391302098248
 20
-158.5832419047985
 30
0.0
 10
117.8946221528535
 20
-158.5832419047985
 30
0.0
 10
117.9393896517114
 20
-158.53847440481
 30
0.0
 10
117.9393896517114
 20
-158.4833352381569
 30
0.0
  0
SPLINE
  5
82
330
41
100
AcDbEntity
  8
_U+30EC_U+30A4_U+30E4_U+30FC 1
 62
   179
420
  2234388
370
     9
100
AcDbSpline
210
0.0
220
0.0
230
1.0
 70
    11
 71
     3
 72
    17
 73
    13
 74
     0
 42
0.0000000001
 43
0.0000000001
 12
1.0
 22
0.0
 32
0.0
 13
1.0
 23
0.0
 33
0.0
 40
0.0
 40
0.0
 40
0.0
 40
0.0
 40
1.0
 40
1.0
 40
1.0
 40
2.0
 40
2.0
 40
2.0
 40
3.0
 40
3.0
 40
3.0
 40
4.0
 40
4.0
 40
4.0
 40
4.0
 10
90.93915506276703
 20
-144.9384324637655
 30
0.0
 10
90.93915506276703
 20
-144.8833285748903
 30
0.0
 10
90.89435228613226
 20
-144.8385257971236
 30
0.0
 10
90.83924839864919
 20
-144.8385257971236
 30
0.0
 10
90.78410923338923
 20
-144.8385257971236
 30
0.0
 10
90.73934173453135
 20
-144.8833285748903
 30
0.0
 10
90.73934173453135
 20
-144.9384324637655
 30
0.0
 10
90.73934173453135
 20
-144.9935716304183
 30
0.0
 10
90.78410923338923
 20
-145.0383391304072
 30
0.0
 10
90.83924839864919
 20
-145.0383391304072
 30
0.0
 10
90.89435228613226
 20
-145.0383391304072
 30
0.0
 10
90.93915506276703
 20
-144.9935716304183
 30
0.0
 10
90.93915506276703
 20
-144.9384324637655
 30
0.0
  0
SPLINE
  5
83
330
41
100
AcDbEntity
  8
_U+30EC_U+30A4_U+30E4_U+30FC 1
 62
   179
420
  2234388
370
     9
100
AcDbSpline
210
0.0
220
0.0
230
1.0
 70
    11
 71
     3
 72
    17
 73
    13
 74
     0
 42
0.0000000001
 43
0.0000000001
 12
1.0
 22
0.0
 32
0.0
 13
1.0
 23
0.0
 33
0.0
 40
0.0
 40
0.0
 40
0.0
 40
0.0
 40
1.0
 40
1.0
 40
1.0
 40
2.0
 40
2.0
 40
2.0
 40
3.0
 40
3.0
 40
3.0
 40
4.0
 40
4.0
 40
4.0
 40
4.0
 10
90.93915506276703
 20
-153.4831335727401
 30
0.0
 10
90.93915506276703
 20
-153.4280296838652
 30
0.0
 10
90.89435228613226
 20
-153.3832269060985
 30
0.0
 10
90.83924839864919
 20
-153.3832269060985
 30
0.0
 10
90.78410923338923
 20
-153.3832269060985
 30
0.0
 10
90.73934173453135
 20
-153.4280296838652
 30
0.0
 10
90.73934173453135
 20
-153.4831335727401
 30
0.0
 10
90.73934173453135
 20
-153.5382727393932
 30
0.0
 10
90.78410923338923
 20
-153.5830402393824
 30
0.0
 10
90.83924839864919
 20
-153.5830402393824
 30
0.0
 10
90.89435228613226
 20
-153.5830402393824
 30
0.0
 10
90.93915506276703
 20
-153.5382727393932
 30
0.0
 10
90.93915506276703
 20
-153.4831335727401
 30
0.0
  0
SPLINE
  5
84
330
41
100
AcDbEntity
  8
_U+30EC_U+30A4_U+30E4_U+30FC 1
 62
   179
420
  2234388
370
     9
100
AcDbSpline
210
0.0
220
0.0
230
1.0
 70
    11
 71
     3
 72
    17
 73
    13
 74
     0
 42
0.0000000001
 43
0.0000000001
 12
1.0
 22
0.0
 32
0.0
 13
1.0
 23
0.0
 33
0.0
 40
0.0
 40
0.0
 40
0.0
 40
0.0
 40
1.0
 40
1.0
 40
1.0
 40
2.0
 40
2.0
 40
2.0
 40
3.0
 40
3.0
 40
3.0
 40
4.0
 40
4.0
 40
4.0
 40
4.0
 10
90.93915506276703
 20
-154.4829057947127
 30
0.0
 10
90.93915506276703
 20
-154.4277666280596
 30
0.0
 10
90.89435228613226
 20
-154.382999128071
 30
0.0
 10
90.83924839864919
 20
-154.382999128071
 30
0.0
 10
90.78410923338923
 20
-154.382999128071
 30
0.0
 10
90.73934173453135
 20
-154.4277666280596
 30
0.0
 10
90.73934173453135
 20
-154.4829057947127
 30
0.0
 10
90.73934173453135
 20
-154.5380096835876
 30
0.0
 10
90.78410923338923
 20
-154.5828124613543
 30
0.0
 10
90.83924839864919
 20
-154.5828124613543
 30
0.0
 10
90.89435228613226
 20
-154.5828124613543
 30
0.0
 10
90.93915506276703
 20
-154.5380096835876
 30
0.0
 10
90.93915506276703
 20
-154.4829057947127
 30
0.0
  0
SPLINE
  5
85
330
41
100
AcDbEntity
  8
_U+30EC_U+30A4_U+30E4_U+30FC 1
 62
   179
420
  2234388
370
     9
100
AcDbSpline
210
0.0
220
0.0
230
1.0
 70
    11
 71
     3
 72
    17
 73
    13
 74
     0
 42
0.0000000001
 43
0.0000000001
 12
1.0
 22
0.0
 32
0.0
 13
1.0
 23
0.0
 33
0.0
 40
0.0
 40
0.0
 40
0.0
 40
0.0
 40
1.0
 40
1.0
 40
1.0
 40
2.0
 40
2.0
 40
2.0
 40
3.0
 40
3.0
 40
3.0
 40
4.0
 40
4.0
 40
4.0
 40
4.0
 10
94.93923162738324
 20
-158.4833352381569
 30
0.0
 10
94.93923162738324
 20
-158.428231349282
 30
0.0
 10
94.89446412852534
 20
-158.3834285715153
 30
0.0
 10
94.8393249632654
 20
-158.3834285715153
 30
0.0
 10
94.78387197454413
 20
-158.3834285715153
 30
0.0
 10
94.73910079915566
 20
-158.428231349282
 30
0.0
 10
94.73910079915566
 20
-158.4833352381569
 30
0.0
 10
94.73910079915566
 20
-158.53847440481
 30
0.0
 10
94.78387197454413
 20
-158.5832419047985
 30
0.0
 10
94.8393249632654
 20
-158.5832419047985
 30
0.0
 10
94.89446412852534
 20
-158.5832419047985
 30
0.0
 10
94.93923162738324
 20
-158.53847440481
 30
0.0
 10
94.93923162738324
 20
-158.4833352381569
 30
0.0
  0
SPLINE
  5
86
330
41
100
AcDbEntity
  8
_U+30EC_U+30A4_U+30E4_U+30FC 1
 62
   179
420
  2234388
370
     9
100
AcDbSpline
210
0.0
220
0.0
230
1.0
 70
    11
 71
     3
 72
    17
 73
    13
 74
     0
 42
0.0000000001
 43
0.0000000001
 12
1.0
 22
0.0
 32
0.0
 13
1.0
 23
0.0
 33
0.0
 40
0.0
 40
0.0
 40
0.0
 40
0.0
 40
1.0
 40
1.0
 40
1.0
 40
2.0
 40
2.0
 40
2.0
 40
3.0
 40
3.0
 40
3.0
 40
4.0
 40
4.0
 40
4.0
 40
4.0
 10
106.9392143767937
 20
-139.9382307983487
 30
0.0
 10
106.9392143767937
 20
-139.883091631696
 30
0.0
 10
106.894411600159
 20
-139.8383241317071
 30
0.0
 10
106.8393077126759
 20
-139.8383241317071
 30
0.0
 10
106.7838157696472
 20
-139.8383241317071
 30
0.0
 10
106.7390482707893
 20
-139.883091631696
 30
0.0
 10
106.7390482707893
 20
-139.9382307983487
 30
0.0
 10
106.7390482707893
 20
-139.993334687224
 30
0.0
 10
106.7838157696472
 20
-140.0381374649904
 30
0.0
 10
106.8393077126759
 20
-140.0381374649904
 30
0.0
 10
106.894411600159
 20
-140.0381374649904
 30
0.0
 10
106.9392143767937
 20
-139.993334687224
 30
0.0
 10
106.9392143767937
 20
-139.9382307983487
 30
0.0
  0
SPLINE
  5
87
330
41
100
AcDbEntity
  8
_U+30EC_U+30A4_U+30E4_U+30FC 1
 62
   179
420
  2234388
370
     9
100
AcDbSpline
210
0.0
220
0.0
230
1.0
 70
    11
 71
     3
 72
    17
 73
    13
 74
     0
 42
0.0000000001
 43
0.0000000001
 12
1.0
 22
0.0
 32
0.0
 13
1.0
 23
0.0
 33
0.0
 40
0.0
 40
0.0
 40
0.0
 40
0.0
 40
1.0
 40
1.0
 40
1.0
 40
2.0
 40
2.0
 40
2.0
 40
3.0
 40
3.0
 40
3.0
 40
4.0
 40
4.0
 40
4.0
 40
4.0
 10
94.93923162738324
 20
-139.9382307983487
 30
0.0
 10
94.93923162738324
 20
-139.883091631696
 30
0.0
 10
94.89446412852534
 20
-139.8383241317071
 30
0.0
 10
94.8393249632654
 20
-139.8383241317071
 30
0.0
 10
94.78387197454413
 20
-139.8383241317071
 30
0.0
 10
94.73910079915566
 20
-139.883091631696
 30
0.0
 10
94.73910079915566
 20
-139.9382307983487
 30
0.0
 10
94.73910079915566
 20
-139.993334687224
 30
0.0
 10
94.78387197454413
 20
-140.0381374649904
 30
0.0
 10
94.8393249632654
 20
-140.0381374649904
 30
0.0
 10
94.89446412852534
 20
-140.0381374649904
 30
0.0
 10
94.93923162738324
 20
-139.993334687224
 30
0.0
 10
94.93923162738324
 20
-139.9382307983487
 30
0.0
  0
SPLINE
  5
88
330
41
100
AcDbEntity
  8
_U+30EC_U+30A4_U+30E4_U+30FC 1
 62
   179
420
  2234388
370
     9
100
AcDbSpline
210
0.0
220
0.0
230
1.0
 70
    11
 71
     3
 72
    17
 73
    13
 74
     0
 42
0.0000000001
 43
0.0000000001
 12
1.0
 22
0.0
 32
0.0
 13
1.0
 23
0.0
 33
0.0
 40
0.0
 40
0.0
 40
0.0
 40
0.0
 40
1.0
 40
1.0
 40
1.0
 40
2.0
 40
2.0
 40
2.0
 40
3.0
 40
3.0
 40
3.0
 40
4.0
 40
4.0
 40
4.0
 40
4.0
 10
117.9393896517114
 20
-149.7829180181099
 30
0.0
 10
117.9393896517114
 20
-149.7278141292344
 30
0.0
 10
117.8946221528535
 20
-149.6830113514683
 30
0.0
 10
117.8391302098248
 20
-149.6830113514683
 30
0.0
 10
117.7840263223417
 20
-149.6830113514683
 30
0.0
 10
117.739223545707
 20
-149.7278141292344
 30
0.0
 10
117.739223545707
 20
-149.7829180181099
 30
0.0
 10
117.739223545707
 20
-149.8384099625401
 30
0.0
 10
117.7840263223417
 20
-149.8831774625293
 30
0.0
 10
117.8391302098248
 20
-149.8831774625293
 30
0.0
 10
117.8946221528535
 20
-149.8831774625293
 30
0.0
 10
117.9393896517114
 20
-149.8384099625401
 30
0.0
 10
117.9393896517114
 20
-149.7829180181099
 30
0.0
  0
SPLINE
  5
89
330
41
100
AcDbEntity
  8
_U+30EC_U+30A4_U+30E4_U+30FC 1
 62
   179
420
  2234388
370
     9
100
AcDbSpline
210
0.0
220
0.0
230
1.0
 70
    11
 71
     3
 72
    17
 73
    13
 74
     0
 42
0.0000000001
 43
0.0000000001
 12
1.0
 22
0.0
 32
0.0
 13
1.0
 23
0.0
 33
0.0
 40
0.0
 40
0.0
 40
0.0
 40
0.0
 40
1.0
 40
1.0
 40
1.0
 40
2.0
 40
2.0
 40
2.0
 40
3.0
 40
3.0
 40
3.0
 40
4.0
 40
4.0
 40
4.0
 40
4.0
 10
110.9392909414099
 20
-149.7829180181099
 30
0.0
 10
110.9392909414099
 20
-149.7278141292344
 30
0.0
 10
110.8945275260726
 20
-149.6830113514683
 30
0.0
 10
110.8393842772921
 20
-149.6830113514683
 30
0.0
 10
110.7839276120402
 20
-149.6830113514683
 30
0.0
 10
110.7391601131824
 20
-149.7278141292344
 30
0.0
 10
110.7391601131824
 20
-149.7829180181099
 30
0.0
 10
110.7391601131824
 20
-149.8384099625401
 30
0.0
 10
110.7839276120402
 20
-149.8831774625293
 30
0.0
 10
110.8393842772921
 20
-149.8831774625293
 30
0.0
 10
110.8945275260726
 20
-149.8831774625293
 30
0.0
 10
110.9392909414099
 20
-149.8384099625401
 30
0.0
 10
110.9392909414099
 20
-149.7829180181099
 30
0.0
  0
POLYLINE
  5
8A
330
41
100
AcDbEntity
  8
_U+30EC_U+30A4_U+30E4_U+30FC 1
 62
   179
420
  2234388
370
     9
100
AcDb2dPolyline
 66
     1
 10
0.0
 20
0.0
 30
0.0
  0
VERTEX
  5
8B
330
8A
100
AcDbEntity
  8
_U+30EC_U+30A4_U+30E4_U+30FC 1
 62
   179
420
  2234388
370
     9
100
AcDbVertex
100
AcDb2dVertex
 10
121.8392420522179
 20
-154.4829057947127
 30
0.0
  0
VERTEX
  5
8C
330
8A
100
AcDbEntity
  8
_U+30EC_U+30A4_U+30E4_U+30FC 1
 62
   179
420
  2234388
370
     9
100
AcDbVertex
100
AcDb2dVertex
 10
121.8392420522179
 20
-159.7408116267316
 30
0.0
  0
SEQEND
  5
8D
330
8A
100
AcDbEntity
  8
_U+30EC_U+30A4_U+30E4_U+30FC 1
 62
   179
420
  2234388
370
     9
  0
POLYLINE
  5
8E
330
41
100
AcDbEntity
  8
_U+30EC_U+30A4_U+30E4_U+30FC 1
 62
   179
420
  2234388
370
     9
100
AcDb2dPolyline
 66
     1
 10
0.0
 20
0.0
 30
0.0
  0
VERTEX
  5
8F
330
8E
100
AcDbEntity
  8
_U+30EC_U+30A4_U+30E4_U+30FC 1
 62
   179
420
  2234388
370
     9
100
AcDbVertex
100
AcDb2dVertex
 10
121.8392420522179
 20
-154.4829057947127
 30
0.0
  0
VERTEX
  5
90
330
8E
100
AcDbEntity
  8
_U+30EC_U+30A4_U+30E4_U+30FC 1
 62
   179
420
  2234388
370
     9
100
AcDbVertex
100
AcDb2dVertex
 10
121.8392420522179
 20
-152.783257739582
 30
0.0
  0
SEQEND
  5
91
330
8E
100
AcDbEntity
  8
_U+30EC_U+30A4_U+30E4_U+30FC 1
 62
   179
420
  2234388
370
     9
  0
POLYLINE
  5
92
330
41
100
AcDbEntity
  8
_U+30EC_U+30A4_U+30E4_U+30FC 1
 62
   179
420
  2234388
370
     9
100
AcDb2dPolyline
 66
     1
 10
0.0
 20
0.0
 30
0.0
  0
VERTEX
  5
93
330
92
100
AcDbEntity
  8
_U+30EC_U+30A4_U+30E4_U+30FC 1
 62
   179
420
  2234388
370
     9
100
AcDbVertex
100
AcDb2dVertex
 10
120.3792007005778
 20
-154.4829057947127
 30
0.0
  0
VERTEX
  5
94
330
92
100
AcDbEntity
  8
_U+30EC_U+30A4_U+30E4_U+30FC 1
 62
   179
420
  2234388
370
     9
100
AcDbVertex
100
AcDb2dVertex
 10
122.8393670267026
 20
-154.4829057947127
 30
0.0
  0
SEQEND
  5
95
330
92
100
AcDbEntity
  8
_U+30EC_U+30A4_U+30E4_U+30FC 1
 62
   179
420
  2234388
370
     9
  0
POLYLINE
  5
96
330
41
100
AcDbEntity
  8
_U+30EC_U+30A4_U+30E4_U+30FC 1
 62
   179
420
  2234388
370
     9
100
AcDb2dPolyline
 66
     1
 10
0.0
 20
0.0
 30
0.0
  0
VERTEX
  5
97
330
96
100
AcDbEntity
  8
_U+30EC_U+30A4_U+30E4_U+30FC 1
 62
   179
420
  2234388
370
     9
100
AcDbVertex
100
AcDb2dVertex
 10
120.1246053015424
 20
-153.7828535726657
 30
0.0
  0
VERTEX
  5
98
330
96
100
AcDbEntity
  8
_U+30EC_U+30A4_U+30E4_U+30FC 1
 62
   179
420
  2234388
370
     9
100
AcDbVertex
100
AcDb2dVertex
 10
122.8393670267026
 20
-153.7828535726657
 30
0.0
  0
SEQEND
  5
99
330
96
100
AcDbEntity
  8
_U+30EC_U+30A4_U+30E4_U+30FC 1
 62
   179
420
  2234388
370
     9
  0
MTEXT
  5
9A
330
41
100
AcDbEntity
  8
_U+30EC_U+30A4_U+30E4_U+30FC 1
 62
   179
420
  2234388
100
AcDbMText
 10
120.1551133491218
 20
-155.7114270880626
 30
0.0
 40
1.49859999962535
 41
0.0
 46
0.0
 71
     7
 72
     1
  1
\fA-OTF Futo Go B101 Pro|b1|i0|c0|p34;\W1.06875;0.7
 11
6.123233995736766E-17
 21
1.0
 31
0.0
 73
     1
 44
1.0
  0
POLYLINE
  5
9B
330
41
100
AcDbEntity
  8
_U+30EC_U+30A4_U+30E4_U+30FC 1
 62
   179
420
  2234388
370
     9
100
AcDb2dPolyline
 66
     1
 10
0.0
 20
0.0
 30
0.0
  0
VERTEX
  5
9C
330
9B
100
AcDbEntity
  8
_U+30EC_U+30A4_U+30E4_U+30FC 1
 62
   179
420
  2234388
370
     9
100
AcDbVertex
100
AcDb2dVertex
 10
94.8393249632654
 20
-158.4833352381569
 30
0.0
  0
VERTEX
  5
9D
330
9B
100
AcDbEntity
  8
_U+30EC_U+30A4_U+30E4_U+30FC 1
 62
   179
420
  2234388
370
     9
100
AcDbVertex
100
AcDb2dVertex
 10
117.8391302098248
 20
-158.4833352381569
 30
0.0
  0
SEQEND
  5
9E
330
9B
100
AcDbEntity
  8
_U+30EC_U+30A4_U+30E4_U+30FC 1
 62
   179
420
  2234388
370
     9
  0
POLYLINE
  5
9F
330
41
100
AcDbEntity
  8
_U+30EC_U+30A4_U+30E4_U+30FC 1
 62
   179
420
  2234388
370
     9
100
AcDb2dPolyline
 66
     1
 10
0.0
 20
0.0
 30
0.0
  0
VERTEX
  5
A0
330
9F
100
AcDbEntity
  8
_U+30EC_U+30A4_U+30E4_U+30FC 1
 62
   179
420
  2234388
370
     9
100
AcDbVertex
100
AcDb2dVertex
 10
94.8393249632654
 20
-157.0233291274107
 30
0.0
  0
VERTEX
  5
A1
330
9F
100
AcDbEntity
  8
_U+30EC_U+30A4_U+30E4_U+30FC 1
 62
   179
420
  2234388
370
     9
100
AcDbVertex
100
AcDb2dVertex
 10
94.8393249632654
 20
-159.4831074601288
 30
0.0
  0
SEQEND
  5
A2
330
9F
100
AcDbEntity
  8
_U+30EC_U+30A4_U+30E4_U+30FC 1
 62
   179
420
  2234388
370
     9
  0
POLYLINE
  5
A3
330
41
100
AcDbEntity
  8
_U+30EC_U+30A4_U+30E4_U+30FC 1
 62
   179
420
  2234388
370
     9
100
AcDb2dPolyline
 66
     1
 10
0.0
 20
0.0
 30
0.0
  0
VERTEX
  5
A4
330
A3
100
AcDbEntity
  8
_U+30EC_U+30A4_U+30E4_U+30FC 1
 62
   179
420
  2234388
370
     9
100
AcDbVertex
100
AcDb2dVertex
 10
117.8391302098248
 20
-157.0233291274107
 30
0.0
  0
VERTEX
  5
A5
330
A3
100
AcDbEntity
  8
_U+30EC_U+30A4_U+30E4_U+30FC 1
 62
   179
420
  2234388
370
     9
100
AcDbVertex
100
AcDb2dVertex
 10
117.8391302098248
 20
-159.4831074601288
 30
0.0
  0
SEQEND
  5
A6
330
A3
100
AcDbEntity
  8
_U+30EC_U+30A4_U+30E4_U+30FC 1
 62
   179
420
  2234388
370
     9
  0
MTEXT
  5
A7
330
41
100
AcDbEntity
  8
_U+30EC_U+30A4_U+30E4_U+30FC 1
 62
   179
420
  2234388
100
AcDbMText
 10
105.086605496096
 20
-157.8870048869979
 30
0.0
 40
1.49859999962535
 41
0.0
 46
0.0
 71
     7
 72
     1
  1
\fA-OTF Futo Go B101 Pro|b1|i0|c0|p34;\W1.06875;23
 73
     1
 44
1.0
  0
POLYLINE
  5
A8
330
41
100
AcDbEntity
  8
_U+30EC_U+30A4_U+30E4_U+30FC 1
 62
   179
420
  2234388
370
     9
100
AcDb2dPolyline
 66
     1
 10
0.0
 20
0.0
 30
0.0
  0
VERTEX
  5
A9
330
A8
100
AcDbEntity
  8
_U+30EC_U+30A4_U+30E4_U+30FC 1
 62
   179
420
  2234388
370
     9
100
AcDbVertex
100
AcDb2dVertex
 10
106.8393077126759
 20
-139.9382307983487
 30
0.0
  0
VERTEX
  5
AA
330
A8
100
AcDbEntity
  8
_U+30EC_U+30A4_U+30E4_U+30FC 1
 62
   179
420
  2234388
370
     9
100
AcDbVertex
100
AcDb2dVertex
 10
94.8393249632654
 20
-139.9382307983487
 30
0.0
  0
SEQEND
  5
AB
330
A8
100
AcDbEntity
  8
_U+30EC_U+30A4_U+30E4_U+30FC 1
 62
   179
420
  2234388
370
     9
  0
POLYLINE
  5
AC
330
41
100
AcDbEntity
  8
_U+30EC_U+30A4_U+30E4_U+30FC 1
 62
   179
420
  2234388
370
     9
100
AcDb2dPolyline
 66
     1
 10
0.0
 20
0.0
 30
0.0
  0
VERTEX
  5
AD
330
AC
100
AcDbEntity
  8
_U+30EC_U+30A4_U+30E4_U+30FC 1
 62
   179
420
  2234388
370
     9
100
AcDbVertex
100
AcDb2dVertex
 10
106.8393077126759
 20
-142.3983619088449
 30
0.0
  0
VERTEX
  5
AE
330
AC
100
AcDbEntity
  8
_U+30EC_U+30A4_U+30E4_U+30FC 1
 62
   179
420
  2234388
370
     9
100
AcDbVertex
100
AcDb2dVertex
 10
106.8393077126759
 20
-138.9384585763765
 30
0.0
  0
SEQEND
  5
AF
330
AC
100
AcDbEntity
  8
_U+30EC_U+30A4_U+30E4_U+30FC 1
 62
   179
420
  2234388
370
     9
  0
POLYLINE
  5
B0
330
41
100
AcDbEntity
  8
_U+30EC_U+30A4_U+30E4_U+30FC 1
 62
   179
420
  2234388
370
     9
100
AcDb2dPolyline
 66
     1
 10
0.0
 20
0.0
 30
0.0
  0
VERTEX
  5
B1
330
B0
100
AcDbEntity
  8
_U+30EC_U+30A4_U+30E4_U+30FC 1
 62
   179
420
  2234388
370
     9
100
AcDbVertex
100
AcDb2dVertex
 10
94.8393249632654
 20
-142.3983619088449
 30
0.0
  0
VERTEX
  5
B2
330
B0
100
AcDbEntity
  8
_U+30EC_U+30A4_U+30E4_U+30FC 1
 62
   179
420
  2234388
370
     9
100
AcDbVertex
100
AcDb2dVertex
 10
94.8393249632654
 20
-138.9384585763765
 30
0.0
  0
SEQEND
  5
B3
330
B0
100
AcDbEntity
  8
_U+30EC_U+30A4_U+30E4_U+30FC 1
 62
   179
420
  2234388
370
     9
  0
MTEXT
  5
B4
330
41
100
AcDbEntity
  8
_U+30EC_U+30A4_U+30E4_U+30FC 1
 62
   179
420
  2234388
100
AcDbMText
 10
99.5868550634432
 20
-139.3424003994465
 30
0.0
 40
1.49859999962535
 41
0.0
 46
0.0
 71
     7
 72
     1
  1
\fA-OTF Futo Go B101 Pro|b1|i0|c0|p34;\W1.06875;12
 73
     1
 44
1.0
  0
POLYLINE
  5
B5
330
41
100
AcDbEntity
  8
_U+30EC_U+30A4_U+30E4_U+30FC 1
 62
   179
420
  2234388
370
     9
100
AcDb2dPolyline
 66
     1
 10
0.0
 20
0.0
 30
0.0
  0
VERTEX
  5
B6
330
B5
100
AcDbEntity
  8
_U+30EC_U+30A4_U+30E4_U+30FC 1
 62
   179
420
  2234388
370
     9
100
AcDbVertex
100
AcDb2dVertex
 10
90.83924839864919
 20
-154.4829057947127
 30
0.0
  0
VERTEX
  5
B7
330
B5
100
AcDbEntity
  8
_U+30EC_U+30A4_U+30E4_U+30FC 1
 62
   179
420
  2234388
370
     9
100
AcDbVertex
100
AcDb2dVertex
 10
90.83924839864919
 20
-158.2532182937701
 30
0.0
  0
SEQEND
  5
B8
330
B5
100
AcDbEntity
  8
_U+30EC_U+30A4_U+30E4_U+30FC 1
 62
   179
420
  2234388
370
     9
  0
POLYLINE
  5
B9
330
41
100
AcDbEntity
  8
_U+30EC_U+30A4_U+30E4_U+30FC 1
 62
   179
420
  2234388
370
     9
100
AcDb2dPolyline
 66
     1
 10
0.0
 20
0.0
 30
0.0
  0
VERTEX
  5
BA
330
B9
100
AcDbEntity
  8
_U+30EC_U+30A4_U+30E4_U+30FC 1
 62
   179
420
  2234388
370
     9
100
AcDbVertex
100
AcDb2dVertex
 10
90.83924839864919
 20
-153.4831335727401
 30
0.0
  0
VERTEX
  5
BB
330
B9
100
AcDbEntity
  8
_U+30EC_U+30A4_U+30E4_U+30FC 1
 62
   179
420
  2234388
370
     9
100
AcDbVertex
100
AcDb2dVertex
 10
90.83924839864919
 20
-154.4829057947127
 30
0.0
  0
SEQEND
  5
BC
330
B9
100
AcDbEntity
  8
_U+30EC_U+30A4_U+30E4_U+30FC 1
 62
   179
420
  2234388
370
     9
  0
POLYLINE
  5
BD
330
41
100
AcDbEntity
  8
_U+30EC_U+30A4_U+30E4_U+30FC 1
 62
   179
420
  2234388
370
     9
100
AcDb2dPolyline
 66
     1
 10
0.0
 20
0.0
 30
0.0
  0
VERTEX
  5
BE
330
BD
100
AcDbEntity
  8
_U+30EC_U+30A4_U+30E4_U+30FC 1
 62
   179
420
  2234388
370
     9
100
AcDbVertex
100
AcDb2dVertex
 10
92.29925808627651
 20
-154.4829057947127
 30
0.0
  0
VERTEX
  5
BF
330
BD
100
AcDbEntity
  8
_U+30EC_U+30A4_U+30E4_U+30FC 1
 62
   179
420
  2234388
370
     9
100
AcDbVertex
100
AcDb2dVertex
 10
89.83947620193328
 20
-154.4829057947127
 30
0.0
  0
SEQEND
  5
C0
330
BD
100
AcDbEntity
  8
_U+30EC_U+30A4_U+30E4_U+30FC 1
 62
   179
420
  2234388
370
     9
  0
MTEXT
  5
C1
330
41
100
AcDbEntity
  8
_U+30EC_U+30A4_U+30E4_U+30FC 1
 62
   179
420
  2234388
100
AcDbMText
 10
90.24289819792538
 20
-158.0692490924271
 30
0.0
 40
1.49859999962535
 41
0.0
 46
0.0
 71
     7
 72
     1
  1
\fA-OTF Futo Go B101 Pro|b1|i0|c0|p34;\W1.06875;1
 11
6.123233995736766E-17
 21
1.0
 31
0.0
 73
     1
 44
1.0
  0
POLYLINE
  5
C2
330
41
100
AcDbEntity
  8
_U+30EC_U+30A4_U+30E4_U+30FC 1
 62
   179
420
  2234388
370
     9
100
AcDb2dPolyline
 66
     1
 10
0.0
 20
0.0
 30
0.0
  0
VERTEX
  5
C3
330
C2
100
AcDbEntity
  8
_U+30EC_U+30A4_U+30E4_U+30FC 1
 62
   179
420
  2234388
370
     9
100
AcDbVertex
100
AcDb2dVertex
 10
110.8393842772921
 20
-149.7829180181099
 30
0.0
  0
VERTEX
  5
C4
330
C2
100
AcDbEntity
  8
_U+30EC_U+30A4_U+30E4_U+30FC 1
 62
   179
420
  2234388
370
     9
100
AcDbVertex
100
AcDb2dVertex
 10
117.8391302098248
 20
-149.7829180181099
 30
0.0
  0
SEQEND
  5
C5
330
C2
100
AcDbEntity
  8
_U+30EC_U+30A4_U+30E4_U+30FC 1
 62
   179
420
  2234388
370
     9
  0
POLYLINE
  5
C6
330
41
100
AcDbEntity
  8
_U+30EC_U+30A4_U+30E4_U+30FC 1
 62
   179
420
  2234388
370
     9
100
AcDb2dPolyline
 66
     1
 10
0.0
 20
0.0
 30
0.0
  0
VERTEX
  5
C7
330
C6
100
AcDbEntity
  8
_U+30EC_U+30A4_U+30E4_U+30FC 1
 62
   179
420
  2234388
370
     9
100
AcDbVertex
100
AcDb2dVertex
 10
110.8393842772921
 20
-150.9432394067087
 30
0.0
  0
VERTEX
  5
C8
330
C6
100
AcDbEntity
  8
_U+30EC_U+30A4_U+30E4_U+30FC 1
 62
   179
420
  2234388
370
     9
100
AcDbVertex
100
AcDb2dVertex
 10
110.8393842772921
 20
-148.7831810739152
 30
0.0
  0
SEQEND
  5
C9
330
C6
100
AcDbEntity
  8
_U+30EC_U+30A4_U+30E4_U+30FC 1
 62
   179
420
  2234388
370
     9
  0
POLYLINE
  5
CA
330
41
100
AcDbEntity
  8
_U+30EC_U+30A4_U+30E4_U+30FC 1
 62
   179
420
  2234388
370
     9
100
AcDb2dPolyline
 66
     1
 10
0.0
 20
0.0
 30
0.0
  0
VERTEX
  5
CB
330
CA
100
AcDbEntity
  8
_U+30EC_U+30A4_U+30E4_U+30FC 1
 62
   179
420
  2234388
370
     9
100
AcDbVertex
100
AcDb2dVertex
 10
117.8391302098248
 20
-151.9430116286813
 30
0.0
  0
VERTEX
  5
CC
330
CA
100
AcDbEntity
  8
_U+30EC_U+30A4_U+30E4_U+30FC 1
 62
   179
420
  2234388
370
     9
100
AcDbVertex
100
AcDb2dVertex
 10
117.8391302098248
 20
-148.7831810739152
 30
0.0
  0
SEQEND
  5
CD
330
CA
100
AcDbEntity
  8
_U+30EC_U+30A4_U+30E4_U+30FC 1
 62
   179
420
  2234388
370
     9
  0
MTEXT
  5
CE
330
41
100
AcDbEntity
  8
_U+30EC_U+30A4_U+30E4_U+30FC 1
 62
   179
420
  2234388
100
AcDbMText
 10
113.7536078274644
 20
-149.1869316575817
 30
0.0
 40
1.49859999962535
 41
0.0
 46
0.0
 71
     7
 72
     1
  1
\fA-OTF Futo Go B101 Pro|b1|i0|c0|p34;\W1.06875;7
 73
     1
 44
1.0
  0
POLYLINE
  5
CF
330
41
100
AcDbEntity
  8
_U+30EC_U+30A4_U+30E4_U+30FC 1
 62
   179
420
  2234388
370
     9
100
AcDb2dPolyline
 66
     1
 10
0.0
 20
0.0
 30
0.0
  0
VERTEX
  5
D0
330
CF
100
AcDbEntity
  8
_U+30EC_U+30A4_U+30E4_U+30FC 1
 62
   179
420
  2234388
370
     9
100
AcDbVertex
100
AcDb2dVertex
 10
90.83924839864919
 20
-144.9384324637655
 30
0.0
  0
VERTEX
  5
D1
330
CF
100
AcDbEntity
  8
_U+30EC_U+30A4_U+30E4_U+30FC 1
 62
   179
420
  2234388
370
     9
100
AcDbVertex
100
AcDb2dVertex
 10
90.83924839864919
 20
-153.4383660727516
 30
0.0
  0
SEQEND
  5
D2
330
CF
100
AcDbEntity
  8
_U+30EC_U+30A4_U+30E4_U+30FC 1
 62
   179
420
  2234388
370
     9
  0
POLYLINE
  5
D3
330
41
100
AcDbEntity
  8
_U+30EC_U+30A4_U+30E4_U+30FC 1
 62
   179
420
  2234388
370
     9
100
AcDb2dPolyline
 66
     1
 10
0.0
 20
0.0
 30
0.0
  0
VERTEX
  5
D4
330
D3
100
AcDbEntity
  8
_U+30EC_U+30A4_U+30E4_U+30FC 1
 62
   179
420
  2234388
370
     9
100
AcDbVertex
100
AcDb2dVertex
 10
92.29925808627651
 20
-144.9384324637655
 30
0.0
  0
VERTEX
  5
D5
330
D3
100
AcDbEntity
  8
_U+30EC_U+30A4_U+30E4_U+30FC 1
 62
   179
420
  2234388
370
     9
100
AcDbVertex
100
AcDb2dVertex
 10
89.83947620193328
 20
-144.9384324637655
 30
0.0
  0
SEQEND
  5
D6
330
D3
100
AcDbEntity
  8
_U+30EC_U+30A4_U+30E4_U+30FC 1
 62
   179
420
  2234388
370
     9
  0
POLYLINE
  5
D7
330
41
100
AcDbEntity
  8
_U+30EC_U+30A4_U+30E4_U+30FC 1
 62
   179
420
  2234388
370
     9
100
AcDb2dPolyline
 66
     1
 10
0.0
 20
0.0
 30
0.0
  0
VERTEX
  5
D8
330
D7
100
AcDbEntity
  8
_U+30EC_U+30A4_U+30E4_U+30FC 1
 62
   179
420
  2234388
370
     9
100
AcDbVertex
100
AcDb2dVertex
 10
92.66307418545284
 20
-153.4831335727401
 30
0.0
  0
VERTEX
  5
D9
330
D7
100
AcDbEntity
  8
_U+30EC_U+30A4_U+30E4_U+30FC 1
 62
   179
420
  2234388
370
     9
100
AcDbVertex
100
AcDb2dVertex
 10
89.83947620193328
 20
-153.4831335727401
 30
0.0
  0
SEQEND
  5
DA
330
D7
100
AcDbEntity
  8
_U+30EC_U+30A4_U+30E4_U+30FC 1
 62
   179
420
  2234388
370
     9
  0
MTEXT
  5
DB
330
41
100
AcDbEntity
  8
_U+30EC_U+30A4_U+30E4_U+30FC 1
 62
   179
420
  2234388
100
AcDbMText
 10
90.2425503240258
 20
-151.1907727923177
 30
0.0
 40
1.49859999962535
 41
0.0
 46
0.0
 71
     7
 72
     1
  1
\fA-OTF Futo Go B101 Pro|b1|i0|c0|p34;\W1.06875;8.5
 11
6.123233995736766E-17
 21
1.0
 31
0.0
 73
     1
 44
1.0
  0
ENDBLK
  5
44
330
41
100
AcDbEntity
  8
0
100
AcDbBlockEnd
  0
ENDSEC
  0
SECTION
  2
ENTITIES
  0
INSERT
  5
42
330
1F
100
AcDbEntity
  8
_U+30EC_U+30A4_U+30E4_U+30FC 1
100
AcDbBlockReference
  2
block 2
 10
0.0
 20
0.0
 30
0.0
  0
ENDSEC
  0
SECTION
  2
OBJECTS
  0
DICTIONARY
  5
C
330
0
100
AcDbDictionary
281
     1
  3
ACAD_GROUP
350
D
  3
ACAD_LAYOUT
350
1A
  3
ACAD_MATERIAL
350
3B
  3
ACAD_MLEADERSTYLE
350
DD
  3
ACAD_MLINESTYLE
350
17
  3
ACAD_PLOTSETTINGS
350
19
  3
ACAD_PLOTSTYLENAME
350
E
  3
ACAD_TABLESTYLE
350
DC
  3
ACAD_VISUALSTYLE
350
2A
  0
SUN
  5
3F
330
29
100
AcDbSun
 90
        1
290
     0
 63
     7
421
 16777215
 40
1.0
291
     1
 91
  2455826
 92
 54000000
292
     0
 70
     2
 71
   256
280
     1
  0
DICTIONARY
  5
D
102
{ACAD_REACTORS
330
C
102
}
330
C
100
AcDbDictionary
281
     1
  0
DICTIONARY
  5
1A
102
{ACAD_REACTORS
330
C
102
}
330
C
100
AcDbDictionary
281
     1
  3
Layout1
350
1E
  3
Layout2
350
26
  3
Model
350
22
  0
DICTIONARY
  5
3B
102
{ACAD_REACTORS
330
C
102
}
330
C
100
AcDbDictionary
281
     1
  3
ByBlock
350
3D
  3
ByLayer
350
3C
  3
Global
350
3E
  0
DICTIONARY
  5
DD
102
{ACAD_REACTORS
330
C
102
}
330
C
100
AcDbDictionary
281
     1
  0
DICTIONARY
  5
17
102
{ACAD_REACTORS
330
C
102
}
330
C
100
AcDbDictionary
281
     1
  3
Standard
350
18
  0
DICTIONARY
  5
19
102
{ACAD_REACTORS
330
C
102
}
330
C
100
AcDbDictionary
281
     1
  0
ACDBDICTIONARYWDFLT
  5
E
102
{ACAD_REACTORS
330
C
102
}
330
C
100
AcDbDictionary
281
     1
  3
Normal
350
F
100
AcDbDictionaryWithDefault
340
F
  0
DICTIONARY
  5
DC
102
{ACAD_REACTORS
330
C
102
}
330
C
100
AcDbDictionary
281
     1
  0
DICTIONARY
  5
2A
102
{ACAD_REACTORS
330
C
102
}
330
C
100
AcDbDictionary
281
     1
  3
2dWireframe
350
2F
  3
3D Hidden
350
31
  3
3dWireframe
350
30
  3
Basic
350
32
  3
Brighten
350
36
  3
ColorChange
350
3A
  3
Conceptual
350
34
  3
Dim
350
35
  3
Facepattern
350
39
  3
Flat
350
2B
  3
FlatWithEdges
350
2C
  3
Gouraud
350
2D
  3
GouraudWithEdges
350
2E
  3
Linepattern
350
38
  3
Realistic
350
33
  3
Thicken
350
37
  0
LAYOUT
  5
1E
102
{ACAD_REACTORS
330
1A
102
}
330
1A
100
AcDbPlotSettings
  1

  2
none_device
  4

  6

 40
0.0
 41
0.0
 42
0.0
 43
0.0
 44
0.0
 45
0.0
 46
0.0
 47
0.0
 48
0.0
 49
0.0
140
0.0
141
0.0
142
1.0
143
1.0
 70
   688
 72
     0
 73
     0
 74
     5
  7

 75
    16
 76
     0
 77
     2
 78
   300
147
1.0
148
0.0
149
0.0
100
AcDbLayout
  1
Layout1
 70
     1
 71
     1
 10
0.0
 20
0.0
 11
12.0
 21
9.0
 12
0.0
 22
0.0
 32
0.0
 14
1.000000000000000E+20
 24
1.000000000000000E+20
 34
1.000000000000000E+20
 15
-1.000000000000000E+20
 25
-1.000000000000000E+20
 35
-1.000000000000000E+20
146
0.0
 13
0.0
 23
0.0
 33
0.0
 16
1.0
 26
0.0
 36
0.0
 17
0.0
 27
1.0
 37
0.0
 76
     0
330
1B
  0
LAYOUT
  5
26
102
{ACAD_REACTORS
330
1A
102
}
330
1A
100
AcDbPlotSettings
  1

  2
none_device
  4

  6

 40
0.0
 41
0.0
 42
0.0
 43
0.0
 44
0.0
 45
0.0
 46
0.0
 47
0.0
 48
0.0
 49
0.0
140
0.0
141
0.0
142
1.0
143
1.0
 70
   688
 72
     0
 73
     0
 74
     5
  7

 75
    16
 76
     0
 77
     2
 78
   300
147
1.0
148
0.0
149
0.0
100
AcDbLayout
  1
Layout2
 70
     1
 71
     2
 10
0.0
 20
0.0
 11
0.0
 21
0.0
 12
0.0
 22
0.0
 32
0.0
 14
0.0
 24
0.0
 34
0.0
 15
0.0
 25
0.0
 35
0.0
146
0.0
 13
0.0
 23
0.0
 33
0.0
 16
1.0
 26
0.0
 36
0.0
 17
0.0
 27
1.0
 37
0.0
 76
     0
330
23
  0
LAYOUT
  5
22
102
{ACAD_REACTORS
330
1A
102
}
330
1A
100
AcDbPlotSettings
  1

  2
none_device
  4

  6

 40
0.0
 41
0.0
 42
0.0
 43
0.0
 44
0.0
 45
0.0
 46
0.0
 47
0.0
 48
0.0
 49
0.0
140
0.0
141
0.0
142
1.0
143
1.0
 70
  1712
 72
     0
 73
     0
 74
     0
  7

 75
     0
 76
     0
 77
     2
 78
   300
147
1.0
148
0.0
149
0.0
100
AcDbLayout
  1
Model
 70
     1
 71
     0
 10
0.0
 20
0.0
 11
12.0
 21
9.0
 12
0.0
 22
0.0
 32
0.0
 14
1.000000000000000E+20
 24
1.000000000000000E+20
 34
1.000000000000000E+20
 15
-1.000000000000000E+20
 25
-1.000000000000000E+20
 35
-1.000000000000000E+20
146
0.0
 13
0.0
 23
0.0
 33
0.0
 16
1.0
 26
0.0
 36
0.0
 17
0.0
 27
1.0
 37
0.0
 76
     0
330
1F
331
29
  0
MATERIAL
  5
3D
102
{ACAD_REACTORS
330
3B
102
}
330
3B
100
AcDbMaterial
  1
ByBlock
 72
     1
 94
      127
  0
MATERIAL
  5
3C
102
{ACAD_REACTORS
330
3B
102
}
330
3B
100
AcDbMaterial
  1
ByLayer
 72
     1
 94
      127
  0
MATERIAL
  5
3E
102
{ACAD_REACTORS
330
3B
102
}
330
3B
100
AcDbMaterial
  1
Global
 72
     1
 94
      127
  0
MLINESTYLE
  5
18
102
{ACAD_REACTORS
330
17
102
}
330
17
100
AcDbMlineStyle
  2
Standard
 70
     0
  3

 62
   256
 51
90.0
 52
90.0
 71
     2
 49
0.5
 62
   256
  6
BYLAYER
 49
-0.5
 62
   256
  6
BYLAYER
  0
ACDBPLACEHOLDER
  5
F
102
{ACAD_REACTORS
330
E
102
}
330
E
  0
VISUALSTYLE
  5
2F
102
{ACAD_REACTORS
330
2A
102
}
330
2A
100
AcDbVisualStyle
  2
2dWireframe
 70
     4
177
     2
291
     0
 71
     0
176
     1
 72
     2
176
     1
 73
     0
176
     1
 90
        0
176
     1
 40
-0.6
176
     1
 41
-30.0
176
     1
 62
     5
 63
     7
421
 16777215
176
     1
 74
     1
176
     1
 91
        4
176
     1
 64
     7
176
     1
 65
   257
176
     1
 75
     1
176
     1
175
     1
176
     1
 42
1.0
176
     1
 92
        0
176
     1
 66
   257
176
     1
 43
1.0
176
     1
 76
     1
176
     1
 77
     6
176
     1
 78
     2
176
     1
 67
     7
176
     1
 79
     5
176
     1
170
     0
176
     1
171
     0
176
     1
290
     0
176
     1
 93
        1
176
     1
 44
0.0
176
     1
173
     0
176
     1
  0
VISUALSTYLE
  5
31
102
{ACAD_REACTORS
330
2A
102
}
330
2A
100
AcDbVisualStyle
  2
3D Hidden
 70
     6
177
     2
291
     0
 71
     1
176
     1
 72
     2
176
     1
 73
     2
176
     1
 90
        0
176
     1
 40
-0.6
176
     1
 41
-30.0
176
     1
 62
     5
 63
     7
421
 16777215
176
     1
 74
     2
176
     1
 91
        2
176
     1
 64
     7
176
     1
 65
   257
176
     1
 75
     2
176
     1
175
     1
176
     1
 42
40.0
176
     1
 92
        0
176
     1
 66
   257
176
     1
 43
1.0
176
     1
 76
     1
176
     1
 77
     6
176
     1
 78
     2
176
     1
 67
     7
176
     1
 79
     3
176
     1
170
     0
176
     1
171
     0
176
     1
290
     0
176
     1
 93
        1
176
     1
 44
0.0
176
     1
173
     0
176
     1
  0
VISUALSTYLE
  5
30
102
{ACAD_REACTORS
330
2A
102
}
330
2A
100
AcDbVisualStyle
  2
3dWireframe
 70
     5
177
     2
291
     0
 71
     0
176
     1
 72
     2
176
     1
 73
     0
176
     1
 90
        0
176
     1
 40
-0.6
176
     1
 41
-30.0
176
     1
 62
     5
 63
     7
421
 16777215
176
     1
 74
     1
176
     1
 91
        4
176
     1
 64
     7
176
     1
 65
   257
176
     1
 75
     1
176
     1
175
     1
176
     1
 42
1.0
176
     1
 92
        0
176
     1
 66
   257
176
     1
 43
1.0
176
     1
 76
     1
176
     1
 77
     6
176
     1
 78
     2
176
     1
 67
     7
176
     1
 79
     5
176
     1
170
     0
176
     1
171
     0
176
     1
290
     0
176
     1
 93
        1
176
     1
 44
0.0
176
     1
173
     0
176
     1
  0
VISUALSTYLE
  5
32
102
{ACAD_REACTORS
330
2A
102
}
330
2A
100
AcDbVisualStyle
  2
Basic
 70
     7
177
     2
291
     1
 71
     1
176
     1
 72
     0
176
     1
 73
     1
176
     1
 90
        0
176
     1
 40
-0.6
176
     1
 41
-30.0
176
     1
 62
     5
 63
     7
421
 16777215
176
     1
 74
     0
176
     1
 91
        4
176
     1
 64
     7
176
     1
 65
   257
176
     1
 75
     1
176
     1
175
     1
176
     1
 42
1.0
176
     1
 92
        8
176
     1
 66
     7
176
     1
 43
1.0
176
     1
 76
     1
176
     1
 77
     6
176
     1
 78
     2
176
     1
 67
     7
176
     1
 79
     5
176
     1
170
     0
176
     1
171
     0
176
     1
290
     0
176
     1
 93
        1
176
     1
 44
0.0
176
     1
173
     0
176
     1
  0
VISUALSTYLE
  5
36
102
{ACAD_REACTORS
330
2A
102
}
330
2A
100
AcDbVisualStyle
  2
Brighten
 70
    12
177
     2
291
     1
 71
     2
176
     1
 72
     2
176
     1
 73
     0
176
     1
 90
        0
176
     1
 40
-0.6
176
     1
 41
-30.0
176
     1
 62
     5
 63
     7
421
 16777215
176
     1
 74
     1
176
     1
 91
        4
176
     1
 64
     7
176
     1
 65
   257
176
     1
 75
     1
176
     1
175
     1
176
     1
 42
1.0
176
     1
 92
        8
176
     1
 66
     7
176
     1
 43
1.0
176
     1
 76
     1
176
     1
 77
     6
176
     1
 78
     2
176
     1
 67
     7
176
     1
 79
     5
176
     1
170
     0
176
     1
171
     0
176
     1
290
     0
176
     1
 93
        1
176
     1
 44
50.0
176
     1
173
     0
176
     1
  0
VISUALSTYLE
  5
3A
102
{ACAD_REACTORS
330
2A
102
}
330
2A
100
AcDbVisualStyle
  2
ColorChange
 70
    16
177
     2
291
     1
 71
     2
176
     1
 72
     2
176
     1
 73
     3
176
     1
 90
        0
176
     1
 40
-0.6
176
     1
 41
-30.0
176
     1
 62
     5
 63
     8
421
  8421504
176
     1
 74
     1
176
     1
 91
        4
176
     1
 64
     7
176
     1
 65
   257
176
     1
 75
     1
176
     1
175
     1
176
     1
 42
1.0
176
     1
 92
        8
176
     1
 66
     8
424
  8421504
176
     1
 43
1.0
176
     1
 76
     1
176
     1
 77
     6
176
     1
 78
     2
176
     1
 67
     7
176
     1
 79
     5
176
     1
170
     0
176
     1
171
     0
176
     1
290
     0
176
     1
 93
        1
176
     1
 44
0.0
176
     1
173
     0
176
     1
  0
VISUALSTYLE
  5
34
102
{ACAD_REACTORS
330
2A
102
}
330
2A
100
AcDbVisualStyle
  2
Conceptual
 70
     9
177
     2
291
     0
 71
     3
176
     1
 72
     2
176
     1
 73
     0
176
     1
 90
        0
176
     1
 40
-0.6
176
     1
 41
-30.0
176
     1
 62
     5
 63
     7
421
 16777215
176
     1
 74
     2
176
     1
 91
        2
176
     1
 64
     7
176
     1
 65
   257
176
     1
 75
     1
176
     1
175
     1
176
     1
 42
40.0
176
     1
 92
        8
176
     1
 66
     7
176
     1
 43
1.0
176
     1
 76
     1
176
     1
 77
     6
176
     1
 78
     2
176
     1
 67
     7
176
     1
 79
     3
176
     1
170
     0
176
     1
171
     0
176
     1
290
     0
176
     1
 93
        1
176
     1
 44
0.0
176
     1
173
     0
176
     1
  0
VISUALSTYLE
  5
35
102
{ACAD_REACTORS
330
2A
102
}
330
2A
100
AcDbVisualStyle
  2
Dim
 70
    11
177
     2
291
     1
 71
     2
176
     1
 72
     2
176
     1
 73
     0
176
     1
 90
        0
176
     1
 40
-0.6
176
     1
 41
-30.0
176
     1
 62
     5
 63
     7
421
 16777215
176
     1
 74
     1
176
     1
 91
        4
176
     1
 64
     7
176
     1
 65
   257
176
     1
 75
     1
176
     1
175
     1
176
     1
 42
1.0
176
     1
 92
        8
176
     1
 66
     7
176
     1
 43
1.0
176
     1
 76
     1
176
     1
 77
     6
176
     1
 78
     2
176
     1
 67
     7
176
     1
 79
     5
176
     1
170
     0
176
     1
171
     0
176
     1
290
     0
176
     1
 93
        1
176
     1
 44
-50.0
176
     1
173
     0
176
     1
  0
VISUALSTYLE
  5
39
102
{ACAD_REACTORS
330
2A
102
}
330
2A
100
AcDbVisualStyle
  2
Facepattern
 70
    15
177
     2
291
     1
 71
     2
176
     1
 72
     2
176
     1
 73
     0
176
     1
 90
        0
176
     1
 40
-0.6
176
     1
 41
-30.0
176
     1
 62
     5
 63
     7
421
 16777215
176
     1
 74
     1
176
     1
 91
        4
176
     1
 64
     7
176
     1
 65
   257
176
     1
 75
     1
176
     1
175
     1
176
     1
 42
1.0
176
     1
 92
        8
176
     1
 66
     7
176
     1
 43
1.0
176
     1
 76
     1
176
     1
 77
     6
176
     1
 78
     2
176
     1
 67
     7
176
     1
 79
     5
176
     1
170
     0
176
     1
171
     0
176
     1
290
     0
176
     1
 93
        1
176
     1
 44
0.0
176
     1
173
     0
176
     1
  0
VISUALSTYLE
  5
2B
102
{ACAD_REACTORS
330
2A
102
}
330
2A
100
AcDbVisualStyle
  2
Flat
 70
     0
177
     2
291
     1
 71
     2
176
     1
 72
     1
176
     1
 73
     1
176
     1
 90
        2
176
     1
 40
-0.6
176
     1
 41
30.0
176
     1
 62
     5
 63
     7
421
 16777215
176
     1
 74
     0
176
     1
 91
        4
176
     1
 64
     7
176
     1
 65
   257
176
     1
 75
     1
176
     1
175
     1
176
     1
 42
1.0
176
     1
 92
        8
176
     1
 66
     7
176
     1
 43
1.0
176
     1
 76
     1
176
     1
 77
     6
176
     1
 78
     2
176
     1
 67
     7
176
     1
 79
     5
176
     1
170
     0
176
     1
171
     0
176
     1
290
     0
176
     1
 93
       13
176
     1
 44
0.0
176
     1
173
     0
176
     1
  0
VISUALSTYLE
  5
2C
102
{ACAD_REACTORS
330
2A
102
}
330
2A
100
AcDbVisualStyle
  2
FlatWithEdges
 70
     1
177
     2
291
     1
 71
     2
176
     1
 72
     1
176
     1
 73
     1
176
     1
 90
        2
176
     1
 40
-0.6
176
     1
 41
30.0
176
     1
 62
     5
 63
     7
421
 16777215
176
     1
 74
     1
176
     1
 91
        4
176
     1
 64
     7
176
     1
 65
   257
176
     1
 75
     1
176
     1
175
     1
176
     1
 42
1.0
176
     1
 92
        0
176
     1
 66
   257
176
     1
 43
1.0
176
     1
 76
     1
176
     1
 77
     6
176
     1
 78
     2
176
     1
 67
     7
176
     1
 79
     5
176
     1
170
     0
176
     1
171
     0
176
     1
290
     0
176
     1
 93
       13
176
     1
 44
0.0
176
     1
173
     0
176
     1
  0
VISUALSTYLE
  5
2D
102
{ACAD_REACTORS
330
2A
102
}
330
2A
100
AcDbVisualStyle
  2
Gouraud
 70
     2
177
     2
291
     1
 71
     2
176
     1
 72
     2
176
     1
 73
     1
176
     1
 90
        2
176
     1
 40
-0.6
176
     1
 41
30.0
176
     1
 62
     5
 63
     7
421
 16777215
176
     1
 74
     0
176
     1
 91
        4
176
     1
 64
     7
176
     1
 65
   257
176
     1
 75
     1
176
     1
175
     1
176
     1
 42
1.0
176
     1
 92
        0
176
     1
 66
     7
176
     1
 43
1.0
176
     1
 76
     1
176
     1
 77
     6
176
     1
 78
     2
176
     1
 67
     7
176
     1
 79
     5
176
     1
170
     0
176
     1
171
     0
176
     1
290
     0
176
     1
 93
       13
176
     1
 44
0.0
176
     1
173
     0
176
     1
  0
VISUALSTYLE
  5
2E
102
{ACAD_REACTORS
330
2A
102
}
330
2A
100
AcDbVisualStyle
  2
GouraudWithEdges
 70
     3
177
     2
291
     1
 71
     2
176
     1
 72
     2
176
     1
 73
     1
176
     1
 90
        2
176
     1
 40
-0.6
176
     1
 41
30.0
176
     1
 62
     5
 63
     7
421
 16777215
176
     1
 74
     1
176
     1
 91
        4
176
     1
 64
     7
176
     1
 65
   257
176
     1
 75
     1
176
     1
175
     1
176
     1
 42
1.0
176
     1
 92
        0
176
     1
 66
   257
176
     1
 43
1.0
176
     1
 76
     1
176
     1
 77
     6
176
     1
 78
     2
176
     1
 67
     7
176
     1
 79
     5
176
     1
170
     0
176
     1
171
     0
176
     1
290
     0
176
     1
 93
       13
176
     1
 44
0.0
176
     1
173
     0
176
     1
  0
VISUALSTYLE
  5
38
102
{ACAD_REACTORS
330
2A
102
}
330
2A
100
AcDbVisualStyle
  2
Linepattern
 70
    14
177
     2
291
     1
 71
     2
176
     1
 72
     2
176
     1
 73
     0
176
     1
 90
        0
176
     1
 40
-0.6
176
     1
 41
-30.0
176
     1
 62
     5
 63
     7
421
 16777215
176
     1
 74
     1
176
     1
 91
        4
176
     1
 64
     7
176
     1
 65
   257
176
     1
 75
     7
176
     1
175
     7
176
     1
 42
1.0
176
     1
 92
        8
176
     1
 66
     7
176
     1
 43
1.0
176
     1
 76
     1
176
     1
 77
     6
176
     1
 78
     2
176
     1
 67
     7
176
     1
 79
     5
176
     1
170
     0
176
     1
171
     0
176
     1
290
     0
176
     1
 93
        1
176
     1
 44
0.0
176
     1
173
     0
176
     1
  0
VISUALSTYLE
  5
33
102
{ACAD_REACTORS
330
2A
102
}
330
2A
100
AcDbVisualStyle
  2
Realistic
 70
     8
177
     2
291
     0
 71
     2
176
     1
 72
     2
176
     1
 73
     0
176
     1
 90
        0
176
     1
 40
-0.6
176
     1
 41
-30.0
176
     1
 62
     5
 63
     7
421
 16777215
176
     1
 74
     1
176
     1
 91
        0
176
     1
 64
     7
176
     1
 65
   257
176
     1
 75
     1
176
     1
175
     1
176
     1
 42
1.0
176
     1
 92
        8
176
     1
 66
     8
424
  7895160
176
     1
 43
1.0
176
     1
 76
     1
176
     1
 77
     6
176
     1
 78
     2
176
     1
 67
     7
176
     1
 79
     5
176
     1
170
     0
176
     1
171
     0
176
     1
290
     0
176
     1
 93
       13
176
     1
 44
0.0
176
     1
173
     0
176
     1
  0
VISUALSTYLE
  5
37
102
{ACAD_REACTORS
330
2A
102
}
330
2A
100
AcDbVisualStyle
  2
Thicken
 70
    13
177
     2
291
     1
 71
     2
176
     1
 72
     2
176
     1
 73
     0
176
     1
 90
        0
176
     1
 40
-0.6
176
     1
 41
-30.0
176
     1
 62
     5
 63
     7
421
 16777215
176
     1
 74
     1
176
     1
 91
        4
176
     1
 64
     7
176
     1
 65
   257
176
     1
 75
     1
176
     1
175
     1
176
     1
 42
1.0
176
     1
 92
       12
176
     1
 66
     7
176
     1
 43
1.0
176
     1
 76
     1
176
     1
 77
     6
176
     1
 78
     2
176
     1
 67
     7
176
     1
 79
     5
176
     1
170
     0
176
     1
171
     0
176
     1
290
     0
176
     1
 93
        1
176
     1
 44
0.0
176
     1
173
     0
176
     1
  0
ENDSEC
  0
EOF
