  0
SECTION
  2
HEADER
  9
$ACADVER
  1
AC1024
  9
$ACADMAINTVER
 70
     6
  9
$DWGCODEPAGE
  3
UNDEFINED
  9
$INSBASE
 10
0.0
 20
0.0
 30
0.0
  9
$EXTMIN
 10
1.000000000000000E+20
 20
1.000000000000000E+20
 30
1.000000000000000E+20
  9
$EXTMAX
 10
-1.000000000000000E+20
 20
-1.000000000000000E+20
 30
-1.000000000000000E+20
  9
$LIMMIN
 10
0.0
 20
0.0
  9
$LIMMAX
 10
12.0
 20
9.0
  9
$ORTHOMODE
 70
     0
  9
$REGENMODE
 70
     1
  9
$FILLMODE
 70
     1
  9
$QTEXTMODE
 70
     0
  9
$MIRRTEXT
 70
     1
  9
$LTSCALE
 40
1.0
  9
$ATTMODE
 70
     1
  9
$TEXTSIZE
 40
0.2
  9
$TRACEWID
 40
0.05
  9
$TEXTSTYLE
  7
Standard
  9
$CLAYER
  8
0
  9
$CELTYPE
  6
ByLayer
  9
$CECOLOR
 62
   256
  9
$CELTSCALE
 40
1.0
  9
$DISPSILH
 70
     0
  9
$DIMSCALE
 40
1.0
  9
$DIMASZ
 40
0.18
  9
$DIMEXO
 40
0.0625
  9
$DIMDLI
 40
0.38
  9
$DIMRND
 40
0.0
  9
$DIMDLE
 40
0.0
  9
$DIMEXE
 40
0.18
  9
$DIMTP
 40
0.0
  9
$DIMTM
 40
0.0
  9
$DIMTXT
 40
0.18
  9
$DIMCEN
 40
0.09
  9
$DIMTSZ
 40
0.0
  9
$DIMTOL
 70
     0
  9
$DIMLIM
 70
     0
  9
$DIMTIH
 70
     1
  9
$DIMTOH
 70
     1
  9
$DIMSE1
 70
     0
  9
$DIMSE2
 70
     0
  9
$DIMTAD
 70
     0
  9
$DIMZIN
 70
     0
  9
$DIMBLK
  1

  9
$DIMASO
 70
     1
  9
$DIMSHO
 70
     1
  9
$DIMPOST
  1

  9
$DIMAPOST
  1

  9
$DIMALT
 70
     0
  9
$DIMALTD
 70
     2
  9
$DIMALTF
 40
25.4
  9
$DIMLFAC
 40
1.0
  9
$DIMTOFL
 70
     0
  9
$DIMTVP
 40
0.0
  9
$DIMTIX
 70
     0
  9
$DIMSOXD
 70
     0
  9
$DIMSAH
 70
     0
  9
$DIMBLK1
  1

  9
$DIMBLK2
  1

  9
$DIMSTYLE
  2
Standard
  9
$DIMCLRD
 70
     0
  9
$DIMCLRE
 70
     0
  9
$DIMCLRT
 70
     0
  9
$DIMTFAC
 40
1.0
  9
$DIMGAP
 40
0.09
  9
$DIMJUST
 70
     0
  9
$DIMSD1
 70
     0
  9
$DIMSD2
 70
     0
  9
$DIMTOLJ
 70
     1
  9
$DIMTZIN
 70
     0
  9
$DIMALTZ
 70
     0
  9
$DIMALTTZ
 70
     0
  9
$DIMUPT
 70
     0
  9
$DIMDEC
 70
     4
  9
$DIMTDEC
 70
     4
  9
$DIMALTU
 70
     2
  9
$DIMALTTD
 70
     2
  9
$DIMTXSTY
  7
Standard
  9
$DIMAUNIT
 70
     0
  9
$DIMADEC
 70
     0
  9
$DIMALTRND
 40
0.0
  9
$DIMAZIN
 70
     0
  9
$DIMDSEP
 70
    46
  9
$DIMATFIT
 70
     3
  9
$DIMFRAC
 70
     0
  9
$DIMLDRBLK
  1

  9
$DIMLUNIT
 70
     2
  9
$DIMLWD
 70
    -2
  9
$DIMLWE
 70
    -2
  9
$DIMTMOVE
 70
     0
  9
$DIMFXL
 40
1.0
  9
$DIMFXLON
 70
     0
  9
$DIMJOGANG
 40
0.7853981633974483
  9
$DIMTFILL
 70
     0
  9
$DIMTFILLCLR
 70
     0
  9
$DIMARCSYM
 70
     0
  9
$DIMLTYPE
  6

  9
$DIMLTEX1
  6

  9
$DIMLTEX2
  6

  9
$DIMTXTDIRECTION
 70
     0
  9
$LUNITS
 70
     2
  9
$LUPREC
 70
     4
  9
$SKETCHINC
 40
0.1
  9
$FILLETRAD
 40
0.5
  9
$AUNITS
 70
     0
  9
$AUPREC
 70
     0
  9
$MENU
  1
.
  9
$ELEVATION
 40
0.0
  9
$PELEVATION
 40
0.0
  9
$THICKNESS
 40
0.0
  9
$LIMCHECK
 70
     0
  9
$CHAMFERA
 40
0.5
  9
$CHAMFERB
 40
0.5
  9
$CHAMFERC
 40
1.0
  9
$CHAMFERD
 40
0.0
  9
$SKPOLY
 70
     0
  9
$TDCREATE
 40
2457933.453136562
  9
$TDUCREATE
 40
2457933.078136574
  9
$TDUPDATE
 40
2457933.453136562
  9
$TDUUPDATE
 40
2457933.078136574
  9
$TDINDWG
 40
0.0000000116
  9
$TDUSRTIMER
 40
0.0000000116
  9
$USRTIMER
 70
     1
  9
$ANGBASE
 50
0.0
  9
$ANGDIR
 70
     0
  9
$PDMODE
 70
     0
  9
$PDSIZE
 40
0.0
  9
$PLINEWID
 40
0.0
  9
$SPLFRAME
 70
     0
  9
$SPLINETYPE
 70
     6
  9
$SPLINESEGS
 70
     8
  9
$HANDSEED
  5
E0
  9
$SURFTAB1
 70
     6
  9
$SURFTAB2
 70
     6
  9
$SURFTYPE
 70
     6
  9
$SURFU
 70
     6
  9
$SURFV
 70
     6
  9
$UCSBASE
  2

  9
$UCSNAME
  2

  9
$UCSORG
 10
0.0
 20
0.0
 30
0.0
  9
$UCSXDIR
 10
1.0
 20
0.0
 30
0.0
  9
$UCSYDIR
 10
0.0
 20
1.0
 30
0.0
  9
$UCSORTHOREF
  2

  9
$UCSORTHOVIEW
 70
     0
  9
$UCSORGTOP
 10
0.0
 20
0.0
 30
0.0
  9
$UCSORGBOTTOM
 10
0.0
 20
0.0
 30
0.0
  9
$UCSORGLEFT
 10
0.0
 20
0.0
 30
0.0
  9
$UCSORGRIGHT
 10
0.0
 20
0.0
 30
0.0
  9
$UCSORGFRONT
 10
0.0
 20
0.0
 30
0.0
  9
$UCSORGBACK
 10
0.0
 20
0.0
 30
0.0
  9
$PUCSBASE
  2

  9
$PUCSNAME
  2

  9
$PUCSORG
 10
0.0
 20
0.0
 30
0.0
  9
$PUCSXDIR
 10
1.0
 20
0.0
 30
0.0
  9
$PUCSYDIR
 10
0.0
 20
1.0
 30
0.0
  9
$PUCSORTHOREF
  2

  9
$PUCSORTHOVIEW
 70
     0
  9
$PUCSORGTOP
 10
0.0
 20
0.0
 30
0.0
  9
$PUCSORGBOTTOM
 10
0.0
 20
0.0
 30
0.0
  9
$PUCSORGLEFT
 10
0.0
 20
0.0
 30
0.0
  9
$PUCSORGRIGHT
 10
0.0
 20
0.0
 30
0.0
  9
$PUCSORGFRONT
 10
0.0
 20
0.0
 30
0.0
  9
$PUCSORGBACK
 10
0.0
 20
0.0
 30
0.0
  9
$USERI1
 70
     0
  9
$USERI2
 70
     0
  9
$USERI3
 70
     0
  9
$USERI4
 70
     0
  9
$USERI5
 70
     0
  9
$USERR1
 40
0.0
  9
$USERR2
 40
0.0
  9
$USERR3
 40
0.0
  9
$USERR4
 40
0.0
  9
$USERR5
 40
0.0
  9
$WORLDVIEW
 70
     1
  9
$SHADEDGE
 70
     3
  9
$SHADEDIF
 70
    70
  9
$TILEMODE
 70
     1
  9
$MAXACTVP
 70
    64
  9
$PINSBASE
 10
0.0
 20
0.0
 30
0.0
  9
$PLIMCHECK
 70
     0
  9
$PEXTMIN
 10
1.000000000000000E+20
 20
1.000000000000000E+20
 30
1.000000000000000E+20
  9
$PEXTMAX
 10
-1.000000000000000E+20
 20
-1.000000000000000E+20
 30
-1.000000000000000E+20
  9
$PLIMMIN
 10
0.0
 20
0.0
  9
$PLIMMAX
 10
12.0
 20
9.0
  9
$UNITMODE
 70
     0
  9
$VISRETAIN
 70
     1
  9
$PLINEGEN
 70
     0
  9
$PSLTSCALE
 70
     1
  9
$TREEDEPTH
 70
  3020
  9
$CMLSTYLE
  2
Standard
  9
$CMLJUST
 70
     0
  9
$CMLSCALE
 40
1.0
  9
$PROXYGRAPHICS
 70
     1
  9
$MEASUREMENT
 70
     0
  9
$CELWEIGHT
370
    -1
  9
$ENDCAPS
280
     0
  9
$JOINSTYLE
280
     0
  9
$LWDISPLAY
290
     1
  9
$INSUNITS
 70
     1
  9
$HYPERLINKBASE
  1

  9
$STYLESHEET
  1

  9
$XEDIT
290
     1
  9
$CEPSNTYPE
380
     0
  9
$PSTYLEMODE
290
     1
  9
$FINGERPRINTGUID
  2
{18E0792E-BD2E-5D55-B26D-EAF82F2BCF70}
  9
$VERSIONGUID
  2
{FAEB1C32-E019-11D5-929B-00C0DF256EC4}
  9
$EXTNAMES
290
     1
  9
$PSVPSCALE
 40
0.0
  9
$OLESTARTUP
290
     0
  9
$SORTENTS
280
   127
  9
$INDEXCTL
280
     0
  9
$HIDETEXT
280
     1
  9
$XCLIPFRAME
280
     2
  9
$HALOGAP
280
     0
  9
$OBSCOLOR
 70
   257
  9
$OBSLTYPE
280
     0
  9
$INTERSECTIONDISPLAY
280
     0
  9
$INTERSECTIONCOLOR
 70
   257
  9
$DIMASSOC
280
     2
  9
$PROJECTNAME
  1

  9
$CAMERADISPLAY
290
     0
  9
$LENSLENGTH
 40
50.0
  9
$CAMERAHEIGHT
 40
0.0
  9
$STEPSPERSEC
 40
2.0
  9
$STEPSIZE
 40
6.0
  9
$3DDWFPREC
 40
2.0
  9
$PSOLWIDTH
 40
0.25
  9
$PSOLHEIGHT
 40
4.0
  9
$LOFTANG1
 40
1.570796326794897
  9
$LOFTANG2
 40
1.570796326794897
  9
$LOFTMAG1
 40
0.0
  9
$LOFTMAG2
 40
0.0
  9
$LOFTPARAM
 70
     7
  9
$LOFTNORMALS
280
     1
  9
$LATITUDE
 40
37.795
  9
$LONGITUDE
 40
-122.394
  9
$NORTHDIRECTION
 40
0.0
  9
$TIMEZONE
 70
 -8000
  9
$LIGHTGLYPHDISPLAY
280
     1
  9
$TILEMODELIGHTSYNCH
280
     1
  9
$CMATERIAL
347
3C
  9
$SOLIDHIST
280
     1
  9
$SHOWHIST
280
     1
  9
$DWFFRAME
280
     2
  9
$DGNFRAME
280
     2
  9
$REALWORLDSCALE
290
     1
  9
$INTERFERECOLOR
 62
   256
  9
$CSHADOW
280
     0
  9
$SHADOWPLANELOCATION
 40
0.0
  0
ENDSEC
  0
SECTION
  2
CLASSES
  0
CLASS
  1
ACDBDICTIONARYWDFLT
  2
AcDbDictionaryWithDefault
  3
ObjectDBX Classes
 90
        0
 91
        4
280
     0
281
     0
  0
CLASS
  1
VISUALSTYLE
  2
AcDbVisualStyle
  3
ObjectDBX Classes
 90
     4095
 91
        4
280
     0
281
     0
  0
CLASS
  1
MATERIAL
  2
AcDbMaterial
  3
ObjectDBX Classes
 90
     1153
 91
        4
280
     0
281
     0
  0
CLASS
  1
SUN
  2
AcDbSun
  3
SCENEOE
 90
     1024
 91
        4
280
     0
281
     0
  0
ENDSEC
  0
SECTION
  2
TABLES
  0
TABLE
  2
VPORT
  5
8
330
0
100
AcDbSymbolTable
 70
     1
  0
VPORT
  5
29
330
8
100
AcDbSymbolTableRecord
100
AcDbViewportTableRecord
  2
*Active
 70
     0
 10
0.0
 20
0.0
 11
1.0
 21
1.0
 12
0.0
 22
0.0
 13
0.0
 23
0.0
 14
0.5
 24
0.5
 15
0.5
 25
0.5
 16
0.0
 26
0.0
 36
1.0
 17
105.0007777515277
 27
-148.5000416295416
 37
0.0
 40
297.0000832590831
 41
0.7070757462376333
 42
50.0
 43
0.0
 44
0.0
 50
0.0
 51
0.0
 71
     0
 72
   100
 73
     1
 74
     3
 75
     0
 76
     0
 77
     0
 78
     0
281
     0
 65
     1
110
0.0
120
0.0
130
0.0
111
1.0
121
0.0
131
0.0
112
0.0
122
1.0
132
0.0
 79
     0
146
0.0
 60
     3
 61
     5
292
     1
282
     1
141
0.0
142
0.0
 63
   250
361
3F
  0
ENDTAB
  0
TABLE
  2
LTYPE
  5
5
330
0
100
AcDbSymbolTable
 70
     1
  0
LTYPE
  5
14
330
5
100
AcDbSymbolTableRecord
100
AcDbLinetypeTableRecord
  2
ByBlock
 70
     0
  3

 72
    65
 73
     0
 40
0.0
  0
LTYPE
  5
15
330
5
100
AcDbSymbolTableRecord
100
AcDbLinetypeTableRecord
  2
ByLayer
 70
     0
  3

 72
    65
 73
     0
 40
0.0
  0
LTYPE
  5
16
330
5
100
AcDbSymbolTableRecord
100
AcDbLinetypeTableRecord
  2
Continuous
 70
     0
  3
Solid line
 72
    65
 73
     0
 40
0.0
  0
ENDTAB
  0
TABLE
  2
LAYER
  5
2
330
0
100
AcDbSymbolTable
 70
     2
  0
LAYER
  5
10
330
2
100
AcDbSymbolTableRecord
100
AcDbLayerTableRecord
  2
0
 70
     0
 62
     7
  6
Continuous
370
    -3
390
F
347
3E
  0
LAYER
  5
40
330
2
100
AcDbSymbolTableRecord
100
AcDbLayerTableRecord
  2
_U+30EC_U+30A4_U+30E4_U+30FC 1
 70
     0
 62
     7
  6
Continuous
370
    -3
390
F
347
3E
  0
ENDTAB
  0
TABLE
  2
STYLE
  5
3
330
0
100
AcDbSymbolTable
 70
     1
  0
STYLE
  5
11
330
3
100
AcDbSymbolTableRecord
100
AcDbTextStyleTableRecord
  2
Standard
 70
     0
 40
0.0
 41
1.0
 50
0.0
 71
     0
 42
0.2
  3
txt
  4

  0
ENDTAB
  0
TABLE
  2
VIEW
  5
6
330
0
100
AcDbSymbolTable
 70
     0
  0
ENDTAB
  0
TABLE
  2
UCS
  5
7
330
0
100
AcDbSymbolTable
 70
     0
  0
ENDTAB
  0
TABLE
  2
APPID
  5
9
330
0
100
AcDbSymbolTable
 70
     1
  0
APPID
  5
12
330
9
100
AcDbSymbolTableRecord
100
AcDbRegAppTableRecord
  2
ACAD
 70
     0
  0
ENDTAB
  0
TABLE
  2
DIMSTYLE
  5
A
330
0
100
AcDbSymbolTable
 70
     1
100
AcDbDimStyleTable
  0
DIMSTYLE
105
27
330
A
100
AcDbSymbolTableRecord
100
AcDbDimStyleTableRecord
  2
Standard
 70
     0
178
     0
340
11
  0
ENDTAB
  0
TABLE
  2
BLOCK_RECORD
  5
1
330
0
100
AcDbSymbolTable
 70
     2
  0
BLOCK_RECORD
  5
1F
330
1
100
AcDbSymbolTableRecord
100
AcDbBlockTableRecord
  2
*Model_Space
340
22
 70
     0
280
     1
281
     0
  0
BLOCK_RECORD
  5
1B
330
1
100
AcDbSymbolTableRecord
100
AcDbBlockTableRecord
  2
*Paper_Space
340
1E
 70
     0
280
     1
281
     0
  0
BLOCK_RECORD
  5
23
330
1
100
AcDbSymbolTableRecord
100
AcDbBlockTableRecord
  2
*Paper_Space0
340
26
 70
     0
280
     1
281
     0
  0
BLOCK_RECORD
  5
41
330
1
100
AcDbSymbolTableRecord
100
AcDbBlockTableRecord
  2
block 2
340
0
102
{BLKREFS
331
42
102
}
 70
     0
280
     1
281
     0
  0
ENDTAB
  0
ENDSEC
  0
SECTION
  2
BLOCKS
  0
BLOCK
  5
20
330
1F
100
AcDbEntity
  8
0
100
AcDbBlockBegin
  2
*Model_Space
 70
     0
 10
0.0
 20
0.0
 30
0.0
  3
*Model_Space
  1

  0
ENDBLK
  5
21
330
1F
100
AcDbEntity
  8
0
100
AcDbBlockEnd
  0
BLOCK
  5
1C
330
1B
100
AcDbEntity
 67
     1
  8
0
100
AcDbBlockBegin
  2
*Paper_Space
 70
     0
 10
0.0
 20
0.0
 30
0.0
  3
*Paper_Space
  1

  0
ENDBLK
  5
1D
330
1B
100
AcDbEntity
 67
     1
  8
0
100
AcDbBlockEnd
  0
BLOCK
  5
24
330
23
100
AcDbEntity
  8
0
100
AcDbBlockBegin
  2
*Paper_Space0
 70
     0
 10
0.0
 20
0.0
 30
0.0
  3
*Paper_Space0
  1

  0
ENDBLK
  5
25
330
23
100
AcDbEntity
  8
0
100
AcDbBlockEnd
  0
BLOCK
  5
43
330
41
100
AcDbEntity
  8
0
100
AcDbBlockBegin
  2
block 2
 70
     0
 10
0.0
 20
0.0
 30
0.0
  3
block 2
  1

  0
SPLINE
  5
45
330
41
100
AcDbEntity
  8
_U+30EC_U+30A4_U+30E4_U+30FC 1
370
     0
100
AcDbSpline
210
0.0
220
0.0
230
1.0
 70
    11
 71
     3
 72
   287
 73
   283
 74
     0
 42
0.0000000001
 43
0.0000000001
 12
1.0
 22
0.0
 32
0.0
 13
1.0
 23
0.0
 33
0.0
 40
0.0
 40
0.0
 40
0.0
 40
0.0
 40
1.0
 40
1.0
 40
1.0
 40
2.0
 40
2.0
 40
2.0
 40
3.0
 40
3.0
 40
3.0
 40
4.0
 40
4.0
 40
4.0
 40
5.0
 40
5.0
 40
5.0
 40
6.0
 40
6.0
 40
6.0
 40
7.0
 40
7.0
 40
7.0
 40
8.0
 40
8.0
 40
8.0
 40
9.0
 40
9.0
 40
9.0
 40
10.0
 40
10.0
 40
10.0
 40
11.0
 40
11.0
 40
11.0
 40
12.0
 40
12.0
 40
12.0
 40
13.0
 40
13.0
 40
13.0
 40
14.0
 40
14.0
 40
14.0
 40
15.0
 40
15.0
 40
15.0
 40
16.0
 40
16.0
 40
16.0
 40
17.0
 40
17.0
 40
17.0
 40
18.0
 40
18.0
 40
18.0
 40
19.0
 40
19.0
 40
19.0
 40
20.0
 40
20.0
 40
20.0
 40
21.0
 40
21.0
 40
21.0
 40
22.0
 40
22.0
 40
22.0
 40
23.0
 40
23.0
 40
23.0
 40
24.0
 40
24.0
 40
24.0
 40
25.0
 40
25.0
 40
25.0
 40
26.0
 40
26.0
 40
26.0
 40
27.0
 40
27.0
 40
27.0
 40
28.0
 40
28.0
 40
28.0
 40
29.0
 40
29.0
 40
29.0
 40
30.0
 40
30.0
 40
30.0
 40
31.0
 40
31.0
 40
31.0
 40
32.0
 40
32.0
 40
32.0
 40
33.0
 40
33.0
 40
33.0
 40
34.0
 40
34.0
 40
34.0
 40
35.0
 40
35.0
 40
35.0
 40
36.0
 40
36.0
 40
36.0
 40
37.0
 40
37.0
 40
37.0
 40
38.0
 40
38.0
 40
38.0
 40
39.0
 40
39.0
 40
39.0
 40
40.0
 40
40.0
 40
40.0
 40
41.0
 40
41.0
 40
41.0
 40
42.0
 40
42.0
 40
42.0
 40
43.0
 40
43.0
 40
43.0
 40
44.0
 40
44.0
 40
44.0
 40
45.0
 40
45.0
 40
45.0
 40
46.0
 40
46.0
 40
46.0
 40
47.0
 40
47.0
 40
47.0
 40
48.0
 40
48.0
 40
48.0
 40
49.0
 40
49.0
 40
49.0
 40
50.0
 40
50.0
 40
50.0
 40
51.0
 40
51.0
 40
51.0
 40
52.0
 40
52.0
 40
52.0
 40
53.0
 40
53.0
 40
53.0
 40
54.0
 40
54.0
 40
54.0
 40
55.0
 40
55.0
 40
55.0
 40
56.0
 40
56.0
 40
56.0
 40
57.0
 40
57.0
 40
57.0
 40
58.0
 40
58.0
 40
58.0
 40
59.0
 40
59.0
 40
59.0
 40
60.0
 40
60.0
 40
60.0
 40
61.0
 40
61.0
 40
61.0
 40
62.0
 40
62.0
 40
62.0
 40
63.0
 40
63.0
 40
63.0
 40
64.0
 40
64.0
 40
64.0
 40
65.0
 40
65.0
 40
65.0
 40
66.0
 40
66.0
 40
66.0
 40
67.0
 40
67.0
 40
67.0
 40
68.0
 40
68.0
 40
68.0
 40
69.0
 40
69.0
 40
69.0
 40
70.0
 40
70.0
 40
70.0
 40
71.0
 40
71.0
 40
71.0
 40
72.0
 40
72.0
 40
72.0
 40
73.0
 40
73.0
 40
73.0
 40
74.0
 40
74.0
 40
74.0
 40
75.0
 40
75.0
 40
75.0
 40
76.0
 40
76.0
 40
76.0
 40
77.0
 40
77.0
 40
77.0
 40
78.0
 40
78.0
 40
78.0
 40
79.0
 40
79.0
 40
79.0
 40
80.0
 40
80.0
 40
80.0
 40
81.0
 40
81.0
 40
81.0
 40
82.0
 40
82.0
 40
82.0
 40
83.0
 40
83.0
 40
83.0
 40
84.0
 40
84.0
 40
84.0
 40
85.0
 40
85.0
 40
85.0
 40
86.0
 40
86.0
 40
86.0
 40
87.0
 40
87.0
 40
87.0
 40
88.0
 40
88.0
 40
88.0
 40
89.0
 40
89.0
 40
89.0
 40
90.0
 40
90.0
 40
90.0
 40
91.0
 40
91.0
 40
91.0
 40
92.0
 40
92.0
 40
92.0
 40
93.0
 40
93.0
 40
93.0
 40
94.0
 40
94.0
 40
94.0
 40
94.0
 10
117.815705765978
 20
-155.3424488500533
 30
0.0
 10
117.8181441910077
 20
-155.3328180167224
 30
0.0
 10
117.8212443769478
 20
-155.3235046833912
 30
0.0
 10
117.8215618769397
 20
-155.3135210722826
 30
0.0
 10
117.8215618769397
 20
-155.3121452389497
 30
0.0
 10
117.8222674324772
 20
-155.3111221833946
 30
0.0
 10
117.8222674324772
 20
-155.3100638500613
 30
0.0
 10
117.8222674324772
 20
-155.3021616278411
 30
0.0
 10
117.819162988112
 20
-155.2952471833985
 30
0.0
 10
117.8177914132306
 20
-155.2876624611779
 30
0.0
 10
117.8164113215155
 20
-155.2801130167355
 30
0.0
 10
117.8170858576751
 20
-155.2725282945149
 30
0.0
 10
117.8143299326797
 20
-155.264943572295
 30
0.0
 10
117.8143299326797
 20
-155.264943572295
 30
0.0
 10
117.559412716961
 20
-154.5648913502474
 30
0.0
 10
117.559412716961
 20
-154.5648913502474
 30
0.0
 10
117.5590599391922
 20
-154.5638682946922
 30
0.0
 10
117.5580368836628
 20
-154.5631627391367
 30
0.0
 10
117.557684105894
 20
-154.5617869058038
 30
0.0
 10
117.5538741059912
 20
-154.5525088502507
 30
0.0
 10
117.5477004950376
 20
-154.5445713502524
 30
0.0
 10
117.5421618840678
 20
-154.5363163502551
 30
0.0
 10
117.5376858577451
 20
-154.5304602391452
 30
0.0
 10
117.5349299398078
 20
-154.5235457947026
 30
0.0
 10
117.5297793843837
 20
-154.5183952391482
 30
0.0
 10
117.5245935511826
 20
-154.5128919058166
 30
0.0
 10
117.5180671624603
 20
-154.5097874613724
 30
0.0
 10
117.5122110514986
 20
-154.505307183596
 30
0.0
 10
117.504273551701
 20
-154.4994510724861
 30
0.0
 10
117.4966888296723
 20
-154.4928894058213
 30
0.0
 10
117.4877282743454
 20
-154.4891146836004
 30
0.0
 10
117.4836007744507
 20
-154.4873860724897
 30
0.0
 10
117.4787719688705
 20
-154.4870332947119
 30
0.0
 10
117.4746402191237
 20
-154.4856574613784
 30
0.0
 10
117.4622577194396
 20
-154.4818827391569
 30
0.0
 10
117.4501969688776
 20
-154.4784255169356
 30
0.0
 10
117.4371046645258
 20
-154.4780727391579
 30
0.0
 10
117.4363991089882
 20
-154.4780727391579
 30
0.0
 10
117.4357330799926
 20
-154.4777199613807
 30
0.0
 10
117.4350275244371
 20
-154.4777199613807
 30
0.0
 10
117.4350275244371
 20
-154.4777199613807
 30
0.0
 10
111.0447362164976
 20
-154.4777199613807
 30
0.0
 10
111.0447362164976
 20
-154.4777199613807
 30
0.0
 10
111.0447362164976
 20
-154.4777199613807
 30
0.0
 10
110.7839276120402
 20
-154.2165938503348
 30
0.0
 10
110.7839276120402
 20
-154.2165938503348
 30
0.0
 10
110.7839276120402
 20
-154.2165938503348
 30
0.0
 10
110.7839276120402
 20
-154.2165938503348
 30
0.0
 10
110.7839276120402
 20
-154.2165938503348
 30
0.0
 10
110.7597976126559
 20
-154.1924991281184
 30
0.0
 10
110.7270951134902
 20
-154.1776824614556
 30
0.0
 10
110.6905826144217
 20
-154.1776824614556
 30
0.0
 10
110.6905826144217
 20
-154.1776824614556
 30
0.0
 10
110.6905826144217
 20
-154.1776824614556
 30
0.0
 10
110.6902298366529
 20
-154.1776824614556
 30
0.0
 10
110.6902298366529
 20
-154.1776824614556
 30
0.0
 10
110.6902298366529
 20
-154.1776824614556
 30
0.0
 10
110.6902298366529
 20
-154.1776824614556
 30
0.0
 10
110.6902298366529
 20
-154.1776824614556
 30
0.0
 10
101.3223220200926
 20
-154.1776824614556
 30
0.0
 10
101.3223220200926
 20
-154.1776824614556
 30
0.0
 10
101.3223220200926
 20
-154.1776824614556
 30
0.0
 10
101.3223220200926
 20
-144.4425327416672
 30
0.0
 10
101.3223220200926
 20
-144.4425327416672
 30
0.0
 10
101.3223220200926
 20
-144.4425327416672
 30
0.0
 10
106.6897691937905
 20
-144.4425327416672
 30
0.0
 10
106.6897691937905
 20
-144.4425327416672
 30
0.0
 10
106.704938638231
 20
-144.4425327416672
 30
0.0
 10
106.7201080826715
 20
-144.440098575001
 30
0.0
 10
106.7349247493343
 20
-144.4345952416692
 30
0.0
 10
106.735943826424
 20
-144.4342424638914
 30
0.0
 10
106.7366493819616
 20
-144.4332194083363
 30
0.0
 10
106.737672437491
 20
-144.4328666305585
 30
0.0
 10
106.7473032705787
 20
-144.4290919083373
 30
0.0
 10
106.7552407703762
 20
-144.4228830194499
 30
0.0
 10
106.7634997493272
 20
-144.4173796861181
 30
0.0
 10
106.7693518811273
 20
-144.4132521861188
 30
0.0
 10
106.7762663253953
 20
-144.4101477416752
 30
0.0
 10
106.7814168808195
 20
-144.4049619083433
 30
0.0
 10
106.78762576955
 20
-144.3991057972337
 30
0.0
 10
106.7914004916759
 20
-144.3915210750134
 30
0.0
 10
106.7962335471081
 20
-144.3846419083484
 30
0.0
 10
106.8010666025404
 20
-144.3777627416833
 30
0.0
 10
106.8069227135021
 20
-144.3715538527959
 30
0.0
 10
106.8103446578592
 20
-144.3639691305756
 30
0.0
 10
106.8130963244557
 20
-144.3574074639108
 30
0.0
 10
106.8138018799933
 20
-144.3498580194681
 30
0.0
 10
106.8155304910603
 20
-144.3426260750255
 30
0.0
 10
106.817929379888
 20
-144.3329599639169
 30
0.0
 10
106.8210338242532
 20
-144.3236466305856
 30
0.0
 10
106.821386602022
 20
-144.313663019477
 30
0.0
 10
106.821386602022
 20
-144.3122871861442
 30
0.0
 10
106.822060860424
 20
-144.3112641305887
 30
0.0
 10
106.822060860424
 20
-144.3102410750336
 30
0.0
 10
106.822060860424
 20
-144.3023035750356
 30
0.0
 10
106.8189877131943
 20
-144.2954244083705
 30
0.0
 10
106.8175766021192
 20
-144.2878396861502
 30
0.0
 10
106.8162007688209
 20
-144.28025496393
 30
0.0
 10
106.8169063243585
 20
-144.2726702417097
 30
0.0
 10
106.814154657762
 20
-144.2650855194894
 30
0.0
 10
106.814154657762
 20
-144.2650855194894
 30
0.0
 10
106.4503349448216
 20
-143.264995797517
 30
0.0
 10
106.4503349448216
 20
-143.264995797517
 30
0.0
 10
106.4500174448297
 20
-143.263937464184
 30
0.0
 10
106.4489591115234
 20
-143.2632671864063
 30
0.0
 10
106.4486063337546
 20
-143.2622441308512
 30
0.0
 10
106.4448316116287
 20
-143.2522252419648
 30
0.0
 10
106.4382699451294
 20
-143.2439702419668
 30
0.0
 10
106.4324138341677
 20
-143.2357152419689
 30
0.0
 10
106.428286334273
 20
-143.2298591308592
 30
0.0
 10
106.4255386383004
 20
-143.2232974641941
 30
0.0
 10
106.4207016122443
 20
-143.2184644086399
 30
0.0
 10
106.4148455012826
 20
-143.2122907975304
 30
0.0
 10
106.4072960570308
 20
-143.2084807975313
 30
0.0
 10
106.4000641127708
 20
-143.2033302419769
 30
0.0
 10
106.3931496685028
 20
-143.1984971864227
 30
0.0
 10
106.3869407797723
 20
-143.1929938530905
 30
0.0
 10
106.3790385577517
 20
-143.1895366308693
 30
0.0
 10
106.3738527245506
 20
-143.1871377419809
 30
0.0
 10
106.3676830827597
 20
-143.1867849642032
 30
0.0
 10
106.3621405026272
 20
-143.1850563530925
 30
0.0
 10
106.3507810584726
 20
-143.181951908649
 30
0.0
 10
106.3400918920786
 20
-143.1785299642052
 30
0.0
 10
106.3283796701552
 20
-143.1781771864278
 30
0.0
 10
106.3273566146257
 20
-143.1781771864278
 30
0.0
 10
106.3266510590882
 20
-143.17782440865
 30
0.0
 10
106.3259807813275
 20
-143.17782440865
 30
0.0
 10
106.3259807813275
 20
-143.17782440865
 30
0.0
 10
95.05430773555851
 20
-143.17782440865
 30
0.0
 10
95.05430773555851
 20
-143.17782440865
 30
0.0
 10
95.05363745779783
 20
-143.17782440865
 30
0.0
 10
95.0525791244915
 20
-143.1781771864278
 30
0.0
 10
95.05190884673083
 20
-143.1781771864278
 30
0.0
 10
95.03949106926984
 20
-143.1785299642052
 30
0.0
 10
95.02777884734643
 20
-143.181951908649
 30
0.0
 10
95.01641940319179
 20
-143.1854091308703
 30
0.0
 10
95.01123356999075
 20
-143.1871377419809
 30
0.0
 10
95.0060830145666
 20
-143.1871377419809
 30
0.0
 10
95.00124995913434
 20
-143.1891838530915
 30
0.0
 10
94.9919719038155
 20
-143.1933113530905
 30
0.0
 10
94.98438718178677
 20
-143.2002257975334
 30
0.0
 10
94.9760969042205
 20
-143.2064346864208
 30
0.0
 10
94.97059357102756
 20
-143.2105621864197
 30
0.0
 10
94.96438468229708
 20
-143.2133138530855
 30
0.0
 10
94.95958690464171
 20
-143.21814690864
 30
0.0
 10
94.95404829367189
 20
-143.2240030197496
 30
0.0
 10
94.95027357154598
 20
-143.2319052419698
 30
0.0
 10
94.9457969745039
 20
-143.2388196864124
 30
0.0
 10
94.94096023845024
 20
-143.2463691308552
 30
0.0
 10
94.93510412748886
 20
-143.2532835752977
 30
0.0
 10
94.93168586339603
 20
-143.2615385752957
 30
0.0
 10
94.9313330856189
 20
-143.2625616308511
 30
0.0
 10
94.93030634983316
 20
-143.2636199641841
 30
0.0
 10
94.92995357206438
 20
-143.2646430197395
 30
0.0
 10
94.92995357206438
 20
-143.2646430197395
 30
0.0
 10
94.56546358136329
 20
-144.2650855194894
 30
0.0
 10
94.56546358136329
 20
-144.2650855194894
 30
0.0
 10
94.56271191476684
 20
-144.2726702417097
 30
0.0
 10
94.56338586348814
 20
-144.28025496393
 30
0.0
 10
94.56200635922927
 20
-144.2878396861502
 30
0.0
 10
94.56063052593105
 20
-144.2954244083705
 30
0.0
 10
94.5575260815658
 20
-144.3023035750356
 30
0.0
 10
94.5575260815658
 20
-144.3102410750336
 30
0.0
 10
94.5575260815658
 20
-144.3112641305887
 30
0.0
 10
94.55823163710335
 20
-144.3122871861442
 30
0.0
 10
94.55823163710335
 20
-144.313663019477
 30
0.0
 10
94.55854913709526
 20
-144.3236466305856
 30
0.0
 10
94.56165358146049
 20
-144.3329599639169
 30
0.0
 10
94.56409141904366
 20
-144.3426260750255
 30
0.0
 10
94.56581635913207
 20
-144.3498580194681
 30
0.0
 10
94.56648663689275
 20
-144.3574074639108
 30
0.0
 10
94.56923830348921
 20
-144.3639691305756
 30
0.0
 10
94.57269552562323
 20
-144.3715538527959
 30
0.0
 10
94.57855530792932
 20
-144.3777627416833
 30
0.0
 10
94.5833846920172
 20
-144.3846419083484
 30
0.0
 10
94.58818246967257
 20
-144.3915210750134
 30
0.0
 10
94.59199246957537
 20
-144.3991057972337
 30
0.0
 10
94.59816608052898
 20
-144.4049619083433
 30
0.0
 10
94.60335191373002
 20
-144.4101477416752
 30
0.0
 10
94.61023108022118
 20
-144.4132521861188
 30
0.0
 10
94.61608719118288
 20
-144.4173796861181
 30
0.0
 10
94.62437746874916
 20
-144.4228830194499
 30
0.0
 10
94.6322796907701
 20
-144.4290919083373
 30
0.0
 10
94.6419458016343
 20
-144.4328666305585
 30
0.0
 10
94.64296885716375
 20
-144.4332194083363
 30
0.0
 10
94.6436744127013
 20
-144.4342424638914
 30
0.0
 10
94.64469746823076
 20
-144.4345952416692
 30
0.0
 10
94.65951413451943
 20
-144.440098575001
 30
0.0
 10
94.67464830079999
 20
-144.4425327416672
 30
0.0
 10
94.68981774485742
 20
-144.4425327416672
 30
0.0
 10
94.68981774485742
 20
-144.4425327416672
 30
0.0
 10
100.0579664967934
 20
-144.4425327416672
 30
0.0
 10
100.0579664967934
 20
-144.4425327416672
 30
0.0
 10
100.0579664967934
 20
-144.4425327416672
 30
0.0
 10
100.0579664967934
 20
-154.1776824614556
 30
0.0
 10
100.0579664967934
 20
-154.1776824614556
 30
0.0
 10
100.0579664967934
 20
-154.1776824614556
 30
0.0
 10
95.05430773555851
 20
-154.1776824614556
 30
0.0
 10
95.05430773555851
 20
-154.1776824614556
 30
0.0
 10
95.05363745779783
 20
-154.1776824614556
 30
0.0
 10
95.0525791244915
 20
-154.1779999614558
 30
0.0
 10
95.05190884673083
 20
-154.1779999614558
 30
0.0
 10
95.03984384703863
 20
-154.1783527392336
 30
0.0
 10
95.02848440288399
 20
-154.1818099614549
 30
0.0
 10
95.01677218096056
 20
-154.185231905898
 30
0.0
 10
95.01158634775953
 20
-154.186643017009
 30
0.0
 10
95.0060830145666
 20
-154.1869605170087
 30
0.0
 10
95.00124995913434
 20
-154.1890419058971
 30
0.0
 10
94.99264218157617
 20
-154.1931694058957
 30
0.0
 10
94.98541023731623
 20
-154.1993782947834
 30
0.0
 10
94.9778255152875
 20
-154.2048816281156
 30
0.0
 10
94.97161662655702
 20
-154.209361905892
 30
0.0
 10
94.96473746006586
 20
-154.2128191281133
 30
0.0
 10
94.95958690464171
 20
-154.2183224614455
 30
0.0
 10
94.95440107144067
 20
-154.2234730169999
 30
0.0
 10
94.95129662707544
 20
-154.2303874614425
 30
0.0
 10
94.94716912718073
 20
-154.2365963503295
 30
0.0
 10
94.9416657939878
 20
-154.2448513503281
 30
0.0
 10
94.93545690525731
 20
-154.2524360725481
 30
0.0
 10
94.93168586339603
 20
-154.2620669058789
 30
0.0
 10
94.9313330856189
 20
-154.2631252392115
 30
0.0
 10
94.93030634983316
 20
-154.2637955169896
 30
0.0
 10
94.92995357206438
 20
-154.2648185725453
 30
0.0
 10
94.92995357206438
 20
-154.2648185725453
 30
0.0
 10
94.56546358136329
 20
-155.2645907945172
 30
0.0
 10
94.56546358136329
 20
-155.2645907945172
 30
0.0
 10
94.56271191476684
 20
-155.2725282945149
 30
0.0
 10
94.56303308571103
 20
-155.2804305167358
 30
0.0
 10
94.56200635922927
 20
-155.2887207945112
 30
0.0
 10
94.56063052593105
 20
-155.2959527389534
 30
0.0
 10
94.5575260815658
 20
-155.3024791278414
 30
0.0
 10
94.5575260815658
 20
-155.3100638500613
 30
0.0
 10
94.5575260815658
 20
-155.3111221833946
 30
0.0
 10
94.55823163710335
 20
-155.3121452389497
 30
0.0
 10
94.55823163710335
 20
-155.3131682945048
 30
0.0
 10
94.55854913709526
 20
-155.3231519056141
 30
0.0
 10
94.56165358146049
 20
-155.3324652389447
 30
0.0
 10
94.56409141904366
 20
-155.3417785722753
 30
0.0
 10
94.56581635913207
 20
-155.3493632944958
 30
0.0
 10
94.56648663689275
 20
-155.3569127389383
 30
0.0
 10
94.56923830348921
 20
-155.3638271833809
 30
0.0
 10
94.57269552562323
 20
-155.3714119056014
 30
0.0
 10
94.57855530792932
 20
-155.3772680167114
 30
0.0
 10
94.58303191424842
 20
-155.3841471833758
 30
0.0
 10
94.58818246967257
 20
-155.3913791278193
 30
0.0
 10
94.59199246957537
 20
-155.3989638500392
 30
0.0
 10
94.59816608052898
 20
-155.4048199611485
 30
0.0
 10
94.60335191373002
 20
-155.4099705167029
 30
0.0
 10
94.61023108022118
 20
-155.4127221833694
 30
0.0
 10
94.61608719118288
 20
-155.4168849611462
 30
0.0
 10
94.62437746874916
 20
-155.4227410722555
 30
0.0
 10
94.6322796907701
 20
-155.428914683365
 30
0.0
 10
94.6419458016343
 20
-155.4327246833641
 30
0.0
 10
94.64296885716375
 20
-155.4330774611418
 30
0.0
 10
94.6436744127013
 20
-155.434100516697
 30
0.0
 10
94.64469746823076
 20
-155.4344532944747
 30
0.0
 10
94.65951413451943
 20
-155.4399566278069
 30
0.0
 10
94.67464830079999
 20
-155.4423555166949
 30
0.0
 10
94.68981774485742
 20
-155.4423555166949
 30
0.0
 10
94.68981774485742
 20
-155.4423555166949
 30
0.0
 10
117.6899757691856
 20
-155.4423555166949
 30
0.0
 10
117.6899757691856
 20
-155.4423555166949
 30
0.0
 10
117.7051099354662
 20
-155.4423555166949
 30
0.0
 10
117.7202793795236
 20
-155.4399566278069
 30
0.0
 10
117.7350960458123
 20
-155.4344532944747
 30
0.0
 10
117.7361191013417
 20
-155.434100516697
 30
0.0
 10
117.7368246568793
 20
-155.4330774611418
 30
0.0
 10
117.7378477124088
 20
-155.4327246833641
 30
0.0
 10
117.7475138232733
 20
-155.428914683365
 30
0.0
 10
117.7554160452939
 20
-155.4227410722555
 30
0.0
 10
117.7637063228601
 20
-155.4168849611462
 30
0.0
 10
117.7695624338219
 20
-155.4127221833694
 30
0.0
 10
117.776441600313
 20
-155.4099705167029
 30
0.0
 10
117.7815921557372
 20
-155.4048199611485
 30
0.0
 10
117.7878053021267
 20
-155.3989638500392
 30
0.0
 10
117.7916110443705
 20
-155.3913791278193
 30
0.0
 10
117.7964088220258
 20
-155.3844999611536
 30
0.0
 10
117.8012418774581
 20
-155.377585516711
 30
0.0
 10
117.8070979884198
 20
-155.3714119056014
 30
0.0
 10
117.8105552105538
 20
-155.3638271833809
 30
0.0
 10
117.8133068771503
 20
-155.3569127389383
 30
0.0
 10
117.813977154911
 20
-155.3496807944961
 30
0.0
 10
117.815705765978
 20
-155.3424488500533
 30
0.0
  0
HATCH
  5
46
330
41
100
AcDbEntity
  8
_U+30EC_U+30A4_U+30E4_U+30FC 1
 62
   179
420
  2234388
100
AcDbHatch
 10
0.0
 20
0.0
 30
0.0
210
0.0
220
0.0
230
1.0
  2
SOLID
 70
     1
 71
     0
 91
        1
 92
        1
 93
        1
 72
     4
 94
        3
 73
     0
 74
     1
 95
      287
 96
      283
 40
0.0
 40
0.0
 40
0.0
 40
0.0
 40
1.0
 40
1.0
 40
1.0
 40
2.0
 40
2.0
 40
2.0
 40
3.0
 40
3.0
 40
3.0
 40
4.0
 40
4.0
 40
4.0
 40
5.0
 40
5.0
 40
5.0
 40
6.0
 40
6.0
 40
6.0
 40
7.0
 40
7.0
 40
7.0
 40
8.0
 40
8.0
 40
8.0
 40
9.0
 40
9.0
 40
9.0
 40
10.0
 40
10.0
 40
10.0
 40
11.0
 40
11.0
 40
11.0
 40
12.0
 40
12.0
 40
12.0
 40
13.0
 40
13.0
 40
13.0
 40
14.0
 40
14.0
 40
14.0
 40
15.0
 40
15.0
 40
15.0
 40
16.0
 40
16.0
 40
16.0
 40
17.0
 40
17.0
 40
17.0
 40
18.0
 40
18.0
 40
18.0
 40
19.0
 40
19.0
 40
19.0
 40
20.0
 40
20.0
 40
20.0
 40
21.0
 40
21.0
 40
21.0
 40
22.0
 40
22.0
 40
22.0
 40
23.0
 40
23.0
 40
23.0
 40
24.0
 40
24.0
 40
24.0
 40
25.0
 40
25.0
 40
25.0
 40
26.0
 40
26.0
 40
26.0
 40
27.0
 40
27.0
 40
27.0
 40
28.0
 40
28.0
 40
28.0
 40
29.0
 40
29.0
 40
29.0
 40
30.0
 40
30.0
 40
30.0
 40
31.0
 40
31.0
 40
31.0
 40
32.0
 40
32.0
 40
32.0
 40
33.0
 40
33.0
 40
33.0
 40
34.0
 40
34.0
 40
34.0
 40
35.0
 40
35.0
 40
35.0
 40
36.0
 40
36.0
 40
36.0
 40
37.0
 40
37.0
 40
37.0
 40
38.0
 40
38.0
 40
38.0
 40
39.0
 40
39.0
 40
39.0
 40
40.0
 40
40.0
 40
40.0
 40
41.0
 40
41.0
 40
41.0
 40
42.0
 40
42.0
 40
42.0
 40
43.0
 40
43.0
 40
43.0
 40
44.0
 40
44.0
 40
44.0
 40
45.0
 40
45.0
 40
45.0
 40
46.0
 40
46.0
 40
46.0
 40
47.0
 40
47.0
 40
47.0
 40
48.0
 40
48.0
 40
48.0
 40
49.0
 40
49.0
 40
49.0
 40
50.0
 40
50.0
 40
50.0
 40
51.0
 40
51.0
 40
51.0
 40
52.0
 40
52.0
 40
52.0
 40
53.0
 40
53.0
 40
53.0
 40
54.0
 40
54.0
 40
54.0
 40
55.0
 40
55.0
 40
55.0
 40
56.0
 40
56.0
 40
56.0
 40
57.0
 40
57.0
 40
57.0
 40
58.0
 40
58.0
 40
58.0
 40
59.0
 40
59.0
 40
59.0
 40
60.0
 40
60.0
 40
60.0
 40
61.0
 40
61.0
 40
61.0
 40
62.0
 40
62.0
 40
62.0
 40
63.0
 40
63.0
 40
63.0
 40
64.0
 40
64.0
 40
64.0
 40
65.0
 40
65.0
 40
65.0
 40
66.0
 40
66.0
 40
66.0
 40
67.0
 40
67.0
 40
67.0
 40
68.0
 40
68.0
 40
68.0
 40
69.0
 40
69.0
 40
69.0
 40
70.0
 40
70.0
 40
70.0
 40
71.0
 40
71.0
 40
71.0
 40
72.0
 40
72.0
 40
72.0
 40
73.0
 40
73.0
 40
73.0
 40
74.0
 40
74.0
 40
74.0
 40
75.0
 40
75.0
 40
75.0
 40
76.0
 40
76.0
 40
76.0
 40
77.0
 40
77.0
 40
77.0
 40
78.0
 40
78.0
 40
78.0
 40
79.0
 40
79.0
 40
79.0
 40
80.0
 40
80.0
 40
80.0
 40
81.0
 40
81.0
 40
81.0
 40
82.0
 40
82.0
 40
82.0
 40
83.0
 40
83.0
 40
83.0
 40
84.0
 40
84.0
 40
84.0
 40
85.0
 40
85.0
 40
85.0
 40
86.0
 40
86.0
 40
86.0
 40
87.0
 40
87.0
 40
87.0
 40
88.0
 40
88.0
 40
88.0
 40
89.0
 40
89.0
 40
89.0
 40
90.0
 40
90.0
 40
90.0
 40
91.0
 40
91.0
 40
91.0
 40
92.0
 40
92.0
 40
92.0
 40
93.0
 40
93.0
 40
93.0
 40
94.0
 40
94.0
 40
94.0
 40
94.0
 10
117.815705765978
 20
-155.3424488500533
 10
117.8181441910077
 20
-155.3328180167224
 10
117.8212443769478
 20
-155.3235046833912
 10
117.8215618769397
 20
-155.3135210722826
 10
117.8215618769397
 20
-155.3121452389497
 10
117.8222674324772
 20
-155.3111221833946
 10
117.8222674324772
 20
-155.3100638500613
 10
117.8222674324772
 20
-155.3021616278411
 10
117.819162988112
 20
-155.2952471833985
 10
117.8177914132306
 20
-155.2876624611779
 10
117.8164113215155
 20
-155.2801130167355
 10
117.8170858576751
 20
-155.2725282945149
 10
117.8143299326797
 20
-155.264943572295
 10
117.8143299326797
 20
-155.264943572295
 10
117.559412716961
 20
-154.5648913502474
 10
117.559412716961
 20
-154.5648913502474
 10
117.5590599391922
 20
-154.5638682946922
 10
117.5580368836628
 20
-154.5631627391367
 10
117.557684105894
 20
-154.5617869058038
 10
117.5538741059912
 20
-154.5525088502507
 10
117.5477004950376
 20
-154.5445713502524
 10
117.5421618840678
 20
-154.5363163502551
 10
117.5376858577451
 20
-154.5304602391452
 10
117.5349299398078
 20
-154.5235457947026
 10
117.5297793843837
 20
-154.5183952391482
 10
117.5245935511826
 20
-154.5128919058166
 10
117.5180671624603
 20
-154.5097874613724
 10
117.5122110514986
 20
-154.505307183596
 10
117.504273551701
 20
-154.4994510724861
 10
117.4966888296723
 20
-154.4928894058213
 10
117.4877282743454
 20
-154.4891146836004
 10
117.4836007744507
 20
-154.4873860724897
 10
117.4787719688705
 20
-154.4870332947119
 10
117.4746402191237
 20
-154.4856574613784
 10
117.4622577194396
 20
-154.4818827391569
 10
117.4501969688776
 20
-154.4784255169356
 10
117.4371046645258
 20
-154.4780727391579
 10
117.4363991089882
 20
-154.4780727391579
 10
117.4357330799926
 20
-154.4777199613807
 10
117.4350275244371
 20
-154.4777199613807
 10
117.4350275244371
 20
-154.4777199613807
 10
111.0447362164976
 20
-154.4777199613807
 10
111.0447362164976
 20
-154.4777199613807
 10
111.0447362164976
 20
-154.4777199613807
 10
110.7839276120402
 20
-154.2165938503348
 10
110.7839276120402
 20
-154.2165938503348
 10
110.7839276120402
 20
-154.2165938503348
 10
110.7839276120402
 20
-154.2165938503348
 10
110.7839276120402
 20
-154.2165938503348
 10
110.7597976126559
 20
-154.1924991281184
 10
110.7270951134902
 20
-154.1776824614556
 10
110.6905826144217
 20
-154.1776824614556
 10
110.6905826144217
 20
-154.1776824614556
 10
110.6905826144217
 20
-154.1776824614556
 10
110.6902298366529
 20
-154.1776824614556
 10
110.6902298366529
 20
-154.1776824614556
 10
110.6902298366529
 20
-154.1776824614556
 10
110.6902298366529
 20
-154.1776824614556
 10
110.6902298366529
 20
-154.1776824614556
 10
101.3223220200926
 20
-154.1776824614556
 10
101.3223220200926
 20
-154.1776824614556
 10
101.3223220200926
 20
-154.1776824614556
 10
101.3223220200926
 20
-144.4425327416672
 10
101.3223220200926
 20
-144.4425327416672
 10
101.3223220200926
 20
-144.4425327416672
 10
106.6897691937905
 20
-144.4425327416672
 10
106.6897691937905
 20
-144.4425327416672
 10
106.704938638231
 20
-144.4425327416672
 10
106.7201080826715
 20
-144.440098575001
 10
106.7349247493343
 20
-144.4345952416692
 10
106.735943826424
 20
-144.4342424638914
 10
106.7366493819616
 20
-144.4332194083363
 10
106.737672437491
 20
-144.4328666305585
 10
106.7473032705787
 20
-144.4290919083373
 10
106.7552407703762
 20
-144.4228830194499
 10
106.7634997493272
 20
-144.4173796861181
 10
106.7693518811273
 20
-144.4132521861188
 10
106.7762663253953
 20
-144.4101477416752
 10
106.7814168808195
 20
-144.4049619083433
 10
106.78762576955
 20
-144.3991057972337
 10
106.7914004916759
 20
-144.3915210750134
 10
106.7962335471081
 20
-144.3846419083484
 10
106.8010666025404
 20
-144.3777627416833
 10
106.8069227135021
 20
-144.3715538527959
 10
106.8103446578592
 20
-144.3639691305756
 10
106.8130963244557
 20
-144.3574074639108
 10
106.8138018799933
 20
-144.3498580194681
 10
106.8155304910603
 20
-144.3426260750255
 10
106.817929379888
 20
-144.3329599639169
 10
106.8210338242532
 20
-144.3236466305856
 10
106.821386602022
 20
-144.313663019477
 10
106.821386602022
 20
-144.3122871861442
 10
106.822060860424
 20
-144.3112641305887
 10
106.822060860424
 20
-144.3102410750336
 10
106.822060860424
 20
-144.3023035750356
 10
106.8189877131943
 20
-144.2954244083705
 10
106.8175766021192
 20
-144.2878396861502
 10
106.8162007688209
 20
-144.28025496393
 10
106.8169063243585
 20
-144.2726702417097
 10
106.814154657762
 20
-144.2650855194894
 10
106.814154657762
 20
-144.2650855194894
 10
106.4503349448216
 20
-143.264995797517
 10
106.4503349448216
 20
-143.264995797517
 10
106.4500174448297
 20
-143.263937464184
 10
106.4489591115234
 20
-143.2632671864063
 10
106.4486063337546
 20
-143.2622441308512
 10
106.4448316116287
 20
-143.2522252419648
 10
106.4382699451294
 20
-143.2439702419668
 10
106.4324138341677
 20
-143.2357152419689
 10
106.428286334273
 20
-143.2298591308592
 10
106.4255386383004
 20
-143.2232974641941
 10
106.4207016122443
 20
-143.2184644086399
 10
106.4148455012826
 20
-143.2122907975304
 10
106.4072960570308
 20
-143.2084807975313
 10
106.4000641127708
 20
-143.2033302419769
 10
106.3931496685028
 20
-143.1984971864227
 10
106.3869407797723
 20
-143.1929938530905
 10
106.3790385577517
 20
-143.1895366308693
 10
106.3738527245506
 20
-143.1871377419809
 10
106.3676830827597
 20
-143.1867849642032
 10
106.3621405026272
 20
-143.1850563530925
 10
106.3507810584726
 20
-143.181951908649
 10
106.3400918920786
 20
-143.1785299642052
 10
106.3283796701552
 20
-143.1781771864278
 10
106.3273566146257
 20
-143.1781771864278
 10
106.3266510590882
 20
-143.17782440865
 10
106.3259807813275
 20
-143.17782440865
 10
106.3259807813275
 20
-143.17782440865
 10
95.05430773555851
 20
-143.17782440865
 10
95.05430773555851
 20
-143.17782440865
 10
95.05363745779783
 20
-143.17782440865
 10
95.0525791244915
 20
-143.1781771864278
 10
95.05190884673083
 20
-143.1781771864278
 10
95.03949106926984
 20
-143.1785299642052
 10
95.02777884734643
 20
-143.181951908649
 10
95.01641940319179
 20
-143.1854091308703
 10
95.01123356999075
 20
-143.1871377419809
 10
95.0060830145666
 20
-143.1871377419809
 10
95.00124995913434
 20
-143.1891838530915
 10
94.9919719038155
 20
-143.1933113530905
 10
94.98438718178677
 20
-143.2002257975334
 10
94.9760969042205
 20
-143.2064346864208
 10
94.97059357102756
 20
-143.2105621864197
 10
94.96438468229708
 20
-143.2133138530855
 10
94.95958690464171
 20
-143.21814690864
 10
94.95404829367189
 20
-143.2240030197496
 10
94.95027357154598
 20
-143.2319052419698
 10
94.9457969745039
 20
-143.2388196864124
 10
94.94096023845024
 20
-143.2463691308552
 10
94.93510412748886
 20
-143.2532835752977
 10
94.93168586339603
 20
-143.2615385752957
 10
94.9313330856189
 20
-143.2625616308511
 10
94.93030634983316
 20
-143.2636199641841
 10
94.92995357206438
 20
-143.2646430197395
 10
94.92995357206438
 20
-143.2646430197395
 10
94.56546358136329
 20
-144.2650855194894
 10
94.56546358136329
 20
-144.2650855194894
 10
94.56271191476684
 20
-144.2726702417097
 10
94.56338586348814
 20
-144.28025496393
 10
94.56200635922927
 20
-144.2878396861502
 10
94.56063052593105
 20
-144.2954244083705
 10
94.5575260815658
 20
-144.3023035750356
 10
94.5575260815658
 20
-144.3102410750336
 10
94.5575260815658
 20
-144.3112641305887
 10
94.55823163710335
 20
-144.3122871861442
 10
94.55823163710335
 20
-144.313663019477
 10
94.55854913709526
 20
-144.3236466305856
 10
94.56165358146049
 20
-144.3329599639169
 10
94.56409141904366
 20
-144.3426260750255
 10
94.56581635913207
 20
-144.3498580194681
 10
94.56648663689275
 20
-144.3574074639108
 10
94.56923830348921
 20
-144.3639691305756
 10
94.57269552562323
 20
-144.3715538527959
 10
94.57855530792932
 20
-144.3777627416833
 10
94.5833846920172
 20
-144.3846419083484
 10
94.58818246967257
 20
-144.3915210750134
 10
94.59199246957537
 20
-144.3991057972337
 10
94.59816608052898
 20
-144.4049619083433
 10
94.60335191373002
 20
-144.4101477416752
 10
94.61023108022118
 20
-144.4132521861188
 10
94.61608719118288
 20
-144.4173796861181
 10
94.62437746874916
 20
-144.4228830194499
 10
94.6322796907701
 20
-144.4290919083373
 10
94.6419458016343
 20
-144.4328666305585
 10
94.64296885716375
 20
-144.4332194083363
 10
94.6436744127013
 20
-144.4342424638914
 10
94.64469746823076
 20
-144.4345952416692
 10
94.65951413451943
 20
-144.440098575001
 10
94.67464830079999
 20
-144.4425327416672
 10
94.68981774485742
 20
-144.4425327416672
 10
94.68981774485742
 20
-144.4425327416672
 10
100.0579664967934
 20
-144.4425327416672
 10
100.0579664967934
 20
-144.4425327416672
 10
100.0579664967934
 20
-144.4425327416672
 10
100.0579664967934
 20
-154.1776824614556
 10
100.0579664967934
 20
-154.1776824614556
 10
100.0579664967934
 20
-154.1776824614556
 10
95.05430773555851
 20
-154.1776824614556
 10
95.05430773555851
 20
-154.1776824614556
 10
95.05363745779783
 20
-154.1776824614556
 10
95.0525791244915
 20
-154.1779999614558
 10
95.05190884673083
 20
-154.1779999614558
 10
95.03984384703863
 20
-154.1783527392336
 10
95.02848440288399
 20
-154.1818099614549
 10
95.01677218096056
 20
-154.185231905898
 10
95.01158634775953
 20
-154.186643017009
 10
95.0060830145666
 20
-154.1869605170087
 10
95.00124995913434
 20
-154.1890419058971
 10
94.99264218157617
 20
-154.1931694058957
 10
94.98541023731623
 20
-154.1993782947834
 10
94.9778255152875
 20
-154.2048816281156
 10
94.97161662655702
 20
-154.209361905892
 10
94.96473746006586
 20
-154.2128191281133
 10
94.95958690464171
 20
-154.2183224614455
 10
94.95440107144067
 20
-154.2234730169999
 10
94.95129662707544
 20
-154.2303874614425
 10
94.94716912718073
 20
-154.2365963503295
 10
94.9416657939878
 20
-154.2448513503281
 10
94.93545690525731
 20
-154.2524360725481
 10
94.93168586339603
 20
-154.2620669058789
 10
94.9313330856189
 20
-154.2631252392115
 10
94.93030634983316
 20
-154.2637955169896
 10
94.92995357206438
 20
-154.2648185725453
 10
94.92995357206438
 20
-154.2648185725453
 10
94.56546358136329
 20
-155.2645907945172
 10
94.56546358136329
 20
-155.2645907945172
 10
94.56271191476684
 20
-155.2725282945149
 10
94.56303308571103
 20
-155.2804305167358
 10
94.56200635922927
 20
-155.2887207945112
 10
94.56063052593105
 20
-155.2959527389534
 10
94.5575260815658
 20
-155.3024791278414
 10
94.5575260815658
 20
-155.3100638500613
 10
94.5575260815658
 20
-155.3111221833946
 10
94.55823163710335
 20
-155.3121452389497
 10
94.55823163710335
 20
-155.3131682945048
 10
94.55854913709526
 20
-155.3231519056141
 10
94.56165358146049
 20
-155.3324652389447
 10
94.56409141904366
 20
-155.3417785722753
 10
94.56581635913207
 20
-155.3493632944958
 10
94.56648663689275
 20
-155.3569127389383
 10
94.56923830348921
 20
-155.3638271833809
 10
94.57269552562323
 20
-155.3714119056014
 10
94.57855530792932
 20
-155.3772680167114
 10
94.58303191424842
 20
-155.3841471833758
 10
94.58818246967257
 20
-155.3913791278193
 10
94.59199246957537
 20
-155.3989638500392
 10
94.59816608052898
 20
-155.4048199611485
 10
94.60335191373002
 20
-155.4099705167029
 10
94.61023108022118
 20
-155.4127221833694
 10
94.61608719118288
 20
-155.4168849611462
 10
94.62437746874916
 20
-155.4227410722555
 10
94.6322796907701
 20
-155.428914683365
 10
94.6419458016343
 20
-155.4327246833641
 10
94.64296885716375
 20
-155.4330774611418
 10
94.6436744127013
 20
-155.434100516697
 10
94.64469746823076
 20
-155.4344532944747
 10
94.65951413451943
 20
-155.4399566278069
 10
94.67464830079999
 20
-155.4423555166949
 10
94.68981774485742
 20
-155.4423555166949
 10
94.68981774485742
 20
-155.4423555166949
 10
117.6899757691856
 20
-155.4423555166949
 10
117.6899757691856
 20
-155.4423555166949
 10
117.7051099354662
 20
-155.4423555166949
 10
117.7202793795236
 20
-155.4399566278069
 10
117.7350960458123
 20
-155.4344532944747
 10
117.7361191013417
 20
-155.434100516697
 10
117.7368246568793
 20
-155.4330774611418
 10
117.7378477124088
 20
-155.4327246833641
 10
117.7475138232733
 20
-155.428914683365
 10
117.7554160452939
 20
-155.4227410722555
 10
117.7637063228601
 20
-155.4168849611462
 10
117.7695624338219
 20
-155.4127221833694
 10
117.776441600313
 20
-155.4099705167029
 10
117.7815921557372
 20
-155.4048199611485
 10
117.7878053021267
 20
-155.3989638500392
 10
117.7916110443705
 20
-155.3913791278193
 10
117.7964088220258
 20
-155.3844999611536
 10
117.8012418774581
 20
-155.377585516711
 10
117.8070979884198
 20
-155.3714119056014
 10
117.8105552105538
 20
-155.3638271833809
 10
117.8133068771503
 20
-155.3569127389383
 10
117.813977154911
 20
-155.3496807944961
 10
117.815705765978
 20
-155.3424488500533
 97
        0
 97
        0
 75
     2
 76
     1
 98
        0
  0
SPLINE
  5
47
330
41
100
AcDbEntity
  8
_U+30EC_U+30A4_U+30E4_U+30FC 1
370
     0
100
AcDbSpline
210
0.0
220
0.0
230
1.0
 70
    11
 71
     3
 72
    65
 73
    61
 74
     0
 42
0.0000000001
 43
0.0000000001
 12
1.0
 22
0.0
 32
0.0
 13
1.0
 23
0.0
 33
0.0
 40
0.0
 40
0.0
 40
0.0
 40
0.0
 40
1.0
 40
1.0
 40
1.0
 40
2.0
 40
2.0
 40
2.0
 40
3.0
 40
3.0
 40
3.0
 40
4.0
 40
4.0
 40
4.0
 40
5.0
 40
5.0
 40
5.0
 40
6.0
 40
6.0
 40
6.0
 40
7.0
 40
7.0
 40
7.0
 40
8.0
 40
8.0
 40
8.0
 40
9.0
 40
9.0
 40
9.0
 40
10.0
 40
10.0
 40
10.0
 40
11.0
 40
11.0
 40
11.0
 40
12.0
 40
12.0
 40
12.0
 40
13.0
 40
13.0
 40
13.0
 40
14.0
 40
14.0
 40
14.0
 40
15.0
 40
15.0
 40
15.0
 40
16.0
 40
16.0
 40
16.0
 40
17.0
 40
17.0
 40
17.0
 40
18.0
 40
18.0
 40
18.0
 40
19.0
 40
19.0
 40
19.0
 40
20.0
 40
20.0
 40
20.0
 40
20.0
 10
95.1469824554164
 20
-154.4422657947228
 30
0.0
 10
95.1469824554164
 20
-154.4422657947228
 30
0.0
 10
100.1902581600851
 20
-154.4422657947228
 30
0.0
 10
100.1902581600851
 20
-154.4422657947228
 30
0.0
 10
100.263283158222
 20
-154.4422657947228
 30
0.0
 10
100.3225498233767
 20
-154.382999128071
 30
0.0
 10
100.3225498233767
 20
-154.3099741280892
 30
0.0
 10
100.3225498233767
 20
-154.3099741280892
 30
0.0
 10
100.3225498233767
 20
-144.3102410750336
 30
0.0
 10
100.3225498233767
 20
-144.3102410750336
 30
0.0
 10
100.3225498233767
 20
-144.2371807972742
 30
0.0
 10
100.263283158222
 20
-144.1779494084
 30
0.0
 10
100.1902581600851
 20
-144.1779494084
 30
0.0
 10
100.1902581600851
 20
-144.1779494084
 30
0.0
 10
94.87894190669913
 20
-144.1779494084
 30
0.0
 10
94.87894190669913
 20
-144.1779494084
 30
0.0
 10
94.87894190669913
 20
-144.1779494084
 30
0.0
 10
95.1469824554164
 20
-143.4424077419172
 30
0.0
 10
95.1469824554164
 20
-143.4424077419172
 30
0.0
 10
95.1469824554164
 20
-143.4424077419172
 30
0.0
 10
106.2333060614696
 20
-143.4424077419172
 30
0.0
 10
106.2333060614696
 20
-143.4424077419172
 30
0.0
 10
106.2333060614696
 20
-143.4424077419172
 30
0.0
 10
106.5009938324181
 20
-144.1779494084
 30
0.0
 10
106.5009938324181
 20
-144.1779494084
 30
0.0
 10
106.5009938324181
 20
-144.1779494084
 30
0.0
 10
101.190030356801
 20
-144.1779494084
 30
0.0
 10
101.190030356801
 20
-144.1779494084
 30
0.0
 10
101.117005358664
 20
-144.1779494084
 30
0.0
 10
101.0577386935093
 20
-144.2371807972742
 30
0.0
 10
101.0577386935093
 20
-144.3102410750336
 30
0.0
 10
101.0577386935093
 20
-144.3102410750336
 30
0.0
 10
101.0577386935093
 20
-154.3099741280892
 30
0.0
 10
101.0577386935093
 20
-154.3099741280892
 30
0.0
 10
101.0577386935093
 20
-154.382999128071
 30
0.0
 10
101.117005358664
 20
-154.4422657947228
 30
0.0
 10
101.190030356801
 20
-154.4422657947228
 30
0.0
 10
101.190030356801
 20
-154.4422657947228
 30
0.0
 10
110.6354434491617
 20
-154.4422657947228
 30
0.0
 10
110.6354434491617
 20
-154.4422657947228
 30
0.0
 10
110.6354434491617
 20
-154.4422657947228
 30
0.0
 10
110.8962520536191
 20
-154.7033919057687
 30
0.0
 10
110.8962520536191
 20
-154.7033919057687
 30
0.0
 10
110.8962520536191
 20
-154.7033919057687
 30
0.0
 10
110.8962520536191
 20
-154.7033919057687
 30
0.0
 10
110.8962520536191
 20
-154.7033919057687
 30
0.0
 10
110.9203467752266
 20
-154.7275219057627
 30
0.0
 10
110.9534414149465
 20
-154.7423032946479
 30
0.0
 10
110.9899498290064
 20
-154.7423032946479
 30
0.0
 10
110.9899498290064
 20
-154.7423032946479
 30
0.0
 10
117.3423485558321
 20
-154.7423032946479
 30
0.0
 10
117.3423485558321
 20
-154.7423032946479
 30
0.0
 10
117.3423485558321
 20
-154.7423032946479
 30
0.0
 10
117.500816329567
 20
-155.1777721834277
 30
0.0
 10
117.500816329567
 20
-155.1777721834277
 30
0.0
 10
117.500816329567
 20
-155.1777721834277
 30
0.0
 10
94.87894190669913
 20
-155.1777721834277
 30
0.0
 10
94.87894190669913
 20
-155.1777721834277
 30
0.0
 10
94.87894190669913
 20
-155.1777721834277
 30
0.0
 10
95.1469824554164
 20
-154.4422657947228
 30
0.0
 10
95.1469824554164
 20
-154.4422657947228
 30
0.0
  0
HATCH
  5
48
330
41
100
AcDbEntity
  8
_U+30EC_U+30A4_U+30E4_U+30FC 1
 62
   179
420
  2234388
100
AcDbHatch
 10
0.0
 20
0.0
 30
0.0
210
0.0
220
0.0
230
1.0
  2
SOLID
 70
     1
 71
     0
 91
        1
 92
        1
 93
        1
 72
     4
 94
        3
 73
     0
 74
     1
 95
       65
 96
       61
 40
0.0
 40
0.0
 40
0.0
 40
0.0
 40
1.0
 40
1.0
 40
1.0
 40
2.0
 40
2.0
 40
2.0
 40
3.0
 40
3.0
 40
3.0
 40
4.0
 40
4.0
 40
4.0
 40
5.0
 40
5.0
 40
5.0
 40
6.0
 40
6.0
 40
6.0
 40
7.0
 40
7.0
 40
7.0
 40
8.0
 40
8.0
 40
8.0
 40
9.0
 40
9.0
 40
9.0
 40
10.0
 40
10.0
 40
10.0
 40
11.0
 40
11.0
 40
11.0
 40
12.0
 40
12.0
 40
12.0
 40
13.0
 40
13.0
 40
13.0
 40
14.0
 40
14.0
 40
14.0
 40
15.0
 40
15.0
 40
15.0
 40
16.0
 40
16.0
 40
16.0
 40
17.0
 40
17.0
 40
17.0
 40
18.0
 40
18.0
 40
18.0
 40
19.0
 40
19.0
 40
19.0
 40
20.0
 40
20.0
 40
20.0
 40
20.0
 10
95.1469824554164
 20
-154.4422657947228
 10
95.1469824554164
 20
-154.4422657947228
 10
100.1902581600851
 20
-154.4422657947228
 10
100.1902581600851
 20
-154.4422657947228
 10
100.263283158222
 20
-154.4422657947228
 10
100.3225498233767
 20
-154.382999128071
 10
100.3225498233767
 20
-154.3099741280892
 10
100.3225498233767
 20
-154.3099741280892
 10
100.3225498233767
 20
-144.3102410750336
 10
100.3225498233767
 20
-144.3102410750336
 10
100.3225498233767
 20
-144.2371807972742
 10
100.263283158222
 20
-144.1779494084
 10
100.1902581600851
 20
-144.1779494084
 10
100.1902581600851
 20
-144.1779494084
 10
94.87894190669913
 20
-144.1779494084
 10
94.87894190669913
 20
-144.1779494084
 10
94.87894190669913
 20
-144.1779494084
 10
95.1469824554164
 20
-143.4424077419172
 10
95.1469824554164
 20
-143.4424077419172
 10
95.1469824554164
 20
-143.4424077419172
 10
106.2333060614696
 20
-143.4424077419172
 10
106.2333060614696
 20
-143.4424077419172
 10
106.2333060614696
 20
-143.4424077419172
 10
106.5009938324181
 20
-144.1779494084
 10
106.5009938324181
 20
-144.1779494084
 10
106.5009938324181
 20
-144.1779494084
 10
101.190030356801
 20
-144.1779494084
 10
101.190030356801
 20
-144.1779494084
 10
101.117005358664
 20
-144.1779494084
 10
101.0577386935093
 20
-144.2371807972742
 10
101.0577386935093
 20
-144.3102410750336
 10
101.0577386935093
 20
-144.3102410750336
 10
101.0577386935093
 20
-154.3099741280892
 10
101.0577386935093
 20
-154.3099741280892
 10
101.0577386935093
 20
-154.382999128071
 10
101.117005358664
 20
-154.4422657947228
 10
101.190030356801
 20
-154.4422657947228
 10
101.190030356801
 20
-154.4422657947228
 10
110.6354434491617
 20
-154.4422657947228
 10
110.6354434491617
 20
-154.4422657947228
 10
110.6354434491617
 20
-154.4422657947228
 10
110.8962520536191
 20
-154.7033919057687
 10
110.8962520536191
 20
-154.7033919057687
 10
110.8962520536191
 20
-154.7033919057687
 10
110.8962520536191
 20
-154.7033919057687
 10
110.8962520536191
 20
-154.7033919057687
 10
110.9203467752266
 20
-154.7275219057627
 10
110.9534414149465
 20
-154.7423032946479
 10
110.9899498290064
 20
-154.7423032946479
 10
110.9899498290064
 20
-154.7423032946479
 10
117.3423485558321
 20
-154.7423032946479
 10
117.3423485558321
 20
-154.7423032946479
 10
117.3423485558321
 20
-154.7423032946479
 10
117.500816329567
 20
-155.1777721834277
 10
117.500816329567
 20
-155.1777721834277
 10
117.500816329567
 20
-155.1777721834277
 10
94.87894190669913
 20
-155.1777721834277
 10
94.87894190669913
 20
-155.1777721834277
 10
94.87894190669913
 20
-155.1777721834277
 10
95.1469824554164
 20
-154.4422657947228
 10
95.1469824554164
 20
-154.4422657947228
 97
        0
 97
        0
 75
     2
 76
     1
 98
        0
  0
POLYLINE
  5
49
330
41
100
AcDbEntity
  8
_U+30EC_U+30A4_U+30E4_U+30FC 1
 62
   179
420
  2234388
370
    25
100
AcDb2dPolyline
 66
     1
 10
0.0
 20
0.0
 30
0.0
  0
VERTEX
  5
4A
330
49
100
AcDbEntity
  8
_U+30EC_U+30A4_U+30E4_U+30FC 1
 62
   179
420
  2234388
370
    25
100
AcDbVertex
100
AcDb2dVertex
 10
95.05430773555851
 20
-154.3099741280892
 30
0.0
  0
VERTEX
  5
4B
330
49
100
AcDbEntity
  8
_U+30EC_U+30A4_U+30E4_U+30FC 1
 62
   179
420
  2234388
370
    25
100
AcDbVertex
100
AcDb2dVertex
 10
100.1902581600851
 20
-154.3099741280892
 30
0.0
  0
SEQEND
  5
4C
330
49
100
AcDbEntity
  8
_U+30EC_U+30A4_U+30E4_U+30FC 1
 62
   179
420
  2234388
370
    25
  0
POLYLINE
  5
4D
330
41
100
AcDbEntity
  8
_U+30EC_U+30A4_U+30E4_U+30FC 1
 62
   179
420
  2234388
370
    25
100
AcDb2dPolyline
 66
     1
 10
0.0
 20
0.0
 30
0.0
  0
VERTEX
  5
4E
330
4D
100
AcDbEntity
  8
_U+30EC_U+30A4_U+30E4_U+30FC 1
 62
   179
420
  2234388
370
    25
100
AcDbVertex
100
AcDb2dVertex
 10
94.68981774485742
 20
-144.3102410750336
 30
0.0
  0
VERTEX
  5
4F
330
4D
100
AcDbEntity
  8
_U+30EC_U+30A4_U+30E4_U+30FC 1
 62
   179
420
  2234388
370
    25
100
AcDbVertex
100
AcDb2dVertex
 10
100.1902581600851
 20
-144.3102410750336
 30
0.0
  0
SEQEND
  5
50
330
4D
100
AcDbEntity
  8
_U+30EC_U+30A4_U+30E4_U+30FC 1
 62
   179
420
  2234388
370
    25
  0
POLYLINE
  5
51
330
41
100
AcDbEntity
  8
_U+30EC_U+30A4_U+30E4_U+30FC 1
 62
   179
420
  2234388
370
    25
100
AcDb2dPolyline
 66
     1
 10
0.0
 20
0.0
 30
0.0
  0
VERTEX
  5
52
330
51
100
AcDbEntity
  8
_U+30EC_U+30A4_U+30E4_U+30FC 1
 62
   179
420
  2234388
370
    25
100
AcDbVertex
100
AcDb2dVertex
 10
95.05430773555851
 20
-143.3101160752836
 30
0.0
  0
VERTEX
  5
53
330
51
100
AcDbEntity
  8
_U+30EC_U+30A4_U+30E4_U+30FC 1
 62
   179
420
  2234388
370
    25
100
AcDbVertex
100
AcDb2dVertex
 10
106.3259807813275
 20
-143.3101160752836
 30
0.0
  0
SEQEND
  5
54
330
51
100
AcDbEntity
  8
_U+30EC_U+30A4_U+30E4_U+30FC 1
 62
   179
420
  2234388
370
    25
  0
POLYLINE
  5
55
330
41
100
AcDbEntity
  8
_U+30EC_U+30A4_U+30E4_U+30FC 1
 62
   179
420
  2234388
370
    25
100
AcDb2dPolyline
 66
     1
 10
0.0
 20
0.0
 30
0.0
  0
VERTEX
  5
56
330
55
100
AcDbEntity
  8
_U+30EC_U+30A4_U+30E4_U+30FC 1
 62
   179
420
  2234388
370
    25
100
AcDbVertex
100
AcDb2dVertex
 10
94.68981774485742
 20
-155.3100638500613
 30
0.0
  0
VERTEX
  5
57
330
55
100
AcDbEntity
  8
_U+30EC_U+30A4_U+30E4_U+30FC 1
 62
   179
420
  2234388
370
    25
100
AcDbVertex
100
AcDb2dVertex
 10
117.6899757691856
 20
-155.3100638500613
 30
0.0
  0
SEQEND
  5
58
330
55
100
AcDbEntity
  8
_U+30EC_U+30A4_U+30E4_U+30FC 1
 62
   179
420
  2234388
370
    25
  0
POLYLINE
  5
59
330
41
100
AcDbEntity
  8
_U+30EC_U+30A4_U+30E4_U+30FC 1
 62
   179
420
  2234388
370
    25
100
AcDb2dPolyline
 66
     1
 10
0.0
 20
0.0
 30
0.0
  0
VERTEX
  5
5A
330
59
100
AcDbEntity
  8
_U+30EC_U+30A4_U+30E4_U+30FC 1
 62
   179
420
  2234388
370
    25
100
AcDbVertex
100
AcDb2dVertex
 10
110.9899498290064
 20
-154.6100116280143
 30
0.0
  0
VERTEX
  5
5B
330
59
100
AcDbEntity
  8
_U+30EC_U+30A4_U+30E4_U+30FC 1
 62
   179
420
  2234388
370
    25
100
AcDbVertex
100
AcDb2dVertex
 10
117.4350275244371
 20
-154.6100116280143
 30
0.0
  0
SEQEND
  5
5C
330
59
100
AcDbEntity
  8
_U+30EC_U+30A4_U+30E4_U+30FC 1
 62
   179
420
  2234388
370
    25
  0
POLYLINE
  5
5D
330
41
100
AcDbEntity
  8
_U+30EC_U+30A4_U+30E4_U+30FC 1
 62
   179
420
  2234388
370
    25
100
AcDb2dPolyline
 66
     1
 10
0.0
 20
0.0
 30
0.0
  0
VERTEX
  5
5E
330
5D
100
AcDbEntity
  8
_U+30EC_U+30A4_U+30E4_U+30FC 1
 62
   179
420
  2234388
370
    25
100
AcDbVertex
100
AcDb2dVertex
 10
106.3259807813275
 20
-143.3101160752836
 30
0.0
  0
VERTEX
  5
5F
330
5D
100
AcDbEntity
  8
_U+30EC_U+30A4_U+30E4_U+30FC 1
 62
   179
420
  2234388
370
    25
100
AcDbVertex
100
AcDb2dVertex
 10
106.6897691937905
 20
-144.3102410750336
 30
0.0
  0
SEQEND
  5
60
330
5D
100
AcDbEntity
  8
_U+30EC_U+30A4_U+30E4_U+30FC 1
 62
   179
420
  2234388
370
    25
  0
POLYLINE
  5
61
330
41
100
AcDbEntity
  8
_U+30EC_U+30A4_U+30E4_U+30FC 1
 62
   179
420
  2234388
370
    25
100
AcDb2dPolyline
 66
     1
 10
0.0
 20
0.0
 30
0.0
  0
VERTEX
  5
62
330
61
100
AcDbEntity
  8
_U+30EC_U+30A4_U+30E4_U+30FC 1
 62
   179
420
  2234388
370
    25
100
AcDbVertex
100
AcDb2dVertex
 10
117.4350275244371
 20
-154.6100116280143
 30
0.0
  0
VERTEX
  5
63
330
61
100
AcDbEntity
  8
_U+30EC_U+30A4_U+30E4_U+30FC 1
 62
   179
420
  2234388
370
    25
100
AcDbVertex
100
AcDb2dVertex
 10
117.6899757691856
 20
-155.3100638500613
 30
0.0
  0
SEQEND
  5
64
330
61
100
AcDbEntity
  8
_U+30EC_U+30A4_U+30E4_U+30FC 1
 62
   179
420
  2234388
370
    25
  0
POLYLINE
  5
65
330
41
100
AcDbEntity
  8
_U+30EC_U+30A4_U+30E4_U+30FC 1
 62
   179
420
  2234388
370
    25
100
AcDb2dPolyline
 66
     1
 10
0.0
 20
0.0
 30
0.0
  0
VERTEX
  5
66
330
65
100
AcDbEntity
  8
_U+30EC_U+30A4_U+30E4_U+30FC 1
 62
   179
420
  2234388
370
    25
100
AcDbVertex
100
AcDb2dVertex
 10
110.6902298366529
 20
-154.3099741280892
 30
0.0
  0
VERTEX
  5
67
330
65
100
AcDbEntity
  8
_U+30EC_U+30A4_U+30E4_U+30FC 1
 62
   179
420
  2234388
370
    25
100
AcDbVertex
100
AcDb2dVertex
 10
110.9899498290064
 20
-154.6100116280143
 30
0.0
  0
SEQEND
  5
68
330
65
100
AcDbEntity
  8
_U+30EC_U+30A4_U+30E4_U+30FC 1
 62
   179
420
  2234388
370
    25
  0
POLYLINE
  5
69
330
41
100
AcDbEntity
  8
_U+30EC_U+30A4_U+30E4_U+30FC 1
 62
   179
420
  2234388
370
    25
100
AcDb2dPolyline
 66
     1
 10
0.0
 20
0.0
 30
0.0
  0
VERTEX
  5
6A
330
69
100
AcDbEntity
  8
_U+30EC_U+30A4_U+30E4_U+30FC 1
 62
   179
420
  2234388
370
    25
100
AcDbVertex
100
AcDb2dVertex
 10
94.68981774485742
 20
-144.3102410750336
 30
0.0
  0
VERTEX
  5
6B
330
69
100
AcDbEntity
  8
_U+30EC_U+30A4_U+30E4_U+30FC 1
 62
   179
420
  2234388
370
    25
100
AcDbVertex
100
AcDb2dVertex
 10
95.05430773555851
 20
-143.3101160752836
 30
0.0
  0
SEQEND
  5
6C
330
69
100
AcDbEntity
  8
_U+30EC_U+30A4_U+30E4_U+30FC 1
 62
   179
420
  2234388
370
    25
  0
POLYLINE
  5
6D
330
41
100
AcDbEntity
  8
_U+30EC_U+30A4_U+30E4_U+30FC 1
 62
   179
420
  2234388
370
    25
100
AcDb2dPolyline
 66
     1
 10
0.0
 20
0.0
 30
0.0
  0
VERTEX
  5
6E
330
6D
100
AcDbEntity
  8
_U+30EC_U+30A4_U+30E4_U+30FC 1
 62
   179
420
  2234388
370
    25
100
AcDbVertex
100
AcDb2dVertex
 10
94.68981774485742
 20
-155.3100638500613
 30
0.0
  0
VERTEX
  5
6F
330
6D
100
AcDbEntity
  8
_U+30EC_U+30A4_U+30E4_U+30FC 1
 62
   179
420
  2234388
370
    25
100
AcDbVertex
100
AcDb2dVertex
 10
95.05430773555851
 20
-154.3099741280892
 30
0.0
  0
SEQEND
  5
70
330
6D
100
AcDbEntity
  8
_U+30EC_U+30A4_U+30E4_U+30FC 1
 62
   179
420
  2234388
370
    25
  0
POLYLINE
  5
71
330
41
100
AcDbEntity
  8
_U+30EC_U+30A4_U+30E4_U+30FC 1
 62
   179
420
  2234388
370
    25
100
AcDb2dPolyline
 66
     1
 10
0.0
 20
0.0
 30
0.0
  0
VERTEX
  5
72
330
71
100
AcDbEntity
  8
_U+30EC_U+30A4_U+30E4_U+30FC 1
 62
   179
420
  2234388
370
    25
100
AcDbVertex
100
AcDb2dVertex
 10
100.1902581600851
 20
-144.3102410750336
 30
0.0
  0
VERTEX
  5
73
330
71
100
AcDbEntity
  8
_U+30EC_U+30A4_U+30E4_U+30FC 1
 62
   179
420
  2234388
370
    25
100
AcDbVertex
100
AcDb2dVertex
 10
100.1902581600851
 20
-154.3099741280892
 30
0.0
  0
SEQEND
  5
74
330
71
100
AcDbEntity
  8
_U+30EC_U+30A4_U+30E4_U+30FC 1
 62
   179
420
  2234388
370
    25
  0
POLYLINE
  5
75
330
41
100
AcDbEntity
  8
_U+30EC_U+30A4_U+30E4_U+30FC 1
 62
   179
420
  2234388
370
    25
100
AcDb2dPolyline
 66
     1
 10
0.0
 20
0.0
 30
0.0
  0
VERTEX
  5
76
330
75
100
AcDbEntity
  8
_U+30EC_U+30A4_U+30E4_U+30FC 1
 62
   179
420
  2234388
370
    25
100
AcDbVertex
100
AcDb2dVertex
 10
101.190030356801
 20
-144.3102410750336
 30
0.0
  0
VERTEX
  5
77
330
75
100
AcDbEntity
  8
_U+30EC_U+30A4_U+30E4_U+30FC 1
 62
   179
420
  2234388
370
    25
100
AcDbVertex
100
AcDb2dVertex
 10
101.190030356801
 20
-154.3099741280892
 30
0.0
  0
SEQEND
  5
78
330
75
100
AcDbEntity
  8
_U+30EC_U+30A4_U+30E4_U+30FC 1
 62
   179
420
  2234388
370
    25
  0
POLYLINE
  5
79
330
41
100
AcDbEntity
  8
_U+30EC_U+30A4_U+30E4_U+30FC 1
 62
   179
420
  2234388
370
    25
100
AcDb2dPolyline
 66
     1
 10
0.0
 20
0.0
 30
0.0
  0
VERTEX
  5
7A
330
79
100
AcDbEntity
  8
_U+30EC_U+30A4_U+30E4_U+30FC 1
 62
   179
420
  2234388
370
    25
100
AcDbVertex
100
AcDb2dVertex
 10
101.190030356801
 20
-144.3102410750336
 30
0.0
  0
VERTEX
  5
7B
330
79
100
AcDbEntity
  8
_U+30EC_U+30A4_U+30E4_U+30FC 1
 62
   179
420
  2234388
370
    25
100
AcDbVertex
100
AcDb2dVertex
 10
106.6897691937905
 20
-144.3102410750336
 30
0.0
  0
SEQEND
  5
7C
330
79
100
AcDbEntity
  8
_U+30EC_U+30A4_U+30E4_U+30FC 1
 62
   179
420
  2234388
370
    25
  0
POLYLINE
  5
7D
330
41
100
AcDbEntity
  8
_U+30EC_U+30A4_U+30E4_U+30FC 1
 62
   179
420
  2234388
370
    25
100
AcDb2dPolyline
 66
     1
 10
0.0
 20
0.0
 30
0.0
  0
VERTEX
  5
7E
330
7D
100
AcDbEntity
  8
_U+30EC_U+30A4_U+30E4_U+30FC 1
 62
   179
420
  2234388
370
    25
100
AcDbVertex
100
AcDb2dVertex
 10
101.190030356801
 20
-154.3099741280892
 30
0.0
  0
VERTEX
  5
7F
330
7D
100
AcDbEntity
  8
_U+30EC_U+30A4_U+30E4_U+30FC 1
 62
   179
420
  2234388
370
    25
100
AcDbVertex
100
AcDb2dVertex
 10
110.6902298366529
 20
-154.3099741280892
 30
0.0
  0
SEQEND
  5
80
330
7D
100
AcDbEntity
  8
_U+30EC_U+30A4_U+30E4_U+30FC 1
 62
   179
420
  2234388
370
    25
  0
SPLINE
  5
81
330
41
100
AcDbEntity
  8
_U+30EC_U+30A4_U+30E4_U+30FC 1
 62
   179
420
  2234388
370
     9
100
AcDbSpline
210
0.0
220
0.0
230
1.0
 70
    11
 71
     3
 72
    17
 73
    13
 74
     0
 42
0.0000000001
 43
0.0000000001
 12
1.0
 22
0.0
 32
0.0
 13
1.0
 23
0.0
 33
0.0
 40
0.0
 40
0.0
 40
0.0
 40
0.0
 40
1.0
 40
1.0
 40
1.0
 40
2.0
 40
2.0
 40
2.0
 40
3.0
 40
3.0
 40
3.0
 40
4.0
 40
4.0
 40
4.0
 40
4.0
 10
121.7896414979278
 20
-154.6100116280143
 30
0.0
 10
121.7896414979278
 20
-154.5549077391394
 30
0.0
 10
121.744838721293
 20
-154.5101049613727
 30
0.0
 10
121.6897348338099
 20
-154.5101049613727
 30
0.0
 10
121.63459566855
 20
-154.5101049613727
 30
0.0
 10
121.5898281696921
 20
-154.5549077391394
 30
0.0
 10
121.5898281696921
 20
-154.6100116280143
 30
0.0
 10
121.5898281696921
 20
-154.6655035724452
 30
0.0
 10
121.63459566855
 20
-154.7102710724337
 30
0.0
 10
121.6897348338099
 20
-154.7102710724337
 30
0.0
 10
121.744838721293
 20
-154.7102710724337
 30
0.0
 10
121.7896414979278
 20
-154.6655035724452
 30
0.0
 10
121.7896414979278
 20
-154.6100116280143
 30
0.0
  0
SPLINE
  5
82
330
41
100
AcDbEntity
  8
_U+30EC_U+30A4_U+30E4_U+30FC 1
 62
   179
420
  2234388
370
     9
100
AcDbSpline
210
0.0
220
0.0
230
1.0
 70
    11
 71
     3
 72
    17
 73
    13
 74
     0
 42
0.0000000001
 43
0.0000000001
 12
1.0
 22
0.0
 32
0.0
 13
1.0
 23
0.0
 33
0.0
 40
0.0
 40
0.0
 40
0.0
 40
0.0
 40
1.0
 40
1.0
 40
1.0
 40
2.0
 40
2.0
 40
2.0
 40
3.0
 40
3.0
 40
3.0
 40
4.0
 40
4.0
 40
4.0
 40
4.0
 10
121.7896414979278
 20
-155.3100638500613
 30
0.0
 10
121.7896414979278
 20
-155.2549599611864
 30
0.0
 10
121.744838721293
 20
-155.2101571834197
 30
0.0
 10
121.6897348338099
 20
-155.2101571834197
 30
0.0
 10
121.63459566855
 20
-155.2101571834197
 30
0.0
 10
121.5898281696921
 20
-155.2549599611864
 30
0.0
 10
121.5898281696921
 20
-155.3100638500613
 30
0.0
 10
121.5898281696921
 20
-155.3652030167144
 30
0.0
 10
121.63459566855
 20
-155.4099705167029
 30
0.0
 10
121.6897348338099
 20
-155.4099705167029
 30
0.0
 10
121.744838721293
 20
-155.4099705167029
 30
0.0
 10
121.7896414979278
 20
-155.3652030167144
 30
0.0
 10
121.7896414979278
 20
-155.3100638500613
 30
0.0
  0
SPLINE
  5
83
330
41
100
AcDbEntity
  8
_U+30EC_U+30A4_U+30E4_U+30FC 1
 62
   179
420
  2234388
370
     9
100
AcDbSpline
210
0.0
220
0.0
230
1.0
 70
    11
 71
     3
 72
    17
 73
    13
 74
     0
 42
0.0000000001
 43
0.0000000001
 12
1.0
 22
0.0
 32
0.0
 13
1.0
 23
0.0
 33
0.0
 40
0.0
 40
0.0
 40
0.0
 40
0.0
 40
1.0
 40
1.0
 40
1.0
 40
2.0
 40
2.0
 40
2.0
 40
3.0
 40
3.0
 40
3.0
 40
4.0
 40
4.0
 40
4.0
 40
4.0
 10
117.7898824333034
 20
-159.3101757935059
 30
0.0
 10
117.7898824333034
 20
-159.2550366268529
 30
0.0
 10
117.7450796566687
 20
-159.2102691268643
 30
0.0
 10
117.6899757691856
 20
-159.2102691268643
 30
0.0
 10
117.6348366039257
 20
-159.2102691268643
 30
0.0
 10
117.5900691050678
 20
-159.2550366268529
 30
0.0
 10
117.5900691050678
 20
-159.3101757935059
 30
0.0
 10
117.5900691050678
 20
-159.3652796823809
 30
0.0
 10
117.6348366039257
 20
-159.4100824601476
 30
0.0
 10
117.6899757691856
 20
-159.4100824601476
 30
0.0
 10
117.7450796566687
 20
-159.4100824601476
 30
0.0
 10
117.7898824333034
 20
-159.3652796823809
 30
0.0
 10
117.7898824333034
 20
-159.3101757935059
 30
0.0
  0
SPLINE
  5
84
330
41
100
AcDbEntity
  8
_U+30EC_U+30A4_U+30E4_U+30FC 1
 62
   179
420
  2234388
370
     9
100
AcDbSpline
210
0.0
220
0.0
230
1.0
 70
    11
 71
     3
 72
    17
 73
    13
 74
     0
 42
0.0000000001
 43
0.0000000001
 12
1.0
 22
0.0
 32
0.0
 13
1.0
 23
0.0
 33
0.0
 40
0.0
 40
0.0
 40
0.0
 40
0.0
 40
1.0
 40
1.0
 40
1.0
 40
2.0
 40
2.0
 40
2.0
 40
3.0
 40
3.0
 40
3.0
 40
4.0
 40
4.0
 40
4.0
 40
4.0
 10
90.78996534435095
 20
-144.3102410750336
 30
0.0
 10
90.78996534435095
 20
-144.2551019083805
 30
0.0
 10
90.74519784549307
 20
-144.210334408392
 30
0.0
 10
90.69005868023311
 20
-144.210334408392
 30
0.0
 10
90.63495479275004
 20
-144.210334408392
 30
0.0
 10
90.59015201611528
 20
-144.2551019083805
 30
0.0
 10
90.59015201611528
 20
-144.3102410750336
 30
0.0
 10
90.59015201611528
 20
-144.3653449639085
 30
0.0
 10
90.63495479275004
 20
-144.4101477416752
 30
0.0
 10
90.69005868023311
 20
-144.4101477416752
 30
0.0
 10
90.74519784549307
 20
-144.4101477416752
 30
0.0
 10
90.78996534435095
 20
-144.3653449639085
 30
0.0
 10
90.78996534435095
 20
-144.3102410750336
 30
0.0
  0
SPLINE
  5
85
330
41
100
AcDbEntity
  8
_U+30EC_U+30A4_U+30E4_U+30FC 1
 62
   179
420
  2234388
370
     9
100
AcDbSpline
210
0.0
220
0.0
230
1.0
 70
    11
 71
     3
 72
    17
 73
    13
 74
     0
 42
0.0000000001
 43
0.0000000001
 12
1.0
 22
0.0
 32
0.0
 13
1.0
 23
0.0
 33
0.0
 40
0.0
 40
0.0
 40
0.0
 40
0.0
 40
1.0
 40
1.0
 40
1.0
 40
2.0
 40
2.0
 40
2.0
 40
3.0
 40
3.0
 40
3.0
 40
4.0
 40
4.0
 40
4.0
 40
4.0
 10
90.78996534435095
 20
-154.3099741280892
 30
0.0
 10
90.78996534435095
 20
-154.2548349614361
 30
0.0
 10
90.74519784549307
 20
-154.2100674614475
 30
0.0
 10
90.69005868023311
 20
-154.2100674614475
 30
0.0
 10
90.63495479275004
 20
-154.2100674614475
 30
0.0
 10
90.59015201611528
 20
-154.2548349614361
 30
0.0
 10
90.59015201611528
 20
-154.3099741280892
 30
0.0
 10
90.59015201611528
 20
-154.3654307947419
 30
0.0
 10
90.63495479275004
 20
-154.4101982947304
 30
0.0
 10
90.69005868023311
 20
-154.4101982947304
 30
0.0
 10
90.74519784549307
 20
-154.4101982947304
 30
0.0
 10
90.78996534435095
 20
-154.3654307947419
 30
0.0
 10
90.78996534435095
 20
-154.3099741280892
 30
0.0
  0
SPLINE
  5
86
330
41
100
AcDbEntity
  8
_U+30EC_U+30A4_U+30E4_U+30FC 1
 62
   179
420
  2234388
370
     9
100
AcDbSpline
210
0.0
220
0.0
230
1.0
 70
    11
 71
     3
 72
    17
 73
    13
 74
     0
 42
0.0000000001
 43
0.0000000001
 12
1.0
 22
0.0
 32
0.0
 13
1.0
 23
0.0
 33
0.0
 40
0.0
 40
0.0
 40
0.0
 40
0.0
 40
1.0
 40
1.0
 40
1.0
 40
2.0
 40
2.0
 40
2.0
 40
3.0
 40
3.0
 40
3.0
 40
4.0
 40
4.0
 40
4.0
 40
4.0
 10
90.78996534435095
 20
-155.3100638500613
 30
0.0
 10
90.78996534435095
 20
-155.2549599611864
 30
0.0
 10
90.74519784549307
 20
-155.2101571834197
 30
0.0
 10
90.69005868023311
 20
-155.2101571834197
 30
0.0
 10
90.63495479275004
 20
-155.2101571834197
 30
0.0
 10
90.59015201611528
 20
-155.2549599611864
 30
0.0
 10
90.59015201611528
 20
-155.3100638500613
 30
0.0
 10
90.59015201611528
 20
-155.3652030167144
 30
0.0
 10
90.63495479275004
 20
-155.4099705167029
 30
0.0
 10
90.69005868023311
 20
-155.4099705167029
 30
0.0
 10
90.74519784549307
 20
-155.4099705167029
 30
0.0
 10
90.78996534435095
 20
-155.3652030167144
 30
0.0
 10
90.78996534435095
 20
-155.3100638500613
 30
0.0
  0
SPLINE
  5
87
330
41
100
AcDbEntity
  8
_U+30EC_U+30A4_U+30E4_U+30FC 1
 62
   179
420
  2234388
370
     9
100
AcDbSpline
210
0.0
220
0.0
230
1.0
 70
    11
 71
     3
 72
    17
 73
    13
 74
     0
 42
0.0000000001
 43
0.0000000001
 12
1.0
 22
0.0
 32
0.0
 13
1.0
 23
0.0
 33
0.0
 40
0.0
 40
0.0
 40
0.0
 40
0.0
 40
1.0
 40
1.0
 40
1.0
 40
2.0
 40
2.0
 40
2.0
 40
3.0
 40
3.0
 40
3.0
 40
4.0
 40
4.0
 40
4.0
 40
4.0
 10
94.78972440897526
 20
-159.3101757935059
 30
0.0
 10
94.78972440897526
 20
-159.2550366268529
 30
0.0
 10
94.74495691011737
 20
-159.2102691268643
 30
0.0
 10
94.68981774485742
 20
-159.2102691268643
 30
0.0
 10
94.63471385737435
 20
-159.2102691268643
 30
0.0
 10
94.58991108073958
 20
-159.2550366268529
 30
0.0
 10
94.58991108073958
 20
-159.3101757935059
 30
0.0
 10
94.58991108073958
 20
-159.3652796823809
 30
0.0
 10
94.63471385737435
 20
-159.4100824601476
 30
0.0
 10
94.68981774485742
 20
-159.4100824601476
 30
0.0
 10
94.74495691011737
 20
-159.4100824601476
 30
0.0
 10
94.78972440897526
 20
-159.3652796823809
 30
0.0
 10
94.78972440897526
 20
-159.3101757935059
 30
0.0
  0
SPLINE
  5
88
330
41
100
AcDbEntity
  8
_U+30EC_U+30A4_U+30E4_U+30FC 1
 62
   179
420
  2234388
370
     9
100
AcDbSpline
210
0.0
220
0.0
230
1.0
 70
    11
 71
     3
 72
    17
 73
    13
 74
     0
 42
0.0000000001
 43
0.0000000001
 12
1.0
 22
0.0
 32
0.0
 13
1.0
 23
0.0
 33
0.0
 40
0.0
 40
0.0
 40
0.0
 40
0.0
 40
1.0
 40
1.0
 40
1.0
 40
2.0
 40
2.0
 40
2.0
 40
3.0
 40
3.0
 40
3.0
 40
4.0
 40
4.0
 40
4.0
 40
4.0
 10
106.7896718806089
 20
-139.3100041318393
 30
0.0
 10
106.7896718806089
 20
-139.2549002429641
 30
0.0
 10
106.744904381751
 20
-139.2100974651977
 30
0.0
 10
106.6897691937905
 20
-139.2100974651977
 30
0.0
 10
106.634661329008
 20
-139.2100974651977
 30
0.0
 10
106.5898585523732
 20
-139.2549002429641
 30
0.0
 10
106.5898585523732
 20
-139.3100041318393
 30
0.0
 10
106.5898585523732
 20
-139.3651432984921
 30
0.0
 10
106.634661329008
 20
-139.4099107984809
 30
0.0
 10
106.6897691937905
 20
-139.4099107984809
 30
0.0
 10
106.744904381751
 20
-139.4099107984809
 30
0.0
 10
106.7896718806089
 20
-139.3651432984921
 30
0.0
 10
106.7896718806089
 20
-139.3100041318393
 30
0.0
  0
SPLINE
  5
89
330
41
100
AcDbEntity
  8
_U+30EC_U+30A4_U+30E4_U+30FC 1
 62
   179
420
  2234388
370
     9
100
AcDbSpline
210
0.0
220
0.0
230
1.0
 70
    11
 71
     3
 72
    17
 73
    13
 74
     0
 42
0.0000000001
 43
0.0000000001
 12
1.0
 22
0.0
 32
0.0
 13
1.0
 23
0.0
 33
0.0
 40
0.0
 40
0.0
 40
0.0
 40
0.0
 40
1.0
 40
1.0
 40
1.0
 40
2.0
 40
2.0
 40
2.0
 40
3.0
 40
3.0
 40
3.0
 40
4.0
 40
4.0
 40
4.0
 40
4.0
 10
94.78972440897526
 20
-139.3100041318393
 30
0.0
 10
94.78972440897526
 20
-139.2549002429641
 30
0.0
 10
94.74495691011737
 20
-139.2100974651977
 30
0.0
 10
94.68981774485742
 20
-139.2100974651977
 30
0.0
 10
94.63471385737435
 20
-139.2100974651977
 30
0.0
 10
94.58991108073958
 20
-139.2549002429641
 30
0.0
 10
94.58991108073958
 20
-139.3100041318393
 30
0.0
 10
94.58991108073958
 20
-139.3651432984921
 30
0.0
 10
94.63471385737435
 20
-139.4099107984809
 30
0.0
 10
94.68981774485742
 20
-139.4099107984809
 30
0.0
 10
94.74495691011737
 20
-139.4099107984809
 30
0.0
 10
94.78972440897526
 20
-139.3651432984921
 30
0.0
 10
94.78972440897526
 20
-139.3100041318393
 30
0.0
  0
SPLINE
  5
8A
330
41
100
AcDbEntity
  8
_U+30EC_U+30A4_U+30E4_U+30FC 1
 62
   179
420
  2234388
370
     9
100
AcDbSpline
210
0.0
220
0.0
230
1.0
 70
    11
 71
     3
 72
    17
 73
    13
 74
     0
 42
0.0000000001
 43
0.0000000001
 12
1.0
 22
0.0
 32
0.0
 13
1.0
 23
0.0
 33
0.0
 40
0.0
 40
0.0
 40
0.0
 40
0.0
 40
1.0
 40
1.0
 40
1.0
 40
2.0
 40
2.0
 40
2.0
 40
3.0
 40
3.0
 40
3.0
 40
4.0
 40
4.0
 40
4.0
 40
4.0
 10
117.7898824333034
 20
-150.6099349623478
 30
0.0
 10
117.7898824333034
 20
-150.5547957956948
 30
0.0
 10
117.7450796566687
 20
-150.5100282957056
 30
0.0
 10
117.6899757691856
 20
-150.5100282957056
 30
0.0
 10
117.6348366039257
 20
-150.5100282957056
 30
0.0
 10
117.5900691050678
 20
-150.5547957956948
 30
0.0
 10
117.5900691050678
 20
-150.6099349623478
 30
0.0
 10
117.5900691050678
 20
-150.6653916289999
 30
0.0
 10
117.6348366039257
 20
-150.7101944067666
 30
0.0
 10
117.6899757691856
 20
-150.7101944067666
 30
0.0
 10
117.7450796566687
 20
-150.7101944067666
 30
0.0
 10
117.7898824333034
 20
-150.6653916289999
 30
0.0
 10
117.7898824333034
 20
-150.6099349623478
 30
0.0
  0
SPLINE
  5
8B
330
41
100
AcDbEntity
  8
_U+30EC_U+30A4_U+30E4_U+30FC 1
 62
   179
420
  2234388
370
     9
100
AcDbSpline
210
0.0
220
0.0
230
1.0
 70
    11
 71
     3
 72
    17
 73
    13
 74
     0
 42
0.0000000001
 43
0.0000000001
 12
1.0
 22
0.0
 32
0.0
 13
1.0
 23
0.0
 33
0.0
 40
0.0
 40
0.0
 40
0.0
 40
0.0
 40
1.0
 40
1.0
 40
1.0
 40
2.0
 40
2.0
 40
2.0
 40
3.0
 40
3.0
 40
3.0
 40
4.0
 40
4.0
 40
4.0
 40
4.0
 10
110.7901365007707
 20
-150.6099349623478
 30
0.0
 10
110.7901365007707
 20
-150.5547957956948
 30
0.0
 10
110.745333724136
 20
-150.5100282957056
 30
0.0
 10
110.6902298366529
 20
-150.5100282957056
 30
0.0
 10
110.6344203936323
 20
-150.5100282957056
 30
0.0
 10
110.5896176169975
 20
-150.5547957956948
 30
0.0
 10
110.5896176169975
 20
-150.6099349623478
 30
0.0
 10
110.5896176169975
 20
-150.6653916289999
 30
0.0
 10
110.6344203936323
 20
-150.7101944067666
 30
0.0
 10
110.6902298366529
 20
-150.7101944067666
 30
0.0
 10
110.745333724136
 20
-150.7101944067666
 30
0.0
 10
110.7901365007707
 20
-150.6653916289999
 30
0.0
 10
110.7901365007707
 20
-150.6099349623478
 30
0.0
  0
POLYLINE
  5
8C
330
41
100
AcDbEntity
  8
_U+30EC_U+30A4_U+30E4_U+30FC 1
 62
   179
420
  2234388
370
     9
100
AcDb2dPolyline
 66
     1
 10
0.0
 20
0.0
 30
0.0
  0
VERTEX
  5
8D
330
8C
100
AcDbEntity
  8
_U+30EC_U+30A4_U+30E4_U+30FC 1
 62
   179
420
  2234388
370
     9
100
AcDbVertex
100
AcDb2dVertex
 10
121.6897348338099
 20
-155.3100638500613
 30
0.0
  0
VERTEX
  5
8E
330
8C
100
AcDbEntity
  8
_U+30EC_U+30A4_U+30E4_U+30FC 1
 62
   179
420
  2234388
370
     9
100
AcDbVertex
100
AcDb2dVertex
 10
121.6897348338099
 20
-160.5679696820802
 30
0.0
  0
SEQEND
  5
8F
330
8C
100
AcDbEntity
  8
_U+30EC_U+30A4_U+30E4_U+30FC 1
 62
   179
420
  2234388
370
     9
  0
POLYLINE
  5
90
330
41
100
AcDbEntity
  8
_U+30EC_U+30A4_U+30E4_U+30FC 1
 62
   179
420
  2234388
370
     9
100
AcDb2dPolyline
 66
     1
 10
0.0
 20
0.0
 30
0.0
  0
VERTEX
  5
91
330
90
100
AcDbEntity
  8
_U+30EC_U+30A4_U+30E4_U+30FC 1
 62
   179
420
  2234388
370
     9
100
AcDbVertex
100
AcDb2dVertex
 10
121.6897348338099
 20
-155.3100638500613
 30
0.0
  0
VERTEX
  5
92
330
90
100
AcDbEntity
  8
_U+30EC_U+30A4_U+30E4_U+30FC 1
 62
   179
420
  2234388
370
     9
100
AcDbVertex
100
AcDb2dVertex
 10
121.6897348338099
 20
-153.6102746838199
 30
0.0
  0
SEQEND
  5
93
330
90
100
AcDbEntity
  8
_U+30EC_U+30A4_U+30E4_U+30FC 1
 62
   179
420
  2234388
370
     9
  0
POLYLINE
  5
94
330
41
100
AcDbEntity
  8
_U+30EC_U+30A4_U+30E4_U+30FC 1
 62
   179
420
  2234388
370
     9
100
AcDb2dPolyline
 66
     1
 10
0.0
 20
0.0
 30
0.0
  0
VERTEX
  5
95
330
94
100
AcDbEntity
  8
_U+30EC_U+30A4_U+30E4_U+30FC 1
 62
   179
420
  2234388
370
     9
100
AcDbVertex
100
AcDb2dVertex
 10
120.2296934821698
 20
-155.3100638500613
 30
0.0
  0
VERTEX
  5
96
330
94
100
AcDbEntity
  8
_U+30EC_U+30A4_U+30E4_U+30FC 1
 62
   179
420
  2234388
370
     9
100
AcDbVertex
100
AcDb2dVertex
 10
122.6901773082865
 20
-155.3100638500613
 30
0.0
  0
SEQEND
  5
97
330
94
100
AcDbEntity
  8
_U+30EC_U+30A4_U+30E4_U+30FC 1
 62
   179
420
  2234388
370
     9
  0
POLYLINE
  5
98
330
41
100
AcDbEntity
  8
_U+30EC_U+30A4_U+30E4_U+30FC 1
 62
   179
420
  2234388
370
     9
100
AcDb2dPolyline
 66
     1
 10
0.0
 20
0.0
 30
0.0
  0
VERTEX
  5
99
330
98
100
AcDbEntity
  8
_U+30EC_U+30A4_U+30E4_U+30FC 1
 62
   179
420
  2234388
370
     9
100
AcDbVertex
100
AcDb2dVertex
 10
119.9754465442117
 20
-154.6100116280143
 30
0.0
  0
VERTEX
  5
9A
330
98
100
AcDbEntity
  8
_U+30EC_U+30A4_U+30E4_U+30FC 1
 62
   179
420
  2234388
370
     9
100
AcDbVertex
100
AcDb2dVertex
 10
122.6901773082865
 20
-154.6100116280143
 30
0.0
  0
SEQEND
  5
9B
330
98
100
AcDbEntity
  8
_U+30EC_U+30A4_U+30E4_U+30FC 1
 62
   179
420
  2234388
370
     9
  0
MTEXT
  5
9C
330
41
100
AcDbEntity
  8
_U+30EC_U+30A4_U+30E4_U+30FC 1
 62
   179
420
  2234388
100
AcDbMText
 10
120.0054226045473
 20
-156.5385918225902
 30
0.0
 40
1.49859999962535
 41
0.0
 46
0.0
 71
     7
 72
     1
  1
\fA-OTF Futo Go B101 Pro|b1|i0|c0|p34;\W1.06875;0.7
 11
6.123233995736766E-17
 21
1.0
 31
0.0
 73
     1
 44
1.0
  0
POLYLINE
  5
9D
330
41
100
AcDbEntity
  8
_U+30EC_U+30A4_U+30E4_U+30FC 1
 62
   179
420
  2234388
370
     9
100
AcDb2dPolyline
 66
     1
 10
0.0
 20
0.0
 30
0.0
  0
VERTEX
  5
9E
330
9D
100
AcDbEntity
  8
_U+30EC_U+30A4_U+30E4_U+30FC 1
 62
   179
420
  2234388
370
     9
100
AcDbVertex
100
AcDb2dVertex
 10
94.68981774485742
 20
-159.3101757935059
 30
0.0
  0
VERTEX
  5
9F
330
9D
100
AcDbEntity
  8
_U+30EC_U+30A4_U+30E4_U+30FC 1
 62
   179
420
  2234388
370
     9
100
AcDbVertex
100
AcDb2dVertex
 10
117.6899757691856
 20
-159.3101757935059
 30
0.0
  0
SEQEND
  5
A0
330
9D
100
AcDbEntity
  8
_U+30EC_U+30A4_U+30E4_U+30FC 1
 62
   179
420
  2234388
370
     9
  0
POLYLINE
  5
A1
330
41
100
AcDbEntity
  8
_U+30EC_U+30A4_U+30E4_U+30FC 1
 62
   179
420
  2234388
370
     9
100
AcDb2dPolyline
 66
     1
 10
0.0
 20
0.0
 30
0.0
  0
VERTEX
  5
A2
330
A1
100
AcDbEntity
  8
_U+30EC_U+30A4_U+30E4_U+30FC 1
 62
   179
420
  2234388
370
     9
100
AcDbVertex
100
AcDb2dVertex
 10
94.68981774485742
 20
-157.8501344049816
 30
0.0
  0
VERTEX
  5
A3
330
A1
100
AcDbEntity
  8
_U+30EC_U+30A4_U+30E4_U+30FC 1
 62
   179
420
  2234388
370
     9
100
AcDbVertex
100
AcDb2dVertex
 10
94.68981774485742
 20
-160.3103007932556
 30
0.0
  0
SEQEND
  5
A4
330
A1
100
AcDbEntity
  8
_U+30EC_U+30A4_U+30E4_U+30FC 1
 62
   179
420
  2234388
370
     9
  0
POLYLINE
  5
A5
330
41
100
AcDbEntity
  8
_U+30EC_U+30A4_U+30E4_U+30FC 1
 62
   179
420
  2234388
370
     9
100
AcDb2dPolyline
 66
     1
 10
0.0
 20
0.0
 30
0.0
  0
VERTEX
  5
A6
330
A5
100
AcDbEntity
  8
_U+30EC_U+30A4_U+30E4_U+30FC 1
 62
   179
420
  2234388
370
     9
100
AcDbVertex
100
AcDb2dVertex
 10
117.6899757691856
 20
-157.8501344049816
 30
0.0
  0
VERTEX
  5
A7
330
A5
100
AcDbEntity
  8
_U+30EC_U+30A4_U+30E4_U+30FC 1
 62
   179
420
  2234388
370
     9
100
AcDbVertex
100
AcDb2dVertex
 10
117.6899757691856
 20
-160.3103007932556
 30
0.0
  0
SEQEND
  5
A8
330
A5
100
AcDbEntity
  8
_U+30EC_U+30A4_U+30E4_U+30FC 1
 62
   179
420
  2234388
370
     9
  0
MTEXT
  5
A9
330
41
100
AcDbEntity
  8
_U+30EC_U+30A4_U+30E4_U+30FC 1
 62
   179
420
  2234388
100
AcDbMText
 10
104.9369181158726
 20
-158.7141702943957
 30
0.0
 40
1.49859999962535
 41
0.0
 46
0.0
 71
     7
 72
     1
  1
\fA-OTF Futo Go B101 Pro|b1|i0|c0|p34;\W1.06875;23
 73
     1
 44
1.0
  0
POLYLINE
  5
AA
330
41
100
AcDbEntity
  8
_U+30EC_U+30A4_U+30E4_U+30FC 1
 62
   179
420
  2234388
370
     9
100
AcDb2dPolyline
 66
     1
 10
0.0
 20
0.0
 30
0.0
  0
VERTEX
  5
AB
330
AA
100
AcDbEntity
  8
_U+30EC_U+30A4_U+30E4_U+30FC 1
 62
   179
420
  2234388
370
     9
100
AcDbVertex
100
AcDb2dVertex
 10
106.6897691937905
 20
-139.3100041318393
 30
0.0
  0
VERTEX
  5
AC
330
AA
100
AcDbEntity
  8
_U+30EC_U+30A4_U+30E4_U+30FC 1
 62
   179
420
  2234388
370
     9
100
AcDbVertex
100
AcDb2dVertex
 10
94.68981774485742
 20
-139.3100041318393
 30
0.0
  0
SEQEND
  5
AD
330
AA
100
AcDbEntity
  8
_U+30EC_U+30A4_U+30E4_U+30FC 1
 62
   179
420
  2234388
370
     9
  0
POLYLINE
  5
AE
330
41
100
AcDbEntity
  8
_U+30EC_U+30A4_U+30E4_U+30FC 1
 62
   179
420
  2234388
370
     9
100
AcDb2dPolyline
 66
     1
 10
0.0
 20
0.0
 30
0.0
  0
VERTEX
  5
AF
330
AE
100
AcDbEntity
  8
_U+30EC_U+30A4_U+30E4_U+30FC 1
 62
   179
420
  2234388
370
     9
100
AcDbVertex
100
AcDb2dVertex
 10
106.6897691937905
 20
-141.770170520113
 30
0.0
  0
VERTEX
  5
B0
330
AE
100
AcDbEntity
  8
_U+30EC_U+30A4_U+30E4_U+30FC 1
 62
   179
420
  2234388
370
     9
100
AcDbVertex
100
AcDb2dVertex
 10
106.6897691937905
 20
-138.3102319098668
 30
0.0
  0
SEQEND
  5
B1
330
AE
100
AcDbEntity
  8
_U+30EC_U+30A4_U+30E4_U+30FC 1
 62
   179
420
  2234388
370
     9
  0
POLYLINE
  5
B2
330
41
100
AcDbEntity
  8
_U+30EC_U+30A4_U+30E4_U+30FC 1
 62
   179
420
  2234388
370
     9
100
AcDb2dPolyline
 66
     1
 10
0.0
 20
0.0
 30
0.0
  0
VERTEX
  5
B3
330
B2
100
AcDbEntity
  8
_U+30EC_U+30A4_U+30E4_U+30FC 1
 62
   179
420
  2234388
370
     9
100
AcDbVertex
100
AcDb2dVertex
 10
94.68981774485742
 20
-141.770170520113
 30
0.0
  0
VERTEX
  5
B4
330
B2
100
AcDbEntity
  8
_U+30EC_U+30A4_U+30E4_U+30FC 1
 62
   179
420
  2234388
370
     9
100
AcDbVertex
100
AcDb2dVertex
 10
94.68981774485742
 20
-138.3102319098668
 30
0.0
  0
SEQEND
  5
B5
330
B2
100
AcDbEntity
  8
_U+30EC_U+30A4_U+30E4_U+30FC 1
 62
   179
420
  2234388
370
     9
  0
MTEXT
  5
B6
330
41
100
AcDbEntity
  8
_U+30EC_U+30A4_U+30E4_U+30FC 1
 62
   179
420
  2234388
100
AcDbMText
 10
99.43716768321973
 20
-138.7143574738748
 30
0.0
 40
1.49859999962535
 41
0.0
 46
0.0
 71
     7
 72
     1
  1
\fA-OTF Futo Go B101 Pro|b1|i0|c0|p34;\W1.06875;12
 73
     1
 44
1.0
  0
POLYLINE
  5
B7
330
41
100
AcDbEntity
  8
_U+30EC_U+30A4_U+30E4_U+30FC 1
 62
   179
420
  2234388
370
     9
100
AcDb2dPolyline
 66
     1
 10
0.0
 20
0.0
 30
0.0
  0
VERTEX
  5
B8
330
B7
100
AcDbEntity
  8
_U+30EC_U+30A4_U+30E4_U+30FC 1
 62
   179
420
  2234388
370
     9
100
AcDbVertex
100
AcDb2dVertex
 10
90.69005868023311
 20
-155.3100638500613
 30
0.0
  0
VERTEX
  5
B9
330
B7
100
AcDbEntity
  8
_U+30EC_U+30A4_U+30E4_U+30FC 1
 62
   179
420
  2234388
370
     9
100
AcDbVertex
100
AcDb2dVertex
 10
90.69005868023311
 20
-159.0803763491187
 30
0.0
  0
SEQEND
  5
BA
330
B7
100
AcDbEntity
  8
_U+30EC_U+30A4_U+30E4_U+30FC 1
 62
   179
420
  2234388
370
     9
  0
POLYLINE
  5
BB
330
41
100
AcDbEntity
  8
_U+30EC_U+30A4_U+30E4_U+30FC 1
 62
   179
420
  2234388
370
     9
100
AcDb2dPolyline
 66
     1
 10
0.0
 20
0.0
 30
0.0
  0
VERTEX
  5
BC
330
BB
100
AcDbEntity
  8
_U+30EC_U+30A4_U+30E4_U+30FC 1
 62
   179
420
  2234388
370
     9
100
AcDbVertex
100
AcDb2dVertex
 10
90.69005868023311
 20
-154.3099741280892
 30
0.0
  0
VERTEX
  5
BD
330
BB
100
AcDbEntity
  8
_U+30EC_U+30A4_U+30E4_U+30FC 1
 62
   179
420
  2234388
370
     9
100
AcDbVertex
100
AcDb2dVertex
 10
90.69005868023311
 20
-155.3100638500613
 30
0.0
  0
SEQEND
  5
BE
330
BB
100
AcDbEntity
  8
_U+30EC_U+30A4_U+30E4_U+30FC 1
 62
   179
420
  2234388
370
     9
  0
POLYLINE
  5
BF
330
41
100
AcDbEntity
  8
_U+30EC_U+30A4_U+30E4_U+30FC 1
 62
   179
420
  2234388
370
     9
100
AcDb2dPolyline
 66
     1
 10
0.0
 20
0.0
 30
0.0
  0
VERTEX
  5
C0
330
BF
100
AcDbEntity
  8
_U+30EC_U+30A4_U+30E4_U+30FC 1
 62
   179
420
  2234388
370
     9
100
AcDbVertex
100
AcDb2dVertex
 10
92.15010003187324
 20
-155.3100638500613
 30
0.0
  0
VERTEX
  5
C1
330
BF
100
AcDbEntity
  8
_U+30EC_U+30A4_U+30E4_U+30FC 1
 62
   179
420
  2234388
370
     9
100
AcDbVertex
100
AcDb2dVertex
 10
89.6902864835172
 20
-155.3100638500613
 30
0.0
  0
SEQEND
  5
C2
330
BF
100
AcDbEntity
  8
_U+30EC_U+30A4_U+30E4_U+30FC 1
 62
   179
420
  2234388
370
     9
  0
MTEXT
  5
C3
330
41
100
AcDbEntity
  8
_U+30EC_U+30A4_U+30E4_U+30FC 1
 62
   179
420
  2234388
100
AcDbMText
 10
90.09338105386554
 20
-158.8960720088871
 30
0.0
 40
1.49859999962535
 41
0.0
 46
0.0
 71
     7
 72
     1
  1
\fA-OTF Futo Go B101 Pro|b1|i0|c0|p34;\W1.06875;1
 11
6.123233995736766E-17
 21
1.0
 31
0.0
 73
     1
 44
1.0
  0
POLYLINE
  5
C4
330
41
100
AcDbEntity
  8
_U+30EC_U+30A4_U+30E4_U+30FC 1
 62
   179
420
  2234388
370
     9
100
AcDb2dPolyline
 66
     1
 10
0.0
 20
0.0
 30
0.0
  0
VERTEX
  5
C5
330
C4
100
AcDbEntity
  8
_U+30EC_U+30A4_U+30E4_U+30FC 1
 62
   179
420
  2234388
370
     9
100
AcDbVertex
100
AcDb2dVertex
 10
110.6902298366529
 20
-150.6099349623478
 30
0.0
  0
VERTEX
  5
C6
330
C4
100
AcDbEntity
  8
_U+30EC_U+30A4_U+30E4_U+30FC 1
 62
   179
420
  2234388
370
     9
100
AcDbVertex
100
AcDb2dVertex
 10
117.6899757691856
 20
-150.6099349623478
 30
0.0
  0
SEQEND
  5
C7
330
C4
100
AcDbEntity
  8
_U+30EC_U+30A4_U+30E4_U+30FC 1
 62
   179
420
  2234388
370
     9
  0
POLYLINE
  5
C8
330
41
100
AcDbEntity
  8
_U+30EC_U+30A4_U+30E4_U+30FC 1
 62
   179
420
  2234388
370
     9
100
AcDb2dPolyline
 66
     1
 10
0.0
 20
0.0
 30
0.0
  0
VERTEX
  5
C9
330
C8
100
AcDbEntity
  8
_U+30EC_U+30A4_U+30E4_U+30FC 1
 62
   179
420
  2234388
370
     9
100
AcDbVertex
100
AcDb2dVertex
 10
110.6902298366529
 20
-151.7702210731685
 30
0.0
  0
VERTEX
  5
CA
330
C8
100
AcDbEntity
  8
_U+30EC_U+30A4_U+30E4_U+30FC 1
 62
   179
420
  2234388
370
     9
100
AcDbVertex
100
AcDb2dVertex
 10
110.6902298366529
 20
-149.6101627403753
 30
0.0
  0
SEQEND
  5
CB
330
C8
100
AcDbEntity
  8
_U+30EC_U+30A4_U+30E4_U+30FC 1
 62
   179
420
  2234388
370
     9
  0
POLYLINE
  5
CC
330
41
100
AcDbEntity
  8
_U+30EC_U+30A4_U+30E4_U+30FC 1
 62
   179
420
  2234388
370
     9
100
AcDb2dPolyline
 66
     1
 10
0.0
 20
0.0
 30
0.0
  0
VERTEX
  5
CD
330
CC
100
AcDbEntity
  8
_U+30EC_U+30A4_U+30E4_U+30FC 1
 62
   179
420
  2234388
370
     9
100
AcDbVertex
100
AcDb2dVertex
 10
117.6899757691856
 20
-152.769993295141
 30
0.0
  0
VERTEX
  5
CE
330
CC
100
AcDbEntity
  8
_U+30EC_U+30A4_U+30E4_U+30FC 1
 62
   179
420
  2234388
370
     9
100
AcDbVertex
100
AcDb2dVertex
 10
117.6899757691856
 20
-149.6101627403753
 30
0.0
  0
SEQEND
  5
CF
330
CC
100
AcDbEntity
  8
_U+30EC_U+30A4_U+30E4_U+30FC 1
 62
   179
420
  2234388
370
     9
  0
MTEXT
  5
D0
330
41
100
AcDbEntity
  8
_U+30EC_U+30A4_U+30E4_U+30FC 1
 62
   179
420
  2234388
100
AcDbMText
 10
113.6040906834045
 20
-150.013926828816
 30
0.0
 40
1.49859999962535
 41
0.0
 46
0.0
 71
     7
 72
     1
  1
\fA-OTF Futo Go B101 Pro|b1|i0|c0|p34;\W1.06875;7
 73
     1
 44
1.0
  0
POLYLINE
  5
D1
330
41
100
AcDbEntity
  8
_U+30EC_U+30A4_U+30E4_U+30FC 1
 62
   179
420
  2234388
370
     9
100
AcDb2dPolyline
 66
     1
 10
0.0
 20
0.0
 30
0.0
  0
VERTEX
  5
D2
330
D1
100
AcDbEntity
  8
_U+30EC_U+30A4_U+30E4_U+30FC 1
 62
   179
420
  2234388
370
     9
100
AcDbVertex
100
AcDb2dVertex
 10
90.69005868023311
 20
-144.3102410750336
 30
0.0
  0
VERTEX
  5
D3
330
D1
100
AcDbEntity
  8
_U+30EC_U+30A4_U+30E4_U+30FC 1
 62
   179
420
  2234388
370
     9
100
AcDbVertex
100
AcDb2dVertex
 10
90.69005868023311
 20
-154.3099741280892
 30
0.0
  0
SEQEND
  5
D4
330
D1
100
AcDbEntity
  8
_U+30EC_U+30A4_U+30E4_U+30FC 1
 62
   179
420
  2234388
370
     9
  0
POLYLINE
  5
D5
330
41
100
AcDbEntity
  8
_U+30EC_U+30A4_U+30E4_U+30FC 1
 62
   179
420
  2234388
370
     9
100
AcDb2dPolyline
 66
     1
 10
0.0
 20
0.0
 30
0.0
  0
VERTEX
  5
D6
330
D5
100
AcDbEntity
  8
_U+30EC_U+30A4_U+30E4_U+30FC 1
 62
   179
420
  2234388
370
     9
100
AcDbVertex
100
AcDb2dVertex
 10
92.15010003187324
 20
-144.3102410750336
 30
0.0
  0
VERTEX
  5
D7
330
D5
100
AcDbEntity
  8
_U+30EC_U+30A4_U+30E4_U+30FC 1
 62
   179
420
  2234388
370
     9
100
AcDbVertex
100
AcDb2dVertex
 10
89.6902864835172
 20
-144.3102410750336
 30
0.0
  0
SEQEND
  5
D8
330
D5
100
AcDbEntity
  8
_U+30EC_U+30A4_U+30E4_U+30FC 1
 62
   179
420
  2234388
370
     9
  0
POLYLINE
  5
D9
330
41
100
AcDbEntity
  8
_U+30EC_U+30A4_U+30E4_U+30FC 1
 62
   179
420
  2234388
370
     9
100
AcDb2dPolyline
 66
     1
 10
0.0
 20
0.0
 30
0.0
  0
VERTEX
  5
DA
330
D9
100
AcDbEntity
  8
_U+30EC_U+30A4_U+30E4_U+30FC 1
 62
   179
420
  2234388
370
     9
100
AcDbVertex
100
AcDb2dVertex
 10
92.51388446703677
 20
-154.3099741280892
 30
0.0
  0
VERTEX
  5
DB
330
D9
100
AcDbEntity
  8
_U+30EC_U+30A4_U+30E4_U+30FC 1
 62
   179
420
  2234388
370
     9
100
AcDbVertex
100
AcDb2dVertex
 10
89.6902864835172
 20
-154.3099741280892
 30
0.0
  0
SEQEND
  5
DC
330
D9
100
AcDbEntity
  8
_U+30EC_U+30A4_U+30E4_U+30FC 1
 62
   179
420
  2234388
370
     9
  0
MTEXT
  5
DD
330
41
100
AcDbEntity
  8
_U+30EC_U+30A4_U+30E4_U+30FC 1
 62
   179
420
  2234388
100
AcDbMText
 10
90.09286294380233
 20
-150.5627298667461
 30
0.0
 40
1.49859999962535
 41
0.0
 46
0.0
 71
     7
 72
     1
  1
\fA-OTF Futo Go B101 Pro|b1|i0|c0|p34;\W1.06875;10
 11
6.123233995736766E-17
 21
1.0
 31
0.0
 73
     1
 44
1.0
  0
ENDBLK
  5
44
330
41
100
AcDbEntity
  8
0
100
AcDbBlockEnd
  0
ENDSEC
  0
SECTION
  2
ENTITIES
  0
INSERT
  5
42
330
1F
100
AcDbEntity
  8
_U+30EC_U+30A4_U+30E4_U+30FC 1
100
AcDbBlockReference
  2
block 2
 10
0.0
 20
0.0
 30
0.0
  0
ENDSEC
  0
SECTION
  2
OBJECTS
  0
DICTIONARY
  5
C
330
0
100
AcDbDictionary
281
     1
  3
ACAD_GROUP
350
D
  3
ACAD_LAYOUT
350
1A
  3
ACAD_MATERIAL
350
3B
  3
ACAD_MLEADERSTYLE
350
DF
  3
ACAD_MLINESTYLE
350
17
  3
ACAD_PLOTSETTINGS
350
19
  3
ACAD_PLOTSTYLENAME
350
E
  3
ACAD_TABLESTYLE
350
DE
  3
ACAD_VISUALSTYLE
350
2A
  0
SUN
  5
3F
330
29
100
AcDbSun
 90
        1
290
     0
 63
     7
421
 16777215
 40
1.0
291
     1
 91
  2455826
 92
 54000000
292
     0
 70
     2
 71
   256
280
     1
  0
DICTIONARY
  5
D
102
{ACAD_REACTORS
330
C
102
}
330
C
100
AcDbDictionary
281
     1
  0
DICTIONARY
  5
1A
102
{ACAD_REACTORS
330
C
102
}
330
C
100
AcDbDictionary
281
     1
  3
Layout1
350
1E
  3
Layout2
350
26
  3
Model
350
22
  0
DICTIONARY
  5
3B
102
{ACAD_REACTORS
330
C
102
}
330
C
100
AcDbDictionary
281
     1
  3
ByBlock
350
3D
  3
ByLayer
350
3C
  3
Global
350
3E
  0
DICTIONARY
  5
DF
102
{ACAD_REACTORS
330
C
102
}
330
C
100
AcDbDictionary
281
     1
  0
DICTIONARY
  5
17
102
{ACAD_REACTORS
330
C
102
}
330
C
100
AcDbDictionary
281
     1
  3
Standard
350
18
  0
DICTIONARY
  5
19
102
{ACAD_REACTORS
330
C
102
}
330
C
100
AcDbDictionary
281
     1
  0
ACDBDICTIONARYWDFLT
  5
E
102
{ACAD_REACTORS
330
C
102
}
330
C
100
AcDbDictionary
281
     1
  3
Normal
350
F
100
AcDbDictionaryWithDefault
340
F
  0
DICTIONARY
  5
DE
102
{ACAD_REACTORS
330
C
102
}
330
C
100
AcDbDictionary
281
     1
  0
DICTIONARY
  5
2A
102
{ACAD_REACTORS
330
C
102
}
330
C
100
AcDbDictionary
281
     1
  3
2dWireframe
350
2F
  3
3D Hidden
350
31
  3
3dWireframe
350
30
  3
Basic
350
32
  3
Brighten
350
36
  3
ColorChange
350
3A
  3
Conceptual
350
34
  3
Dim
350
35
  3
Facepattern
350
39
  3
Flat
350
2B
  3
FlatWithEdges
350
2C
  3
Gouraud
350
2D
  3
GouraudWithEdges
350
2E
  3
Linepattern
350
38
  3
Realistic
350
33
  3
Thicken
350
37
  0
LAYOUT
  5
1E
102
{ACAD_REACTORS
330
1A
102
}
330
1A
100
AcDbPlotSettings
  1

  2
none_device
  4

  6

 40
0.0
 41
0.0
 42
0.0
 43
0.0
 44
0.0
 45
0.0
 46
0.0
 47
0.0
 48
0.0
 49
0.0
140
0.0
141
0.0
142
1.0
143
1.0
 70
   688
 72
     0
 73
     0
 74
     5
  7

 75
    16
 76
     0
 77
     2
 78
   300
147
1.0
148
0.0
149
0.0
100
AcDbLayout
  1
Layout1
 70
     1
 71
     1
 10
0.0
 20
0.0
 11
12.0
 21
9.0
 12
0.0
 22
0.0
 32
0.0
 14
1.000000000000000E+20
 24
1.000000000000000E+20
 34
1.000000000000000E+20
 15
-1.000000000000000E+20
 25
-1.000000000000000E+20
 35
-1.000000000000000E+20
146
0.0
 13
0.0
 23
0.0
 33
0.0
 16
1.0
 26
0.0
 36
0.0
 17
0.0
 27
1.0
 37
0.0
 76
     0
330
1B
  0
LAYOUT
  5
26
102
{ACAD_REACTORS
330
1A
102
}
330
1A
100
AcDbPlotSettings
  1

  2
none_device
  4

  6

 40
0.0
 41
0.0
 42
0.0
 43
0.0
 44
0.0
 45
0.0
 46
0.0
 47
0.0
 48
0.0
 49
0.0
140
0.0
141
0.0
142
1.0
143
1.0
 70
   688
 72
     0
 73
     0
 74
     5
  7

 75
    16
 76
     0
 77
     2
 78
   300
147
1.0
148
0.0
149
0.0
100
AcDbLayout
  1
Layout2
 70
     1
 71
     2
 10
0.0
 20
0.0
 11
0.0
 21
0.0
 12
0.0
 22
0.0
 32
0.0
 14
0.0
 24
0.0
 34
0.0
 15
0.0
 25
0.0
 35
0.0
146
0.0
 13
0.0
 23
0.0
 33
0.0
 16
1.0
 26
0.0
 36
0.0
 17
0.0
 27
1.0
 37
0.0
 76
     0
330
23
  0
LAYOUT
  5
22
102
{ACAD_REACTORS
330
1A
102
}
330
1A
100
AcDbPlotSettings
  1

  2
none_device
  4

  6

 40
0.0
 41
0.0
 42
0.0
 43
0.0
 44
0.0
 45
0.0
 46
0.0
 47
0.0
 48
0.0
 49
0.0
140
0.0
141
0.0
142
1.0
143
1.0
 70
  1712
 72
     0
 73
     0
 74
     0
  7

 75
     0
 76
     0
 77
     2
 78
   300
147
1.0
148
0.0
149
0.0
100
AcDbLayout
  1
Model
 70
     1
 71
     0
 10
0.0
 20
0.0
 11
12.0
 21
9.0
 12
0.0
 22
0.0
 32
0.0
 14
1.000000000000000E+20
 24
1.000000000000000E+20
 34
1.000000000000000E+20
 15
-1.000000000000000E+20
 25
-1.000000000000000E+20
 35
-1.000000000000000E+20
146
0.0
 13
0.0
 23
0.0
 33
0.0
 16
1.0
 26
0.0
 36
0.0
 17
0.0
 27
1.0
 37
0.0
 76
     0
330
1F
331
29
  0
MATERIAL
  5
3D
102
{ACAD_REACTORS
330
3B
102
}
330
3B
100
AcDbMaterial
  1
ByBlock
 72
     1
 94
      127
  0
MATERIAL
  5
3C
102
{ACAD_REACTORS
330
3B
102
}
330
3B
100
AcDbMaterial
  1
ByLayer
 72
     1
 94
      127
  0
MATERIAL
  5
3E
102
{ACAD_REACTORS
330
3B
102
}
330
3B
100
AcDbMaterial
  1
Global
 72
     1
 94
      127
  0
MLINESTYLE
  5
18
102
{ACAD_REACTORS
330
17
102
}
330
17
100
AcDbMlineStyle
  2
Standard
 70
     0
  3

 62
   256
 51
90.0
 52
90.0
 71
     2
 49
0.5
 62
   256
  6
BYLAYER
 49
-0.5
 62
   256
  6
BYLAYER
  0
ACDBPLACEHOLDER
  5
F
102
{ACAD_REACTORS
330
E
102
}
330
E
  0
VISUALSTYLE
  5
2F
102
{ACAD_REACTORS
330
2A
102
}
330
2A
100
AcDbVisualStyle
  2
2dWireframe
 70
     4
177
     2
291
     0
 71
     0
176
     1
 72
     2
176
     1
 73
     0
176
     1
 90
        0
176
     1
 40
-0.6
176
     1
 41
-30.0
176
     1
 62
     5
 63
     7
421
 16777215
176
     1
 74
     1
176
     1
 91
        4
176
     1
 64
     7
176
     1
 65
   257
176
     1
 75
     1
176
     1
175
     1
176
     1
 42
1.0
176
     1
 92
        0
176
     1
 66
   257
176
     1
 43
1.0
176
     1
 76
     1
176
     1
 77
     6
176
     1
 78
     2
176
     1
 67
     7
176
     1
 79
     5
176
     1
170
     0
176
     1
171
     0
176
     1
290
     0
176
     1
 93
        1
176
     1
 44
0.0
176
     1
173
     0
176
     1
  0
VISUALSTYLE
  5
31
102
{ACAD_REACTORS
330
2A
102
}
330
2A
100
AcDbVisualStyle
  2
3D Hidden
 70
     6
177
     2
291
     0
 71
     1
176
     1
 72
     2
176
     1
 73
     2
176
     1
 90
        0
176
     1
 40
-0.6
176
     1
 41
-30.0
176
     1
 62
     5
 63
     7
421
 16777215
176
     1
 74
     2
176
     1
 91
        2
176
     1
 64
     7
176
     1
 65
   257
176
     1
 75
     2
176
     1
175
     1
176
     1
 42
40.0
176
     1
 92
        0
176
     1
 66
   257
176
     1
 43
1.0
176
     1
 76
     1
176
     1
 77
     6
176
     1
 78
     2
176
     1
 67
     7
176
     1
 79
     3
176
     1
170
     0
176
     1
171
     0
176
     1
290
     0
176
     1
 93
        1
176
     1
 44
0.0
176
     1
173
     0
176
     1
  0
VISUALSTYLE
  5
30
102
{ACAD_REACTORS
330
2A
102
}
330
2A
100
AcDbVisualStyle
  2
3dWireframe
 70
     5
177
     2
291
     0
 71
     0
176
     1
 72
     2
176
     1
 73
     0
176
     1
 90
        0
176
     1
 40
-0.6
176
     1
 41
-30.0
176
     1
 62
     5
 63
     7
421
 16777215
176
     1
 74
     1
176
     1
 91
        4
176
     1
 64
     7
176
     1
 65
   257
176
     1
 75
     1
176
     1
175
     1
176
     1
 42
1.0
176
     1
 92
        0
176
     1
 66
   257
176
     1
 43
1.0
176
     1
 76
     1
176
     1
 77
     6
176
     1
 78
     2
176
     1
 67
     7
176
     1
 79
     5
176
     1
170
     0
176
     1
171
     0
176
     1
290
     0
176
     1
 93
        1
176
     1
 44
0.0
176
     1
173
     0
176
     1
  0
VISUALSTYLE
  5
32
102
{ACAD_REACTORS
330
2A
102
}
330
2A
100
AcDbVisualStyle
  2
Basic
 70
     7
177
     2
291
     1
 71
     1
176
     1
 72
     0
176
     1
 73
     1
176
     1
 90
        0
176
     1
 40
-0.6
176
     1
 41
-30.0
176
     1
 62
     5
 63
     7
421
 16777215
176
     1
 74
     0
176
     1
 91
        4
176
     1
 64
     7
176
     1
 65
   257
176
     1
 75
     1
176
     1
175
     1
176
     1
 42
1.0
176
     1
 92
        8
176
     1
 66
     7
176
     1
 43
1.0
176
     1
 76
     1
176
     1
 77
     6
176
     1
 78
     2
176
     1
 67
     7
176
     1
 79
     5
176
     1
170
     0
176
     1
171
     0
176
     1
290
     0
176
     1
 93
        1
176
     1
 44
0.0
176
     1
173
     0
176
     1
  0
VISUALSTYLE
  5
36
102
{ACAD_REACTORS
330
2A
102
}
330
2A
100
AcDbVisualStyle
  2
Brighten
 70
    12
177
     2
291
     1
 71
     2
176
     1
 72
     2
176
     1
 73
     0
176
     1
 90
        0
176
     1
 40
-0.6
176
     1
 41
-30.0
176
     1
 62
     5
 63
     7
421
 16777215
176
     1
 74
     1
176
     1
 91
        4
176
     1
 64
     7
176
     1
 65
   257
176
     1
 75
     1
176
     1
175
     1
176
     1
 42
1.0
176
     1
 92
        8
176
     1
 66
     7
176
     1
 43
1.0
176
     1
 76
     1
176
     1
 77
     6
176
     1
 78
     2
176
     1
 67
     7
176
     1
 79
     5
176
     1
170
     0
176
     1
171
     0
176
     1
290
     0
176
     1
 93
        1
176
     1
 44
50.0
176
     1
173
     0
176
     1
  0
VISUALSTYLE
  5
3A
102
{ACAD_REACTORS
330
2A
102
}
330
2A
100
AcDbVisualStyle
  2
ColorChange
 70
    16
177
     2
291
     1
 71
     2
176
     1
 72
     2
176
     1
 73
     3
176
     1
 90
        0
176
     1
 40
-0.6
176
     1
 41
-30.0
176
     1
 62
     5
 63
     8
421
  8421504
176
     1
 74
     1
176
     1
 91
        4
176
     1
 64
     7
176
     1
 65
   257
176
     1
 75
     1
176
     1
175
     1
176
     1
 42
1.0
176
     1
 92
        8
176
     1
 66
     8
424
  8421504
176
     1
 43
1.0
176
     1
 76
     1
176
     1
 77
     6
176
     1
 78
     2
176
     1
 67
     7
176
     1
 79
     5
176
     1
170
     0
176
     1
171
     0
176
     1
290
     0
176
     1
 93
        1
176
     1
 44
0.0
176
     1
173
     0
176
     1
  0
VISUALSTYLE
  5
34
102
{ACAD_REACTORS
330
2A
102
}
330
2A
100
AcDbVisualStyle
  2
Conceptual
 70
     9
177
     2
291
     0
 71
     3
176
     1
 72
     2
176
     1
 73
     0
176
     1
 90
        0
176
     1
 40
-0.6
176
     1
 41
-30.0
176
     1
 62
     5
 63
     7
421
 16777215
176
     1
 74
     2
176
     1
 91
        2
176
     1
 64
     7
176
     1
 65
   257
176
     1
 75
     1
176
     1
175
     1
176
     1
 42
40.0
176
     1
 92
        8
176
     1
 66
     7
176
     1
 43
1.0
176
     1
 76
     1
176
     1
 77
     6
176
     1
 78
     2
176
     1
 67
     7
176
     1
 79
     3
176
     1
170
     0
176
     1
171
     0
176
     1
290
     0
176
     1
 93
        1
176
     1
 44
0.0
176
     1
173
     0
176
     1
  0
VISUALSTYLE
  5
35
102
{ACAD_REACTORS
330
2A
102
}
330
2A
100
AcDbVisualStyle
  2
Dim
 70
    11
177
     2
291
     1
 71
     2
176
     1
 72
     2
176
     1
 73
     0
176
     1
 90
        0
176
     1
 40
-0.6
176
     1
 41
-30.0
176
     1
 62
     5
 63
     7
421
 16777215
176
     1
 74
     1
176
     1
 91
        4
176
     1
 64
     7
176
     1
 65
   257
176
     1
 75
     1
176
     1
175
     1
176
     1
 42
1.0
176
     1
 92
        8
176
     1
 66
     7
176
     1
 43
1.0
176
     1
 76
     1
176
     1
 77
     6
176
     1
 78
     2
176
     1
 67
     7
176
     1
 79
     5
176
     1
170
     0
176
     1
171
     0
176
     1
290
     0
176
     1
 93
        1
176
     1
 44
-50.0
176
     1
173
     0
176
     1
  0
VISUALSTYLE
  5
39
102
{ACAD_REACTORS
330
2A
102
}
330
2A
100
AcDbVisualStyle
  2
Facepattern
 70
    15
177
     2
291
     1
 71
     2
176
     1
 72
     2
176
     1
 73
     0
176
     1
 90
        0
176
     1
 40
-0.6
176
     1
 41
-30.0
176
     1
 62
     5
 63
     7
421
 16777215
176
     1
 74
     1
176
     1
 91
        4
176
     1
 64
     7
176
     1
 65
   257
176
     1
 75
     1
176
     1
175
     1
176
     1
 42
1.0
176
     1
 92
        8
176
     1
 66
     7
176
     1
 43
1.0
176
     1
 76
     1
176
     1
 77
     6
176
     1
 78
     2
176
     1
 67
     7
176
     1
 79
     5
176
     1
170
     0
176
     1
171
     0
176
     1
290
     0
176
     1
 93
        1
176
     1
 44
0.0
176
     1
173
     0
176
     1
  0
VISUALSTYLE
  5
2B
102
{ACAD_REACTORS
330
2A
102
}
330
2A
100
AcDbVisualStyle
  2
Flat
 70
     0
177
     2
291
     1
 71
     2
176
     1
 72
     1
176
     1
 73
     1
176
     1
 90
        2
176
     1
 40
-0.6
176
     1
 41
30.0
176
     1
 62
     5
 63
     7
421
 16777215
176
     1
 74
     0
176
     1
 91
        4
176
     1
 64
     7
176
     1
 65
   257
176
     1
 75
     1
176
     1
175
     1
176
     1
 42
1.0
176
     1
 92
        8
176
     1
 66
     7
176
     1
 43
1.0
176
     1
 76
     1
176
     1
 77
     6
176
     1
 78
     2
176
     1
 67
     7
176
     1
 79
     5
176
     1
170
     0
176
     1
171
     0
176
     1
290
     0
176
     1
 93
       13
176
     1
 44
0.0
176
     1
173
     0
176
     1
  0
VISUALSTYLE
  5
2C
102
{ACAD_REACTORS
330
2A
102
}
330
2A
100
AcDbVisualStyle
  2
FlatWithEdges
 70
     1
177
     2
291
     1
 71
     2
176
     1
 72
     1
176
     1
 73
     1
176
     1
 90
        2
176
     1
 40
-0.6
176
     1
 41
30.0
176
     1
 62
     5
 63
     7
421
 16777215
176
     1
 74
     1
176
     1
 91
        4
176
     1
 64
     7
176
     1
 65
   257
176
     1
 75
     1
176
     1
175
     1
176
     1
 42
1.0
176
     1
 92
        0
176
     1
 66
   257
176
     1
 43
1.0
176
     1
 76
     1
176
     1
 77
     6
176
     1
 78
     2
176
     1
 67
     7
176
     1
 79
     5
176
     1
170
     0
176
     1
171
     0
176
     1
290
     0
176
     1
 93
       13
176
     1
 44
0.0
176
     1
173
     0
176
     1
  0
VISUALSTYLE
  5
2D
102
{ACAD_REACTORS
330
2A
102
}
330
2A
100
AcDbVisualStyle
  2
Gouraud
 70
     2
177
     2
291
     1
 71
     2
176
     1
 72
     2
176
     1
 73
     1
176
     1
 90
        2
176
     1
 40
-0.6
176
     1
 41
30.0
176
     1
 62
     5
 63
     7
421
 16777215
176
     1
 74
     0
176
     1
 91
        4
176
     1
 64
     7
176
     1
 65
   257
176
     1
 75
     1
176
     1
175
     1
176
     1
 42
1.0
176
     1
 92
        0
176
     1
 66
     7
176
     1
 43
1.0
176
     1
 76
     1
176
     1
 77
     6
176
     1
 78
     2
176
     1
 67
     7
176
     1
 79
     5
176
     1
170
     0
176
     1
171
     0
176
     1
290
     0
176
     1
 93
       13
176
     1
 44
0.0
176
     1
173
     0
176
     1
  0
VISUALSTYLE
  5
2E
102
{ACAD_REACTORS
330
2A
102
}
330
2A
100
AcDbVisualStyle
  2
GouraudWithEdges
 70
     3
177
     2
291
     1
 71
     2
176
     1
 72
     2
176
     1
 73
     1
176
     1
 90
        2
176
     1
 40
-0.6
176
     1
 41
30.0
176
     1
 62
     5
 63
     7
421
 16777215
176
     1
 74
     1
176
     1
 91
        4
176
     1
 64
     7
176
     1
 65
   257
176
     1
 75
     1
176
     1
175
     1
176
     1
 42
1.0
176
     1
 92
        0
176
     1
 66
   257
176
     1
 43
1.0
176
     1
 76
     1
176
     1
 77
     6
176
     1
 78
     2
176
     1
 67
     7
176
     1
 79
     5
176
     1
170
     0
176
     1
171
     0
176
     1
290
     0
176
     1
 93
       13
176
     1
 44
0.0
176
     1
173
     0
176
     1
  0
VISUALSTYLE
  5
38
102
{ACAD_REACTORS
330
2A
102
}
330
2A
100
AcDbVisualStyle
  2
Linepattern
 70
    14
177
     2
291
     1
 71
     2
176
     1
 72
     2
176
     1
 73
     0
176
     1
 90
        0
176
     1
 40
-0.6
176
     1
 41
-30.0
176
     1
 62
     5
 63
     7
421
 16777215
176
     1
 74
     1
176
     1
 91
        4
176
     1
 64
     7
176
     1
 65
   257
176
     1
 75
     7
176
     1
175
     7
176
     1
 42
1.0
176
     1
 92
        8
176
     1
 66
     7
176
     1
 43
1.0
176
     1
 76
     1
176
     1
 77
     6
176
     1
 78
     2
176
     1
 67
     7
176
     1
 79
     5
176
     1
170
     0
176
     1
171
     0
176
     1
290
     0
176
     1
 93
        1
176
     1
 44
0.0
176
     1
173
     0
176
     1
  0
VISUALSTYLE
  5
33
102
{ACAD_REACTORS
330
2A
102
}
330
2A
100
AcDbVisualStyle
  2
Realistic
 70
     8
177
     2
291
     0
 71
     2
176
     1
 72
     2
176
     1
 73
     0
176
     1
 90
        0
176
     1
 40
-0.6
176
     1
 41
-30.0
176
     1
 62
     5
 63
     7
421
 16777215
176
     1
 74
     1
176
     1
 91
        0
176
     1
 64
     7
176
     1
 65
   257
176
     1
 75
     1
176
     1
175
     1
176
     1
 42
1.0
176
     1
 92
        8
176
     1
 66
     8
424
  7895160
176
     1
 43
1.0
176
     1
 76
     1
176
     1
 77
     6
176
     1
 78
     2
176
     1
 67
     7
176
     1
 79
     5
176
     1
170
     0
176
     1
171
     0
176
     1
290
     0
176
     1
 93
       13
176
     1
 44
0.0
176
     1
173
     0
176
     1
  0
VISUALSTYLE
  5
37
102
{ACAD_REACTORS
330
2A
102
}
330
2A
100
AcDbVisualStyle
  2
Thicken
 70
    13
177
     2
291
     1
 71
     2
176
     1
 72
     2
176
     1
 73
     0
176
     1
 90
        0
176
     1
 40
-0.6
176
     1
 41
-30.0
176
     1
 62
     5
 63
     7
421
 16777215
176
     1
 74
     1
176
     1
 91
        4
176
     1
 64
     7
176
     1
 65
   257
176
     1
 75
     1
176
     1
175
     1
176
     1
 42
1.0
176
     1
 92
       12
176
     1
 66
     7
176
     1
 43
1.0
176
     1
 76
     1
176
     1
 77
     6
176
     1
 78
     2
176
     1
 67
     7
176
     1
 79
     5
176
     1
170
     0
176
     1
171
     0
176
     1
290
     0
176
     1
 93
        1
176
     1
 44
0.0
176
     1
173
     0
176
     1
  0
ENDSEC
  0
EOF
