  0
SECTION
  2
HEADER
  9
$ACADVER
  1
AC1024
  9
$ACADMAINTVER
 70
     6
  9
$DWGCODEPAGE
  3
UNDEFINED
  9
$INSBASE
 10
0.0
 20
0.0
 30
0.0
  9
$EXTMIN
 10
1.000000000000000E+20
 20
1.000000000000000E+20
 30
1.000000000000000E+20
  9
$EXTMAX
 10
-1.000000000000000E+20
 20
-1.000000000000000E+20
 30
-1.000000000000000E+20
  9
$LIMMIN
 10
0.0
 20
0.0
  9
$LIMMAX
 10
12.0
 20
9.0
  9
$ORTHOMODE
 70
     0
  9
$REGENMODE
 70
     1
  9
$FILLMODE
 70
     1
  9
$QTEXTMODE
 70
     0
  9
$MIRRTEXT
 70
     1
  9
$LTSCALE
 40
1.0
  9
$ATTMODE
 70
     1
  9
$TEXTSIZE
 40
0.2
  9
$TRACEWID
 40
0.05
  9
$TEXTSTYLE
  7
Standard
  9
$CLAYER
  8
0
  9
$CELTYPE
  6
ByLayer
  9
$CECOLOR
 62
   256
  9
$CELTSCALE
 40
1.0
  9
$DISPSILH
 70
     0
  9
$DIMSCALE
 40
1.0
  9
$DIMASZ
 40
0.18
  9
$DIMEXO
 40
0.0625
  9
$DIMDLI
 40
0.38
  9
$DIMRND
 40
0.0
  9
$DIMDLE
 40
0.0
  9
$DIMEXE
 40
0.18
  9
$DIMTP
 40
0.0
  9
$DIMTM
 40
0.0
  9
$DIMTXT
 40
0.18
  9
$DIMCEN
 40
0.09
  9
$DIMTSZ
 40
0.0
  9
$DIMTOL
 70
     0
  9
$DIMLIM
 70
     0
  9
$DIMTIH
 70
     1
  9
$DIMTOH
 70
     1
  9
$DIMSE1
 70
     0
  9
$DIMSE2
 70
     0
  9
$DIMTAD
 70
     0
  9
$DIMZIN
 70
     0
  9
$DIMBLK
  1

  9
$DIMASO
 70
     1
  9
$DIMSHO
 70
     1
  9
$DIMPOST
  1

  9
$DIMAPOST
  1

  9
$DIMALT
 70
     0
  9
$DIMALTD
 70
     2
  9
$DIMALTF
 40
25.4
  9
$DIMLFAC
 40
1.0
  9
$DIMTOFL
 70
     0
  9
$DIMTVP
 40
0.0
  9
$DIMTIX
 70
     0
  9
$DIMSOXD
 70
     0
  9
$DIMSAH
 70
     0
  9
$DIMBLK1
  1

  9
$DIMBLK2
  1

  9
$DIMSTYLE
  2
Standard
  9
$DIMCLRD
 70
     0
  9
$DIMCLRE
 70
     0
  9
$DIMCLRT
 70
     0
  9
$DIMTFAC
 40
1.0
  9
$DIMGAP
 40
0.09
  9
$DIMJUST
 70
     0
  9
$DIMSD1
 70
     0
  9
$DIMSD2
 70
     0
  9
$DIMTOLJ
 70
     1
  9
$DIMTZIN
 70
     0
  9
$DIMALTZ
 70
     0
  9
$DIMALTTZ
 70
     0
  9
$DIMUPT
 70
     0
  9
$DIMDEC
 70
     4
  9
$DIMTDEC
 70
     4
  9
$DIMALTU
 70
     2
  9
$DIMALTTD
 70
     2
  9
$DIMTXSTY
  7
Standard
  9
$DIMAUNIT
 70
     0
  9
$DIMADEC
 70
     0
  9
$DIMALTRND
 40
0.0
  9
$DIMAZIN
 70
     0
  9
$DIMDSEP
 70
    46
  9
$DIMATFIT
 70
     3
  9
$DIMFRAC
 70
     0
  9
$DIMLDRBLK
  1

  9
$DIMLUNIT
 70
     2
  9
$DIMLWD
 70
    -2
  9
$DIMLWE
 70
    -2
  9
$DIMTMOVE
 70
     0
  9
$DIMFXL
 40
1.0
  9
$DIMFXLON
 70
     0
  9
$DIMJOGANG
 40
0.7853981633974483
  9
$DIMTFILL
 70
     0
  9
$DIMTFILLCLR
 70
     0
  9
$DIMARCSYM
 70
     0
  9
$DIMLTYPE
  6

  9
$DIMLTEX1
  6

  9
$DIMLTEX2
  6

  9
$DIMTXTDIRECTION
 70
     0
  9
$LUNITS
 70
     2
  9
$LUPREC
 70
     4
  9
$SKETCHINC
 40
0.1
  9
$FILLETRAD
 40
0.5
  9
$AUNITS
 70
     0
  9
$AUPREC
 70
     0
  9
$MENU
  1
.
  9
$ELEVATION
 40
0.0
  9
$PELEVATION
 40
0.0
  9
$THICKNESS
 40
0.0
  9
$LIMCHECK
 70
     0
  9
$CHAMFERA
 40
0.5
  9
$CHAMFERB
 40
0.5
  9
$CHAMFERC
 40
1.0
  9
$CHAMFERD
 40
0.0
  9
$SKPOLY
 70
     0
  9
$TDCREATE
 40
2457917.594039341
  9
$TDUCREATE
 40
2457917.219039352
  9
$TDUPDATE
 40
2457917.594039341
  9
$TDUUPDATE
 40
2457917.219039352
  9
$TDINDWG
 40
0.0000000116
  9
$TDUSRTIMER
 40
0.0000000116
  9
$USRTIMER
 70
     1
  9
$ANGBASE
 50
0.0
  9
$ANGDIR
 70
     0
  9
$PDMODE
 70
     0
  9
$PDSIZE
 40
0.0
  9
$PLINEWID
 40
0.0
  9
$SPLFRAME
 70
     0
  9
$SPLINETYPE
 70
     6
  9
$SPLINESEGS
 70
     8
  9
$HANDSEED
  5
100
  9
$SURFTAB1
 70
     6
  9
$SURFTAB2
 70
     6
  9
$SURFTYPE
 70
     6
  9
$SURFU
 70
     6
  9
$SURFV
 70
     6
  9
$UCSBASE
  2

  9
$UCSNAME
  2

  9
$UCSORG
 10
0.0
 20
0.0
 30
0.0
  9
$UCSXDIR
 10
1.0
 20
0.0
 30
0.0
  9
$UCSYDIR
 10
0.0
 20
1.0
 30
0.0
  9
$UCSORTHOREF
  2

  9
$UCSORTHOVIEW
 70
     0
  9
$UCSORGTOP
 10
0.0
 20
0.0
 30
0.0
  9
$UCSORGBOTTOM
 10
0.0
 20
0.0
 30
0.0
  9
$UCSORGLEFT
 10
0.0
 20
0.0
 30
0.0
  9
$UCSORGRIGHT
 10
0.0
 20
0.0
 30
0.0
  9
$UCSORGFRONT
 10
0.0
 20
0.0
 30
0.0
  9
$UCSORGBACK
 10
0.0
 20
0.0
 30
0.0
  9
$PUCSBASE
  2

  9
$PUCSNAME
  2

  9
$PUCSORG
 10
0.0
 20
0.0
 30
0.0
  9
$PUCSXDIR
 10
1.0
 20
0.0
 30
0.0
  9
$PUCSYDIR
 10
0.0
 20
1.0
 30
0.0
  9
$PUCSORTHOREF
  2

  9
$PUCSORTHOVIEW
 70
     0
  9
$PUCSORGTOP
 10
0.0
 20
0.0
 30
0.0
  9
$PUCSORGBOTTOM
 10
0.0
 20
0.0
 30
0.0
  9
$PUCSORGLEFT
 10
0.0
 20
0.0
 30
0.0
  9
$PUCSORGRIGHT
 10
0.0
 20
0.0
 30
0.0
  9
$PUCSORGFRONT
 10
0.0
 20
0.0
 30
0.0
  9
$PUCSORGBACK
 10
0.0
 20
0.0
 30
0.0
  9
$USERI1
 70
     0
  9
$USERI2
 70
     0
  9
$USERI3
 70
     0
  9
$USERI4
 70
     0
  9
$USERI5
 70
     0
  9
$USERR1
 40
0.0
  9
$USERR2
 40
0.0
  9
$USERR3
 40
0.0
  9
$USERR4
 40
0.0
  9
$USERR5
 40
0.0
  9
$WORLDVIEW
 70
     1
  9
$SHADEDGE
 70
     3
  9
$SHADEDIF
 70
    70
  9
$TILEMODE
 70
     1
  9
$MAXACTVP
 70
    64
  9
$PINSBASE
 10
0.0
 20
0.0
 30
0.0
  9
$PLIMCHECK
 70
     0
  9
$PEXTMIN
 10
1.000000000000000E+20
 20
1.000000000000000E+20
 30
1.000000000000000E+20
  9
$PEXTMAX
 10
-1.000000000000000E+20
 20
-1.000000000000000E+20
 30
-1.000000000000000E+20
  9
$PLIMMIN
 10
0.0
 20
0.0
  9
$PLIMMAX
 10
12.0
 20
9.0
  9
$UNITMODE
 70
     0
  9
$VISRETAIN
 70
     1
  9
$PLINEGEN
 70
     0
  9
$PSLTSCALE
 70
     1
  9
$TREEDEPTH
 70
  3020
  9
$CMLSTYLE
  2
Standard
  9
$CMLJUST
 70
     0
  9
$CMLSCALE
 40
1.0
  9
$PROXYGRAPHICS
 70
     1
  9
$MEASUREMENT
 70
     0
  9
$CELWEIGHT
370
    -1
  9
$ENDCAPS
280
     0
  9
$JOINSTYLE
280
     0
  9
$LWDISPLAY
290
     1
  9
$INSUNITS
 70
     1
  9
$HYPERLINKBASE
  1

  9
$STYLESHEET
  1

  9
$XEDIT
290
     1
  9
$CEPSNTYPE
380
     0
  9
$PSTYLEMODE
290
     1
  9
$FINGERPRINTGUID
  2
{B3914998-F1E1-C1E9-5885-A2D42461FA03}
  9
$VERSIONGUID
  2
{FAEB1C32-E019-11D5-929B-00C0DF256EC4}
  9
$EXTNAMES
290
     1
  9
$PSVPSCALE
 40
0.0
  9
$OLESTARTUP
290
     0
  9
$SORTENTS
280
   127
  9
$INDEXCTL
280
     0
  9
$HIDETEXT
280
     1
  9
$XCLIPFRAME
280
     2
  9
$HALOGAP
280
     0
  9
$OBSCOLOR
 70
   257
  9
$OBSLTYPE
280
     0
  9
$INTERSECTIONDISPLAY
280
     0
  9
$INTERSECTIONCOLOR
 70
   257
  9
$DIMASSOC
280
     2
  9
$PROJECTNAME
  1

  9
$CAMERADISPLAY
290
     0
  9
$LENSLENGTH
 40
50.0
  9
$CAMERAHEIGHT
 40
0.0
  9
$STEPSPERSEC
 40
2.0
  9
$STEPSIZE
 40
6.0
  9
$3DDWFPREC
 40
2.0
  9
$PSOLWIDTH
 40
0.25
  9
$PSOLHEIGHT
 40
4.0
  9
$LOFTANG1
 40
1.570796326794897
  9
$LOFTANG2
 40
1.570796326794897
  9
$LOFTMAG1
 40
0.0
  9
$LOFTMAG2
 40
0.0
  9
$LOFTPARAM
 70
     7
  9
$LOFTNORMALS
280
     1
  9
$LATITUDE
 40
37.795
  9
$LONGITUDE
 40
-122.394
  9
$NORTHDIRECTION
 40
0.0
  9
$TIMEZONE
 70
 -8000
  9
$LIGHTGLYPHDISPLAY
280
     1
  9
$TILEMODELIGHTSYNCH
280
     1
  9
$CMATERIAL
347
3C
  9
$SOLIDHIST
280
     1
  9
$SHOWHIST
280
     1
  9
$DWFFRAME
280
     2
  9
$DGNFRAME
280
     2
  9
$REALWORLDSCALE
290
     1
  9
$INTERFERECOLOR
 62
   256
  9
$CSHADOW
280
     0
  9
$SHADOWPLANELOCATION
 40
0.0
  0
ENDSEC
  0
SECTION
  2
CLASSES
  0
CLASS
  1
ACDBDICTIONARYWDFLT
  2
AcDbDictionaryWithDefault
  3
ObjectDBX Classes
 90
        0
 91
        4
280
     0
281
     0
  0
CLASS
  1
VISUALSTYLE
  2
AcDbVisualStyle
  3
ObjectDBX Classes
 90
     4095
 91
        4
280
     0
281
     0
  0
CLASS
  1
MATERIAL
  2
AcDbMaterial
  3
ObjectDBX Classes
 90
     1153
 91
        4
280
     0
281
     0
  0
CLASS
  1
SUN
  2
AcDbSun
  3
SCENEOE
 90
     1024
 91
        4
280
     0
281
     0
  0
ENDSEC
  0
SECTION
  2
TABLES
  0
TABLE
  2
VPORT
  5
8
330
0
100
AcDbSymbolTable
 70
     1
  0
VPORT
  5
29
330
8
100
AcDbSymbolTableRecord
100
AcDbViewportTableRecord
  2
*Active
 70
     0
 10
0.0
 20
0.0
 11
1.0
 21
1.0
 12
0.0
 22
0.0
 13
0.0
 23
0.0
 14
0.5
 24
0.5
 15
0.5
 25
0.5
 16
0.0
 26
0.0
 36
1.0
 17
91.00082462281999
 27
-128.4993055234307
 37
0.0
 40
256.9986110468615
 41
0.7081814508812795
 42
50.0
 43
0.0
 44
0.0
 50
0.0
 51
0.0
 71
     0
 72
   100
 73
     1
 74
     3
 75
     0
 76
     0
 77
     0
 78
     0
281
     0
 65
     1
110
0.0
120
0.0
130
0.0
111
1.0
121
0.0
131
0.0
112
0.0
122
1.0
132
0.0
 79
     0
146
0.0
 60
     3
 61
     5
292
     1
282
     1
141
0.0
142
0.0
 63
   250
361
3F
  0
ENDTAB
  0
TABLE
  2
LTYPE
  5
5
330
0
100
AcDbSymbolTable
 70
     1
  0
LTYPE
  5
14
330
5
100
AcDbSymbolTableRecord
100
AcDbLinetypeTableRecord
  2
ByBlock
 70
     0
  3

 72
    65
 73
     0
 40
0.0
  0
LTYPE
  5
15
330
5
100
AcDbSymbolTableRecord
100
AcDbLinetypeTableRecord
  2
ByLayer
 70
     0
  3

 72
    65
 73
     0
 40
0.0
  0
LTYPE
  5
16
330
5
100
AcDbSymbolTableRecord
100
AcDbLinetypeTableRecord
  2
Continuous
 70
     0
  3
Solid line
 72
    65
 73
     0
 40
0.0
  0
ENDTAB
  0
TABLE
  2
LAYER
  5
2
330
0
100
AcDbSymbolTable
 70
     2
  0
LAYER
  5
10
330
2
100
AcDbSymbolTableRecord
100
AcDbLayerTableRecord
  2
0
 70
     0
 62
     7
  6
Continuous
370
    -3
390
F
347
3E
  0
LAYER
  5
40
330
2
100
AcDbSymbolTableRecord
100
AcDbLayerTableRecord
  2
_U+30EC_U+30A4_U+30E4_U+30FC 1
 70
     0
 62
     7
  6
Continuous
370
    -3
390
F
347
3E
  0
ENDTAB
  0
TABLE
  2
STYLE
  5
3
330
0
100
AcDbSymbolTable
 70
     1
  0
STYLE
  5
11
330
3
100
AcDbSymbolTableRecord
100
AcDbTextStyleTableRecord
  2
Standard
 70
     0
 40
0.0
 41
1.0
 50
0.0
 71
     0
 42
0.2
  3
txt
  4

  0
ENDTAB
  0
TABLE
  2
VIEW
  5
6
330
0
100
AcDbSymbolTable
 70
     0
  0
ENDTAB
  0
TABLE
  2
UCS
  5
7
330
0
100
AcDbSymbolTable
 70
     0
  0
ENDTAB
  0
TABLE
  2
APPID
  5
9
330
0
100
AcDbSymbolTable
 70
     1
  0
APPID
  5
12
330
9
100
AcDbSymbolTableRecord
100
AcDbRegAppTableRecord
  2
ACAD
 70
     0
  0
ENDTAB
  0
TABLE
  2
DIMSTYLE
  5
A
330
0
100
AcDbSymbolTable
 70
     1
100
AcDbDimStyleTable
  0
DIMSTYLE
105
27
330
A
100
AcDbSymbolTableRecord
100
AcDbDimStyleTableRecord
  2
Standard
 70
     0
178
     0
340
11
  0
ENDTAB
  0
TABLE
  2
BLOCK_RECORD
  5
1
330
0
100
AcDbSymbolTable
 70
     7
  0
BLOCK_RECORD
  5
1F
330
1
100
AcDbSymbolTableRecord
100
AcDbBlockTableRecord
  2
*Model_Space
340
22
 70
     0
280
     1
281
     0
  0
BLOCK_RECORD
  5
1B
330
1
100
AcDbSymbolTableRecord
100
AcDbBlockTableRecord
  2
*Paper_Space
340
1E
 70
     0
280
     1
281
     0
  0
BLOCK_RECORD
  5
23
330
1
100
AcDbSymbolTableRecord
100
AcDbBlockTableRecord
  2
*Paper_Space0
340
26
 70
     0
280
     1
281
     0
  0
BLOCK_RECORD
  5
81
330
1
100
AcDbSymbolTableRecord
100
AcDbBlockTableRecord
  2
block 2
340
0
102
{BLKREFS
331
82
102
}
 70
     0
280
     1
281
     0
  0
BLOCK_RECORD
  5
95
330
1
100
AcDbSymbolTableRecord
100
AcDbBlockTableRecord
  2
block 3
340
0
102
{BLKREFS
331
96
102
}
 70
     0
280
     1
281
     0
  0
BLOCK_RECORD
  5
AF
330
1
100
AcDbSymbolTableRecord
100
AcDbBlockTableRecord
  2
block 4
340
0
102
{BLKREFS
331
B0
102
}
 70
     0
280
     1
281
     0
  0
BLOCK_RECORD
  5
C8
330
1
100
AcDbSymbolTableRecord
100
AcDbBlockTableRecord
  2
block 5
340
0
102
{BLKREFS
331
C9
102
}
 70
     0
280
     1
281
     0
  0
BLOCK_RECORD
  5
DA
330
1
100
AcDbSymbolTableRecord
100
AcDbBlockTableRecord
  2
block 6
340
0
102
{BLKREFS
331
DB
102
}
 70
     0
280
     1
281
     0
  0
BLOCK_RECORD
  5
EC
330
1
100
AcDbSymbolTableRecord
100
AcDbBlockTableRecord
  2
block 7
340
0
102
{BLKREFS
331
ED
102
}
 70
     0
280
     1
281
     0
  0
ENDTAB
  0
ENDSEC
  0
SECTION
  2
BLOCKS
  0
BLOCK
  5
20
330
1F
100
AcDbEntity
  8
0
100
AcDbBlockBegin
  2
*Model_Space
 70
     0
 10
0.0
 20
0.0
 30
0.0
  3
*Model_Space
  1

  0
ENDBLK
  5
21
330
1F
100
AcDbEntity
  8
0
100
AcDbBlockEnd
  0
BLOCK
  5
1C
330
1B
100
AcDbEntity
 67
     1
  8
0
100
AcDbBlockBegin
  2
*Paper_Space
 70
     0
 10
0.0
 20
0.0
 30
0.0
  3
*Paper_Space
  1

  0
ENDBLK
  5
1D
330
1B
100
AcDbEntity
 67
     1
  8
0
100
AcDbBlockEnd
  0
BLOCK
  5
24
330
23
100
AcDbEntity
  8
0
100
AcDbBlockBegin
  2
*Paper_Space0
 70
     0
 10
0.0
 20
0.0
 30
0.0
  3
*Paper_Space0
  1

  0
ENDBLK
  5
25
330
23
100
AcDbEntity
  8
0
100
AcDbBlockEnd
  0
BLOCK
  5
83
330
81
100
AcDbEntity
  8
0
100
AcDbBlockBegin
  2
block 2
 70
     0
 10
0.0
 20
0.0
 30
0.0
  3
block 2
  1

  0
SPLINE
  5
85
330
81
100
AcDbEntity
  8
_U+30EC_U+30A4_U+30E4_U+30FC 1
370
     0
100
AcDbSpline
210
0.0
220
0.0
230
1.0
 70
    11
 71
     3
 72
    29
 73
    25
 74
     0
 42
0.0000000001
 43
0.0000000001
 12
1.0
 22
0.0
 32
0.0
 13
1.0
 23
0.0
 33
0.0
 40
0.0
 40
0.0
 40
0.0
 40
0.0
 40
1.0
 40
1.0
 40
1.0
 40
2.0
 40
2.0
 40
2.0
 40
3.0
 40
3.0
 40
3.0
 40
4.0
 40
4.0
 40
4.0
 40
5.0
 40
5.0
 40
5.0
 40
6.0
 40
6.0
 40
6.0
 40
7.0
 40
7.0
 40
7.0
 40
8.0
 40
8.0
 40
8.0
 40
8.0
 10
85.90569523677011
 20
-116.1355468459661
 30
0.0
 10
85.63921710098603
 20
-116.1355468459661
 30
0.0
 10
85.38531356372312
 20
-115.9979152813304
 30
0.0
 10
85.38531356372312
 20
-115.6489271086746
 30
0.0
 10
85.38531356372312
 20
-115.3929565141205
 30
0.0
 10
85.52707924294116
 20
-115.2976996239534
 30
0.0
 10
85.63284367433832
 20
-115.2363769243159
 30
0.0
 10
85.50795896299802
 20
-115.1771212819696
 30
0.0
 10
85.43182235277399
 20
-115.0629163666336
 30
0.0
 10
85.43182235277399
 20
-114.9022026622467
 30
0.0
 10
85.43182235277399
 20
-114.6271117877495
 30
0.0
 10
85.63077661704718
 20
-114.4917195351792
 30
0.0
 10
85.90569523677011
 20
-114.4917195351792
 30
0.0
 10
86.18922659520616
 20
-114.4917195351792
 30
0.0
 10
86.37956812076622
 20
-114.6355522716883
 30
0.0
 10
86.37956812076622
 20
-114.9022026622467
 30
0.0
 10
86.37956812076622
 20
-115.0629163666336
 30
0.0
 10
86.30136445325105
 20
-115.1771212819696
 30
0.0
 10
86.17647974191074
 20
-115.2363769243159
 30
0.0
 10
86.26536320543019
 20
-115.2871920827234
 30
0.0
 10
86.42400985252594
 20
-115.3824489728905
 30
0.0
 10
86.42400985252594
 20
-115.6447929940923
 30
0.0
 10
86.42400985252594
 20
-116.0191026185647
 30
0.0
 10
86.14478486344645
 20
-116.1355468459661
 30
0.0
 10
85.90569523677011
 20
-116.1355468459661
 30
0.0
  0
SPLINE
  5
86
330
81
100
AcDbEntity
  8
_U+30EC_U+30A4_U+30E4_U+30FC 1
370
     0
100
AcDbSpline
210
0.0
220
0.0
230
1.0
 70
    11
 71
     3
 72
    17
 73
    13
 74
     0
 42
0.0000000001
 43
0.0000000001
 12
1.0
 22
0.0
 32
0.0
 13
1.0
 23
0.0
 33
0.0
 40
0.0
 40
0.0
 40
0.0
 40
0.0
 40
1.0
 40
1.0
 40
1.0
 40
2.0
 40
2.0
 40
2.0
 40
3.0
 40
3.0
 40
3.0
 40
4.0
 40
4.0
 40
4.0
 40
4.0
 10
85.90569523677011
 20
-115.3443806677785
 30
0.0
 10
85.76186250026093
 20
-115.3443806677785
 30
0.0
 10
85.60958927981288
 20
-115.4310248192325
 30
0.0
 10
85.60958927981288
 20
-115.634113198088
 30
0.0
 10
85.60958927981288
 20
-115.8392686342346
 30
0.0
 10
85.73654104844434
 20
-115.9408989510495
 30
0.0
 10
85.90569523677011
 20
-115.9408989510495
 30
0.0
 10
86.09190264774786
 20
-115.9408989510495
 30
0.0
 10
86.20197344850159
 20
-115.8182535517746
 30
0.0
 10
86.20197344850159
 20
-115.6404866247357
 30
0.0
 10
86.20197344850159
 20
-115.4182779659371
 30
0.0
 10
86.03902043204927
 20
-115.3443806677785
 30
0.0
 10
85.90569523677011
 20
-115.3443806677785
 30
0.0
  0
SPLINE
  5
87
330
81
100
AcDbEntity
  8
_U+30EC_U+30A4_U+30E4_U+30FC 1
370
     0
100
AcDbSpline
210
0.0
220
0.0
230
1.0
 70
    11
 71
     3
 72
    17
 73
    13
 74
     0
 42
0.0000000001
 43
0.0000000001
 12
1.0
 22
0.0
 32
0.0
 13
1.0
 23
0.0
 33
0.0
 40
0.0
 40
0.0
 40
0.0
 40
0.0
 40
1.0
 40
1.0
 40
1.0
 40
2.0
 40
2.0
 40
2.0
 40
3.0
 40
3.0
 40
3.0
 40
4.0
 40
4.0
 40
4.0
 40
4.0
 10
85.90569523677011
 20
-114.6843003728046
 30
0.0
 10
85.74067516302664
 20
-114.6843003728046
 30
0.0
 10
85.65609806886376
 20
-114.7793850081975
 30
0.0
 10
85.65609806886376
 20
-114.9147772607678
 30
0.0
 10
85.65609806886376
 20
-115.037594914817
 30
0.0
 10
85.72810056450548
 20
-115.1561061995096
 30
0.0
 10
85.90569523677011
 20
-115.1561061995096
 30
0.0
 10
86.083462163809
 20
-115.1561061995096
 30
0.0
 10
86.15529240467646
 20
-115.037594914817
 30
0.0
 10
86.15529240467646
 20
-114.9147772607678
 30
0.0
 10
86.15529240467646
 20
-114.7793850081975
 30
0.0
 10
86.06864825322242
 20
-114.6843003728046
 30
0.0
 10
85.90569523677011
 20
-114.6843003728046
 30
0.0
  0
HATCH
  5
88
330
81
100
AcDbEntity
  8
_U+30EC_U+30A4_U+30E4_U+30FC 1
 62
   179
420
  2234388
100
AcDbHatch
 10
0.0
 20
0.0
 30
0.0
210
0.0
220
0.0
230
1.0
  2
SOLID
 70
     1
 71
     0
 91
        3
 92
        1
 93
        1
 72
     4
 94
        3
 73
     0
 74
     1
 95
       29
 96
       25
 40
0.0
 40
0.0
 40
0.0
 40
0.0
 40
1.0
 40
1.0
 40
1.0
 40
2.0
 40
2.0
 40
2.0
 40
3.0
 40
3.0
 40
3.0
 40
4.0
 40
4.0
 40
4.0
 40
5.0
 40
5.0
 40
5.0
 40
6.0
 40
6.0
 40
6.0
 40
7.0
 40
7.0
 40
7.0
 40
8.0
 40
8.0
 40
8.0
 40
8.0
 10
85.90569523677011
 20
-116.1355468459661
 10
85.63921710098603
 20
-116.1355468459661
 10
85.38531356372312
 20
-115.9979152813304
 10
85.38531356372312
 20
-115.6489271086746
 10
85.38531356372312
 20
-115.3929565141205
 10
85.52707924294116
 20
-115.2976996239534
 10
85.63284367433832
 20
-115.2363769243159
 10
85.50795896299802
 20
-115.1771212819696
 10
85.43182235277399
 20
-115.0629163666336
 10
85.43182235277399
 20
-114.9022026622467
 10
85.43182235277399
 20
-114.6271117877495
 10
85.63077661704718
 20
-114.4917195351792
 10
85.90569523677011
 20
-114.4917195351792
 10
86.18922659520616
 20
-114.4917195351792
 10
86.37956812076622
 20
-114.6355522716883
 10
86.37956812076622
 20
-114.9022026622467
 10
86.37956812076622
 20
-115.0629163666336
 10
86.30136445325105
 20
-115.1771212819696
 10
86.17647974191074
 20
-115.2363769243159
 10
86.26536320543019
 20
-115.2871920827234
 10
86.42400985252594
 20
-115.3824489728905
 10
86.42400985252594
 20
-115.6447929940923
 10
86.42400985252594
 20
-116.0191026185647
 10
86.14478486344645
 20
-116.1355468459661
 10
85.90569523677011
 20
-116.1355468459661
 97
        0
 97
        0
 92
        1
 93
        1
 72
     4
 94
        3
 73
     0
 74
     1
 95
       17
 96
       13
 40
0.0
 40
0.0
 40
0.0
 40
0.0
 40
1.0
 40
1.0
 40
1.0
 40
2.0
 40
2.0
 40
2.0
 40
3.0
 40
3.0
 40
3.0
 40
4.0
 40
4.0
 40
4.0
 40
4.0
 10
85.90569523677011
 20
-115.3443806677785
 10
85.76186250026093
 20
-115.3443806677785
 10
85.60958927981288
 20
-115.4310248192325
 10
85.60958927981288
 20
-115.634113198088
 10
85.60958927981288
 20
-115.8392686342346
 10
85.73654104844434
 20
-115.9408989510495
 10
85.90569523677011
 20
-115.9408989510495
 10
86.09190264774786
 20
-115.9408989510495
 10
86.20197344850159
 20
-115.8182535517746
 10
86.20197344850159
 20
-115.6404866247357
 10
86.20197344850159
 20
-115.4182779659371
 10
86.03902043204927
 20
-115.3443806677785
 10
85.90569523677011
 20
-115.3443806677785
 97
        0
 97
        0
 92
        1
 93
        1
 72
     4
 94
        3
 73
     0
 74
     1
 95
       17
 96
       13
 40
0.0
 40
0.0
 40
0.0
 40
0.0
 40
1.0
 40
1.0
 40
1.0
 40
2.0
 40
2.0
 40
2.0
 40
3.0
 40
3.0
 40
3.0
 40
4.0
 40
4.0
 40
4.0
 40
4.0
 10
85.90569523677011
 20
-114.6843003728046
 10
85.74067516302664
 20
-114.6843003728046
 10
85.65609806886376
 20
-114.7793850081975
 10
85.65609806886376
 20
-114.9147772607678
 10
85.65609806886376
 20
-115.037594914817
 10
85.72810056450548
 20
-115.1561061995096
 10
85.90569523677011
 20
-115.1561061995096
 10
86.083462163809
 20
-115.1561061995096
 10
86.15529240467646
 20
-115.037594914817
 10
86.15529240467646
 20
-114.9147772607678
 10
86.15529240467646
 20
-114.7793850081975
 10
86.06864825322242
 20
-114.6843003728046
 10
85.90569523677011
 20
-114.6843003728046
 97
        0
 97
        0
 75
     2
 76
     1
 98
        0
  0
ENDBLK
  5
84
330
81
100
AcDbEntity
  8
0
100
AcDbBlockEnd
  0
BLOCK
  5
97
330
95
100
AcDbEntity
  8
0
100
AcDbBlockBegin
  2
block 3
 70
     0
 10
0.0
 20
0.0
 30
0.0
  3
block 3
  1

  0
SPLINE
  5
99
330
95
100
AcDbEntity
  8
_U+30EC_U+30A4_U+30E4_U+30FC 1
370
     0
100
AcDbSpline
210
0.0
220
0.0
230
1.0
 70
    11
 71
     3
 72
    26
 73
    22
 74
     0
 42
0.0000000001
 43
0.0000000001
 12
1.0
 22
0.0
 32
0.0
 13
1.0
 23
0.0
 33
0.0
 40
0.0
 40
0.0
 40
0.0
 40
0.0
 40
1.0
 40
1.0
 40
1.0
 40
2.0
 40
2.0
 40
2.0
 40
3.0
 40
3.0
 40
3.0
 40
4.0
 40
4.0
 40
4.0
 40
5.0
 40
5.0
 40
5.0
 40
6.0
 40
6.0
 40
6.0
 40
7.0
 40
7.0
 40
7.0
 40
7.0
 10
90.26270749696558
 20
-141.5548393743335
 30
0.0
 10
90.26270749696558
 20
-141.5548393743335
 30
0.0
 10
90.26270749696558
 20
-140.4503417617624
 30
0.0
 10
90.26270749696558
 20
-140.4503417617624
 30
0.0
 10
90.26270749696558
 20
-140.4503417617624
 30
0.0
 10
89.93266734947865
 20
-140.4503417617624
 30
0.0
 10
89.93266734947865
 20
-140.4503417617624
 30
0.0
 10
89.93266734947865
 20
-140.4503417617624
 30
0.0
 10
89.93266734947865
 20
-140.3022026558967
 30
0.0
 10
89.93266734947865
 20
-140.3022026558967
 30
0.0
 10
90.26477455425673
 20
-140.2877332548586
 30
0.0
 10
90.3112833433076
 20
-140.1244357288578
 30
0.0
 10
90.34091116448074
 20
-140.0100585587475
 30
0.0
 10
90.34091116448074
 20
-140.0100585587475
 30
0.0
 10
90.48698321305534
 20
-140.0100585587475
 30
0.0
 10
90.48698321305534
 20
-140.0100585587475
 30
0.0
 10
90.48698321305534
 20
-140.0100585587475
 30
0.0
 10
90.48698321305534
 20
-141.5548393743335
 30
0.0
 10
90.48698321305534
 20
-141.5548393743335
 30
0.0
 10
90.48698321305534
 20
-141.5548393743335
 30
0.0
 10
90.26270749696558
 20
-141.5548393743335
 30
0.0
 10
90.26270749696558
 20
-141.5548393743335
 30
0.0
  0
HATCH
  5
9A
330
95
100
AcDbEntity
  8
_U+30EC_U+30A4_U+30E4_U+30FC 1
 62
   179
420
  2234388
100
AcDbHatch
 10
0.0
 20
0.0
 30
0.0
210
0.0
220
0.0
230
1.0
  2
SOLID
 70
     1
 71
     0
 91
        1
 92
        1
 93
        1
 72
     4
 94
        3
 73
     0
 74
     1
 95
       26
 96
       22
 40
0.0
 40
0.0
 40
0.0
 40
0.0
 40
1.0
 40
1.0
 40
1.0
 40
2.0
 40
2.0
 40
2.0
 40
3.0
 40
3.0
 40
3.0
 40
4.0
 40
4.0
 40
4.0
 40
5.0
 40
5.0
 40
5.0
 40
6.0
 40
6.0
 40
6.0
 40
7.0
 40
7.0
 40
7.0
 40
7.0
 10
90.26270749696558
 20
-141.5548393743335
 10
90.26270749696558
 20
-141.5548393743335
 10
90.26270749696558
 20
-140.4503417617624
 10
90.26270749696558
 20
-140.4503417617624
 10
90.26270749696558
 20
-140.4503417617624
 10
89.93266734947865
 20
-140.4503417617624
 10
89.93266734947865
 20
-140.4503417617624
 10
89.93266734947865
 20
-140.4503417617624
 10
89.93266734947865
 20
-140.3022026558967
 10
89.93266734947865
 20
-140.3022026558967
 10
90.26477455425673
 20
-140.2877332548586
 10
90.3112833433076
 20
-140.1244357288578
 10
90.34091116448074
 20
-140.0100585587475
 10
90.34091116448074
 20
-140.0100585587475
 10
90.48698321305534
 20
-140.0100585587475
 10
90.48698321305534
 20
-140.0100585587475
 10
90.48698321305534
 20
-140.0100585587475
 10
90.48698321305534
 20
-141.5548393743335
 10
90.48698321305534
 20
-141.5548393743335
 10
90.48698321305534
 20
-141.5548393743335
 10
90.26270749696558
 20
-141.5548393743335
 10
90.26270749696558
 20
-141.5548393743335
 97
        0
 97
        0
 75
     2
 76
     1
 98
        0
  0
SPLINE
  5
9B
330
95
100
AcDbEntity
  8
_U+30EC_U+30A4_U+30E4_U+30FC 1
370
     0
100
AcDbSpline
210
0.0
220
0.0
230
1.0
 70
    11
 71
     3
 72
    29
 73
    25
 74
     0
 42
0.0000000001
 43
0.0000000001
 12
1.0
 22
0.0
 32
0.0
 13
1.0
 23
0.0
 33
0.0
 40
0.0
 40
0.0
 40
0.0
 40
0.0
 40
1.0
 40
1.0
 40
1.0
 40
2.0
 40
2.0
 40
2.0
 40
3.0
 40
3.0
 40
3.0
 40
4.0
 40
4.0
 40
4.0
 40
5.0
 40
5.0
 40
5.0
 40
6.0
 40
6.0
 40
6.0
 40
7.0
 40
7.0
 40
7.0
 40
8.0
 40
8.0
 40
8.0
 40
8.0
 10
91.48830021584321
 20
-141.6051377684182
 30
0.0
 10
91.22164982528487
 20
-141.6051377684182
 30
0.0
 10
90.96774628802196
 20
-141.4680229681052
 30
0.0
 10
90.96774628802196
 20
-141.1186902859009
 30
0.0
 10
90.96774628802196
 20
-140.8630642008953
 30
0.0
 10
91.10951196723998
 20
-140.7679795655025
 30
0.0
 10
91.21527639863716
 20
-140.706656865865
 30
0.0
 10
91.09039168729684
 20
-140.6474012235187
 30
0.0
 10
91.01425507707283
 20
-140.5330240534084
 30
0.0
 10
91.01425507707283
 20
-140.3717935846987
 30
0.0
 10
91.01425507707283
 20
-140.0968749649758
 30
0.0
 10
91.213209341346
 20
-139.961827221954
 30
0.0
 10
91.48830021584321
 20
-139.961827221954
 30
0.0
 10
91.77148706473075
 20
-139.961827221954
 30
0.0
 10
91.96200084506506
 20
-140.1058322132374
 30
0.0
 10
91.96200084506506
 20
-140.3717935846987
 30
0.0
 10
91.96200084506506
 20
-140.5330240534084
 30
0.0
 10
91.8837971775499
 20
-140.6474012235187
 30
0.0
 10
91.75908472098385
 20
-140.706656865865
 30
0.0
 10
91.84762367495476
 20
-140.7569552599496
 30
0.0
 10
92.00644257682478
 20
-140.8520398953426
 30
0.0
 10
92.00644257682478
 20
-141.1145561713186
 30
0.0
 10
92.00644257682478
 20
-141.4893825601138
 30
0.0
 10
91.72704533297102
 20
-141.6051377684182
 30
0.0
 10
91.48830021584321
 20
-141.6051377684182
 30
0.0
  0
SPLINE
  5
9C
330
95
100
AcDbEntity
  8
_U+30EC_U+30A4_U+30E4_U+30FC 1
370
     0
100
AcDbSpline
210
0.0
220
0.0
230
1.0
 70
    11
 71
     3
 72
    17
 73
    13
 74
     0
 42
0.0000000001
 43
0.0000000001
 12
1.0
 22
0.0
 32
0.0
 13
1.0
 23
0.0
 33
0.0
 40
0.0
 40
0.0
 40
0.0
 40
0.0
 40
1.0
 40
1.0
 40
1.0
 40
2.0
 40
2.0
 40
2.0
 40
3.0
 40
3.0
 40
3.0
 40
4.0
 40
4.0
 40
4.0
 40
4.0
 10
91.48830021584321
 20
-140.8141438450048
 30
0.0
 10
91.34429522455976
 20
-140.8141438450048
 30
0.0
 10
91.19202200411172
 20
-140.9009602512331
 30
0.0
 10
91.19202200411172
 20
-141.1042208848628
 30
0.0
 10
91.19202200411172
 20
-141.3095485757837
 30
0.0
 10
91.31897377274318
 20
-141.4108343830501
 30
0.0
 10
91.48830021584321
 20
-141.4108343830501
 30
0.0
 10
91.6743353720467
 20
-141.4108343830501
 30
0.0
 10
91.78423391802617
 20
-141.2881889837752
 30
0.0
 10
91.78423391802617
 20
-141.1104220567363
 30
0.0
 10
91.78423391802617
 20
-140.8885579074862
 30
0.0
 10
91.62128090157385
 20
-140.8141438450048
 30
0.0
 10
91.48830021584321
 20
-140.8141438450048
 30
0.0
  0
SPLINE
  5
9D
330
95
100
AcDbEntity
  8
_U+30EC_U+30A4_U+30E4_U+30FC 1
370
     0
100
AcDbSpline
210
0.0
220
0.0
230
1.0
 70
    11
 71
     3
 72
    17
 73
    13
 74
     0
 42
0.0000000001
 43
0.0000000001
 12
1.0
 22
0.0
 32
0.0
 13
1.0
 23
0.0
 33
0.0
 40
0.0
 40
0.0
 40
0.0
 40
0.0
 40
1.0
 40
1.0
 40
1.0
 40
2.0
 40
2.0
 40
2.0
 40
3.0
 40
3.0
 40
3.0
 40
4.0
 40
4.0
 40
4.0
 40
4.0
 10
91.48830021584321
 20
-140.1540635500309
 30
0.0
 10
91.32310788732548
 20
-140.1540635500309
 30
0.0
 10
91.2385307931626
 20
-140.2491481854238
 30
0.0
 10
91.2385307931626
 20
-140.3848849475427
 30
0.0
 10
91.2385307931626
 20
-140.5075303468176
 30
0.0
 10
91.31053328880432
 20
-140.6260416315102
 30
0.0
 10
91.48830021584321
 20
-140.6260416315102
 30
0.0
 10
91.66572263333357
 20
-140.6260416315102
 30
0.0
 10
91.7377251289753
 20
-140.5075303468176
 30
0.0
 10
91.7377251289753
 20
-140.3848849475427
 30
0.0
 10
91.7377251289753
 20
-140.2491481854238
 30
0.0
 10
91.650908722747
 20
-140.1540635500309
 30
0.0
 10
91.48830021584321
 20
-140.1540635500309
 30
0.0
  0
HATCH
  5
9E
330
95
100
AcDbEntity
  8
_U+30EC_U+30A4_U+30E4_U+30FC 1
 62
   179
420
  2234388
100
AcDbHatch
 10
0.0
 20
0.0
 30
0.0
210
0.0
220
0.0
230
1.0
  2
SOLID
 70
     1
 71
     0
 91
        3
 92
        1
 93
        1
 72
     4
 94
        3
 73
     0
 74
     1
 95
       29
 96
       25
 40
0.0
 40
0.0
 40
0.0
 40
0.0
 40
1.0
 40
1.0
 40
1.0
 40
2.0
 40
2.0
 40
2.0
 40
3.0
 40
3.0
 40
3.0
 40
4.0
 40
4.0
 40
4.0
 40
5.0
 40
5.0
 40
5.0
 40
6.0
 40
6.0
 40
6.0
 40
7.0
 40
7.0
 40
7.0
 40
8.0
 40
8.0
 40
8.0
 40
8.0
 10
91.48830021584321
 20
-141.6051377684182
 10
91.22164982528487
 20
-141.6051377684182
 10
90.96774628802196
 20
-141.4680229681052
 10
90.96774628802196
 20
-141.1186902859009
 10
90.96774628802196
 20
-140.8630642008953
 10
91.10951196723998
 20
-140.7679795655025
 10
91.21527639863716
 20
-140.706656865865
 10
91.09039168729684
 20
-140.6474012235187
 10
91.01425507707283
 20
-140.5330240534084
 10
91.01425507707283
 20
-140.3717935846987
 10
91.01425507707283
 20
-140.0968749649758
 10
91.213209341346
 20
-139.961827221954
 10
91.48830021584321
 20
-139.961827221954
 10
91.77148706473075
 20
-139.961827221954
 10
91.96200084506506
 20
-140.1058322132374
 10
91.96200084506506
 20
-140.3717935846987
 10
91.96200084506506
 20
-140.5330240534084
 10
91.8837971775499
 20
-140.6474012235187
 10
91.75908472098385
 20
-140.706656865865
 10
91.84762367495476
 20
-140.7569552599496
 10
92.00644257682478
 20
-140.8520398953426
 10
92.00644257682478
 20
-141.1145561713186
 10
92.00644257682478
 20
-141.4893825601138
 10
91.72704533297102
 20
-141.6051377684182
 10
91.48830021584321
 20
-141.6051377684182
 97
        0
 97
        0
 92
        1
 93
        1
 72
     4
 94
        3
 73
     0
 74
     1
 95
       17
 96
       13
 40
0.0
 40
0.0
 40
0.0
 40
0.0
 40
1.0
 40
1.0
 40
1.0
 40
2.0
 40
2.0
 40
2.0
 40
3.0
 40
3.0
 40
3.0
 40
4.0
 40
4.0
 40
4.0
 40
4.0
 10
91.48830021584321
 20
-140.8141438450048
 10
91.34429522455976
 20
-140.8141438450048
 10
91.19202200411172
 20
-140.9009602512331
 10
91.19202200411172
 20
-141.1042208848628
 10
91.19202200411172
 20
-141.3095485757837
 10
91.31897377274318
 20
-141.4108343830501
 10
91.48830021584321
 20
-141.4108343830501
 10
91.6743353720467
 20
-141.4108343830501
 10
91.78423391802617
 20
-141.2881889837752
 10
91.78423391802617
 20
-141.1104220567363
 10
91.78423391802617
 20
-140.8885579074862
 10
91.62128090157385
 20
-140.8141438450048
 10
91.48830021584321
 20
-140.8141438450048
 97
        0
 97
        0
 92
        1
 93
        1
 72
     4
 94
        3
 73
     0
 74
     1
 95
       17
 96
       13
 40
0.0
 40
0.0
 40
0.0
 40
0.0
 40
1.0
 40
1.0
 40
1.0
 40
2.0
 40
2.0
 40
2.0
 40
3.0
 40
3.0
 40
3.0
 40
4.0
 40
4.0
 40
4.0
 40
4.0
 10
91.48830021584321
 20
-140.1540635500309
 10
91.32310788732548
 20
-140.1540635500309
 10
91.2385307931626
 20
-140.2491481854238
 10
91.2385307931626
 20
-140.3848849475427
 10
91.2385307931626
 20
-140.5075303468176
 10
91.31053328880432
 20
-140.6260416315102
 10
91.48830021584321
 20
-140.6260416315102
 10
91.66572263333357
 20
-140.6260416315102
 10
91.7377251289753
 20
-140.5075303468176
 10
91.7377251289753
 20
-140.3848849475427
 10
91.7377251289753
 20
-140.2491481854238
 10
91.650908722747
 20
-140.1540635500309
 10
91.48830021584321
 20
-140.1540635500309
 97
        0
 97
        0
 75
     2
 76
     1
 98
        0
  0
ENDBLK
  5
98
330
95
100
AcDbEntity
  8
0
100
AcDbBlockEnd
  0
BLOCK
  5
B1
330
AF
100
AcDbEntity
  8
0
100
AcDbBlockBegin
  2
block 4
 70
     0
 10
0.0
 20
0.0
 30
0.0
  3
block 4
  1

  0
SPLINE
  5
B3
330
AF
100
AcDbEntity
  8
_U+30EC_U+30A4_U+30E4_U+30FC 1
370
     0
100
AcDbSpline
210
0.0
220
0.0
230
1.0
 70
    11
 71
     3
 72
    29
 73
    25
 74
     0
 42
0.0000000001
 43
0.0000000001
 12
1.0
 22
0.0
 32
0.0
 13
1.0
 23
0.0
 33
0.0
 40
0.0
 40
0.0
 40
0.0
 40
0.0
 40
1.0
 40
1.0
 40
1.0
 40
2.0
 40
2.0
 40
2.0
 40
3.0
 40
3.0
 40
3.0
 40
4.0
 40
4.0
 40
4.0
 40
5.0
 40
5.0
 40
5.0
 40
6.0
 40
6.0
 40
6.0
 40
7.0
 40
7.0
 40
7.0
 40
8.0
 40
8.0
 40
8.0
 40
8.0
 10
103.0369493014977
 20
-139.8684651343037
 30
0.0
 10
103.2464111070009
 20
-139.9766411325406
 30
0.0
 10
103.2653591321698
 20
-140.1499294354486
 30
0.0
 10
103.2653591321698
 20
-140.2663736628501
 30
0.0
 10
103.2653591321698
 20
-140.4272596220112
 30
0.0
 10
103.2188503431189
 20
-140.568853046455
 30
0.0
 10
103.0369493014977
 20
-140.6639376818479
 30
0.0
 10
102.8423014065811
 20
-140.7676350559539
 30
0.0
 10
102.6052788371959
 20
-140.7865830811228
 30
0.0
 10
102.4426703302921
 20
-140.7865830811228
 30
0.0
 10
102.2986653390087
 20
-140.7865830811228
 30
0.0
 10
102.0468288590369
 20
-140.7697021132451
 30
0.0
 10
101.848046849538
 20
-140.6639376818479
 30
0.0
 10
101.6451307254568
 20
-140.5561061931596
 30
0.0
 10
101.6217040761571
 20
-140.3952202339984
 30
0.0
 10
101.6217040761571
 20
-140.2663736628501
 30
0.0
 10
101.6217040761571
 20
-140.1075547609801
 30
0.0
 10
101.6661458079168
 20
-139.9638942792452
 30
0.0
 10
101.848046849538
 20
-139.8684651343037
 30
0.0
 10
102.0406276871635
 20
-139.7692463843285
 30
0.0
 10
102.2690375178355
 20
-139.7458197350288
 30
0.0
 10
102.4426703302921
 20
-139.7458197350288
 30
0.0
 10
102.613891575909
 20
-139.7458197350288
 30
0.0
 10
102.8443684638722
 20
-139.7671793270374
 30
0.0
 10
103.0369493014977
 20
-139.8684651343037
 30
0.0
  0
SPLINE
  5
B4
330
AF
100
AcDbEntity
  8
_U+30EC_U+30A4_U+30E4_U+30FC 1
370
     0
100
AcDbSpline
210
0.0
220
0.0
230
1.0
 70
    11
 71
     3
 72
    17
 73
    13
 74
     0
 42
0.0000000001
 43
0.0000000001
 12
1.0
 22
0.0
 32
0.0
 13
1.0
 23
0.0
 33
0.0
 40
0.0
 40
0.0
 40
0.0
 40
0.0
 40
1.0
 40
1.0
 40
1.0
 40
2.0
 40
2.0
 40
2.0
 40
3.0
 40
3.0
 40
3.0
 40
4.0
 40
4.0
 40
4.0
 40
4.0
 10
101.8142849137825
 20
-140.2663736628501
 30
0.0
 10
101.8142849137825
 20
-140.5157985759822
 30
0.0
 10
102.0978162722186
 20
-140.5626518745816
 30
0.0
 10
102.4426703302921
 20
-140.5626518745816
 30
0.0
 10
102.7620306817748
 20
-140.5626518745816
 30
0.0
 10
103.0707112372532
 20
-140.5264783719864
 30
0.0
 10
103.0707112372532
 20
-140.2663736628501
 30
0.0
 10
103.0707112372532
 20
-140.0186712974606
 30
0.0
 10
102.7895914456568
 20
-139.9700954511186
 30
0.0
 10
102.4426703302921
 20
-139.9700954511186
 30
0.0
 10
102.1229654692609
 20
-139.9700954511186
 30
0.0
 10
101.8142849137825
 20
-140.0083360110049
 30
0.0
 10
101.8142849137825
 20
-140.2663736628501
 30
0.0
  0
HATCH
  5
B5
330
AF
100
AcDbEntity
  8
_U+30EC_U+30A4_U+30E4_U+30FC 1
 62
   179
420
  2234388
100
AcDbHatch
 10
0.0
 20
0.0
 30
0.0
210
0.0
220
0.0
230
1.0
  2
SOLID
 70
     1
 71
     0
 91
        2
 92
        1
 93
        1
 72
     4
 94
        3
 73
     0
 74
     1
 95
       29
 96
       25
 40
0.0
 40
0.0
 40
0.0
 40
0.0
 40
1.0
 40
1.0
 40
1.0
 40
2.0
 40
2.0
 40
2.0
 40
3.0
 40
3.0
 40
3.0
 40
4.0
 40
4.0
 40
4.0
 40
5.0
 40
5.0
 40
5.0
 40
6.0
 40
6.0
 40
6.0
 40
7.0
 40
7.0
 40
7.0
 40
8.0
 40
8.0
 40
8.0
 40
8.0
 10
103.0369493014977
 20
-139.8684651343037
 10
103.2464111070009
 20
-139.9766411325406
 10
103.2653591321698
 20
-140.1499294354486
 10
103.2653591321698
 20
-140.2663736628501
 10
103.2653591321698
 20
-140.4272596220112
 10
103.2188503431189
 20
-140.568853046455
 10
103.0369493014977
 20
-140.6639376818479
 10
102.8423014065811
 20
-140.7676350559539
 10
102.6052788371959
 20
-140.7865830811228
 10
102.4426703302921
 20
-140.7865830811228
 10
102.2986653390087
 20
-140.7865830811228
 10
102.0468288590369
 20
-140.7697021132451
 10
101.848046849538
 20
-140.6639376818479
 10
101.6451307254568
 20
-140.5561061931596
 10
101.6217040761571
 20
-140.3952202339984
 10
101.6217040761571
 20
-140.2663736628501
 10
101.6217040761571
 20
-140.1075547609801
 10
101.6661458079168
 20
-139.9638942792452
 10
101.848046849538
 20
-139.8684651343037
 10
102.0406276871635
 20
-139.7692463843285
 10
102.2690375178355
 20
-139.7458197350288
 10
102.4426703302921
 20
-139.7458197350288
 10
102.613891575909
 20
-139.7458197350288
 10
102.8443684638722
 20
-139.7671793270374
 10
103.0369493014977
 20
-139.8684651343037
 97
        0
 97
        0
 92
        1
 93
        1
 72
     4
 94
        3
 73
     0
 74
     1
 95
       17
 96
       13
 40
0.0
 40
0.0
 40
0.0
 40
0.0
 40
1.0
 40
1.0
 40
1.0
 40
2.0
 40
2.0
 40
2.0
 40
3.0
 40
3.0
 40
3.0
 40
4.0
 40
4.0
 40
4.0
 40
4.0
 10
101.8142849137825
 20
-140.2663736628501
 10
101.8142849137825
 20
-140.5157985759822
 10
102.0978162722186
 20
-140.5626518745816
 10
102.4426703302921
 20
-140.5626518745816
 10
102.7620306817748
 20
-140.5626518745816
 10
103.0707112372532
 20
-140.5264783719864
 10
103.0707112372532
 20
-140.2663736628501
 10
103.0707112372532
 20
-140.0186712974606
 10
102.7895914456568
 20
-139.9700954511186
 10
102.4426703302921
 20
-139.9700954511186
 10
102.1229654692609
 20
-139.9700954511186
 10
101.8142849137825
 20
-140.0083360110049
 10
101.8142849137825
 20
-140.2663736628501
 97
        0
 97
        0
 75
     2
 76
     1
 98
        0
  0
POLYLINE
  5
B6
330
AF
100
AcDbEntity
  8
_U+30EC_U+30A4_U+30E4_U+30FC 1
370
     0
100
AcDb2dPolyline
 66
     1
 10
0.0
 20
0.0
 30
0.0
  0
VERTEX
  5
B7
330
B6
100
AcDbEntity
  8
_U+30EC_U+30A4_U+30E4_U+30FC 1
370
     0
100
AcDbVertex
100
AcDb2dVertex
 10
103.2147162285366
 20
-139.5294677385551
 30
0.0
  0
VERTEX
  5
B8
330
B6
100
AcDbEntity
  8
_U+30EC_U+30A4_U+30E4_U+30FC 1
370
     0
100
AcDbVertex
100
AcDb2dVertex
 10
102.9628797485648
 20
-139.5294677385551
 30
0.0
  0
VERTEX
  5
B9
330
B6
100
AcDbEntity
  8
_U+30EC_U+30A4_U+30E4_U+30FC 1
370
     0
100
AcDbVertex
100
AcDb2dVertex
 10
102.9628797485648
 20
-139.2776312585834
 30
0.0
  0
VERTEX
  5
BA
330
B6
100
AcDbEntity
  8
_U+30EC_U+30A4_U+30E4_U+30FC 1
370
     0
100
AcDbVertex
100
AcDb2dVertex
 10
103.2147162285366
 20
-139.2776312585834
 30
0.0
  0
VERTEX
  5
BB
330
B6
100
AcDbEntity
  8
_U+30EC_U+30A4_U+30E4_U+30FC 1
370
     0
100
AcDbVertex
100
AcDb2dVertex
 10
103.2147162285366
 20
-139.5294677385551
 30
0.0
  0
SEQEND
  5
BC
330
B6
100
AcDbEntity
  8
_U+30EC_U+30A4_U+30E4_U+30FC 1
370
     0
  0
HATCH
  5
BD
330
AF
100
AcDbEntity
  8
_U+30EC_U+30A4_U+30E4_U+30FC 1
 62
   179
420
  2234388
100
AcDbHatch
 10
0.0
 20
0.0
 30
0.0
210
0.0
220
0.0
230
1.0
  2
SOLID
 70
     1
 71
     0
 91
        1
 92
        1
 93
        4
 72
     1
 10
103.2147162285366
 20
-139.5294677385551
 11
102.9628797485648
 21
-139.5294677385551
 72
     1
 10
102.9628797485648
 20
-139.5294677385551
 11
102.9628797485648
 21
-139.2776312585834
 72
     1
 10
102.9628797485648
 20
-139.2776312585834
 11
103.2147162285366
 21
-139.2776312585834
 72
     1
 10
103.2147162285366
 20
-139.2776312585834
 11
103.2147162285366
 21
-139.5294677385551
 97
        0
 75
     2
 76
     1
 98
        0
  0
SPLINE
  5
BE
330
AF
100
AcDbEntity
  8
_U+30EC_U+30A4_U+30E4_U+30FC 1
370
     0
100
AcDbSpline
210
0.0
220
0.0
230
1.0
 70
    11
 71
     3
 72
    26
 73
    22
 74
     0
 42
0.0000000001
 43
0.0000000001
 12
1.0
 22
0.0
 32
0.0
 13
1.0
 23
0.0
 33
0.0
 40
0.0
 40
0.0
 40
0.0
 40
0.0
 40
1.0
 40
1.0
 40
1.0
 40
2.0
 40
2.0
 40
2.0
 40
3.0
 40
3.0
 40
3.0
 40
4.0
 40
4.0
 40
4.0
 40
5.0
 40
5.0
 40
5.0
 40
6.0
 40
6.0
 40
6.0
 40
7.0
 40
7.0
 40
7.0
 40
7.0
 10
103.2147162285366
 20
-138.6302978169049
 30
0.0
 10
103.2147162285366
 20
-138.6302978169049
 30
0.0
 10
103.2147162285366
 20
-138.8673203862901
 30
0.0
 10
103.2147162285366
 20
-138.8673203862901
 30
0.0
 10
102.9056911635097
 20
-138.8418266796993
 30
0.0
 10
102.3875488025281
 20
-138.6492458420738
 30
0.0
 10
101.8818087852934
 20
-138.2430690843628
 30
0.0
 10
101.8818087852934
 20
-138.2430690843628
 30
0.0
 10
101.8818087852934
 20
-139.0809163063756
 30
0.0
 10
101.8818087852934
 20
-139.0809163063756
 30
0.0
 10
101.8818087852934
 20
-139.0809163063756
 30
0.0
 10
101.6702799224991
 20
-139.0809163063756
 30
0.0
 10
101.6702799224991
 20
-139.0809163063756
 30
0.0
 10
101.6702799224991
 20
-139.0809163063756
 30
0.0
 10
101.6702799224991
 20
-138.0060465149777
 30
0.0
 10
101.6702799224991
 20
-138.0060465149777
 30
0.0
 10
101.6702799224991
 20
-138.0060465149777
 30
0.0
 10
101.8818087852934
 20
-138.0060465149777
 30
0.0
 10
101.8818087852934
 20
-138.0060465149777
 30
0.0
 10
102.1718858251515
 20
-138.3298854905912
 30
0.0
 10
102.7640977390659
 20
-138.5965358811495
 30
0.0
 10
103.2147162285366
 20
-138.6302978169049
 30
0.0
  0
HATCH
  5
BF
330
AF
100
AcDbEntity
  8
_U+30EC_U+30A4_U+30E4_U+30FC 1
 62
   179
420
  2234388
100
AcDbHatch
 10
0.0
 20
0.0
 30
0.0
210
0.0
220
0.0
230
1.0
  2
SOLID
 70
     1
 71
     0
 91
        1
 92
        1
 93
        1
 72
     4
 94
        3
 73
     0
 74
     1
 95
       26
 96
       22
 40
0.0
 40
0.0
 40
0.0
 40
0.0
 40
1.0
 40
1.0
 40
1.0
 40
2.0
 40
2.0
 40
2.0
 40
3.0
 40
3.0
 40
3.0
 40
4.0
 40
4.0
 40
4.0
 40
5.0
 40
5.0
 40
5.0
 40
6.0
 40
6.0
 40
6.0
 40
7.0
 40
7.0
 40
7.0
 40
7.0
 10
103.2147162285366
 20
-138.6302978169049
 10
103.2147162285366
 20
-138.6302978169049
 10
103.2147162285366
 20
-138.8673203862901
 10
103.2147162285366
 20
-138.8673203862901
 10
102.9056911635097
 20
-138.8418266796993
 10
102.3875488025281
 20
-138.6492458420738
 10
101.8818087852934
 20
-138.2430690843628
 10
101.8818087852934
 20
-138.2430690843628
 10
101.8818087852934
 20
-139.0809163063756
 10
101.8818087852934
 20
-139.0809163063756
 10
101.8818087852934
 20
-139.0809163063756
 10
101.6702799224991
 20
-139.0809163063756
 10
101.6702799224991
 20
-139.0809163063756
 10
101.6702799224991
 20
-139.0809163063756
 10
101.6702799224991
 20
-138.0060465149777
 10
101.6702799224991
 20
-138.0060465149777
 10
101.6702799224991
 20
-138.0060465149777
 10
101.8818087852934
 20
-138.0060465149777
 10
101.8818087852934
 20
-138.0060465149777
 10
102.1718858251515
 20
-138.3298854905912
 10
102.7640977390659
 20
-138.5965358811495
 10
103.2147162285366
 20
-138.6302978169049
 97
        0
 97
        0
 75
     2
 76
     1
 98
        0
  0
ENDBLK
  5
B2
330
AF
100
AcDbEntity
  8
0
100
AcDbBlockEnd
  0
BLOCK
  5
CA
330
C8
100
AcDbEntity
  8
0
100
AcDbBlockBegin
  2
block 5
 70
     0
 10
0.0
 20
0.0
 30
0.0
  3
block 5
  1

  0
SPLINE
  5
CC
330
C8
100
AcDbEntity
  8
_U+30EC_U+30A4_U+30E4_U+30FC 1
370
     0
100
AcDbSpline
210
0.0
220
0.0
230
1.0
 70
    11
 71
     3
 72
    26
 73
    22
 74
     0
 42
0.0000000001
 43
0.0000000001
 12
1.0
 22
0.0
 32
0.0
 13
1.0
 23
0.0
 33
0.0
 40
0.0
 40
0.0
 40
0.0
 40
0.0
 40
1.0
 40
1.0
 40
1.0
 40
2.0
 40
2.0
 40
2.0
 40
3.0
 40
3.0
 40
3.0
 40
4.0
 40
4.0
 40
4.0
 40
5.0
 40
5.0
 40
5.0
 40
6.0
 40
6.0
 40
6.0
 40
7.0
 40
7.0
 40
7.0
 40
7.0
 10
78.86529810311355
 20
-133.5642849058451
 30
0.0
 10
78.86529810311355
 20
-133.5642849058451
 30
0.0
 10
78.86529810311355
 20
-132.459787293274
 30
0.0
 10
78.86529810311355
 20
-132.459787293274
 30
0.0
 10
78.86529810311355
 20
-132.459787293274
 30
0.0
 10
78.5352579556266
 20
-132.459787293274
 30
0.0
 10
78.5352579556266
 20
-132.459787293274
 30
0.0
 10
78.5352579556266
 20
-132.459787293274
 30
0.0
 10
78.5352579556266
 20
-132.3116481874082
 30
0.0
 10
78.5352579556266
 20
-132.3116481874082
 30
0.0
 10
78.86736516040469
 20
-132.2971787863702
 30
0.0
 10
78.91387394945556
 20
-132.1338812603693
 30
0.0
 10
78.94350177062871
 20
-132.0198485998075
 30
0.0
 10
78.94350177062871
 20
-132.0198485998075
 30
0.0
 10
79.08957381920331
 20
-132.0198485998075
 30
0.0
 10
79.08957381920331
 20
-132.0198485998075
 30
0.0
 10
79.08957381920331
 20
-132.0198485998075
 30
0.0
 10
79.08957381920331
 20
-133.5642849058451
 30
0.0
 10
79.08957381920331
 20
-133.5642849058451
 30
0.0
 10
79.08957381920331
 20
-133.5642849058451
 30
0.0
 10
78.86529810311355
 20
-133.5642849058451
 30
0.0
 10
78.86529810311355
 20
-133.5642849058451
 30
0.0
  0
HATCH
  5
CD
330
C8
100
AcDbEntity
  8
_U+30EC_U+30A4_U+30E4_U+30FC 1
 62
   179
420
  2234388
100
AcDbHatch
 10
0.0
 20
0.0
 30
0.0
210
0.0
220
0.0
230
1.0
  2
SOLID
 70
     1
 71
     0
 91
        1
 92
        1
 93
        1
 72
     4
 94
        3
 73
     0
 74
     1
 95
       26
 96
       22
 40
0.0
 40
0.0
 40
0.0
 40
0.0
 40
1.0
 40
1.0
 40
1.0
 40
2.0
 40
2.0
 40
2.0
 40
3.0
 40
3.0
 40
3.0
 40
4.0
 40
4.0
 40
4.0
 40
5.0
 40
5.0
 40
5.0
 40
6.0
 40
6.0
 40
6.0
 40
7.0
 40
7.0
 40
7.0
 40
7.0
 10
78.86529810311355
 20
-133.5642849058451
 10
78.86529810311355
 20
-133.5642849058451
 10
78.86529810311355
 20
-132.459787293274
 10
78.86529810311355
 20
-132.459787293274
 10
78.86529810311355
 20
-132.459787293274
 10
78.5352579556266
 20
-132.459787293274
 10
78.5352579556266
 20
-132.459787293274
 10
78.5352579556266
 20
-132.459787293274
 10
78.5352579556266
 20
-132.3116481874082
 10
78.5352579556266
 20
-132.3116481874082
 10
78.86736516040469
 20
-132.2971787863702
 10
78.91387394945556
 20
-132.1338812603693
 10
78.94350177062871
 20
-132.0198485998075
 10
78.94350177062871
 20
-132.0198485998075
 10
79.08957381920331
 20
-132.0198485998075
 10
79.08957381920331
 20
-132.0198485998075
 10
79.08957381920331
 20
-132.0198485998075
 10
79.08957381920331
 20
-133.5642849058451
 10
79.08957381920331
 20
-133.5642849058451
 10
79.08957381920331
 20
-133.5642849058451
 10
78.86529810311355
 20
-133.5642849058451
 10
78.86529810311355
 20
-133.5642849058451
 97
        0
 97
        0
 75
     2
 76
     1
 98
        0
  0
ENDBLK
  5
CB
330
C8
100
AcDbEntity
  8
0
100
AcDbBlockEnd
  0
BLOCK
  5
DC
330
DA
100
AcDbEntity
  8
0
100
AcDbBlockBegin
  2
block 6
 70
     0
 10
0.0
 20
0.0
 30
0.0
  3
block 6
  1

  0
SPLINE
  5
DE
330
DA
100
AcDbEntity
  8
_U+30EC_U+30A4_U+30E4_U+30FC 1
370
     0
100
AcDbSpline
210
0.0
220
0.0
230
1.0
 70
    11
 71
     3
 72
    26
 73
    22
 74
     0
 42
0.0000000001
 43
0.0000000001
 12
1.0
 22
0.0
 32
0.0
 13
1.0
 23
0.0
 33
0.0
 40
0.0
 40
0.0
 40
0.0
 40
0.0
 40
1.0
 40
1.0
 40
1.0
 40
2.0
 40
2.0
 40
2.0
 40
3.0
 40
3.0
 40
3.0
 40
4.0
 40
4.0
 40
4.0
 40
5.0
 40
5.0
 40
5.0
 40
6.0
 40
6.0
 40
6.0
 40
7.0
 40
7.0
 40
7.0
 40
7.0
 10
96.30419919467396
 20
-133.5642849058451
 30
0.0
 10
96.30419919467396
 20
-133.5642849058451
 30
0.0
 10
96.06717662528877
 20
-133.5642849058451
 30
0.0
 10
96.06717662528877
 20
-133.5642849058451
 30
0.0
 10
96.09267033187962
 20
-133.2552598408181
 30
0.0
 10
96.28525116950507
 20
-132.736772970288
 30
0.0
 10
96.69142792721604
 20
-132.2313774626019
 30
0.0
 10
96.69142792721604
 20
-132.2313774626019
 30
0.0
 10
95.85358070520327
 20
-132.2313774626019
 30
0.0
 10
95.85358070520327
 20
-132.2313774626019
 30
0.0
 10
95.85358070520327
 20
-132.2313774626019
 30
0.0
 10
95.85358070520327
 20
-132.0198485998075
 30
0.0
 10
95.85358070520327
 20
-132.0198485998075
 30
0.0
 10
95.85358070520327
 20
-132.0198485998075
 30
0.0
 10
96.92845049660123
 20
-132.0198485998075
 30
0.0
 10
96.92845049660123
 20
-132.0198485998075
 30
0.0
 10
96.92845049660123
 20
-132.0198485998075
 30
0.0
 10
96.92845049660123
 20
-132.2313774626019
 30
0.0
 10
96.92845049660123
 20
-132.2313774626019
 30
0.0
 10
96.60461152098775
 20
-132.5211099929114
 30
0.0
 10
96.3379611304294
 20
-133.1136664163744
 30
0.0
 10
96.30419919467396
 20
-133.5642849058451
 30
0.0
  0
HATCH
  5
DF
330
DA
100
AcDbEntity
  8
_U+30EC_U+30A4_U+30E4_U+30FC 1
 62
   179
420
  2234388
100
AcDbHatch
 10
0.0
 20
0.0
 30
0.0
210
0.0
220
0.0
230
1.0
  2
SOLID
 70
     1
 71
     0
 91
        1
 92
        1
 93
        1
 72
     4
 94
        3
 73
     0
 74
     1
 95
       26
 96
       22
 40
0.0
 40
0.0
 40
0.0
 40
0.0
 40
1.0
 40
1.0
 40
1.0
 40
2.0
 40
2.0
 40
2.0
 40
3.0
 40
3.0
 40
3.0
 40
4.0
 40
4.0
 40
4.0
 40
5.0
 40
5.0
 40
5.0
 40
6.0
 40
6.0
 40
6.0
 40
7.0
 40
7.0
 40
7.0
 40
7.0
 10
96.30419919467396
 20
-133.5642849058451
 10
96.30419919467396
 20
-133.5642849058451
 10
96.06717662528877
 20
-133.5642849058451
 10
96.06717662528877
 20
-133.5642849058451
 10
96.09267033187962
 20
-133.2552598408181
 10
96.28525116950507
 20
-132.736772970288
 10
96.69142792721604
 20
-132.2313774626019
 10
96.69142792721604
 20
-132.2313774626019
 10
95.85358070520327
 20
-132.2313774626019
 10
95.85358070520327
 20
-132.2313774626019
 10
95.85358070520327
 20
-132.2313774626019
 10
95.85358070520327
 20
-132.0198485998075
 10
95.85358070520327
 20
-132.0198485998075
 10
95.85358070520327
 20
-132.0198485998075
 10
96.92845049660123
 20
-132.0198485998075
 10
96.92845049660123
 20
-132.0198485998075
 10
96.92845049660123
 20
-132.0198485998075
 10
96.92845049660123
 20
-132.2313774626019
 10
96.92845049660123
 20
-132.2313774626019
 10
96.60461152098775
 20
-132.5211099929114
 10
96.3379611304294
 20
-133.1136664163744
 10
96.30419919467396
 20
-133.5642849058451
 97
        0
 97
        0
 75
     2
 76
     1
 98
        0
  0
ENDBLK
  5
DD
330
DA
100
AcDbEntity
  8
0
100
AcDbBlockEnd
  0
BLOCK
  5
EE
330
EC
100
AcDbEntity
  8
0
100
AcDbBlockBegin
  2
block 7
 70
     0
 10
0.0
 20
0.0
 30
0.0
  3
block 7
  1

  0
SPLINE
  5
F0
330
EC
100
AcDbEntity
  8
_U+30EC_U+30A4_U+30E4_U+30FC 1
370
     0
100
AcDbSpline
210
0.0
220
0.0
230
1.0
 70
    11
 71
     3
 72
    26
 73
    22
 74
     0
 42
0.0000000001
 43
0.0000000001
 12
1.0
 22
0.0
 32
0.0
 13
1.0
 23
0.0
 33
0.0
 40
0.0
 40
0.0
 40
0.0
 40
0.0
 40
1.0
 40
1.0
 40
1.0
 40
2.0
 40
2.0
 40
2.0
 40
3.0
 40
3.0
 40
3.0
 40
4.0
 40
4.0
 40
4.0
 40
5.0
 40
5.0
 40
5.0
 40
6.0
 40
6.0
 40
6.0
 40
7.0
 40
7.0
 40
7.0
 40
7.0
 10
103.2147162285366
 20
-130.9311984264686
 30
0.0
 10
103.2147162285366
 20
-130.9311984264686
 30
0.0
 10
102.110563125514
 20
-130.9311984264686
 30
0.0
 10
102.110563125514
 20
-130.9311984264686
 30
0.0
 10
102.110563125514
 20
-130.9311984264686
 30
0.0
 10
102.110563125514
 20
-131.2612385739555
 30
0.0
 10
102.110563125514
 20
-131.2612385739555
 30
0.0
 10
102.110563125514
 20
-131.2612385739555
 30
0.0
 10
101.9624240196483
 20
-131.2612385739555
 30
0.0
 10
101.9624240196483
 20
-131.2612385739555
 30
0.0
 10
101.9476101090617
 20
-130.9291313691774
 30
0.0
 10
101.7846570926094
 20
-130.8826225801266
 30
0.0
 10
101.6702799224991
 20
-130.8529947589534
 30
0.0
 10
101.6702799224991
 20
-130.8529947589534
 30
0.0
 10
101.6702799224991
 20
-130.7069227103788
 30
0.0
 10
101.6702799224991
 20
-130.7069227103788
 30
0.0
 10
101.6702799224991
 20
-130.7069227103788
 30
0.0
 10
103.2147162285366
 20
-130.7069227103788
 30
0.0
 10
103.2147162285366
 20
-130.7069227103788
 30
0.0
 10
103.2147162285366
 20
-130.7069227103788
 30
0.0
 10
103.2147162285366
 20
-130.9311984264686
 30
0.0
 10
103.2147162285366
 20
-130.9311984264686
 30
0.0
  0
HATCH
  5
F1
330
EC
100
AcDbEntity
  8
_U+30EC_U+30A4_U+30E4_U+30FC 1
 62
   179
420
  2234388
100
AcDbHatch
 10
0.0
 20
0.0
 30
0.0
210
0.0
220
0.0
230
1.0
  2
SOLID
 70
     1
 71
     0
 91
        1
 92
        1
 93
        1
 72
     4
 94
        3
 73
     0
 74
     1
 95
       26
 96
       22
 40
0.0
 40
0.0
 40
0.0
 40
0.0
 40
1.0
 40
1.0
 40
1.0
 40
2.0
 40
2.0
 40
2.0
 40
3.0
 40
3.0
 40
3.0
 40
4.0
 40
4.0
 40
4.0
 40
5.0
 40
5.0
 40
5.0
 40
6.0
 40
6.0
 40
6.0
 40
7.0
 40
7.0
 40
7.0
 40
7.0
 10
103.2147162285366
 20
-130.9311984264686
 10
103.2147162285366
 20
-130.9311984264686
 10
102.110563125514
 20
-130.9311984264686
 10
102.110563125514
 20
-130.9311984264686
 10
102.110563125514
 20
-130.9311984264686
 10
102.110563125514
 20
-131.2612385739555
 10
102.110563125514
 20
-131.2612385739555
 10
102.110563125514
 20
-131.2612385739555
 10
101.9624240196483
 20
-131.2612385739555
 10
101.9624240196483
 20
-131.2612385739555
 10
101.9476101090617
 20
-130.9291313691774
 10
101.7846570926094
 20
-130.8826225801266
 10
101.6702799224991
 20
-130.8529947589534
 10
101.6702799224991
 20
-130.8529947589534
 10
101.6702799224991
 20
-130.7069227103788
 10
101.6702799224991
 20
-130.7069227103788
 10
101.6702799224991
 20
-130.7069227103788
 10
103.2147162285366
 20
-130.7069227103788
 10
103.2147162285366
 20
-130.7069227103788
 10
103.2147162285366
 20
-130.7069227103788
 10
103.2147162285366
 20
-130.9311984264686
 10
103.2147162285366
 20
-130.9311984264686
 97
        0
 97
        0
 75
     2
 76
     1
 98
        0
  0
SPLINE
  5
F2
330
EC
100
AcDbEntity
  8
_U+30EC_U+30A4_U+30E4_U+30FC 1
370
     0
100
AcDbSpline
210
0.0
220
0.0
230
1.0
 70
    11
 71
     3
 72
    53
 73
    49
 74
     0
 42
0.0000000001
 43
0.0000000001
 12
1.0
 22
0.0
 32
0.0
 13
1.0
 23
0.0
 33
0.0
 40
0.0
 40
0.0
 40
0.0
 40
0.0
 40
1.0
 40
1.0
 40
1.0
 40
2.0
 40
2.0
 40
2.0
 40
3.0
 40
3.0
 40
3.0
 40
4.0
 40
4.0
 40
4.0
 40
5.0
 40
5.0
 40
5.0
 40
6.0
 40
6.0
 40
6.0
 40
7.0
 40
7.0
 40
7.0
 40
8.0
 40
8.0
 40
8.0
 40
9.0
 40
9.0
 40
9.0
 40
10.0
 40
10.0
 40
10.0
 40
11.0
 40
11.0
 40
11.0
 40
12.0
 40
12.0
 40
12.0
 40
13.0
 40
13.0
 40
13.0
 40
14.0
 40
14.0
 40
14.0
 40
15.0
 40
15.0
 40
15.0
 40
16.0
 40
16.0
 40
16.0
 40
16.0
 10
103.2653591321698
 20
-129.7247259875341
 30
0.0
 10
103.2653591321698
 20
-129.8029296550493
 30
0.0
 10
103.2484781642921
 20
-129.9045599718641
 30
0.0
 10
103.1850884073635
 20
-130.006190288679
 30
0.0
 10
103.075189861384
 20
-130.1794785915871
 30
0.0
 10
102.943931723396
 20
-130.2008381835956
 30
0.0
 10
102.8361002347076
 20
-130.2197862087645
 30
0.0
 10
102.8361002347076
 20
-130.2197862087645
 30
0.0
 10
102.8361002347076
 20
-129.9975775499659
 30
0.0
 10
102.8361002347076
 20
-129.9975775499659
 30
0.0
 10
103.0348822442066
 20
-129.9424560222019
 30
0.0
 10
103.0645100653797
 20
-129.8156765083447
 30
0.0
 10
103.0645100653797
 20
-129.7226589302429
 30
0.0
 10
103.0645100653797
 20
-129.5827880535418
 30
0.0
 10
102.964946805856
 20
-129.4305148330938
 30
0.0
 10
102.7324028606016
 20
-129.4305148330938
 30
0.0
 10
102.4764322660476
 20
-129.4305148330938
 30
0.0
 10
102.406496827697
 20
-129.6103488174238
 30
0.0
 10
102.406496827697
 20
-129.7309271594075
 30
0.0
 10
102.406496827697
 20
-129.7626220378719
 30
0.0
 10
102.406496827697
 20
-129.9045599718641
 30
0.0
 10
102.5356879083939
 20
-129.9934434353836
 30
0.0
 10
102.5356879083939
 20
-129.9934434353836
 30
0.0
 10
102.516739883225
 20
-130.1687987955828
 30
0.0
 10
102.516739883225
 20
-130.1687987955828
 30
0.0
 10
102.516739883225
 20
-130.1687987955828
 30
0.0
 10
101.6702799224991
 20
-130.0482204535991
 30
0.0
 10
101.6702799224991
 20
-130.0482204535991
 30
0.0
 10
101.6702799224991
 20
-130.0482204535991
 30
0.0
 10
101.6702799224991
 20
-129.2699733834811
 30
0.0
 10
101.6702799224991
 20
-129.2699733834811
 30
0.0
 10
101.6702799224991
 20
-129.2699733834811
 30
0.0
 10
101.8649278174157
 20
-129.2699733834811
 30
0.0
 10
101.8649278174157
 20
-129.2699733834811
 30
0.0
 10
101.8649278174157
 20
-129.2699733834811
 30
0.0
 10
101.8649278174157
 20
-129.8856119466953
 30
0.0
 10
101.8649278174157
 20
-129.8856119466953
 30
0.0
 10
101.8649278174157
 20
-129.8856119466953
 30
0.0
 10
102.2879855430044
 20
-129.951068760915
 30
0.0
 10
102.2879855430044
 20
-129.951068760915
 30
0.0
 10
102.2542236072489
 20
-129.8897460612776
 30
0.0
 10
102.2139159900715
 20
-129.8070637696316
 30
0.0
 10
102.2139159900715
 20
-129.6888969944875
 30
0.0
 10
102.2139159900715
 20
-129.4349934572246
 30
0.0
 10
102.4002956558235
 20
-129.1979708878394
 30
0.0
 10
102.7134548354328
 20
-129.1979708878394
 30
0.0
 10
103.0307481296243
 20
-129.1979708878394
 30
0.0
 10
103.2653591321698
 20
-129.4222466039292
 30
0.0
 10
103.2653591321698
 20
-129.7247259875341
 30
0.0
  0
HATCH
  5
F3
330
EC
100
AcDbEntity
  8
_U+30EC_U+30A4_U+30E4_U+30FC 1
 62
   179
420
  2234388
100
AcDbHatch
 10
0.0
 20
0.0
 30
0.0
210
0.0
220
0.0
230
1.0
  2
SOLID
 70
     1
 71
     0
 91
        1
 92
        1
 93
        1
 72
     4
 94
        3
 73
     0
 74
     1
 95
       53
 96
       49
 40
0.0
 40
0.0
 40
0.0
 40
0.0
 40
1.0
 40
1.0
 40
1.0
 40
2.0
 40
2.0
 40
2.0
 40
3.0
 40
3.0
 40
3.0
 40
4.0
 40
4.0
 40
4.0
 40
5.0
 40
5.0
 40
5.0
 40
6.0
 40
6.0
 40
6.0
 40
7.0
 40
7.0
 40
7.0
 40
8.0
 40
8.0
 40
8.0
 40
9.0
 40
9.0
 40
9.0
 40
10.0
 40
10.0
 40
10.0
 40
11.0
 40
11.0
 40
11.0
 40
12.0
 40
12.0
 40
12.0
 40
13.0
 40
13.0
 40
13.0
 40
14.0
 40
14.0
 40
14.0
 40
15.0
 40
15.0
 40
15.0
 40
16.0
 40
16.0
 40
16.0
 40
16.0
 10
103.2653591321698
 20
-129.7247259875341
 10
103.2653591321698
 20
-129.8029296550493
 10
103.2484781642921
 20
-129.9045599718641
 10
103.1850884073635
 20
-130.006190288679
 10
103.075189861384
 20
-130.1794785915871
 10
102.943931723396
 20
-130.2008381835956
 10
102.8361002347076
 20
-130.2197862087645
 10
102.8361002347076
 20
-130.2197862087645
 10
102.8361002347076
 20
-129.9975775499659
 10
102.8361002347076
 20
-129.9975775499659
 10
103.0348822442066
 20
-129.9424560222019
 10
103.0645100653797
 20
-129.8156765083447
 10
103.0645100653797
 20
-129.7226589302429
 10
103.0645100653797
 20
-129.5827880535418
 10
102.964946805856
 20
-129.4305148330938
 10
102.7324028606016
 20
-129.4305148330938
 10
102.4764322660476
 20
-129.4305148330938
 10
102.406496827697
 20
-129.6103488174238
 10
102.406496827697
 20
-129.7309271594075
 10
102.406496827697
 20
-129.7626220378719
 10
102.406496827697
 20
-129.9045599718641
 10
102.5356879083939
 20
-129.9934434353836
 10
102.5356879083939
 20
-129.9934434353836
 10
102.516739883225
 20
-130.1687987955828
 10
102.516739883225
 20
-130.1687987955828
 10
102.516739883225
 20
-130.1687987955828
 10
101.6702799224991
 20
-130.0482204535991
 10
101.6702799224991
 20
-130.0482204535991
 10
101.6702799224991
 20
-130.0482204535991
 10
101.6702799224991
 20
-129.2699733834811
 10
101.6702799224991
 20
-129.2699733834811
 10
101.6702799224991
 20
-129.2699733834811
 10
101.8649278174157
 20
-129.2699733834811
 10
101.8649278174157
 20
-129.2699733834811
 10
101.8649278174157
 20
-129.2699733834811
 10
101.8649278174157
 20
-129.8856119466953
 10
101.8649278174157
 20
-129.8856119466953
 10
101.8649278174157
 20
-129.8856119466953
 10
102.2879855430044
 20
-129.951068760915
 10
102.2879855430044
 20
-129.951068760915
 10
102.2542236072489
 20
-129.8897460612776
 10
102.2139159900715
 20
-129.8070637696316
 10
102.2139159900715
 20
-129.6888969944875
 10
102.2139159900715
 20
-129.4349934572246
 10
102.4002956558235
 20
-129.1979708878394
 10
102.7134548354328
 20
-129.1979708878394
 10
103.0307481296243
 20
-129.1979708878394
 10
103.2653591321698
 20
-129.4222466039292
 10
103.2653591321698
 20
-129.7247259875341
 97
        0
 97
        0
 75
     2
 76
     1
 98
        0
  0
POLYLINE
  5
F4
330
EC
100
AcDbEntity
  8
_U+30EC_U+30A4_U+30E4_U+30FC 1
370
     0
100
AcDb2dPolyline
 66
     1
 10
0.0
 20
0.0
 30
0.0
  0
VERTEX
  5
F5
330
F4
100
AcDbEntity
  8
_U+30EC_U+30A4_U+30E4_U+30FC 1
370
     0
100
AcDbVertex
100
AcDb2dVertex
 10
103.2147162285366
 20
-128.9688720380703
 30
0.0
  0
VERTEX
  5
F6
330
F4
100
AcDbEntity
  8
_U+30EC_U+30A4_U+30E4_U+30FC 1
370
     0
100
AcDbVertex
100
AcDb2dVertex
 10
102.9628797485648
 20
-128.9688720380703
 30
0.0
  0
VERTEX
  5
F7
330
F4
100
AcDbEntity
  8
_U+30EC_U+30A4_U+30E4_U+30FC 1
370
     0
100
AcDbVertex
100
AcDb2dVertex
 10
102.9628797485648
 20
-128.7172078128728
 30
0.0
  0
VERTEX
  5
F8
330
F4
100
AcDbEntity
  8
_U+30EC_U+30A4_U+30E4_U+30FC 1
370
     0
100
AcDbVertex
100
AcDb2dVertex
 10
103.2147162285366
 20
-128.7172078128728
 30
0.0
  0
VERTEX
  5
F9
330
F4
100
AcDbEntity
  8
_U+30EC_U+30A4_U+30E4_U+30FC 1
370
     0
100
AcDbVertex
100
AcDb2dVertex
 10
103.2147162285366
 20
-128.9688720380703
 30
0.0
  0
SEQEND
  5
FA
330
F4
100
AcDbEntity
  8
_U+30EC_U+30A4_U+30E4_U+30FC 1
370
     0
  0
HATCH
  5
FB
330
EC
100
AcDbEntity
  8
_U+30EC_U+30A4_U+30E4_U+30FC 1
 62
   179
420
  2234388
100
AcDbHatch
 10
0.0
 20
0.0
 30
0.0
210
0.0
220
0.0
230
1.0
  2
SOLID
 70
     1
 71
     0
 91
        1
 92
        1
 93
        4
 72
     1
 10
103.2147162285366
 20
-128.9688720380703
 11
102.9628797485648
 21
-128.9688720380703
 72
     1
 10
102.9628797485648
 20
-128.9688720380703
 11
102.9628797485648
 21
-128.7172078128728
 72
     1
 10
102.9628797485648
 20
-128.7172078128728
 11
103.2147162285366
 21
-128.7172078128728
 72
     1
 10
103.2147162285366
 20
-128.7172078128728
 11
103.2147162285366
 21
-128.9688720380703
 97
        0
 75
     2
 76
     1
 98
        0
  0
SPLINE
  5
FC
330
EC
100
AcDbEntity
  8
_U+30EC_U+30A4_U+30E4_U+30FC 1
370
     0
100
AcDbSpline
210
0.0
220
0.0
230
1.0
 70
    11
 71
     3
 72
    53
 73
    49
 74
     0
 42
0.0000000001
 43
0.0000000001
 12
1.0
 22
0.0
 32
0.0
 13
1.0
 23
0.0
 33
0.0
 40
0.0
 40
0.0
 40
0.0
 40
0.0
 40
1.0
 40
1.0
 40
1.0
 40
2.0
 40
2.0
 40
2.0
 40
3.0
 40
3.0
 40
3.0
 40
4.0
 40
4.0
 40
4.0
 40
5.0
 40
5.0
 40
5.0
 40
6.0
 40
6.0
 40
6.0
 40
7.0
 40
7.0
 40
7.0
 40
8.0
 40
8.0
 40
8.0
 40
9.0
 40
9.0
 40
9.0
 40
10.0
 40
10.0
 40
10.0
 40
11.0
 40
11.0
 40
11.0
 40
12.0
 40
12.0
 40
12.0
 40
13.0
 40
13.0
 40
13.0
 40
14.0
 40
14.0
 40
14.0
 40
15.0
 40
15.0
 40
15.0
 40
16.0
 40
16.0
 40
16.0
 40
16.0
 10
103.2653591321698
 20
-127.9997666780695
 30
0.0
 10
103.2653591321698
 20
-128.0781426003589
 30
0.0
 10
103.2484781642921
 20
-128.1796006623995
 30
0.0
 10
103.1850884073635
 20
-128.2812309792144
 30
0.0
 10
103.075189861384
 20
-128.4546915368967
 30
0.0
 10
102.943931723396
 20
-128.475878874131
 30
0.0
 10
102.8361002347076
 20
-128.4948268992999
 30
0.0
 10
102.8361002347076
 20
-128.4948268992999
 30
0.0
 10
102.8361002347076
 20
-128.2727904952756
 30
0.0
 10
102.8361002347076
 20
-128.2727904952756
 30
0.0
 10
103.0348822442066
 20
-128.2176689675116
 30
0.0
 10
103.0645100653797
 20
-128.0907171988801
 30
0.0
 10
103.0645100653797
 20
-127.9976996207784
 30
0.0
 10
103.0645100653797
 20
-127.8580009988515
 30
0.0
 10
102.964946805856
 20
-127.7057277784034
 30
0.0
 10
102.7324028606016
 20
-127.7057277784034
 30
0.0
 10
102.4764322660476
 20
-127.7057277784034
 30
0.0
 10
102.406496827697
 20
-127.8855617627335
 30
0.0
 10
102.406496827697
 20
-128.0061401047172
 30
0.0
 10
102.406496827697
 20
-128.0378349831815
 30
0.0
 10
102.406496827697
 20
-128.1796006623995
 30
0.0
 10
102.5356879083939
 20
-128.268484125919
 30
0.0
 10
102.5356879083939
 20
-128.268484125919
 30
0.0
 10
102.516739883225
 20
-128.4440117408925
 30
0.0
 10
102.516739883225
 20
-128.4440117408925
 30
0.0
 10
102.516739883225
 20
-128.4440117408925
 30
0.0
 10
101.6702799224991
 20
-128.3234333989087
 30
0.0
 10
101.6702799224991
 20
-128.3234333989087
 30
0.0
 10
101.6702799224991
 20
-128.3234333989087
 30
0.0
 10
101.6702799224991
 20
-127.5450140740165
 30
0.0
 10
101.6702799224991
 20
-127.5450140740165
 30
0.0
 10
101.6702799224991
 20
-127.5450140740165
 30
0.0
 10
101.8649278174157
 20
-127.5450140740165
 30
0.0
 10
101.8649278174157
 20
-127.5450140740165
 30
0.0
 10
101.8649278174157
 20
-127.5450140740165
 30
0.0
 10
101.8649278174157
 20
-128.1606526372307
 30
0.0
 10
101.8649278174157
 20
-128.1606526372307
 30
0.0
 10
101.8649278174157
 20
-128.1606526372307
 30
0.0
 10
102.2879855430044
 20
-128.2261094514504
 30
0.0
 10
102.2879855430044
 20
-128.2261094514504
 30
0.0
 10
102.2542236072489
 20
-128.164786751813
 30
0.0
 10
102.2139159900715
 20
-128.0822767149412
 30
0.0
 10
102.2139159900715
 20
-127.9639376850229
 30
0.0
 10
102.2139159900715
 20
-127.71003414776
 30
0.0
 10
102.4002956558235
 20
-127.4730115783748
 30
0.0
 10
102.7134548354328
 20
-127.4730115783748
 30
0.0
 10
103.0307481296243
 20
-127.4730115783748
 30
0.0
 10
103.2653591321698
 20
-127.6972872944646
 30
0.0
 10
103.2653591321698
 20
-127.9997666780695
 30
0.0
  0
HATCH
  5
FD
330
EC
100
AcDbEntity
  8
_U+30EC_U+30A4_U+30E4_U+30FC 1
 62
   179
420
  2234388
100
AcDbHatch
 10
0.0
 20
0.0
 30
0.0
210
0.0
220
0.0
230
1.0
  2
SOLID
 70
     1
 71
     0
 91
        1
 92
        1
 93
        1
 72
     4
 94
        3
 73
     0
 74
     1
 95
       53
 96
       49
 40
0.0
 40
0.0
 40
0.0
 40
0.0
 40
1.0
 40
1.0
 40
1.0
 40
2.0
 40
2.0
 40
2.0
 40
3.0
 40
3.0
 40
3.0
 40
4.0
 40
4.0
 40
4.0
 40
5.0
 40
5.0
 40
5.0
 40
6.0
 40
6.0
 40
6.0
 40
7.0
 40
7.0
 40
7.0
 40
8.0
 40
8.0
 40
8.0
 40
9.0
 40
9.0
 40
9.0
 40
10.0
 40
10.0
 40
10.0
 40
11.0
 40
11.0
 40
11.0
 40
12.0
 40
12.0
 40
12.0
 40
13.0
 40
13.0
 40
13.0
 40
14.0
 40
14.0
 40
14.0
 40
15.0
 40
15.0
 40
15.0
 40
16.0
 40
16.0
 40
16.0
 40
16.0
 10
103.2653591321698
 20
-127.9997666780695
 10
103.2653591321698
 20
-128.0781426003589
 10
103.2484781642921
 20
-128.1796006623995
 10
103.1850884073635
 20
-128.2812309792144
 10
103.075189861384
 20
-128.4546915368967
 10
102.943931723396
 20
-128.475878874131
 10
102.8361002347076
 20
-128.4948268992999
 10
102.8361002347076
 20
-128.4948268992999
 10
102.8361002347076
 20
-128.2727904952756
 10
102.8361002347076
 20
-128.2727904952756
 10
103.0348822442066
 20
-128.2176689675116
 10
103.0645100653797
 20
-128.0907171988801
 10
103.0645100653797
 20
-127.9976996207784
 10
103.0645100653797
 20
-127.8580009988515
 10
102.964946805856
 20
-127.7057277784034
 10
102.7324028606016
 20
-127.7057277784034
 10
102.4764322660476
 20
-127.7057277784034
 10
102.406496827697
 20
-127.8855617627335
 10
102.406496827697
 20
-128.0061401047172
 10
102.406496827697
 20
-128.0378349831815
 10
102.406496827697
 20
-128.1796006623995
 10
102.5356879083939
 20
-128.268484125919
 10
102.5356879083939
 20
-128.268484125919
 10
102.516739883225
 20
-128.4440117408925
 10
102.516739883225
 20
-128.4440117408925
 10
102.516739883225
 20
-128.4440117408925
 10
101.6702799224991
 20
-128.3234333989087
 10
101.6702799224991
 20
-128.3234333989087
 10
101.6702799224991
 20
-128.3234333989087
 10
101.6702799224991
 20
-127.5450140740165
 10
101.6702799224991
 20
-127.5450140740165
 10
101.6702799224991
 20
-127.5450140740165
 10
101.8649278174157
 20
-127.5450140740165
 10
101.8649278174157
 20
-127.5450140740165
 10
101.8649278174157
 20
-127.5450140740165
 10
101.8649278174157
 20
-128.1606526372307
 10
101.8649278174157
 20
-128.1606526372307
 10
101.8649278174157
 20
-128.1606526372307
 10
102.2879855430044
 20
-128.2261094514504
 10
102.2879855430044
 20
-128.2261094514504
 10
102.2542236072489
 20
-128.164786751813
 10
102.2139159900715
 20
-128.0822767149412
 10
102.2139159900715
 20
-127.9639376850229
 10
102.2139159900715
 20
-127.71003414776
 10
102.4002956558235
 20
-127.4730115783748
 10
102.7134548354328
 20
-127.4730115783748
 10
103.0307481296243
 20
-127.4730115783748
 10
103.2653591321698
 20
-127.6972872944646
 10
103.2653591321698
 20
-127.9997666780695
 97
        0
 97
        0
 75
     2
 76
     1
 98
        0
  0
ENDBLK
  5
EF
330
EC
100
AcDbEntity
  8
0
100
AcDbBlockEnd
  0
ENDSEC
  0
SECTION
  2
ENTITIES
  0
POLYLINE
  5
41
330
1F
100
AcDbEntity
  8
_U+30EC_U+30A4_U+30E4_U+30FC 1
 62
   179
420
  2234388
370
    25
100
AcDb2dPolyline
 66
     1
 10
0.0
 20
0.0
 30
0.0
  0
VERTEX
  5
42
330
41
100
AcDbEntity
  8
_U+30EC_U+30A4_U+30E4_U+30FC 1
 62
   179
420
  2234388
370
    25
100
AcDbVertex
100
AcDb2dVertex
 10
81.91041386841125
 20
-120.720626080931
 30
0.0
  0
VERTEX
  5
43
330
41
100
AcDbEntity
  8
_U+30EC_U+30A4_U+30E4_U+30FC 1
 62
   179
420
  2234388
370
    25
100
AcDbVertex
100
AcDb2dVertex
 10
81.91041386841125
 20
-138.1999888543388
 30
0.0
  0
SEQEND
  5
44
330
41
100
AcDbEntity
  8
_U+30EC_U+30A4_U+30E4_U+30FC 1
 62
   179
420
  2234388
370
    25
  0
POLYLINE
  5
45
330
1F
100
AcDbEntity
  8
_U+30EC_U+30A4_U+30E4_U+30FC 1
 62
   179
420
  2234388
370
    25
100
AcDb2dPolyline
 66
     1
 10
0.0
 20
0.0
 30
0.0
  0
VERTEX
  5
46
330
45
100
AcDbEntity
  8
_U+30EC_U+30A4_U+30E4_U+30FC 1
 62
   179
420
  2234388
370
    25
100
AcDbVertex
100
AcDb2dVertex
 10
82.90948053482828
 20
-137.2009221879217
 30
0.0
  0
VERTEX
  5
47
330
45
100
AcDbEntity
  8
_U+30EC_U+30A4_U+30E4_U+30FC 1
 62
   179
420
  2234388
370
    25
100
AcDbVertex
100
AcDb2dVertex
 10
92.89767775455348
 20
-137.2009221879217
 30
0.0
  0
SEQEND
  5
48
330
45
100
AcDbEntity
  8
_U+30EC_U+30A4_U+30E4_U+30FC 1
 62
   179
420
  2234388
370
    25
  0
POLYLINE
  5
49
330
1F
100
AcDbEntity
  8
_U+30EC_U+30A4_U+30E4_U+30FC 1
 62
   179
420
  2234388
370
    25
100
AcDb2dPolyline
 66
     1
 10
0.0
 20
0.0
 30
0.0
  0
VERTEX
  5
4A
330
49
100
AcDbEntity
  8
_U+30EC_U+30A4_U+30E4_U+30FC 1
 62
   179
420
  2234388
370
    25
100
AcDbVertex
100
AcDb2dVertex
 10
82.90948053482828
 20
-121.7196927473477
 30
0.0
  0
VERTEX
  5
4B
330
49
100
AcDbEntity
  8
_U+30EC_U+30A4_U+30E4_U+30FC 1
 62
   179
420
  2234388
370
    25
100
AcDbVertex
100
AcDb2dVertex
 10
89.90992992842881
 20
-121.7196927473477
 30
0.0
  0
SEQEND
  5
4C
330
49
100
AcDbEntity
  8
_U+30EC_U+30A4_U+30E4_U+30FC 1
 62
   179
420
  2234388
370
    25
  0
POLYLINE
  5
4D
330
1F
100
AcDbEntity
  8
_U+30EC_U+30A4_U+30E4_U+30FC 1
 62
   179
420
  2234388
370
    25
100
AcDb2dPolyline
 66
     1
 10
0.0
 20
0.0
 30
0.0
  0
VERTEX
  5
4E
330
4D
100
AcDbEntity
  8
_U+30EC_U+30A4_U+30E4_U+30FC 1
 62
   179
420
  2234388
370
    25
100
AcDbVertex
100
AcDb2dVertex
 10
81.91041386841125
 20
-120.720626080931
 30
0.0
  0
VERTEX
  5
4F
330
4D
100
AcDbEntity
  8
_U+30EC_U+30A4_U+30E4_U+30FC 1
 62
   179
420
  2234388
370
    25
100
AcDbVertex
100
AcDb2dVertex
 10
89.5461102154884
 20
-120.720626080931
 30
0.0
  0
SEQEND
  5
50
330
4D
100
AcDbEntity
  8
_U+30EC_U+30A4_U+30E4_U+30FC 1
 62
   179
420
  2234388
370
    25
  0
POLYLINE
  5
51
330
1F
100
AcDbEntity
  8
_U+30EC_U+30A4_U+30E4_U+30FC 1
 62
   179
420
  2234388
370
    25
100
AcDb2dPolyline
 66
     1
 10
0.0
 20
0.0
 30
0.0
  0
VERTEX
  5
52
330
51
100
AcDbEntity
  8
_U+30EC_U+30A4_U+30E4_U+30FC 1
 62
   179
420
  2234388
370
    25
100
AcDbVertex
100
AcDb2dVertex
 10
81.91041386841125
 20
-138.1999888543388
 30
0.0
  0
VERTEX
  5
53
330
51
100
AcDbEntity
  8
_U+30EC_U+30A4_U+30E4_U+30FC 1
 62
   179
420
  2234388
370
    25
100
AcDbVertex
100
AcDb2dVertex
 10
99.8884607849664
 20
-138.1999888543388
 30
0.0
  0
SEQEND
  5
54
330
51
100
AcDbEntity
  8
_U+30EC_U+30A4_U+30E4_U+30FC 1
 62
   179
420
  2234388
370
    25
  0
POLYLINE
  5
55
330
1F
100
AcDbEntity
  8
_U+30EC_U+30A4_U+30E4_U+30FC 1
 62
   179
420
  2234388
370
    25
100
AcDb2dPolyline
 66
     1
 10
0.0
 20
0.0
 30
0.0
  0
VERTEX
  5
56
330
55
100
AcDbEntity
  8
_U+30EC_U+30A4_U+30E4_U+30FC 1
 62
   179
420
  2234388
370
    25
100
AcDbVertex
100
AcDb2dVertex
 10
82.90948053482828
 20
-121.7196927473477
 30
0.0
  0
VERTEX
  5
57
330
55
100
AcDbEntity
  8
_U+30EC_U+30A4_U+30E4_U+30FC 1
 62
   179
420
  2234388
370
    25
100
AcDbVertex
100
AcDb2dVertex
 10
82.90948053482828
 20
-137.2009221879217
 30
0.0
  0
SEQEND
  5
58
330
55
100
AcDbEntity
  8
_U+30EC_U+30A4_U+30E4_U+30FC 1
 62
   179
420
  2234388
370
    25
  0
POLYLINE
  5
59
330
1F
100
AcDbEntity
  8
_U+30EC_U+30A4_U+30E4_U+30FC 1
 62
   179
420
  2234388
370
    25
100
AcDb2dPolyline
 66
     1
 10
0.0
 20
0.0
 30
0.0
  0
VERTEX
  5
5A
330
59
100
AcDbEntity
  8
_U+30EC_U+30A4_U+30E4_U+30FC 1
 62
   179
420
  2234388
370
    25
100
AcDbVertex
100
AcDb2dVertex
 10
93.19739540011413
 20
-137.5006421878473
 30
0.0
  0
VERTEX
  5
5B
330
59
100
AcDbEntity
  8
_U+30EC_U+30A4_U+30E4_U+30FC 1
 62
   179
420
  2234388
370
    25
100
AcDbVertex
100
AcDb2dVertex
 10
99.63421384700833
 20
-137.5006421878473
 30
0.0
  0
SEQEND
  5
5C
330
59
100
AcDbEntity
  8
_U+30EC_U+30A4_U+30E4_U+30FC 1
 62
   179
420
  2234388
370
    25
  0
POLYLINE
  5
5D
330
1F
100
AcDbEntity
  8
_U+30EC_U+30A4_U+30E4_U+30FC 1
 62
   179
420
  2234388
370
    25
100
AcDb2dPolyline
 66
     1
 10
0.0
 20
0.0
 30
0.0
  0
VERTEX
  5
5E
330
5D
100
AcDbEntity
  8
_U+30EC_U+30A4_U+30E4_U+30FC 1
 62
   179
420
  2234388
370
    25
100
AcDbVertex
100
AcDb2dVertex
 10
89.5461102154884
 20
-120.720626080931
 30
0.0
  0
VERTEX
  5
5F
330
5D
100
AcDbEntity
  8
_U+30EC_U+30A4_U+30E4_U+30FC 1
 62
   179
420
  2234388
370
    25
100
AcDbVertex
100
AcDb2dVertex
 10
89.90992992842881
 20
-121.7196927473477
 30
0.0
  0
SEQEND
  5
60
330
5D
100
AcDbEntity
  8
_U+30EC_U+30A4_U+30E4_U+30FC 1
 62
   179
420
  2234388
370
    25
  0
POLYLINE
  5
61
330
1F
100
AcDbEntity
  8
_U+30EC_U+30A4_U+30E4_U+30FC 1
 62
   179
420
  2234388
370
    25
100
AcDb2dPolyline
 66
     1
 10
0.0
 20
0.0
 30
0.0
  0
VERTEX
  5
62
330
61
100
AcDbEntity
  8
_U+30EC_U+30A4_U+30E4_U+30FC 1
 62
   179
420
  2234388
370
    25
100
AcDbVertex
100
AcDb2dVertex
 10
99.63421384700833
 20
-137.5006421878473
 30
0.0
  0
VERTEX
  5
63
330
61
100
AcDbEntity
  8
_U+30EC_U+30A4_U+30E4_U+30FC 1
 62
   179
420
  2234388
370
    25
100
AcDbVertex
100
AcDb2dVertex
 10
99.8884607849664
 20
-138.1999888543388
 30
0.0
  0
SEQEND
  5
64
330
61
100
AcDbEntity
  8
_U+30EC_U+30A4_U+30E4_U+30FC 1
 62
   179
420
  2234388
370
    25
  0
POLYLINE
  5
65
330
1F
100
AcDbEntity
  8
_U+30EC_U+30A4_U+30E4_U+30FC 1
 62
   179
420
  2234388
370
    25
100
AcDb2dPolyline
 66
     1
 10
0.0
 20
0.0
 30
0.0
  0
VERTEX
  5
66
330
65
100
AcDbEntity
  8
_U+30EC_U+30A4_U+30E4_U+30FC 1
 62
   179
420
  2234388
370
    25
100
AcDbVertex
100
AcDb2dVertex
 10
92.89767775455348
 20
-137.2009221879217
 30
0.0
  0
VERTEX
  5
67
330
65
100
AcDbEntity
  8
_U+30EC_U+30A4_U+30E4_U+30FC 1
 62
   179
420
  2234388
370
    25
100
AcDbVertex
100
AcDb2dVertex
 10
93.19739540011413
 20
-137.5006421878473
 30
0.0
  0
SEQEND
  5
68
330
65
100
AcDbEntity
  8
_U+30EC_U+30A4_U+30E4_U+30FC 1
 62
   179
420
  2234388
370
    25
  0
SPLINE
  5
69
330
1F
100
AcDbEntity
  8
_U+30EC_U+30A4_U+30E4_U+30FC 1
 62
   179
420
  2234388
370
     9
100
AcDbSpline
210
0.0
220
0.0
230
1.0
 70
    11
 71
     3
 72
    17
 73
    13
 74
     0
 42
0.0000000001
 43
0.0000000001
 12
1.0
 22
0.0
 32
0.0
 13
1.0
 23
0.0
 33
0.0
 40
0.0
 40
0.0
 40
0.0
 40
0.0
 40
1.0
 40
1.0
 40
1.0
 40
2.0
 40
2.0
 40
2.0
 40
3.0
 40
3.0
 40
3.0
 40
4.0
 40
4.0
 40
4.0
 40
4.0
 10
82.0106712410668
 20
-134.2047452442264
 30
0.0
 10
82.0106712410668
 20
-134.149606077574
 30
0.0
 10
81.96586846443203
 20
-134.1048032998073
 30
0.0
 10
81.91041386841125
 20
-134.1048032998073
 30
0.0
 10
81.85530791169711
 20
-134.1048032998073
 30
0.0
 10
81.81050513506236
 20
-134.149606077574
 30
0.0
 10
81.81050513506236
 20
-134.2047452442264
 30
0.0
 10
81.81050513506236
 20
-134.259849133102
 30
0.0
 10
81.85530791169711
 20
-134.3046519108681
 30
0.0
 10
81.91041386841125
 20
-134.3046519108681
 30
0.0
 10
81.96586846443203
 20
-134.3046519108681
 30
0.0
 10
82.0106712410668
 20
-134.259849133102
 30
0.0
 10
82.0106712410668
 20
-134.2047452442264
 30
0.0
  0
SPLINE
  5
6A
330
1F
100
AcDbEntity
  8
_U+30EC_U+30A4_U+30E4_U+30FC 1
 62
   179
420
  2234388
370
     9
100
AcDbSpline
210
0.0
220
0.0
230
1.0
 70
    11
 71
     3
 72
    17
 73
    13
 74
     0
 42
0.0000000001
 43
0.0000000001
 12
1.0
 22
0.0
 32
0.0
 13
1.0
 23
0.0
 33
0.0
 40
0.0
 40
0.0
 40
0.0
 40
0.0
 40
1.0
 40
1.0
 40
1.0
 40
2.0
 40
2.0
 40
2.0
 40
3.0
 40
3.0
 40
3.0
 40
4.0
 40
4.0
 40
4.0
 40
4.0
 10
83.00938510447638
 20
-134.2047452442264
 30
0.0
 10
83.00938510447638
 20
-134.149606077574
 30
0.0
 10
82.96461760561849
 20
-134.1048032998073
 30
0.0
 10
82.90948053482828
 20
-134.1048032998073
 30
0.0
 10
82.85437455287547
 20
-134.1048032998073
 30
0.0
 10
82.8095717762407
 20
-134.149606077574
 30
0.0
 10
82.8095717762407
 20
-134.2047452442264
 30
0.0
 10
82.8095717762407
 20
-134.259849133102
 30
0.0
 10
82.85437455287547
 20
-134.3046519108681
 30
0.0
 10
82.90948053482828
 20
-134.3046519108681
 30
0.0
 10
82.96461760561849
 20
-134.3046519108681
 30
0.0
 10
83.00938510447638
 20
-134.259849133102
 30
0.0
 10
83.00938510447638
 20
-134.2047452442264
 30
0.0
  0
SPLINE
  5
6B
330
1F
100
AcDbEntity
  8
_U+30EC_U+30A4_U+30E4_U+30FC 1
 62
   179
420
  2234388
370
     9
100
AcDbSpline
210
0.0
220
0.0
230
1.0
 70
    11
 71
     3
 72
    17
 73
    13
 74
     0
 42
0.0000000001
 43
0.0000000001
 12
1.0
 22
0.0
 32
0.0
 13
1.0
 23
0.0
 33
0.0
 40
0.0
 40
0.0
 40
0.0
 40
0.0
 40
1.0
 40
1.0
 40
1.0
 40
2.0
 40
2.0
 40
2.0
 40
3.0
 40
3.0
 40
3.0
 40
4.0
 40
4.0
 40
4.0
 40
4.0
 10
82.0106712410668
 20
-116.7256999708187
 30
0.0
 10
82.0106712410668
 20
-116.6705608041656
 30
0.0
 10
81.96586846443203
 20
-116.6261460819545
 30
0.0
 10
81.91041386841125
 20
-116.6261460819545
 30
0.0
 10
81.85530791169711
 20
-116.6261460819545
 30
0.0
 10
81.81050513506236
 20
-116.6705608041656
 30
0.0
 10
81.81050513506236
 20
-116.7256999708187
 30
0.0
 10
81.81050513506236
 20
-116.7808038596936
 30
0.0
 10
81.85530791169711
 20
-116.8256066374603
 30
0.0
 10
81.91041386841125
 20
-116.8256066374603
 30
0.0
 10
81.96586846443203
 20
-116.8256066374603
 30
0.0
 10
82.0106712410668
 20
-116.7808038596936
 30
0.0
 10
82.0106712410668
 20
-116.7256999708187
 30
0.0
  0
SPLINE
  5
6C
330
1F
100
AcDbEntity
  8
_U+30EC_U+30A4_U+30E4_U+30FC 1
 62
   179
420
  2234388
370
     9
100
AcDbSpline
210
0.0
220
0.0
230
1.0
 70
    11
 71
     3
 72
    17
 73
    13
 74
     0
 42
0.0000000001
 43
0.0000000001
 12
1.0
 22
0.0
 32
0.0
 13
1.0
 23
0.0
 33
0.0
 40
0.0
 40
0.0
 40
0.0
 40
0.0
 40
1.0
 40
1.0
 40
1.0
 40
2.0
 40
2.0
 40
2.0
 40
3.0
 40
3.0
 40
3.0
 40
4.0
 40
4.0
 40
4.0
 40
4.0
 10
90.0008760372197
 20
-116.7256999708187
 30
0.0
 10
90.0008760372197
 20
-116.6705608041656
 30
0.0
 10
89.9561085383618
 20
-116.6261460819545
 30
0.0
 10
89.90096937310186
 20
-116.6261460819545
 30
0.0
 10
89.84586548561879
 20
-116.6261460819545
 30
0.0
 10
89.80106270898402
 20
-116.6705608041656
 30
0.0
 10
89.80106270898402
 20
-116.7256999708187
 30
0.0
 10
89.80106270898402
 20
-116.7808038596936
 30
0.0
 10
89.84586548561879
 20
-116.8256066374603
 30
0.0
 10
89.90096937310186
 20
-116.8256066374603
 30
0.0
 10
89.9561085383618
 20
-116.8256066374603
 30
0.0
 10
90.0008760372197
 20
-116.7808038596936
 30
0.0
 10
90.0008760372197
 20
-116.7256999708187
 30
0.0
  0
SPLINE
  5
6D
330
1F
100
AcDbEntity
  8
_U+30EC_U+30A4_U+30E4_U+30FC 1
 62
   179
420
  2234388
370
     9
100
AcDbSpline
210
0.0
220
0.0
230
1.0
 70
    11
 71
     3
 72
    17
 73
    13
 74
     0
 42
0.0000000001
 43
0.0000000001
 12
1.0
 22
0.0
 32
0.0
 13
1.0
 23
0.0
 33
0.0
 40
0.0
 40
0.0
 40
0.0
 40
0.0
 40
1.0
 40
1.0
 40
1.0
 40
2.0
 40
2.0
 40
2.0
 40
3.0
 40
3.0
 40
3.0
 40
4.0
 40
4.0
 40
4.0
 40
4.0
 10
103.9839990138138
 20
-121.7196927473477
 30
0.0
 10
103.9839990138138
 20
-121.6645888584728
 30
0.0
 10
103.9392315149559
 20
-121.6197860807061
 30
0.0
 10
103.884092349696
 20
-121.6197860807061
 30
0.0
 10
103.8289884622129
 20
-121.6197860807061
 30
0.0
 10
103.7841856855782
 20
-121.6645888584728
 30
0.0
 10
103.7841856855782
 20
-121.7196927473477
 30
0.0
 10
103.7841856855782
 20
-121.7748319140008
 30
0.0
 10
103.8289884622129
 20
-121.8195994139897
 30
0.0
 10
103.884092349696
 20
-121.8195994139897
 30
0.0
 10
103.9392315149559
 20
-121.8195994139897
 30
0.0
 10
103.9839990138138
 20
-121.7748319140008
 30
0.0
 10
103.9839990138138
 20
-121.7196927473477
 30
0.0
  0
SPLINE
  5
6E
330
1F
100
AcDbEntity
  8
_U+30EC_U+30A4_U+30E4_U+30FC 1
 62
   179
420
  2234388
370
     9
100
AcDbSpline
210
0.0
220
0.0
230
1.0
 70
    11
 71
     3
 72
    17
 73
    13
 74
     0
 42
0.0000000001
 43
0.0000000001
 12
1.0
 22
0.0
 32
0.0
 13
1.0
 23
0.0
 33
0.0
 40
0.0
 40
0.0
 40
0.0
 40
0.0
 40
1.0
 40
1.0
 40
1.0
 40
2.0
 40
2.0
 40
2.0
 40
3.0
 40
3.0
 40
3.0
 40
4.0
 40
4.0
 40
4.0
 40
4.0
 10
103.9839990138138
 20
-137.2009221879217
 30
0.0
 10
103.9839990138138
 20
-137.1458182990468
 30
0.0
 10
103.9392315149559
 20
-137.1010155212801
 30
0.0
 10
103.884092349696
 20
-137.1010155212801
 30
0.0
 10
103.8289884622129
 20
-137.1010155212801
 30
0.0
 10
103.7841856855782
 20
-137.1458182990468
 30
0.0
 10
103.7841856855782
 20
-137.2009221879217
 30
0.0
 10
103.7841856855782
 20
-137.256378854575
 30
0.0
 10
103.8289884622129
 20
-137.3011816323411
 30
0.0
 10
103.884092349696
 20
-137.3011816323411
 30
0.0
 10
103.9392315149559
 20
-137.3011816323411
 30
0.0
 10
103.9839990138138
 20
-137.256378854575
 30
0.0
 10
103.9839990138138
 20
-137.2009221879217
 30
0.0
  0
SPLINE
  5
6F
330
1F
100
AcDbEntity
  8
_U+30EC_U+30A4_U+30E4_U+30FC 1
 62
   179
420
  2234388
370
     9
100
AcDbSpline
210
0.0
220
0.0
230
1.0
 70
    11
 71
     3
 72
    17
 73
    13
 74
     0
 42
0.0000000001
 43
0.0000000001
 12
1.0
 22
0.0
 32
0.0
 13
1.0
 23
0.0
 33
0.0
 40
0.0
 40
0.0
 40
0.0
 40
0.0
 40
1.0
 40
1.0
 40
1.0
 40
2.0
 40
2.0
 40
2.0
 40
3.0
 40
3.0
 40
3.0
 40
4.0
 40
4.0
 40
4.0
 40
4.0
 10
103.9839990138138
 20
-137.5006421878473
 30
0.0
 10
103.9839990138138
 20
-137.4455382989717
 30
0.0
 10
103.9392315149559
 20
-137.4007355212057
 30
0.0
 10
103.884092349696
 20
-137.4007355212057
 30
0.0
 10
103.8289884622129
 20
-137.4007355212057
 30
0.0
 10
103.7841856855782
 20
-137.4455382989717
 30
0.0
 10
103.7841856855782
 20
-137.5006421878473
 30
0.0
 10
103.7841856855782
 20
-137.5561341322775
 30
0.0
 10
103.8289884622129
 20
-137.6009016322667
 30
0.0
 10
103.884092349696
 20
-137.6009016322667
 30
0.0
 10
103.9392315149559
 20
-137.6009016322667
 30
0.0
 10
103.9839990138138
 20
-137.5561341322775
 30
0.0
 10
103.9839990138138
 20
-137.5006421878473
 30
0.0
  0
SPLINE
  5
70
330
1F
100
AcDbEntity
  8
_U+30EC_U+30A4_U+30E4_U+30FC 1
 62
   179
420
  2234388
370
     9
100
AcDbSpline
210
0.0
220
0.0
230
1.0
 70
    11
 71
     3
 72
    17
 73
    13
 74
     0
 42
0.0000000001
 43
0.0000000001
 12
1.0
 22
0.0
 32
0.0
 13
1.0
 23
0.0
 33
0.0
 40
0.0
 40
0.0
 40
0.0
 40
0.0
 40
1.0
 40
1.0
 40
1.0
 40
2.0
 40
2.0
 40
2.0
 40
3.0
 40
3.0
 40
3.0
 40
4.0
 40
4.0
 40
4.0
 40
4.0
 10
103.9839990138138
 20
-138.1999888543388
 30
0.0
 10
103.9839990138138
 20
-138.1448849654638
 30
0.0
 10
103.9392315149559
 20
-138.1000821876971
 30
0.0
 10
103.884092349696
 20
-138.1000821876971
 30
0.0
 10
103.8289884622129
 20
-138.1000821876971
 30
0.0
 10
103.7841856855782
 20
-138.1448849654638
 30
0.0
 10
103.7841856855782
 20
-138.1999888543388
 30
0.0
 10
103.7841856855782
 20
-138.2551280209918
 30
0.0
 10
103.8289884622129
 20
-138.2995780209808
 30
0.0
 10
103.884092349696
 20
-138.2995780209808
 30
0.0
 10
103.9392315149559
 20
-138.2995780209808
 30
0.0
 10
103.9839990138138
 20
-138.2551280209918
 30
0.0
 10
103.9839990138138
 20
-138.1999888543388
 30
0.0
  0
SPLINE
  5
71
330
1F
100
AcDbEntity
  8
_U+30EC_U+30A4_U+30E4_U+30FC 1
 62
   179
420
  2234388
370
     9
100
AcDbSpline
210
0.0
220
0.0
230
1.0
 70
    11
 71
     3
 72
    17
 73
    13
 74
     0
 42
0.0000000001
 43
0.0000000001
 12
1.0
 22
0.0
 32
0.0
 13
1.0
 23
0.0
 33
0.0
 40
0.0
 40
0.0
 40
0.0
 40
0.0
 40
1.0
 40
1.0
 40
1.0
 40
2.0
 40
2.0
 40
2.0
 40
3.0
 40
3.0
 40
3.0
 40
4.0
 40
4.0
 40
4.0
 40
4.0
 10
99.98836744908422
 20
-142.1952677422292
 30
0.0
 10
99.98836744908422
 20
-142.1401638533537
 30
0.0
 10
99.94427022798702
 20
-142.0953610755876
 30
0.0
 10
99.8884607849664
 20
-142.0953610755876
 30
0.0
 10
99.83335689748333
 20
-142.0953610755876
 30
0.0
 10
99.78855412084856
 20
-142.1401638533537
 30
0.0
 10
99.78855412084856
 20
-142.1952677422292
 30
0.0
 10
99.78855412084856
 20
-142.2504069088817
 30
0.0
 10
99.83335689748333
 20
-142.2951744088708
 30
0.0
 10
99.8884607849664
 20
-142.2951744088708
 30
0.0
 10
99.94427022798702
 20
-142.2951744088708
 30
0.0
 10
99.98836744908422
 20
-142.2504069088817
 30
0.0
 10
99.98836744908422
 20
-142.1952677422292
 30
0.0
  0
SPLINE
  5
72
330
1F
100
AcDbEntity
  8
_U+30EC_U+30A4_U+30E4_U+30FC 1
 62
   179
420
  2234388
370
     9
100
AcDbSpline
210
0.0
220
0.0
230
1.0
 70
    11
 71
     3
 72
    17
 73
    13
 74
     0
 42
0.0000000001
 43
0.0000000001
 12
1.0
 22
0.0
 32
0.0
 13
1.0
 23
0.0
 33
0.0
 40
0.0
 40
0.0
 40
0.0
 40
0.0
 40
1.0
 40
1.0
 40
1.0
 40
2.0
 40
2.0
 40
2.0
 40
3.0
 40
3.0
 40
3.0
 40
4.0
 40
4.0
 40
4.0
 40
4.0
 10
82.0106712410668
 20
-142.1952677422292
 30
0.0
 10
82.0106712410668
 20
-142.1401638533537
 30
0.0
 10
81.96586846443203
 20
-142.0953610755876
 30
0.0
 10
81.91041386841125
 20
-142.0953610755876
 30
0.0
 10
81.85530791169711
 20
-142.0953610755876
 30
0.0
 10
81.81050513506236
 20
-142.1401638533537
 30
0.0
 10
81.81050513506236
 20
-142.1952677422292
 30
0.0
 10
81.81050513506236
 20
-142.2504069088817
 30
0.0
 10
81.85530791169711
 20
-142.2951744088708
 30
0.0
 10
81.91041386841125
 20
-142.2951744088708
 30
0.0
 10
81.96586846443203
 20
-142.2951744088708
 30
0.0
 10
82.0106712410668
 20
-142.2504069088817
 30
0.0
 10
82.0106712410668
 20
-142.1952677422292
 30
0.0
  0
SPLINE
  5
73
330
1F
100
AcDbEntity
  8
_U+30EC_U+30A4_U+30E4_U+30FC 1
 62
   179
420
  2234388
370
     9
100
AcDbSpline
210
0.0
220
0.0
230
1.0
 70
    11
 71
     3
 72
    17
 73
    13
 74
     0
 42
0.0000000001
 43
0.0000000001
 12
1.0
 22
0.0
 32
0.0
 13
1.0
 23
0.0
 33
0.0
 40
0.0
 40
0.0
 40
0.0
 40
0.0
 40
1.0
 40
1.0
 40
1.0
 40
2.0
 40
2.0
 40
2.0
 40
3.0
 40
3.0
 40
3.0
 40
4.0
 40
4.0
 40
4.0
 40
4.0
 10
99.98836744908422
 20
-134.2047452442264
 30
0.0
 10
99.98836744908422
 20
-134.149606077574
 30
0.0
 10
99.94427022798702
 20
-134.1048032998073
 30
0.0
 10
99.8884607849664
 20
-134.1048032998073
 30
0.0
 10
99.83335689748333
 20
-134.1048032998073
 30
0.0
 10
99.78855412084856
 20
-134.149606077574
 30
0.0
 10
99.78855412084856
 20
-134.2047452442264
 30
0.0
 10
99.78855412084856
 20
-134.259849133102
 30
0.0
 10
99.83335689748333
 20
-134.3046519108681
 30
0.0
 10
99.8884607849664
 20
-134.3046519108681
 30
0.0
 10
99.94427022798702
 20
-134.3046519108681
 30
0.0
 10
99.98836744908422
 20
-134.259849133102
 30
0.0
 10
99.98836744908422
 20
-134.2047452442264
 30
0.0
  0
SPLINE
  5
74
330
1F
100
AcDbEntity
  8
_U+30EC_U+30A4_U+30E4_U+30FC 1
 62
   179
420
  2234388
370
     9
100
AcDbSpline
210
0.0
220
0.0
230
1.0
 70
    11
 71
     3
 72
    17
 73
    13
 74
     0
 42
0.0000000001
 43
0.0000000001
 12
1.0
 22
0.0
 32
0.0
 13
1.0
 23
0.0
 33
0.0
 40
0.0
 40
0.0
 40
0.0
 40
0.0
 40
1.0
 40
1.0
 40
1.0
 40
2.0
 40
2.0
 40
2.0
 40
3.0
 40
3.0
 40
3.0
 40
4.0
 40
4.0
 40
4.0
 40
4.0
 10
92.99758207187847
 20
-134.2047452442264
 30
0.0
 10
92.99758207187847
 20
-134.149606077574
 30
0.0
 10
92.95281457302058
 20
-134.1048032998073
 30
0.0
 10
92.89767775455348
 20
-134.1048032998073
 30
0.0
 10
92.84257152027756
 20
-134.1048032998073
 30
0.0
 10
92.79776874364279
 20
-134.149606077574
 30
0.0
 10
92.79776874364279
 20
-134.2047452442264
 30
0.0
 10
92.79776874364279
 20
-134.259849133102
 30
0.0
 10
92.84257152027756
 20
-134.3046519108681
 30
0.0
 10
92.89767775455348
 20
-134.3046519108681
 30
0.0
 10
92.95281457302058
 20
-134.3046519108681
 30
0.0
 10
92.99758207187847
 20
-134.259849133102
 30
0.0
 10
92.99758207187847
 20
-134.2047452442264
 30
0.0
  0
POLYLINE
  5
75
330
1F
100
AcDbEntity
  8
_U+30EC_U+30A4_U+30E4_U+30FC 1
 62
   179
420
  2234388
370
     9
100
AcDb2dPolyline
 66
     1
 10
0.0
 20
0.0
 30
0.0
  0
VERTEX
  5
76
330
75
100
AcDbEntity
  8
_U+30EC_U+30A4_U+30E4_U+30FC 1
 62
   179
420
  2234388
370
     9
100
AcDbVertex
100
AcDb2dVertex
 10
81.91041386841125
 20
-116.7256999708187
 30
0.0
  0
VERTEX
  5
77
330
75
100
AcDbEntity
  8
_U+30EC_U+30A4_U+30E4_U+30FC 1
 62
   179
420
  2234388
370
     9
100
AcDbVertex
100
AcDb2dVertex
 10
89.90096937310186
 20
-116.7256999708187
 30
0.0
  0
SEQEND
  5
78
330
75
100
AcDbEntity
  8
_U+30EC_U+30A4_U+30E4_U+30FC 1
 62
   179
420
  2234388
370
     9
  0
POLYLINE
  5
79
330
1F
100
AcDbEntity
  8
_U+30EC_U+30A4_U+30E4_U+30FC 1
 62
   179
420
  2234388
370
     9
100
AcDb2dPolyline
 66
     1
 10
0.0
 20
0.0
 30
0.0
  0
VERTEX
  5
7A
330
79
100
AcDbEntity
  8
_U+30EC_U+30A4_U+30E4_U+30FC 1
 62
   179
420
  2234388
370
     9
100
AcDbVertex
100
AcDb2dVertex
 10
81.91041386841125
 20
-118.1840127482317
 30
0.0
  0
VERTEX
  5
7B
330
79
100
AcDbEntity
  8
_U+30EC_U+30A4_U+30E4_U+30FC 1
 62
   179
420
  2234388
370
     9
100
AcDbVertex
100
AcDb2dVertex
 10
81.91041386841125
 20
-115.7269508044016
 30
0.0
  0
SEQEND
  5
7C
330
79
100
AcDbEntity
  8
_U+30EC_U+30A4_U+30E4_U+30FC 1
 62
   179
420
  2234388
370
     9
  0
POLYLINE
  5
7D
330
1F
100
AcDbEntity
  8
_U+30EC_U+30A4_U+30E4_U+30FC 1
 62
   179
420
  2234388
370
     9
100
AcDb2dPolyline
 66
     1
 10
0.0
 20
0.0
 30
0.0
  0
VERTEX
  5
7E
330
7D
100
AcDbEntity
  8
_U+30EC_U+30A4_U+30E4_U+30FC 1
 62
   179
420
  2234388
370
     9
100
AcDbVertex
100
AcDb2dVertex
 10
89.90096937310186
 20
-118.1840127482317
 30
0.0
  0
VERTEX
  5
7F
330
7D
100
AcDbEntity
  8
_U+30EC_U+30A4_U+30E4_U+30FC 1
 62
   179
420
  2234388
370
     9
100
AcDbVertex
100
AcDb2dVertex
 10
89.90096937310186
 20
-115.7269508044016
 30
0.0
  0
SEQEND
  5
80
330
7D
100
AcDbEntity
  8
_U+30EC_U+30A4_U+30E4_U+30FC 1
 62
   179
420
  2234388
370
     9
  0
INSERT
  5
82
330
1F
100
AcDbEntity
  8
_U+30EC_U+30A4_U+30E4_U+30FC 1
100
AcDbBlockReference
  2
block 2
 10
0.0
 20
0.0
 30
0.0
  0
POLYLINE
  5
89
330
1F
100
AcDbEntity
  8
_U+30EC_U+30A4_U+30E4_U+30FC 1
 62
   179
420
  2234388
370
     9
100
AcDb2dPolyline
 66
     1
 10
0.0
 20
0.0
 30
0.0
  0
VERTEX
  5
8A
330
89
100
AcDbEntity
  8
_U+30EC_U+30A4_U+30E4_U+30FC 1
 62
   179
420
  2234388
370
     9
100
AcDbVertex
100
AcDb2dVertex
 10
81.91041386841125
 20
-142.1952677422292
 30
0.0
  0
VERTEX
  5
8B
330
89
100
AcDbEntity
  8
_U+30EC_U+30A4_U+30E4_U+30FC 1
 62
   179
420
  2234388
370
     9
100
AcDbVertex
100
AcDb2dVertex
 10
99.8884607849664
 20
-142.1952677422292
 30
0.0
  0
SEQEND
  5
8C
330
89
100
AcDbEntity
  8
_U+30EC_U+30A4_U+30E4_U+30FC 1
 62
   179
420
  2234388
370
     9
  0
POLYLINE
  5
8D
330
1F
100
AcDbEntity
  8
_U+30EC_U+30A4_U+30E4_U+30FC 1
 62
   179
420
  2234388
370
     9
100
AcDb2dPolyline
 66
     1
 10
0.0
 20
0.0
 30
0.0
  0
VERTEX
  5
8E
330
8D
100
AcDbEntity
  8
_U+30EC_U+30A4_U+30E4_U+30FC 1
 62
   179
420
  2234388
370
     9
100
AcDbVertex
100
AcDb2dVertex
 10
81.91041386841125
 20
-140.7369902425937
 30
0.0
  0
VERTEX
  5
8F
330
8D
100
AcDbEntity
  8
_U+30EC_U+30A4_U+30E4_U+30FC 1
 62
   179
420
  2234388
370
     9
100
AcDbVertex
100
AcDb2dVertex
 10
81.91041386841125
 20
-143.194016908646
 30
0.0
  0
SEQEND
  5
90
330
8D
100
AcDbEntity
  8
_U+30EC_U+30A4_U+30E4_U+30FC 1
 62
   179
420
  2234388
370
     9
  0
POLYLINE
  5
91
330
1F
100
AcDbEntity
  8
_U+30EC_U+30A4_U+30E4_U+30FC 1
 62
   179
420
  2234388
370
     9
100
AcDb2dPolyline
 66
     1
 10
0.0
 20
0.0
 30
0.0
  0
VERTEX
  5
92
330
91
100
AcDbEntity
  8
_U+30EC_U+30A4_U+30E4_U+30FC 1
 62
   179
420
  2234388
370
     9
100
AcDbVertex
100
AcDb2dVertex
 10
99.8884607849664
 20
-140.7369902425937
 30
0.0
  0
VERTEX
  5
93
330
91
100
AcDbEntity
  8
_U+30EC_U+30A4_U+30E4_U+30FC 1
 62
   179
420
  2234388
370
     9
100
AcDbVertex
100
AcDb2dVertex
 10
99.8884607849664
 20
-143.194016908646
 30
0.0
  0
SEQEND
  5
94
330
91
100
AcDbEntity
  8
_U+30EC_U+30A4_U+30E4_U+30FC 1
 62
   179
420
  2234388
370
     9
  0
INSERT
  5
96
330
1F
100
AcDbEntity
  8
_U+30EC_U+30A4_U+30E4_U+30FC 1
100
AcDbBlockReference
  2
block 3
 10
0.0
 20
0.0
 30
0.0
  0
POLYLINE
  5
9F
330
1F
100
AcDbEntity
  8
_U+30EC_U+30A4_U+30E4_U+30FC 1
 62
   179
420
  2234388
370
     9
100
AcDb2dPolyline
 66
     1
 10
0.0
 20
0.0
 30
0.0
  0
VERTEX
  5
A0
330
9F
100
AcDbEntity
  8
_U+30EC_U+30A4_U+30E4_U+30FC 1
 62
   179
420
  2234388
370
     9
100
AcDbVertex
100
AcDb2dVertex
 10
103.884092349696
 20
-138.1999888543388
 30
0.0
  0
VERTEX
  5
A1
330
9F
100
AcDbEntity
  8
_U+30EC_U+30A4_U+30E4_U+30FC 1
 62
   179
420
  2234388
370
     9
100
AcDbVertex
100
AcDb2dVertex
 10
103.884092349696
 20
-143.4517210752481
 30
0.0
  0
SEQEND
  5
A2
330
9F
100
AcDbEntity
  8
_U+30EC_U+30A4_U+30E4_U+30FC 1
 62
   179
420
  2234388
370
     9
  0
POLYLINE
  5
A3
330
1F
100
AcDbEntity
  8
_U+30EC_U+30A4_U+30E4_U+30FC 1
 62
   179
420
  2234388
370
     9
100
AcDb2dPolyline
 66
     1
 10
0.0
 20
0.0
 30
0.0
  0
VERTEX
  5
A4
330
A3
100
AcDbEntity
  8
_U+30EC_U+30A4_U+30E4_U+30FC 1
 62
   179
420
  2234388
370
     9
100
AcDbVertex
100
AcDb2dVertex
 10
103.884092349696
 20
-138.1999888543388
 30
0.0
  0
VERTEX
  5
A5
330
A3
100
AcDbEntity
  8
_U+30EC_U+30A4_U+30E4_U+30FC 1
 62
   179
420
  2234388
370
     9
100
AcDbVertex
100
AcDb2dVertex
 10
103.884092349696
 20
-137.5006421878473
 30
0.0
  0
SEQEND
  5
A6
330
A3
100
AcDbEntity
  8
_U+30EC_U+30A4_U+30E4_U+30FC 1
 62
   179
420
  2234388
370
     9
  0
POLYLINE
  5
A7
330
1F
100
AcDbEntity
  8
_U+30EC_U+30A4_U+30E4_U+30FC 1
 62
   179
420
  2234388
370
     9
100
AcDb2dPolyline
 66
     1
 10
0.0
 20
0.0
 30
0.0
  0
VERTEX
  5
A8
330
A7
100
AcDbEntity
  8
_U+30EC_U+30A4_U+30E4_U+30FC 1
 62
   179
420
  2234388
370
     9
100
AcDbVertex
100
AcDb2dVertex
 10
102.4254268313541
 20
-138.1999888543388
 30
0.0
  0
VERTEX
  5
A9
330
A7
100
AcDbEntity
  8
_U+30EC_U+30A4_U+30E4_U+30FC 1
 62
   179
420
  2234388
370
     9
100
AcDbVertex
100
AcDb2dVertex
 10
104.8831589908744
 20
-138.1999888543388
 30
0.0
  0
SEQEND
  5
AA
330
A7
100
AcDbEntity
  8
_U+30EC_U+30A4_U+30E4_U+30FC 1
 62
   179
420
  2234388
370
     9
  0
POLYLINE
  5
AB
330
1F
100
AcDbEntity
  8
_U+30EC_U+30A4_U+30E4_U+30FC 1
 62
   179
420
  2234388
370
     9
100
AcDb2dPolyline
 66
     1
 10
0.0
 20
0.0
 30
0.0
  0
VERTEX
  5
AC
330
AB
100
AcDbEntity
  8
_U+30EC_U+30A4_U+30E4_U+30FC 1
 62
   179
420
  2234388
370
     9
100
AcDbVertex
100
AcDb2dVertex
 10
102.171179893396
 20
-137.5006421878473
 30
0.0
  0
VERTEX
  5
AD
330
AB
100
AcDbEntity
  8
_U+30EC_U+30A4_U+30E4_U+30FC 1
 62
   179
420
  2234388
370
     9
100
AcDbVertex
100
AcDb2dVertex
 10
104.8831589908744
 20
-137.5006421878473
 30
0.0
  0
SEQEND
  5
AE
330
AB
100
AcDbEntity
  8
_U+30EC_U+30A4_U+30E4_U+30FC 1
 62
   179
420
  2234388
370
     9
  0
INSERT
  5
B0
330
1F
100
AcDbEntity
  8
_U+30EC_U+30A4_U+30E4_U+30FC 1
100
AcDbBlockReference
  2
block 4
 10
0.0
 20
0.0
 30
0.0
  0
POLYLINE
  5
C0
330
1F
100
AcDbEntity
  8
_U+30EC_U+30A4_U+30E4_U+30FC 1
 62
   179
420
  2234388
370
     9
100
AcDb2dPolyline
 66
     1
 10
0.0
 20
0.0
 30
0.0
  0
VERTEX
  5
C1
330
C0
100
AcDbEntity
  8
_U+30EC_U+30A4_U+30E4_U+30FC 1
 62
   179
420
  2234388
370
     9
100
AcDbVertex
100
AcDb2dVertex
 10
81.91041386841125
 20
-134.2047452442264
 30
0.0
  0
VERTEX
  5
C2
330
C0
100
AcDbEntity
  8
_U+30EC_U+30A4_U+30E4_U+30FC 1
 62
   179
420
  2234388
370
     9
100
AcDbVertex
100
AcDb2dVertex
 10
78.14493245080112
 20
-134.2047452442264
 30
0.0
  0
SEQEND
  5
C3
330
C0
100
AcDbEntity
  8
_U+30EC_U+30A4_U+30E4_U+30FC 1
 62
   179
420
  2234388
370
     9
  0
POLYLINE
  5
C4
330
1F
100
AcDbEntity
  8
_U+30EC_U+30A4_U+30E4_U+30FC 1
 62
   179
420
  2234388
370
     9
100
AcDb2dPolyline
 66
     1
 10
0.0
 20
0.0
 30
0.0
  0
VERTEX
  5
C5
330
C4
100
AcDbEntity
  8
_U+30EC_U+30A4_U+30E4_U+30FC 1
 62
   179
420
  2234388
370
     9
100
AcDbVertex
100
AcDb2dVertex
 10
81.91041386841125
 20
-134.2047452442264
 30
0.0
  0
VERTEX
  5
C6
330
C4
100
AcDbEntity
  8
_U+30EC_U+30A4_U+30E4_U+30FC 1
 62
   179
420
  2234388
370
     9
100
AcDbVertex
100
AcDb2dVertex
 10
83.90858035931377
 20
-134.2047452442264
 30
0.0
  0
SEQEND
  5
C7
330
C4
100
AcDbEntity
  8
_U+30EC_U+30A4_U+30E4_U+30FC 1
 62
   179
420
  2234388
370
     9
  0
INSERT
  5
C9
330
1F
100
AcDbEntity
  8
_U+30EC_U+30A4_U+30E4_U+30FC 1
100
AcDbBlockReference
  2
block 5
 10
0.0
 20
0.0
 30
0.0
  0
POLYLINE
  5
CE
330
1F
100
AcDbEntity
  8
_U+30EC_U+30A4_U+30E4_U+30FC 1
 62
   179
420
  2234388
370
     9
100
AcDb2dPolyline
 66
     1
 10
0.0
 20
0.0
 30
0.0
  0
VERTEX
  5
CF
330
CE
100
AcDbEntity
  8
_U+30EC_U+30A4_U+30E4_U+30FC 1
 62
   179
420
  2234388
370
     9
100
AcDbVertex
100
AcDb2dVertex
 10
92.89767775455348
 20
-134.2047452442264
 30
0.0
  0
VERTEX
  5
D0
330
CE
100
AcDbEntity
  8
_U+30EC_U+30A4_U+30E4_U+30FC 1
 62
   179
420
  2234388
370
     9
100
AcDbVertex
100
AcDb2dVertex
 10
99.8884607849664
 20
-134.2047452442264
 30
0.0
  0
SEQEND
  5
D1
330
CE
100
AcDbEntity
  8
_U+30EC_U+30A4_U+30E4_U+30FC 1
 62
   179
420
  2234388
370
     9
  0
POLYLINE
  5
D2
330
1F
100
AcDbEntity
  8
_U+30EC_U+30A4_U+30E4_U+30FC 1
 62
   179
420
  2234388
370
     9
100
AcDb2dPolyline
 66
     1
 10
0.0
 20
0.0
 30
0.0
  0
VERTEX
  5
D3
330
D2
100
AcDbEntity
  8
_U+30EC_U+30A4_U+30E4_U+30FC 1
 62
   179
420
  2234388
370
     9
100
AcDbVertex
100
AcDb2dVertex
 10
92.89767775455348
 20
-134.6643088552227
 30
0.0
  0
VERTEX
  5
D4
330
D2
100
AcDbEntity
  8
_U+30EC_U+30A4_U+30E4_U+30FC 1
 62
   179
420
  2234388
370
     9
100
AcDbVertex
100
AcDb2dVertex
 10
92.89767775455348
 20
-133.2059960778097
 30
0.0
  0
SEQEND
  5
D5
330
D2
100
AcDbEntity
  8
_U+30EC_U+30A4_U+30E4_U+30FC 1
 62
   179
420
  2234388
370
     9
  0
POLYLINE
  5
D6
330
1F
100
AcDbEntity
  8
_U+30EC_U+30A4_U+30E4_U+30FC 1
 62
   179
420
  2234388
370
     9
100
AcDb2dPolyline
 66
     1
 10
0.0
 20
0.0
 30
0.0
  0
VERTEX
  5
D7
330
D6
100
AcDbEntity
  8
_U+30EC_U+30A4_U+30E4_U+30FC 1
 62
   179
420
  2234388
370
     9
100
AcDbVertex
100
AcDb2dVertex
 10
99.8884607849664
 20
-135.6627052438624
 30
0.0
  0
VERTEX
  5
D8
330
D6
100
AcDbEntity
  8
_U+30EC_U+30A4_U+30E4_U+30FC 1
 62
   179
420
  2234388
370
     9
100
AcDbVertex
100
AcDb2dVertex
 10
99.8884607849664
 20
-133.2059960778097
 30
0.0
  0
SEQEND
  5
D9
330
D6
100
AcDbEntity
  8
_U+30EC_U+30A4_U+30E4_U+30FC 1
 62
   179
420
  2234388
370
     9
  0
INSERT
  5
DB
330
1F
100
AcDbEntity
  8
_U+30EC_U+30A4_U+30E4_U+30FC 1
100
AcDbBlockReference
  2
block 6
 10
0.0
 20
0.0
 30
0.0
  0
POLYLINE
  5
E0
330
1F
100
AcDbEntity
  8
_U+30EC_U+30A4_U+30E4_U+30FC 1
 62
   179
420
  2234388
370
     9
100
AcDb2dPolyline
 66
     1
 10
0.0
 20
0.0
 30
0.0
  0
VERTEX
  5
E1
330
E0
100
AcDbEntity
  8
_U+30EC_U+30A4_U+30E4_U+30FC 1
 62
   179
420
  2234388
370
     9
100
AcDbVertex
100
AcDb2dVertex
 10
103.884092349696
 20
-121.7196927473477
 30
0.0
  0
VERTEX
  5
E2
330
E0
100
AcDbEntity
  8
_U+30EC_U+30A4_U+30E4_U+30FC 1
 62
   179
420
  2234388
370
     9
100
AcDbVertex
100
AcDb2dVertex
 10
103.884092349696
 20
-137.2009221879217
 30
0.0
  0
SEQEND
  5
E3
330
E0
100
AcDbEntity
  8
_U+30EC_U+30A4_U+30E4_U+30FC 1
 62
   179
420
  2234388
370
     9
  0
POLYLINE
  5
E4
330
1F
100
AcDbEntity
  8
_U+30EC_U+30A4_U+30E4_U+30FC 1
 62
   179
420
  2234388
370
     9
100
AcDb2dPolyline
 66
     1
 10
0.0
 20
0.0
 30
0.0
  0
VERTEX
  5
E5
330
E4
100
AcDbEntity
  8
_U+30EC_U+30A4_U+30E4_U+30FC 1
 62
   179
420
  2234388
370
     9
100
AcDbVertex
100
AcDb2dVertex
 10
92.8018962435375
 20
-121.7196927473477
 30
0.0
  0
VERTEX
  5
E6
330
E4
100
AcDbEntity
  8
_U+30EC_U+30A4_U+30E4_U+30FC 1
 62
   179
420
  2234388
370
     9
100
AcDbVertex
100
AcDb2dVertex
 10
104.8831589908744
 20
-121.7196927473477
 30
0.0
  0
SEQEND
  5
E7
330
E4
100
AcDbEntity
  8
_U+30EC_U+30A4_U+30E4_U+30FC 1
 62
   179
420
  2234388
370
     9
  0
POLYLINE
  5
E8
330
1F
100
AcDbEntity
  8
_U+30EC_U+30A4_U+30E4_U+30FC 1
 62
   179
420
  2234388
370
     9
100
AcDb2dPolyline
 66
     1
 10
0.0
 20
0.0
 30
0.0
  0
VERTEX
  5
E9
330
E8
100
AcDbEntity
  8
_U+30EC_U+30A4_U+30E4_U+30FC 1
 62
   179
420
  2234388
370
     9
100
AcDbVertex
100
AcDb2dVertex
 10
95.43464145414835
 20
-137.2009221879217
 30
0.0
  0
VERTEX
  5
EA
330
E8
100
AcDbEntity
  8
_U+30EC_U+30A4_U+30E4_U+30FC 1
 62
   179
420
  2234388
370
     9
100
AcDbVertex
100
AcDb2dVertex
 10
104.8831589908744
 20
-137.2009221879217
 30
0.0
  0
SEQEND
  5
EB
330
E8
100
AcDbEntity
  8
_U+30EC_U+30A4_U+30E4_U+30FC 1
 62
   179
420
  2234388
370
     9
  0
INSERT
  5
ED
330
1F
100
AcDbEntity
  8
_U+30EC_U+30A4_U+30E4_U+30FC 1
100
AcDbBlockReference
  2
block 7
 10
0.0
 20
0.0
 30
0.0
  0
ENDSEC
  0
SECTION
  2
OBJECTS
  0
DICTIONARY
  5
C
330
0
100
AcDbDictionary
281
     1
  3
ACAD_GROUP
350
D
  3
ACAD_LAYOUT
350
1A
  3
ACAD_MATERIAL
350
3B
  3
ACAD_MLEADERSTYLE
350
FF
  3
ACAD_MLINESTYLE
350
17
  3
ACAD_PLOTSETTINGS
350
19
  3
ACAD_PLOTSTYLENAME
350
E
  3
ACAD_TABLESTYLE
350
FE
  3
ACAD_VISUALSTYLE
350
2A
  0
SUN
  5
3F
330
29
100
AcDbSun
 90
        1
290
     0
 63
     7
421
 16777215
 40
1.0
291
     1
 91
  2455826
 92
 54000000
292
     0
 70
     2
 71
   256
280
     1
  0
DICTIONARY
  5
D
102
{ACAD_REACTORS
330
C
102
}
330
C
100
AcDbDictionary
281
     1
  0
DICTIONARY
  5
1A
102
{ACAD_REACTORS
330
C
102
}
330
C
100
AcDbDictionary
281
     1
  3
Layout1
350
1E
  3
Layout2
350
26
  3
Model
350
22
  0
DICTIONARY
  5
3B
102
{ACAD_REACTORS
330
C
102
}
330
C
100
AcDbDictionary
281
     1
  3
ByBlock
350
3D
  3
ByLayer
350
3C
  3
Global
350
3E
  0
DICTIONARY
  5
FF
102
{ACAD_REACTORS
330
C
102
}
330
C
100
AcDbDictionary
281
     1
  0
DICTIONARY
  5
17
102
{ACAD_REACTORS
330
C
102
}
330
C
100
AcDbDictionary
281
     1
  3
Standard
350
18
  0
DICTIONARY
  5
19
102
{ACAD_REACTORS
330
C
102
}
330
C
100
AcDbDictionary
281
     1
  0
ACDBDICTIONARYWDFLT
  5
E
102
{ACAD_REACTORS
330
C
102
}
330
C
100
AcDbDictionary
281
     1
  3
Normal
350
F
100
AcDbDictionaryWithDefault
340
F
  0
DICTIONARY
  5
FE
102
{ACAD_REACTORS
330
C
102
}
330
C
100
AcDbDictionary
281
     1
  0
DICTIONARY
  5
2A
102
{ACAD_REACTORS
330
C
102
}
330
C
100
AcDbDictionary
281
     1
  3
2dWireframe
350
2F
  3
3D Hidden
350
31
  3
3dWireframe
350
30
  3
Basic
350
32
  3
Brighten
350
36
  3
ColorChange
350
3A
  3
Conceptual
350
34
  3
Dim
350
35
  3
Facepattern
350
39
  3
Flat
350
2B
  3
FlatWithEdges
350
2C
  3
Gouraud
350
2D
  3
GouraudWithEdges
350
2E
  3
Linepattern
350
38
  3
Realistic
350
33
  3
Thicken
350
37
  0
LAYOUT
  5
1E
102
{ACAD_REACTORS
330
1A
102
}
330
1A
100
AcDbPlotSettings
  1

  2
none_device
  4

  6

 40
0.0
 41
0.0
 42
0.0
 43
0.0
 44
0.0
 45
0.0
 46
0.0
 47
0.0
 48
0.0
 49
0.0
140
0.0
141
0.0
142
1.0
143
1.0
 70
   688
 72
     0
 73
     0
 74
     5
  7

 75
    16
 76
     0
 77
     2
 78
   300
147
1.0
148
0.0
149
0.0
100
AcDbLayout
  1
Layout1
 70
     1
 71
     1
 10
0.0
 20
0.0
 11
12.0
 21
9.0
 12
0.0
 22
0.0
 32
0.0
 14
1.000000000000000E+20
 24
1.000000000000000E+20
 34
1.000000000000000E+20
 15
-1.000000000000000E+20
 25
-1.000000000000000E+20
 35
-1.000000000000000E+20
146
0.0
 13
0.0
 23
0.0
 33
0.0
 16
1.0
 26
0.0
 36
0.0
 17
0.0
 27
1.0
 37
0.0
 76
     0
330
1B
  0
LAYOUT
  5
26
102
{ACAD_REACTORS
330
1A
102
}
330
1A
100
AcDbPlotSettings
  1

  2
none_device
  4

  6

 40
0.0
 41
0.0
 42
0.0
 43
0.0
 44
0.0
 45
0.0
 46
0.0
 47
0.0
 48
0.0
 49
0.0
140
0.0
141
0.0
142
1.0
143
1.0
 70
   688
 72
     0
 73
     0
 74
     5
  7

 75
    16
 76
     0
 77
     2
 78
   300
147
1.0
148
0.0
149
0.0
100
AcDbLayout
  1
Layout2
 70
     1
 71
     2
 10
0.0
 20
0.0
 11
0.0
 21
0.0
 12
0.0
 22
0.0
 32
0.0
 14
0.0
 24
0.0
 34
0.0
 15
0.0
 25
0.0
 35
0.0
146
0.0
 13
0.0
 23
0.0
 33
0.0
 16
1.0
 26
0.0
 36
0.0
 17
0.0
 27
1.0
 37
0.0
 76
     0
330
23
  0
LAYOUT
  5
22
102
{ACAD_REACTORS
330
1A
102
}
330
1A
100
AcDbPlotSettings
  1

  2
none_device
  4

  6

 40
0.0
 41
0.0
 42
0.0
 43
0.0
 44
0.0
 45
0.0
 46
0.0
 47
0.0
 48
0.0
 49
0.0
140
0.0
141
0.0
142
1.0
143
1.0
 70
  1712
 72
     0
 73
     0
 74
     0
  7

 75
     0
 76
     0
 77
     2
 78
   300
147
1.0
148
0.0
149
0.0
100
AcDbLayout
  1
Model
 70
     1
 71
     0
 10
0.0
 20
0.0
 11
12.0
 21
9.0
 12
0.0
 22
0.0
 32
0.0
 14
1.000000000000000E+20
 24
1.000000000000000E+20
 34
1.000000000000000E+20
 15
-1.000000000000000E+20
 25
-1.000000000000000E+20
 35
-1.000000000000000E+20
146
0.0
 13
0.0
 23
0.0
 33
0.0
 16
1.0
 26
0.0
 36
0.0
 17
0.0
 27
1.0
 37
0.0
 76
     0
330
1F
331
29
  0
MATERIAL
  5
3D
102
{ACAD_REACTORS
330
3B
102
}
330
3B
100
AcDbMaterial
  1
ByBlock
 72
     1
 94
      127
  0
MATERIAL
  5
3C
102
{ACAD_REACTORS
330
3B
102
}
330
3B
100
AcDbMaterial
  1
ByLayer
 72
     1
 94
      127
  0
MATERIAL
  5
3E
102
{ACAD_REACTORS
330
3B
102
}
330
3B
100
AcDbMaterial
  1
Global
 72
     1
 94
      127
  0
MLINESTYLE
  5
18
102
{ACAD_REACTORS
330
17
102
}
330
17
100
AcDbMlineStyle
  2
Standard
 70
     0
  3

 62
   256
 51
90.0
 52
90.0
 71
     2
 49
0.5
 62
   256
  6
BYLAYER
 49
-0.5
 62
   256
  6
BYLAYER
  0
ACDBPLACEHOLDER
  5
F
102
{ACAD_REACTORS
330
E
102
}
330
E
  0
VISUALSTYLE
  5
2F
102
{ACAD_REACTORS
330
2A
102
}
330
2A
100
AcDbVisualStyle
  2
2dWireframe
 70
     4
177
     2
291
     0
 71
     0
176
     1
 72
     2
176
     1
 73
     0
176
     1
 90
        0
176
     1
 40
-0.6
176
     1
 41
-30.0
176
     1
 62
     5
 63
     7
421
 16777215
176
     1
 74
     1
176
     1
 91
        4
176
     1
 64
     7
176
     1
 65
   257
176
     1
 75
     1
176
     1
175
     1
176
     1
 42
1.0
176
     1
 92
        0
176
     1
 66
   257
176
     1
 43
1.0
176
     1
 76
     1
176
     1
 77
     6
176
     1
 78
     2
176
     1
 67
     7
176
     1
 79
     5
176
     1
170
     0
176
     1
171
     0
176
     1
290
     0
176
     1
 93
        1
176
     1
 44
0.0
176
     1
173
     0
176
     1
  0
VISUALSTYLE
  5
31
102
{ACAD_REACTORS
330
2A
102
}
330
2A
100
AcDbVisualStyle
  2
3D Hidden
 70
     6
177
     2
291
     0
 71
     1
176
     1
 72
     2
176
     1
 73
     2
176
     1
 90
        0
176
     1
 40
-0.6
176
     1
 41
-30.0
176
     1
 62
     5
 63
     7
421
 16777215
176
     1
 74
     2
176
     1
 91
        2
176
     1
 64
     7
176
     1
 65
   257
176
     1
 75
     2
176
     1
175
     1
176
     1
 42
40.0
176
     1
 92
        0
176
     1
 66
   257
176
     1
 43
1.0
176
     1
 76
     1
176
     1
 77
     6
176
     1
 78
     2
176
     1
 67
     7
176
     1
 79
     3
176
     1
170
     0
176
     1
171
     0
176
     1
290
     0
176
     1
 93
        1
176
     1
 44
0.0
176
     1
173
     0
176
     1
  0
VISUALSTYLE
  5
30
102
{ACAD_REACTORS
330
2A
102
}
330
2A
100
AcDbVisualStyle
  2
3dWireframe
 70
     5
177
     2
291
     0
 71
     0
176
     1
 72
     2
176
     1
 73
     0
176
     1
 90
        0
176
     1
 40
-0.6
176
     1
 41
-30.0
176
     1
 62
     5
 63
     7
421
 16777215
176
     1
 74
     1
176
     1
 91
        4
176
     1
 64
     7
176
     1
 65
   257
176
     1
 75
     1
176
     1
175
     1
176
     1
 42
1.0
176
     1
 92
        0
176
     1
 66
   257
176
     1
 43
1.0
176
     1
 76
     1
176
     1
 77
     6
176
     1
 78
     2
176
     1
 67
     7
176
     1
 79
     5
176
     1
170
     0
176
     1
171
     0
176
     1
290
     0
176
     1
 93
        1
176
     1
 44
0.0
176
     1
173
     0
176
     1
  0
VISUALSTYLE
  5
32
102
{ACAD_REACTORS
330
2A
102
}
330
2A
100
AcDbVisualStyle
  2
Basic
 70
     7
177
     2
291
     1
 71
     1
176
     1
 72
     0
176
     1
 73
     1
176
     1
 90
        0
176
     1
 40
-0.6
176
     1
 41
-30.0
176
     1
 62
     5
 63
     7
421
 16777215
176
     1
 74
     0
176
     1
 91
        4
176
     1
 64
     7
176
     1
 65
   257
176
     1
 75
     1
176
     1
175
     1
176
     1
 42
1.0
176
     1
 92
        8
176
     1
 66
     7
176
     1
 43
1.0
176
     1
 76
     1
176
     1
 77
     6
176
     1
 78
     2
176
     1
 67
     7
176
     1
 79
     5
176
     1
170
     0
176
     1
171
     0
176
     1
290
     0
176
     1
 93
        1
176
     1
 44
0.0
176
     1
173
     0
176
     1
  0
VISUALSTYLE
  5
36
102
{ACAD_REACTORS
330
2A
102
}
330
2A
100
AcDbVisualStyle
  2
Brighten
 70
    12
177
     2
291
     1
 71
     2
176
     1
 72
     2
176
     1
 73
     0
176
     1
 90
        0
176
     1
 40
-0.6
176
     1
 41
-30.0
176
     1
 62
     5
 63
     7
421
 16777215
176
     1
 74
     1
176
     1
 91
        4
176
     1
 64
     7
176
     1
 65
   257
176
     1
 75
     1
176
     1
175
     1
176
     1
 42
1.0
176
     1
 92
        8
176
     1
 66
     7
176
     1
 43
1.0
176
     1
 76
     1
176
     1
 77
     6
176
     1
 78
     2
176
     1
 67
     7
176
     1
 79
     5
176
     1
170
     0
176
     1
171
     0
176
     1
290
     0
176
     1
 93
        1
176
     1
 44
50.0
176
     1
173
     0
176
     1
  0
VISUALSTYLE
  5
3A
102
{ACAD_REACTORS
330
2A
102
}
330
2A
100
AcDbVisualStyle
  2
ColorChange
 70
    16
177
     2
291
     1
 71
     2
176
     1
 72
     2
176
     1
 73
     3
176
     1
 90
        0
176
     1
 40
-0.6
176
     1
 41
-30.0
176
     1
 62
     5
 63
     8
421
  8421504
176
     1
 74
     1
176
     1
 91
        4
176
     1
 64
     7
176
     1
 65
   257
176
     1
 75
     1
176
     1
175
     1
176
     1
 42
1.0
176
     1
 92
        8
176
     1
 66
     8
424
  8421504
176
     1
 43
1.0
176
     1
 76
     1
176
     1
 77
     6
176
     1
 78
     2
176
     1
 67
     7
176
     1
 79
     5
176
     1
170
     0
176
     1
171
     0
176
     1
290
     0
176
     1
 93
        1
176
     1
 44
0.0
176
     1
173
     0
176
     1
  0
VISUALSTYLE
  5
34
102
{ACAD_REACTORS
330
2A
102
}
330
2A
100
AcDbVisualStyle
  2
Conceptual
 70
     9
177
     2
291
     0
 71
     3
176
     1
 72
     2
176
     1
 73
     0
176
     1
 90
        0
176
     1
 40
-0.6
176
     1
 41
-30.0
176
     1
 62
     5
 63
     7
421
 16777215
176
     1
 74
     2
176
     1
 91
        2
176
     1
 64
     7
176
     1
 65
   257
176
     1
 75
     1
176
     1
175
     1
176
     1
 42
40.0
176
     1
 92
        8
176
     1
 66
     7
176
     1
 43
1.0
176
     1
 76
     1
176
     1
 77
     6
176
     1
 78
     2
176
     1
 67
     7
176
     1
 79
     3
176
     1
170
     0
176
     1
171
     0
176
     1
290
     0
176
     1
 93
        1
176
     1
 44
0.0
176
     1
173
     0
176
     1
  0
VISUALSTYLE
  5
35
102
{ACAD_REACTORS
330
2A
102
}
330
2A
100
AcDbVisualStyle
  2
Dim
 70
    11
177
     2
291
     1
 71
     2
176
     1
 72
     2
176
     1
 73
     0
176
     1
 90
        0
176
     1
 40
-0.6
176
     1
 41
-30.0
176
     1
 62
     5
 63
     7
421
 16777215
176
     1
 74
     1
176
     1
 91
        4
176
     1
 64
     7
176
     1
 65
   257
176
     1
 75
     1
176
     1
175
     1
176
     1
 42
1.0
176
     1
 92
        8
176
     1
 66
     7
176
     1
 43
1.0
176
     1
 76
     1
176
     1
 77
     6
176
     1
 78
     2
176
     1
 67
     7
176
     1
 79
     5
176
     1
170
     0
176
     1
171
     0
176
     1
290
     0
176
     1
 93
        1
176
     1
 44
-50.0
176
     1
173
     0
176
     1
  0
VISUALSTYLE
  5
39
102
{ACAD_REACTORS
330
2A
102
}
330
2A
100
AcDbVisualStyle
  2
Facepattern
 70
    15
177
     2
291
     1
 71
     2
176
     1
 72
     2
176
     1
 73
     0
176
     1
 90
        0
176
     1
 40
-0.6
176
     1
 41
-30.0
176
     1
 62
     5
 63
     7
421
 16777215
176
     1
 74
     1
176
     1
 91
        4
176
     1
 64
     7
176
     1
 65
   257
176
     1
 75
     1
176
     1
175
     1
176
     1
 42
1.0
176
     1
 92
        8
176
     1
 66
     7
176
     1
 43
1.0
176
     1
 76
     1
176
     1
 77
     6
176
     1
 78
     2
176
     1
 67
     7
176
     1
 79
     5
176
     1
170
     0
176
     1
171
     0
176
     1
290
     0
176
     1
 93
        1
176
     1
 44
0.0
176
     1
173
     0
176
     1
  0
VISUALSTYLE
  5
2B
102
{ACAD_REACTORS
330
2A
102
}
330
2A
100
AcDbVisualStyle
  2
Flat
 70
     0
177
     2
291
     1
 71
     2
176
     1
 72
     1
176
     1
 73
     1
176
     1
 90
        2
176
     1
 40
-0.6
176
     1
 41
30.0
176
     1
 62
     5
 63
     7
421
 16777215
176
     1
 74
     0
176
     1
 91
        4
176
     1
 64
     7
176
     1
 65
   257
176
     1
 75
     1
176
     1
175
     1
176
     1
 42
1.0
176
     1
 92
        8
176
     1
 66
     7
176
     1
 43
1.0
176
     1
 76
     1
176
     1
 77
     6
176
     1
 78
     2
176
     1
 67
     7
176
     1
 79
     5
176
     1
170
     0
176
     1
171
     0
176
     1
290
     0
176
     1
 93
       13
176
     1
 44
0.0
176
     1
173
     0
176
     1
  0
VISUALSTYLE
  5
2C
102
{ACAD_REACTORS
330
2A
102
}
330
2A
100
AcDbVisualStyle
  2
FlatWithEdges
 70
     1
177
     2
291
     1
 71
     2
176
     1
 72
     1
176
     1
 73
     1
176
     1
 90
        2
176
     1
 40
-0.6
176
     1
 41
30.0
176
     1
 62
     5
 63
     7
421
 16777215
176
     1
 74
     1
176
     1
 91
        4
176
     1
 64
     7
176
     1
 65
   257
176
     1
 75
     1
176
     1
175
     1
176
     1
 42
1.0
176
     1
 92
        0
176
     1
 66
   257
176
     1
 43
1.0
176
     1
 76
     1
176
     1
 77
     6
176
     1
 78
     2
176
     1
 67
     7
176
     1
 79
     5
176
     1
170
     0
176
     1
171
     0
176
     1
290
     0
176
     1
 93
       13
176
     1
 44
0.0
176
     1
173
     0
176
     1
  0
VISUALSTYLE
  5
2D
102
{ACAD_REACTORS
330
2A
102
}
330
2A
100
AcDbVisualStyle
  2
Gouraud
 70
     2
177
     2
291
     1
 71
     2
176
     1
 72
     2
176
     1
 73
     1
176
     1
 90
        2
176
     1
 40
-0.6
176
     1
 41
30.0
176
     1
 62
     5
 63
     7
421
 16777215
176
     1
 74
     0
176
     1
 91
        4
176
     1
 64
     7
176
     1
 65
   257
176
     1
 75
     1
176
     1
175
     1
176
     1
 42
1.0
176
     1
 92
        0
176
     1
 66
     7
176
     1
 43
1.0
176
     1
 76
     1
176
     1
 77
     6
176
     1
 78
     2
176
     1
 67
     7
176
     1
 79
     5
176
     1
170
     0
176
     1
171
     0
176
     1
290
     0
176
     1
 93
       13
176
     1
 44
0.0
176
     1
173
     0
176
     1
  0
VISUALSTYLE
  5
2E
102
{ACAD_REACTORS
330
2A
102
}
330
2A
100
AcDbVisualStyle
  2
GouraudWithEdges
 70
     3
177
     2
291
     1
 71
     2
176
     1
 72
     2
176
     1
 73
     1
176
     1
 90
        2
176
     1
 40
-0.6
176
     1
 41
30.0
176
     1
 62
     5
 63
     7
421
 16777215
176
     1
 74
     1
176
     1
 91
        4
176
     1
 64
     7
176
     1
 65
   257
176
     1
 75
     1
176
     1
175
     1
176
     1
 42
1.0
176
     1
 92
        0
176
     1
 66
   257
176
     1
 43
1.0
176
     1
 76
     1
176
     1
 77
     6
176
     1
 78
     2
176
     1
 67
     7
176
     1
 79
     5
176
     1
170
     0
176
     1
171
     0
176
     1
290
     0
176
     1
 93
       13
176
     1
 44
0.0
176
     1
173
     0
176
     1
  0
VISUALSTYLE
  5
38
102
{ACAD_REACTORS
330
2A
102
}
330
2A
100
AcDbVisualStyle
  2
Linepattern
 70
    14
177
     2
291
     1
 71
     2
176
     1
 72
     2
176
     1
 73
     0
176
     1
 90
        0
176
     1
 40
-0.6
176
     1
 41
-30.0
176
     1
 62
     5
 63
     7
421
 16777215
176
     1
 74
     1
176
     1
 91
        4
176
     1
 64
     7
176
     1
 65
   257
176
     1
 75
     7
176
     1
175
     7
176
     1
 42
1.0
176
     1
 92
        8
176
     1
 66
     7
176
     1
 43
1.0
176
     1
 76
     1
176
     1
 77
     6
176
     1
 78
     2
176
     1
 67
     7
176
     1
 79
     5
176
     1
170
     0
176
     1
171
     0
176
     1
290
     0
176
     1
 93
        1
176
     1
 44
0.0
176
     1
173
     0
176
     1
  0
VISUALSTYLE
  5
33
102
{ACAD_REACTORS
330
2A
102
}
330
2A
100
AcDbVisualStyle
  2
Realistic
 70
     8
177
     2
291
     0
 71
     2
176
     1
 72
     2
176
     1
 73
     0
176
     1
 90
        0
176
     1
 40
-0.6
176
     1
 41
-30.0
176
     1
 62
     5
 63
     7
421
 16777215
176
     1
 74
     1
176
     1
 91
        0
176
     1
 64
     7
176
     1
 65
   257
176
     1
 75
     1
176
     1
175
     1
176
     1
 42
1.0
176
     1
 92
        8
176
     1
 66
     8
424
  7895160
176
     1
 43
1.0
176
     1
 76
     1
176
     1
 77
     6
176
     1
 78
     2
176
     1
 67
     7
176
     1
 79
     5
176
     1
170
     0
176
     1
171
     0
176
     1
290
     0
176
     1
 93
       13
176
     1
 44
0.0
176
     1
173
     0
176
     1
  0
VISUALSTYLE
  5
37
102
{ACAD_REACTORS
330
2A
102
}
330
2A
100
AcDbVisualStyle
  2
Thicken
 70
    13
177
     2
291
     1
 71
     2
176
     1
 72
     2
176
     1
 73
     0
176
     1
 90
        0
176
     1
 40
-0.6
176
     1
 41
-30.0
176
     1
 62
     5
 63
     7
421
 16777215
176
     1
 74
     1
176
     1
 91
        4
176
     1
 64
     7
176
     1
 65
   257
176
     1
 75
     1
176
     1
175
     1
176
     1
 42
1.0
176
     1
 92
       12
176
     1
 66
     7
176
     1
 43
1.0
176
     1
 76
     1
176
     1
 77
     6
176
     1
 78
     2
176
     1
 67
     7
176
     1
 79
     5
176
     1
170
     0
176
     1
171
     0
176
     1
290
     0
176
     1
 93
        1
176
     1
 44
0.0
176
     1
173
     0
176
     1
  0
ENDSEC
  0
EOF
