  0
SECTION
  2
HEADER
  9
$ACADVER
  1
AC1024
  9
$ACADMAINTVER
 70
     6
  9
$DWGCODEPAGE
  3
UNDEFINED
  9
$INSBASE
 10
0.0
 20
0.0
 30
0.0
  9
$EXTMIN
 10
1.000000000000000E+20
 20
1.000000000000000E+20
 30
1.000000000000000E+20
  9
$EXTMAX
 10
-1.000000000000000E+20
 20
-1.000000000000000E+20
 30
-1.000000000000000E+20
  9
$LIMMIN
 10
0.0
 20
0.0
  9
$LIMMAX
 10
12.0
 20
9.0
  9
$ORTHOMODE
 70
     0
  9
$REGENMODE
 70
     1
  9
$FILLMODE
 70
     1
  9
$QTEXTMODE
 70
     0
  9
$MIRRTEXT
 70
     1
  9
$LTSCALE
 40
1.0
  9
$ATTMODE
 70
     1
  9
$TEXTSIZE
 40
0.2
  9
$TRACEWID
 40
0.05
  9
$TEXTSTYLE
  7
Standard
  9
$CLAYER
  8
0
  9
$CELTYPE
  6
ByLayer
  9
$CECOLOR
 62
   256
  9
$CELTSCALE
 40
1.0
  9
$DISPSILH
 70
     0
  9
$DIMSCALE
 40
1.0
  9
$DIMASZ
 40
0.18
  9
$DIMEXO
 40
0.0625
  9
$DIMDLI
 40
0.38
  9
$DIMRND
 40
0.0
  9
$DIMDLE
 40
0.0
  9
$DIMEXE
 40
0.18
  9
$DIMTP
 40
0.0
  9
$DIMTM
 40
0.0
  9
$DIMTXT
 40
0.18
  9
$DIMCEN
 40
0.09
  9
$DIMTSZ
 40
0.0
  9
$DIMTOL
 70
     0
  9
$DIMLIM
 70
     0
  9
$DIMTIH
 70
     1
  9
$DIMTOH
 70
     1
  9
$DIMSE1
 70
     0
  9
$DIMSE2
 70
     0
  9
$DIMTAD
 70
     0
  9
$DIMZIN
 70
     0
  9
$DIMBLK
  1

  9
$DIMASO
 70
     1
  9
$DIMSHO
 70
     1
  9
$DIMPOST
  1

  9
$DIMAPOST
  1

  9
$DIMALT
 70
     0
  9
$DIMALTD
 70
     2
  9
$DIMALTF
 40
25.4
  9
$DIMLFAC
 40
1.0
  9
$DIMTOFL
 70
     0
  9
$DIMTVP
 40
0.0
  9
$DIMTIX
 70
     0
  9
$DIMSOXD
 70
     0
  9
$DIMSAH
 70
     0
  9
$DIMBLK1
  1

  9
$DIMBLK2
  1

  9
$DIMSTYLE
  2
Standard
  9
$DIMCLRD
 70
     0
  9
$DIMCLRE
 70
     0
  9
$DIMCLRT
 70
     0
  9
$DIMTFAC
 40
1.0
  9
$DIMGAP
 40
0.09
  9
$DIMJUST
 70
     0
  9
$DIMSD1
 70
     0
  9
$DIMSD2
 70
     0
  9
$DIMTOLJ
 70
     1
  9
$DIMTZIN
 70
     0
  9
$DIMALTZ
 70
     0
  9
$DIMALTTZ
 70
     0
  9
$DIMUPT
 70
     0
  9
$DIMDEC
 70
     4
  9
$DIMTDEC
 70
     4
  9
$DIMALTU
 70
     2
  9
$DIMALTTD
 70
     2
  9
$DIMTXSTY
  7
Standard
  9
$DIMAUNIT
 70
     0
  9
$DIMADEC
 70
     0
  9
$DIMALTRND
 40
0.0
  9
$DIMAZIN
 70
     0
  9
$DIMDSEP
 70
    46
  9
$DIMATFIT
 70
     3
  9
$DIMFRAC
 70
     0
  9
$DIMLDRBLK
  1

  9
$DIMLUNIT
 70
     2
  9
$DIMLWD
 70
    -2
  9
$DIMLWE
 70
    -2
  9
$DIMTMOVE
 70
     0
  9
$DIMFXL
 40
1.0
  9
$DIMFXLON
 70
     0
  9
$DIMJOGANG
 40
0.7853981633974483
  9
$DIMTFILL
 70
     0
  9
$DIMTFILLCLR
 70
     0
  9
$DIMARCSYM
 70
     0
  9
$DIMLTYPE
  6

  9
$DIMLTEX1
  6

  9
$DIMLTEX2
  6

  9
$DIMTXTDIRECTION
 70
     0
  9
$LUNITS
 70
     2
  9
$LUPREC
 70
     4
  9
$SKETCHINC
 40
0.1
  9
$FILLETRAD
 40
0.5
  9
$AUNITS
 70
     0
  9
$AUPREC
 70
     0
  9
$MENU
  1
.
  9
$ELEVATION
 40
0.0
  9
$PELEVATION
 40
0.0
  9
$THICKNESS
 40
0.0
  9
$LIMCHECK
 70
     0
  9
$CHAMFERA
 40
0.5
  9
$CHAMFERB
 40
0.5
  9
$CHAMFERC
 40
1.0
  9
$CHAMFERD
 40
0.0
  9
$SKPOLY
 70
     0
  9
$TDCREATE
 40
2457917.594027766
  9
$TDUCREATE
 40
2457917.219027778
  9
$TDUPDATE
 40
2457917.594027766
  9
$TDUUPDATE
 40
2457917.219027778
  9
$TDINDWG
 40
0.0000000116
  9
$TDUSRTIMER
 40
0.0000000116
  9
$USRTIMER
 70
     1
  9
$ANGBASE
 50
0.0
  9
$ANGDIR
 70
     0
  9
$PDMODE
 70
     0
  9
$PDSIZE
 40
0.0
  9
$PLINEWID
 40
0.0
  9
$SPLFRAME
 70
     0
  9
$SPLINETYPE
 70
     6
  9
$SPLINESEGS
 70
     8
  9
$HANDSEED
  5
F6
  9
$SURFTAB1
 70
     6
  9
$SURFTAB2
 70
     6
  9
$SURFTYPE
 70
     6
  9
$SURFU
 70
     6
  9
$SURFV
 70
     6
  9
$UCSBASE
  2

  9
$UCSNAME
  2

  9
$UCSORG
 10
0.0
 20
0.0
 30
0.0
  9
$UCSXDIR
 10
1.0
 20
0.0
 30
0.0
  9
$UCSYDIR
 10
0.0
 20
1.0
 30
0.0
  9
$UCSORTHOREF
  2

  9
$UCSORTHOVIEW
 70
     0
  9
$UCSORGTOP
 10
0.0
 20
0.0
 30
0.0
  9
$UCSORGBOTTOM
 10
0.0
 20
0.0
 30
0.0
  9
$UCSORGLEFT
 10
0.0
 20
0.0
 30
0.0
  9
$UCSORGRIGHT
 10
0.0
 20
0.0
 30
0.0
  9
$UCSORGFRONT
 10
0.0
 20
0.0
 30
0.0
  9
$UCSORGBACK
 10
0.0
 20
0.0
 30
0.0
  9
$PUCSBASE
  2

  9
$PUCSNAME
  2

  9
$PUCSORG
 10
0.0
 20
0.0
 30
0.0
  9
$PUCSXDIR
 10
1.0
 20
0.0
 30
0.0
  9
$PUCSYDIR
 10
0.0
 20
1.0
 30
0.0
  9
$PUCSORTHOREF
  2

  9
$PUCSORTHOVIEW
 70
     0
  9
$PUCSORGTOP
 10
0.0
 20
0.0
 30
0.0
  9
$PUCSORGBOTTOM
 10
0.0
 20
0.0
 30
0.0
  9
$PUCSORGLEFT
 10
0.0
 20
0.0
 30
0.0
  9
$PUCSORGRIGHT
 10
0.0
 20
0.0
 30
0.0
  9
$PUCSORGFRONT
 10
0.0
 20
0.0
 30
0.0
  9
$PUCSORGBACK
 10
0.0
 20
0.0
 30
0.0
  9
$USERI1
 70
     0
  9
$USERI2
 70
     0
  9
$USERI3
 70
     0
  9
$USERI4
 70
     0
  9
$USERI5
 70
     0
  9
$USERR1
 40
0.0
  9
$USERR2
 40
0.0
  9
$USERR3
 40
0.0
  9
$USERR4
 40
0.0
  9
$USERR5
 40
0.0
  9
$WORLDVIEW
 70
     1
  9
$SHADEDGE
 70
     3
  9
$SHADEDIF
 70
    70
  9
$TILEMODE
 70
     1
  9
$MAXACTVP
 70
    64
  9
$PINSBASE
 10
0.0
 20
0.0
 30
0.0
  9
$PLIMCHECK
 70
     0
  9
$PEXTMIN
 10
1.000000000000000E+20
 20
1.000000000000000E+20
 30
1.000000000000000E+20
  9
$PEXTMAX
 10
-1.000000000000000E+20
 20
-1.000000000000000E+20
 30
-1.000000000000000E+20
  9
$PLIMMIN
 10
0.0
 20
0.0
  9
$PLIMMAX
 10
12.0
 20
9.0
  9
$UNITMODE
 70
     0
  9
$VISRETAIN
 70
     1
  9
$PLINEGEN
 70
     0
  9
$PSLTSCALE
 70
     1
  9
$TREEDEPTH
 70
  3020
  9
$CMLSTYLE
  2
Standard
  9
$CMLJUST
 70
     0
  9
$CMLSCALE
 40
1.0
  9
$PROXYGRAPHICS
 70
     1
  9
$MEASUREMENT
 70
     0
  9
$CELWEIGHT
370
    -1
  9
$ENDCAPS
280
     0
  9
$JOINSTYLE
280
     0
  9
$LWDISPLAY
290
     1
  9
$INSUNITS
 70
     1
  9
$HYPERLINKBASE
  1

  9
$STYLESHEET
  1

  9
$XEDIT
290
     1
  9
$CEPSNTYPE
380
     0
  9
$PSTYLEMODE
290
     1
  9
$FINGERPRINTGUID
  2
{7EE9625F-1424-38D8-FD80-C866875FBF70}
  9
$VERSIONGUID
  2
{FAEB1C32-E019-11D5-929B-00C0DF256EC4}
  9
$EXTNAMES
290
     1
  9
$PSVPSCALE
 40
0.0
  9
$OLESTARTUP
290
     0
  9
$SORTENTS
280
   127
  9
$INDEXCTL
280
     0
  9
$HIDETEXT
280
     1
  9
$XCLIPFRAME
280
     2
  9
$HALOGAP
280
     0
  9
$OBSCOLOR
 70
   257
  9
$OBSLTYPE
280
     0
  9
$INTERSECTIONDISPLAY
280
     0
  9
$INTERSECTIONCOLOR
 70
   257
  9
$DIMASSOC
280
     2
  9
$PROJECTNAME
  1

  9
$CAMERADISPLAY
290
     0
  9
$LENSLENGTH
 40
50.0
  9
$CAMERAHEIGHT
 40
0.0
  9
$STEPSPERSEC
 40
2.0
  9
$STEPSIZE
 40
6.0
  9
$3DDWFPREC
 40
2.0
  9
$PSOLWIDTH
 40
0.25
  9
$PSOLHEIGHT
 40
4.0
  9
$LOFTANG1
 40
1.570796326794897
  9
$LOFTANG2
 40
1.570796326794897
  9
$LOFTMAG1
 40
0.0
  9
$LOFTMAG2
 40
0.0
  9
$LOFTPARAM
 70
     7
  9
$LOFTNORMALS
280
     1
  9
$LATITUDE
 40
37.795
  9
$LONGITUDE
 40
-122.394
  9
$NORTHDIRECTION
 40
0.0
  9
$TIMEZONE
 70
 -8000
  9
$LIGHTGLYPHDISPLAY
280
     1
  9
$TILEMODELIGHTSYNCH
280
     1
  9
$CMATERIAL
347
3C
  9
$SOLIDHIST
280
     1
  9
$SHOWHIST
280
     1
  9
$DWFFRAME
280
     2
  9
$DGNFRAME
280
     2
  9
$REALWORLDSCALE
290
     1
  9
$INTERFERECOLOR
 62
   256
  9
$CSHADOW
280
     0
  9
$SHADOWPLANELOCATION
 40
0.0
  0
ENDSEC
  0
SECTION
  2
CLASSES
  0
CLASS
  1
ACDBDICTIONARYWDFLT
  2
AcDbDictionaryWithDefault
  3
ObjectDBX Classes
 90
        0
 91
        4
280
     0
281
     0
  0
CLASS
  1
VISUALSTYLE
  2
AcDbVisualStyle
  3
ObjectDBX Classes
 90
     4095
 91
        4
280
     0
281
     0
  0
CLASS
  1
MATERIAL
  2
AcDbMaterial
  3
ObjectDBX Classes
 90
     1153
 91
        4
280
     0
281
     0
  0
CLASS
  1
SUN
  2
AcDbSun
  3
SCENEOE
 90
     1024
 91
        4
280
     0
281
     0
  0
ENDSEC
  0
SECTION
  2
TABLES
  0
TABLE
  2
VPORT
  5
8
330
0
100
AcDbSymbolTable
 70
     1
  0
VPORT
  5
29
330
8
100
AcDbSymbolTableRecord
100
AcDbViewportTableRecord
  2
*Active
 70
     0
 10
0.0
 20
0.0
 11
1.0
 21
1.0
 12
0.0
 22
0.0
 13
0.0
 23
0.0
 14
0.5
 24
0.5
 15
0.5
 25
0.5
 16
0.0
 26
0.0
 36
1.0
 17
91.00082462281999
 27
-128.4993055234307
 37
0.0
 40
256.9986110468615
 41
0.7081814508812795
 42
50.0
 43
0.0
 44
0.0
 50
0.0
 51
0.0
 71
     0
 72
   100
 73
     1
 74
     3
 75
     0
 76
     0
 77
     0
 78
     0
281
     0
 65
     1
110
0.0
120
0.0
130
0.0
111
1.0
121
0.0
131
0.0
112
0.0
122
1.0
132
0.0
 79
     0
146
0.0
 60
     3
 61
     5
292
     1
282
     1
141
0.0
142
0.0
 63
   250
361
3F
  0
ENDTAB
  0
TABLE
  2
LTYPE
  5
5
330
0
100
AcDbSymbolTable
 70
     1
  0
LTYPE
  5
14
330
5
100
AcDbSymbolTableRecord
100
AcDbLinetypeTableRecord
  2
ByBlock
 70
     0
  3

 72
    65
 73
     0
 40
0.0
  0
LTYPE
  5
15
330
5
100
AcDbSymbolTableRecord
100
AcDbLinetypeTableRecord
  2
ByLayer
 70
     0
  3

 72
    65
 73
     0
 40
0.0
  0
LTYPE
  5
16
330
5
100
AcDbSymbolTableRecord
100
AcDbLinetypeTableRecord
  2
Continuous
 70
     0
  3
Solid line
 72
    65
 73
     0
 40
0.0
  0
ENDTAB
  0
TABLE
  2
LAYER
  5
2
330
0
100
AcDbSymbolTable
 70
     2
  0
LAYER
  5
10
330
2
100
AcDbSymbolTableRecord
100
AcDbLayerTableRecord
  2
0
 70
     0
 62
     7
  6
Continuous
370
    -3
390
F
347
3E
  0
LAYER
  5
40
330
2
100
AcDbSymbolTableRecord
100
AcDbLayerTableRecord
  2
_U+30EC_U+30A4_U+30E4_U+30FC 1
 70
     0
 62
     7
  6
Continuous
370
    -3
390
F
347
3E
  0
ENDTAB
  0
TABLE
  2
STYLE
  5
3
330
0
100
AcDbSymbolTable
 70
     1
  0
STYLE
  5
11
330
3
100
AcDbSymbolTableRecord
100
AcDbTextStyleTableRecord
  2
Standard
 70
     0
 40
0.0
 41
1.0
 50
0.0
 71
     0
 42
0.2
  3
txt
  4

  0
ENDTAB
  0
TABLE
  2
VIEW
  5
6
330
0
100
AcDbSymbolTable
 70
     0
  0
ENDTAB
  0
TABLE
  2
UCS
  5
7
330
0
100
AcDbSymbolTable
 70
     0
  0
ENDTAB
  0
TABLE
  2
APPID
  5
9
330
0
100
AcDbSymbolTable
 70
     1
  0
APPID
  5
12
330
9
100
AcDbSymbolTableRecord
100
AcDbRegAppTableRecord
  2
ACAD
 70
     0
  0
ENDTAB
  0
TABLE
  2
DIMSTYLE
  5
A
330
0
100
AcDbSymbolTable
 70
     1
100
AcDbDimStyleTable
  0
DIMSTYLE
105
27
330
A
100
AcDbSymbolTableRecord
100
AcDbDimStyleTableRecord
  2
Standard
 70
     0
178
     0
340
11
  0
ENDTAB
  0
TABLE
  2
BLOCK_RECORD
  5
1
330
0
100
AcDbSymbolTable
 70
     7
  0
BLOCK_RECORD
  5
1F
330
1
100
AcDbSymbolTableRecord
100
AcDbBlockTableRecord
  2
*Model_Space
340
22
 70
     0
280
     1
281
     0
  0
BLOCK_RECORD
  5
1B
330
1
100
AcDbSymbolTableRecord
100
AcDbBlockTableRecord
  2
*Paper_Space
340
1E
 70
     0
280
     1
281
     0
  0
BLOCK_RECORD
  5
23
330
1
100
AcDbSymbolTableRecord
100
AcDbBlockTableRecord
  2
*Paper_Space0
340
26
 70
     0
280
     1
281
     0
  0
BLOCK_RECORD
  5
81
330
1
100
AcDbSymbolTableRecord
100
AcDbBlockTableRecord
  2
block 2
340
0
102
{BLKREFS
331
82
102
}
 70
     0
280
     1
281
     0
  0
BLOCK_RECORD
  5
95
330
1
100
AcDbSymbolTableRecord
100
AcDbBlockTableRecord
  2
block 3
340
0
102
{BLKREFS
331
96
102
}
 70
     0
280
     1
281
     0
  0
BLOCK_RECORD
  5
AF
330
1
100
AcDbSymbolTableRecord
100
AcDbBlockTableRecord
  2
block 4
340
0
102
{BLKREFS
331
B0
102
}
 70
     0
280
     1
281
     0
  0
BLOCK_RECORD
  5
C8
330
1
100
AcDbSymbolTableRecord
100
AcDbBlockTableRecord
  2
block 5
340
0
102
{BLKREFS
331
C9
102
}
 70
     0
280
     1
281
     0
  0
BLOCK_RECORD
  5
DA
330
1
100
AcDbSymbolTableRecord
100
AcDbBlockTableRecord
  2
block 6
340
0
102
{BLKREFS
331
DB
102
}
 70
     0
280
     1
281
     0
  0
BLOCK_RECORD
  5
EC
330
1
100
AcDbSymbolTableRecord
100
AcDbBlockTableRecord
  2
block 7
340
0
102
{BLKREFS
331
ED
102
}
 70
     0
280
     1
281
     0
  0
ENDTAB
  0
ENDSEC
  0
SECTION
  2
BLOCKS
  0
BLOCK
  5
20
330
1F
100
AcDbEntity
  8
0
100
AcDbBlockBegin
  2
*Model_Space
 70
     0
 10
0.0
 20
0.0
 30
0.0
  3
*Model_Space
  1

  0
ENDBLK
  5
21
330
1F
100
AcDbEntity
  8
0
100
AcDbBlockEnd
  0
BLOCK
  5
1C
330
1B
100
AcDbEntity
 67
     1
  8
0
100
AcDbBlockBegin
  2
*Paper_Space
 70
     0
 10
0.0
 20
0.0
 30
0.0
  3
*Paper_Space
  1

  0
ENDBLK
  5
1D
330
1B
100
AcDbEntity
 67
     1
  8
0
100
AcDbBlockEnd
  0
BLOCK
  5
24
330
23
100
AcDbEntity
  8
0
100
AcDbBlockBegin
  2
*Paper_Space0
 70
     0
 10
0.0
 20
0.0
 30
0.0
  3
*Paper_Space0
  1

  0
ENDBLK
  5
25
330
23
100
AcDbEntity
  8
0
100
AcDbBlockEnd
  0
BLOCK
  5
83
330
81
100
AcDbEntity
  8
0
100
AcDbBlockBegin
  2
block 2
 70
     0
 10
0.0
 20
0.0
 30
0.0
  3
block 2
  1

  0
SPLINE
  5
85
330
81
100
AcDbEntity
  8
_U+30EC_U+30A4_U+30E4_U+30FC 1
370
     0
100
AcDbSpline
210
0.0
220
0.0
230
1.0
 70
    11
 71
     3
 72
    29
 73
    25
 74
     0
 42
0.0000000001
 43
0.0000000001
 12
1.0
 22
0.0
 32
0.0
 13
1.0
 23
0.0
 33
0.0
 40
0.0
 40
0.0
 40
0.0
 40
0.0
 40
1.0
 40
1.0
 40
1.0
 40
2.0
 40
2.0
 40
2.0
 40
3.0
 40
3.0
 40
3.0
 40
4.0
 40
4.0
 40
4.0
 40
5.0
 40
5.0
 40
5.0
 40
6.0
 40
6.0
 40
6.0
 40
7.0
 40
7.0
 40
7.0
 40
8.0
 40
8.0
 40
8.0
 40
8.0
 10
85.48935544737766
 20
-117.2264363313705
 30
0.0
 10
85.22287731159359
 20
-117.2264363313705
 30
0.0
 10
84.96897377433068
 20
-117.0888047667348
 30
0.0
 10
84.96897377433068
 20
-116.7398165940789
 30
0.0
 10
84.96897377433068
 20
-116.4838459995249
 30
0.0
 10
85.1107394535487
 20
-116.3885891093577
 30
0.0
 10
85.21650388494588
 20
-116.3272664097203
 30
0.0
 10
85.09161917360557
 20
-116.268010767374
 30
0.0
 10
85.01548256338155
 20
-116.1538058520379
 30
0.0
 10
85.01548256338155
 20
-115.993092147651
 30
0.0
 10
85.01548256338155
 20
-115.7180012731538
 30
0.0
 10
85.21443682765472
 20
-115.5826090205835
 30
0.0
 10
85.48935544737766
 20
-115.5826090205835
 30
0.0
 10
85.77288680581373
 20
-115.5826090205835
 30
0.0
 10
85.96322833137378
 20
-115.7264417570927
 30
0.0
 10
85.96322833137378
 20
-115.993092147651
 30
0.0
 10
85.96322833137378
 20
-116.1538058520379
 30
0.0
 10
85.88502466385862
 20
-116.268010767374
 30
0.0
 10
85.7601399525183
 20
-116.3272664097203
 30
0.0
 10
85.84902341603775
 20
-116.3780815681277
 30
0.0
 10
86.0076700631335
 20
-116.4733384582949
 30
0.0
 10
86.0076700631335
 20
-116.7356824794966
 30
0.0
 10
86.0076700631335
 20
-117.109992103969
 30
0.0
 10
85.72844507405401
 20
-117.2264363313705
 30
0.0
 10
85.48935544737766
 20
-117.2264363313705
 30
0.0
  0
SPLINE
  5
86
330
81
100
AcDbEntity
  8
_U+30EC_U+30A4_U+30E4_U+30FC 1
370
     0
100
AcDbSpline
210
0.0
220
0.0
230
1.0
 70
    11
 71
     3
 72
    17
 73
    13
 74
     0
 42
0.0000000001
 43
0.0000000001
 12
1.0
 22
0.0
 32
0.0
 13
1.0
 23
0.0
 33
0.0
 40
0.0
 40
0.0
 40
0.0
 40
0.0
 40
1.0
 40
1.0
 40
1.0
 40
2.0
 40
2.0
 40
2.0
 40
3.0
 40
3.0
 40
3.0
 40
4.0
 40
4.0
 40
4.0
 40
4.0
 10
85.48935544737766
 20
-116.4352701531829
 30
0.0
 10
85.34552271086848
 20
-116.4352701531829
 30
0.0
 10
85.19324949042044
 20
-116.5219143046369
 30
0.0
 10
85.19324949042044
 20
-116.7250026834924
 30
0.0
 10
85.19324949042044
 20
-116.930158119639
 30
0.0
 10
85.3202012590519
 20
-117.0317884364539
 30
0.0
 10
85.48935544737766
 20
-117.0317884364539
 30
0.0
 10
85.67556285835542
 20
-117.0317884364539
 30
0.0
 10
85.78563365910915
 20
-116.909143037179
 30
0.0
 10
85.78563365910915
 20
-116.7313761101401
 30
0.0
 10
85.78563365910915
 20
-116.5091674513415
 30
0.0
 10
85.62268064265683
 20
-116.4352701531829
 30
0.0
 10
85.48935544737766
 20
-116.4352701531829
 30
0.0
  0
SPLINE
  5
87
330
81
100
AcDbEntity
  8
_U+30EC_U+30A4_U+30E4_U+30FC 1
370
     0
100
AcDbSpline
210
0.0
220
0.0
230
1.0
 70
    11
 71
     3
 72
    17
 73
    13
 74
     0
 42
0.0000000001
 43
0.0000000001
 12
1.0
 22
0.0
 32
0.0
 13
1.0
 23
0.0
 33
0.0
 40
0.0
 40
0.0
 40
0.0
 40
0.0
 40
1.0
 40
1.0
 40
1.0
 40
2.0
 40
2.0
 40
2.0
 40
3.0
 40
3.0
 40
3.0
 40
4.0
 40
4.0
 40
4.0
 40
4.0
 10
85.48935544737766
 20
-115.775189858209
 30
0.0
 10
85.3243353736342
 20
-115.775189858209
 30
0.0
 10
85.23975827947132
 20
-115.8702744936019
 30
0.0
 10
85.23975827947132
 20
-116.0056667461722
 30
0.0
 10
85.23975827947132
 20
-116.1284844002214
 30
0.0
 10
85.31176077511303
 20
-116.246995684914
 30
0.0
 10
85.48935544737766
 20
-116.246995684914
 30
0.0
 10
85.66712237441655
 20
-116.246995684914
 30
0.0
 10
85.73895261528402
 20
-116.1284844002214
 30
0.0
 10
85.73895261528402
 20
-116.0056667461722
 30
0.0
 10
85.73895261528402
 20
-115.8702744936019
 30
0.0
 10
85.65230846382998
 20
-115.775189858209
 30
0.0
 10
85.48935544737766
 20
-115.775189858209
 30
0.0
  0
HATCH
  5
88
330
81
100
AcDbEntity
  8
_U+30EC_U+30A4_U+30E4_U+30FC 1
 62
   179
420
  2234388
100
AcDbHatch
 10
0.0
 20
0.0
 30
0.0
210
0.0
220
0.0
230
1.0
  2
SOLID
 70
     1
 71
     0
 91
        3
 92
        1
 93
        1
 72
     4
 94
        3
 73
     0
 74
     1
 95
       29
 96
       25
 40
0.0
 40
0.0
 40
0.0
 40
0.0
 40
1.0
 40
1.0
 40
1.0
 40
2.0
 40
2.0
 40
2.0
 40
3.0
 40
3.0
 40
3.0
 40
4.0
 40
4.0
 40
4.0
 40
5.0
 40
5.0
 40
5.0
 40
6.0
 40
6.0
 40
6.0
 40
7.0
 40
7.0
 40
7.0
 40
8.0
 40
8.0
 40
8.0
 40
8.0
 10
85.48935544737766
 20
-117.2264363313705
 10
85.22287731159359
 20
-117.2264363313705
 10
84.96897377433068
 20
-117.0888047667348
 10
84.96897377433068
 20
-116.7398165940789
 10
84.96897377433068
 20
-116.4838459995249
 10
85.1107394535487
 20
-116.3885891093577
 10
85.21650388494588
 20
-116.3272664097203
 10
85.09161917360557
 20
-116.268010767374
 10
85.01548256338155
 20
-116.1538058520379
 10
85.01548256338155
 20
-115.993092147651
 10
85.01548256338155
 20
-115.7180012731538
 10
85.21443682765472
 20
-115.5826090205835
 10
85.48935544737766
 20
-115.5826090205835
 10
85.77288680581373
 20
-115.5826090205835
 10
85.96322833137378
 20
-115.7264417570927
 10
85.96322833137378
 20
-115.993092147651
 10
85.96322833137378
 20
-116.1538058520379
 10
85.88502466385862
 20
-116.268010767374
 10
85.7601399525183
 20
-116.3272664097203
 10
85.84902341603775
 20
-116.3780815681277
 10
86.0076700631335
 20
-116.4733384582949
 10
86.0076700631335
 20
-116.7356824794966
 10
86.0076700631335
 20
-117.109992103969
 10
85.72844507405401
 20
-117.2264363313705
 10
85.48935544737766
 20
-117.2264363313705
 97
        0
 97
        0
 92
        1
 93
        1
 72
     4
 94
        3
 73
     0
 74
     1
 95
       17
 96
       13
 40
0.0
 40
0.0
 40
0.0
 40
0.0
 40
1.0
 40
1.0
 40
1.0
 40
2.0
 40
2.0
 40
2.0
 40
3.0
 40
3.0
 40
3.0
 40
4.0
 40
4.0
 40
4.0
 40
4.0
 10
85.48935544737766
 20
-116.4352701531829
 10
85.34552271086848
 20
-116.4352701531829
 10
85.19324949042044
 20
-116.5219143046369
 10
85.19324949042044
 20
-116.7250026834924
 10
85.19324949042044
 20
-116.930158119639
 10
85.3202012590519
 20
-117.0317884364539
 10
85.48935544737766
 20
-117.0317884364539
 10
85.67556285835542
 20
-117.0317884364539
 10
85.78563365910915
 20
-116.909143037179
 10
85.78563365910915
 20
-116.7313761101401
 10
85.78563365910915
 20
-116.5091674513415
 10
85.62268064265683
 20
-116.4352701531829
 10
85.48935544737766
 20
-116.4352701531829
 97
        0
 97
        0
 92
        1
 93
        1
 72
     4
 94
        3
 73
     0
 74
     1
 95
       17
 96
       13
 40
0.0
 40
0.0
 40
0.0
 40
0.0
 40
1.0
 40
1.0
 40
1.0
 40
2.0
 40
2.0
 40
2.0
 40
3.0
 40
3.0
 40
3.0
 40
4.0
 40
4.0
 40
4.0
 40
4.0
 10
85.48935544737766
 20
-115.775189858209
 10
85.3243353736342
 20
-115.775189858209
 10
85.23975827947132
 20
-115.8702744936019
 10
85.23975827947132
 20
-116.0056667461722
 10
85.23975827947132
 20
-116.1284844002214
 10
85.31176077511303
 20
-116.246995684914
 10
85.48935544737766
 20
-116.246995684914
 10
85.66712237441655
 20
-116.246995684914
 10
85.73895261528402
 20
-116.1284844002214
 10
85.73895261528402
 20
-116.0056667461722
 10
85.73895261528402
 20
-115.8702744936019
 10
85.65230846382998
 20
-115.775189858209
 10
85.48935544737766
 20
-115.775189858209
 97
        0
 97
        0
 75
     2
 76
     1
 98
        0
  0
ENDBLK
  5
84
330
81
100
AcDbEntity
  8
0
100
AcDbBlockEnd
  0
BLOCK
  5
97
330
95
100
AcDbEntity
  8
0
100
AcDbBlockBegin
  2
block 3
 70
     0
 10
0.0
 20
0.0
 30
0.0
  3
block 3
  1

  0
SPLINE
  5
99
330
95
100
AcDbEntity
  8
_U+30EC_U+30A4_U+30E4_U+30FC 1
370
     0
100
AcDbSpline
210
0.0
220
0.0
230
1.0
 70
    11
 71
     3
 72
    26
 73
    22
 74
     0
 42
0.0000000001
 43
0.0000000001
 12
1.0
 22
0.0
 32
0.0
 13
1.0
 23
0.0
 33
0.0
 40
0.0
 40
0.0
 40
0.0
 40
0.0
 40
1.0
 40
1.0
 40
1.0
 40
2.0
 40
2.0
 40
2.0
 40
3.0
 40
3.0
 40
3.0
 40
4.0
 40
4.0
 40
4.0
 40
5.0
 40
5.0
 40
5.0
 40
6.0
 40
6.0
 40
6.0
 40
7.0
 40
7.0
 40
7.0
 40
7.0
 10
89.77419295715715
 20
-140.1754231420395
 30
0.0
 10
89.77419295715715
 20
-140.1754231420395
 30
0.0
 10
89.77419295715715
 20
-139.0716145485654
 30
0.0
 10
89.77419295715715
 20
-139.0716145485654
 30
0.0
 10
89.77419295715715
 20
-139.0716145485654
 30
0.0
 10
89.44415280967021
 20
-139.0716145485654
 30
0.0
 10
89.44415280967021
 20
-139.0716145485654
 30
0.0
 10
89.44415280967021
 20
-139.0716145485654
 30
0.0
 10
89.44415280967021
 20
-138.9234754426997
 30
0.0
 10
89.44415280967021
 20
-138.9234754426997
 30
0.0
 10
89.7762600144483
 20
-138.9083170225646
 30
0.0
 10
89.82276880349917
 20
-138.7457085156608
 30
0.0
 10
89.85239662467232
 20
-138.6313313455505
 30
0.0
 10
89.85239662467232
 20
-138.6313313455505
 30
0.0
 10
89.99846867324692
 20
-138.6313313455505
 30
0.0
 10
89.99846867324692
 20
-138.6313313455505
 30
0.0
 10
89.99846867324692
 20
-138.6313313455505
 30
0.0
 10
89.99846867324692
 20
-140.1754231420395
 30
0.0
 10
89.99846867324692
 20
-140.1754231420395
 30
0.0
 10
89.99846867324692
 20
-140.1754231420395
 30
0.0
 10
89.77419295715715
 20
-140.1754231420395
 30
0.0
 10
89.77419295715715
 20
-140.1754231420395
 30
0.0
  0
HATCH
  5
9A
330
95
100
AcDbEntity
  8
_U+30EC_U+30A4_U+30E4_U+30FC 1
 62
   179
420
  2234388
100
AcDbHatch
 10
0.0
 20
0.0
 30
0.0
210
0.0
220
0.0
230
1.0
  2
SOLID
 70
     1
 71
     0
 91
        1
 92
        1
 93
        1
 72
     4
 94
        3
 73
     0
 74
     1
 95
       26
 96
       22
 40
0.0
 40
0.0
 40
0.0
 40
0.0
 40
1.0
 40
1.0
 40
1.0
 40
2.0
 40
2.0
 40
2.0
 40
3.0
 40
3.0
 40
3.0
 40
4.0
 40
4.0
 40
4.0
 40
5.0
 40
5.0
 40
5.0
 40
6.0
 40
6.0
 40
6.0
 40
7.0
 40
7.0
 40
7.0
 40
7.0
 10
89.77419295715715
 20
-140.1754231420395
 10
89.77419295715715
 20
-140.1754231420395
 10
89.77419295715715
 20
-139.0716145485654
 10
89.77419295715715
 20
-139.0716145485654
 10
89.77419295715715
 20
-139.0716145485654
 10
89.44415280967021
 20
-139.0716145485654
 10
89.44415280967021
 20
-139.0716145485654
 10
89.44415280967021
 20
-139.0716145485654
 10
89.44415280967021
 20
-138.9234754426997
 10
89.44415280967021
 20
-138.9234754426997
 10
89.7762600144483
 20
-138.9083170225646
 10
89.82276880349917
 20
-138.7457085156608
 10
89.85239662467232
 20
-138.6313313455505
 10
89.85239662467232
 20
-138.6313313455505
 10
89.99846867324692
 20
-138.6313313455505
 10
89.99846867324692
 20
-138.6313313455505
 10
89.99846867324692
 20
-138.6313313455505
 10
89.99846867324692
 20
-140.1754231420395
 10
89.99846867324692
 20
-140.1754231420395
 10
89.99846867324692
 20
-140.1754231420395
 10
89.77419295715715
 20
-140.1754231420395
 10
89.77419295715715
 20
-140.1754231420395
 97
        0
 97
        0
 75
     2
 76
     1
 98
        0
  0
SPLINE
  5
9B
330
95
100
AcDbEntity
  8
_U+30EC_U+30A4_U+30E4_U+30FC 1
370
     0
100
AcDbSpline
210
0.0
220
0.0
230
1.0
 70
    11
 71
     3
 72
    29
 73
    25
 74
     0
 42
0.0000000001
 43
0.0000000001
 12
1.0
 22
0.0
 32
0.0
 13
1.0
 23
0.0
 33
0.0
 40
0.0
 40
0.0
 40
0.0
 40
0.0
 40
1.0
 40
1.0
 40
1.0
 40
2.0
 40
2.0
 40
2.0
 40
3.0
 40
3.0
 40
3.0
 40
4.0
 40
4.0
 40
4.0
 40
5.0
 40
5.0
 40
5.0
 40
6.0
 40
6.0
 40
6.0
 40
7.0
 40
7.0
 40
7.0
 40
8.0
 40
8.0
 40
8.0
 40
8.0
 10
90.99961342126052
 20
-140.2264105552212
 30
0.0
 10
90.73296303070218
 20
-140.2264105552212
 30
0.0
 10
90.47940400298779
 20
-140.0886067358112
 30
0.0
 10
90.47940400298779
 20
-139.7399630727039
 30
0.0
 10
90.47940400298779
 20
-139.4836479686013
 30
0.0
 10
90.62099742743156
 20
-139.3885633332084
 30
0.0
 10
90.72676185882872
 20
-139.327240633571
 30
0.0
 10
90.60204940226268
 20
-139.2679849912247
 30
0.0
 10
90.52591279203867
 20
-139.1536078211144
 30
0.0
 10
90.52591279203867
 20
-138.9930663715017
 30
0.0
 10
90.52591279203867
 20
-138.7181477517788
 30
0.0
 10
90.72469480153758
 20
-138.58241098966
 30
0.0
 10
90.99961342126052
 20
-138.58241098966
 30
0.0
 10
91.28314477969658
 20
-138.58241098966
 30
0.0
 10
91.47383081480515
 20
-138.7264159809434
 30
0.0
 10
91.47383081480515
 20
-138.9930663715017
 30
0.0
 10
91.47383081480515
 20
-139.1536078211144
 30
0.0
 10
91.39528263774146
 20
-139.2679849912247
 30
0.0
 10
91.27039792640116
 20
-139.327240633571
 30
0.0
 10
91.3592813899206
 20
-139.3782280467527
 30
0.0
 10
91.51827254656489
 20
-139.4733126821456
 30
0.0
 10
91.51827254656489
 20
-139.7358289581216
 30
0.0
 10
91.51827254656489
 20
-140.1099663278197
 30
0.0
 10
91.23870304793685
 20
-140.2264105552212
 30
0.0
 10
90.99961342126052
 20
-140.2264105552212
 30
0.0
  0
SPLINE
  5
9C
330
95
100
AcDbEntity
  8
_U+30EC_U+30A4_U+30E4_U+30FC 1
370
     0
100
AcDbSpline
210
0.0
220
0.0
230
1.0
 70
    11
 71
     3
 72
    17
 73
    13
 74
     0
 42
0.0000000001
 43
0.0000000001
 12
1.0
 22
0.0
 32
0.0
 13
1.0
 23
0.0
 33
0.0
 40
0.0
 40
0.0
 40
0.0
 40
0.0
 40
1.0
 40
1.0
 40
1.0
 40
2.0
 40
2.0
 40
2.0
 40
3.0
 40
3.0
 40
3.0
 40
4.0
 40
4.0
 40
4.0
 40
4.0
 10
90.99961342126052
 20
-139.4354166318078
 30
0.0
 10
90.8559529395256
 20
-139.4354166318078
 30
0.0
 10
90.70333520952903
 20
-139.5222330380361
 30
0.0
 10
90.70333520952903
 20
-139.7248046525688
 30
0.0
 10
90.70333520952903
 20
-139.9301323434897
 30
0.0
 10
90.83045923293476
 20
-140.0314181507561
 30
0.0
 10
90.99961342126052
 20
-140.0314181507561
 30
0.0
 10
91.18564857746401
 20
-140.0314181507561
 30
0.0
 10
91.29589163299201
 20
-139.9087727514811
 30
0.0
 10
91.29589163299201
 20
-139.7310058244423
 30
0.0
 10
91.29589163299201
 20
-139.5091416751922
 30
0.0
 10
91.13293861653969
 20
-139.4354166318078
 30
0.0
 10
90.99961342126052
 20
-139.4354166318078
 30
0.0
  0
SPLINE
  5
9D
330
95
100
AcDbEntity
  8
_U+30EC_U+30A4_U+30E4_U+30FC 1
370
     0
100
AcDbSpline
210
0.0
220
0.0
230
1.0
 70
    11
 71
     3
 72
    17
 73
    13
 74
     0
 42
0.0000000001
 43
0.0000000001
 12
1.0
 22
0.0
 32
0.0
 13
1.0
 23
0.0
 33
0.0
 40
0.0
 40
0.0
 40
0.0
 40
0.0
 40
1.0
 40
1.0
 40
1.0
 40
2.0
 40
2.0
 40
2.0
 40
3.0
 40
3.0
 40
3.0
 40
4.0
 40
4.0
 40
4.0
 40
4.0
 10
90.99961342126052
 20
-138.775336336834
 30
0.0
 10
90.83459334751706
 20
-138.775336336834
 30
0.0
 10
90.75018850812843
 20
-138.8704209722268
 30
0.0
 10
90.75018850812843
 20
-139.0054687152486
 30
0.0
 10
90.75018850812843
 20
-139.1281141145235
 30
0.0
 10
90.82184649422163
 20
-139.2466253992161
 30
0.0
 10
90.99961342126052
 20
-139.2466253992161
 30
0.0
 10
91.17738034829941
 20
-139.2466253992161
 30
0.0
 10
91.24938284394113
 20
-139.1281141145235
 30
0.0
 10
91.24938284394113
 20
-139.0054687152486
 30
0.0
 10
91.24938284394113
 20
-138.8704209722268
 30
0.0
 10
91.16256643771284
 20
-138.775336336834
 30
0.0
 10
90.99961342126052
 20
-138.775336336834
 30
0.0
  0
HATCH
  5
9E
330
95
100
AcDbEntity
  8
_U+30EC_U+30A4_U+30E4_U+30FC 1
 62
   179
420
  2234388
100
AcDbHatch
 10
0.0
 20
0.0
 30
0.0
210
0.0
220
0.0
230
1.0
  2
SOLID
 70
     1
 71
     0
 91
        3
 92
        1
 93
        1
 72
     4
 94
        3
 73
     0
 74
     1
 95
       29
 96
       25
 40
0.0
 40
0.0
 40
0.0
 40
0.0
 40
1.0
 40
1.0
 40
1.0
 40
2.0
 40
2.0
 40
2.0
 40
3.0
 40
3.0
 40
3.0
 40
4.0
 40
4.0
 40
4.0
 40
5.0
 40
5.0
 40
5.0
 40
6.0
 40
6.0
 40
6.0
 40
7.0
 40
7.0
 40
7.0
 40
8.0
 40
8.0
 40
8.0
 40
8.0
 10
90.99961342126052
 20
-140.2264105552212
 10
90.73296303070218
 20
-140.2264105552212
 10
90.47940400298779
 20
-140.0886067358112
 10
90.47940400298779
 20
-139.7399630727039
 10
90.47940400298779
 20
-139.4836479686013
 10
90.62099742743156
 20
-139.3885633332084
 10
90.72676185882872
 20
-139.327240633571
 10
90.60204940226268
 20
-139.2679849912247
 10
90.52591279203867
 20
-139.1536078211144
 10
90.52591279203867
 20
-138.9930663715017
 10
90.52591279203867
 20
-138.7181477517788
 10
90.72469480153758
 20
-138.58241098966
 10
90.99961342126052
 20
-138.58241098966
 10
91.28314477969658
 20
-138.58241098966
 10
91.47383081480515
 20
-138.7264159809434
 10
91.47383081480515
 20
-138.9930663715017
 10
91.47383081480515
 20
-139.1536078211144
 10
91.39528263774146
 20
-139.2679849912247
 10
91.27039792640116
 20
-139.327240633571
 10
91.3592813899206
 20
-139.3782280467527
 10
91.51827254656489
 20
-139.4733126821456
 10
91.51827254656489
 20
-139.7358289581216
 10
91.51827254656489
 20
-140.1099663278197
 10
91.23870304793685
 20
-140.2264105552212
 10
90.99961342126052
 20
-140.2264105552212
 97
        0
 97
        0
 92
        1
 93
        1
 72
     4
 94
        3
 73
     0
 74
     1
 95
       17
 96
       13
 40
0.0
 40
0.0
 40
0.0
 40
0.0
 40
1.0
 40
1.0
 40
1.0
 40
2.0
 40
2.0
 40
2.0
 40
3.0
 40
3.0
 40
3.0
 40
4.0
 40
4.0
 40
4.0
 40
4.0
 10
90.99961342126052
 20
-139.4354166318078
 10
90.8559529395256
 20
-139.4354166318078
 10
90.70333520952903
 20
-139.5222330380361
 10
90.70333520952903
 20
-139.7248046525688
 10
90.70333520952903
 20
-139.9301323434897
 10
90.83045923293476
 20
-140.0314181507561
 10
90.99961342126052
 20
-140.0314181507561
 10
91.18564857746401
 20
-140.0314181507561
 10
91.29589163299201
 20
-139.9087727514811
 10
91.29589163299201
 20
-139.7310058244423
 10
91.29589163299201
 20
-139.5091416751922
 10
91.13293861653969
 20
-139.4354166318078
 10
90.99961342126052
 20
-139.4354166318078
 97
        0
 97
        0
 92
        1
 93
        1
 72
     4
 94
        3
 73
     0
 74
     1
 95
       17
 96
       13
 40
0.0
 40
0.0
 40
0.0
 40
0.0
 40
1.0
 40
1.0
 40
1.0
 40
2.0
 40
2.0
 40
2.0
 40
3.0
 40
3.0
 40
3.0
 40
4.0
 40
4.0
 40
4.0
 40
4.0
 10
90.99961342126052
 20
-138.775336336834
 10
90.83459334751706
 20
-138.775336336834
 10
90.75018850812843
 20
-138.8704209722268
 10
90.75018850812843
 20
-139.0054687152486
 10
90.75018850812843
 20
-139.1281141145235
 10
90.82184649422163
 20
-139.2466253992161
 10
90.99961342126052
 20
-139.2466253992161
 10
91.17738034829941
 20
-139.2466253992161
 10
91.24938284394113
 20
-139.1281141145235
 10
91.24938284394113
 20
-139.0054687152486
 10
91.24938284394113
 20
-138.8704209722268
 10
91.16256643771284
 20
-138.775336336834
 10
90.99961342126052
 20
-138.775336336834
 97
        0
 97
        0
 75
     2
 76
     1
 98
        0
  0
ENDBLK
  5
98
330
95
100
AcDbEntity
  8
0
100
AcDbBlockEnd
  0
BLOCK
  5
B1
330
AF
100
AcDbEntity
  8
0
100
AcDbBlockBegin
  2
block 4
 70
     0
 10
0.0
 20
0.0
 30
0.0
  3
block 4
  1

  0
SPLINE
  5
B3
330
AF
100
AcDbEntity
  8
_U+30EC_U+30A4_U+30E4_U+30FC 1
370
     0
100
AcDbSpline
210
0.0
220
0.0
230
1.0
 70
    11
 71
     3
 72
    29
 73
    25
 74
     0
 42
0.0000000001
 43
0.0000000001
 12
1.0
 22
0.0
 32
0.0
 13
1.0
 23
0.0
 33
0.0
 40
0.0
 40
0.0
 40
0.0
 40
0.0
 40
1.0
 40
1.0
 40
1.0
 40
2.0
 40
2.0
 40
2.0
 40
3.0
 40
3.0
 40
3.0
 40
4.0
 40
4.0
 40
4.0
 40
5.0
 40
5.0
 40
5.0
 40
6.0
 40
6.0
 40
6.0
 40
7.0
 40
7.0
 40
7.0
 40
8.0
 40
8.0
 40
8.0
 40
8.0
 10
102.3606770577432
 20
-138.4253146355326
 30
0.0
 10
102.5701388632464
 20
-138.5334906337694
 30
0.0
 10
102.5890868884152
 20
-138.706434427129
 30
0.0
 10
102.5890868884152
 20
-138.8228786545304
 30
0.0
 10
102.5890868884152
 20
-138.9841091232401
 30
0.0
 10
102.5425780993644
 20
-139.1253580381353
 30
0.0
 10
102.3606770577432
 20
-139.2204426735282
 30
0.0
 10
102.1660291628265
 20
-139.3244845571828
 30
0.0
 10
101.9290065934414
 20
-139.3437770919002
 30
0.0
 10
101.7663980865376
 20
-139.3437770919002
 30
0.0
 10
101.6223930952541
 20
-139.3437770919002
 30
0.0
 10
101.3705566152824
 20
-139.3265516144739
 30
0.0
 10
101.1717746057835
 20
-139.2204426735282
 30
0.0
 10
100.9688584817022
 20
-139.1129556943884
 30
0.0
 10
100.9454318324025
 20
-138.9517252256787
 30
0.0
 10
100.9454318324025
 20
-138.8228786545304
 30
0.0
 10
100.9454318324025
 20
-138.6644042622089
 30
0.0
 10
100.9898735641623
 20
-138.5203992709255
 30
0.0
 10
101.1717746057835
 20
-138.4253146355326
 30
0.0
 10
101.3643554434089
 20
-138.3260958855574
 30
0.0
 10
101.592765274081
 20
-138.3026692362577
 30
0.0
 10
101.7663980865376
 20
-138.3026692362577
 30
0.0
 10
101.9376193321545
 20
-138.3026692362577
 30
0.0
 10
102.1680962201177
 20
-138.3240288282662
 30
0.0
 10
102.3606770577432
 20
-138.4253146355326
 30
0.0
  0
SPLINE
  5
B4
330
AF
100
AcDbEntity
  8
_U+30EC_U+30A4_U+30E4_U+30FC 1
370
     0
100
AcDbSpline
210
0.0
220
0.0
230
1.0
 70
    11
 71
     3
 72
    17
 73
    13
 74
     0
 42
0.0000000001
 43
0.0000000001
 12
1.0
 22
0.0
 32
0.0
 13
1.0
 23
0.0
 33
0.0
 40
0.0
 40
0.0
 40
0.0
 40
0.0
 40
1.0
 40
1.0
 40
1.0
 40
2.0
 40
2.0
 40
2.0
 40
3.0
 40
3.0
 40
3.0
 40
4.0
 40
4.0
 40
4.0
 40
4.0
 10
101.138012670028
 20
-138.8228786545304
 30
0.0
 10
101.138012670028
 20
-139.0729925867595
 30
0.0
 10
101.4215440284641
 20
-139.1191568662619
 30
0.0
 10
101.7663980865376
 20
-139.1191568662619
 30
0.0
 10
102.0857584380202
 20
-139.1191568662619
 30
0.0
 10
102.3944389934986
 20
-139.0833278732153
 30
0.0
 10
102.3944389934986
 20
-138.8228786545304
 30
0.0
 10
102.3944389934986
 20
-138.5755207986895
 30
0.0
 10
102.1133192019022
 20
-138.5266004427989
 30
0.0
 10
101.7663980865376
 20
-138.5266004427989
 30
0.0
 10
101.4466932255064
 20
-138.5266004427989
 30
0.0
 10
101.138012670028
 20
-138.5651855122337
 30
0.0
 10
101.138012670028
 20
-138.8228786545304
 30
0.0
  0
HATCH
  5
B5
330
AF
100
AcDbEntity
  8
_U+30EC_U+30A4_U+30E4_U+30FC 1
 62
   179
420
  2234388
100
AcDbHatch
 10
0.0
 20
0.0
 30
0.0
210
0.0
220
0.0
230
1.0
  2
SOLID
 70
     1
 71
     0
 91
        2
 92
        1
 93
        1
 72
     4
 94
        3
 73
     0
 74
     1
 95
       29
 96
       25
 40
0.0
 40
0.0
 40
0.0
 40
0.0
 40
1.0
 40
1.0
 40
1.0
 40
2.0
 40
2.0
 40
2.0
 40
3.0
 40
3.0
 40
3.0
 40
4.0
 40
4.0
 40
4.0
 40
5.0
 40
5.0
 40
5.0
 40
6.0
 40
6.0
 40
6.0
 40
7.0
 40
7.0
 40
7.0
 40
8.0
 40
8.0
 40
8.0
 40
8.0
 10
102.3606770577432
 20
-138.4253146355326
 10
102.5701388632464
 20
-138.5334906337694
 10
102.5890868884152
 20
-138.706434427129
 10
102.5890868884152
 20
-138.8228786545304
 10
102.5890868884152
 20
-138.9841091232401
 10
102.5425780993644
 20
-139.1253580381353
 10
102.3606770577432
 20
-139.2204426735282
 10
102.1660291628265
 20
-139.3244845571828
 10
101.9290065934414
 20
-139.3437770919002
 10
101.7663980865376
 20
-139.3437770919002
 10
101.6223930952541
 20
-139.3437770919002
 10
101.3705566152824
 20
-139.3265516144739
 10
101.1717746057835
 20
-139.2204426735282
 10
100.9688584817022
 20
-139.1129556943884
 10
100.9454318324025
 20
-138.9517252256787
 10
100.9454318324025
 20
-138.8228786545304
 10
100.9454318324025
 20
-138.6644042622089
 10
100.9898735641623
 20
-138.5203992709255
 10
101.1717746057835
 20
-138.4253146355326
 10
101.3643554434089
 20
-138.3260958855574
 10
101.592765274081
 20
-138.3026692362577
 10
101.7663980865376
 20
-138.3026692362577
 10
101.9376193321545
 20
-138.3026692362577
 10
102.1680962201177
 20
-138.3240288282662
 10
102.3606770577432
 20
-138.4253146355326
 97
        0
 97
        0
 92
        1
 93
        1
 72
     4
 94
        3
 73
     0
 74
     1
 95
       17
 96
       13
 40
0.0
 40
0.0
 40
0.0
 40
0.0
 40
1.0
 40
1.0
 40
1.0
 40
2.0
 40
2.0
 40
2.0
 40
3.0
 40
3.0
 40
3.0
 40
4.0
 40
4.0
 40
4.0
 40
4.0
 10
101.138012670028
 20
-138.8228786545304
 10
101.138012670028
 20
-139.0729925867595
 10
101.4215440284641
 20
-139.1191568662619
 10
101.7663980865376
 20
-139.1191568662619
 10
102.0857584380202
 20
-139.1191568662619
 10
102.3944389934986
 20
-139.0833278732153
 10
102.3944389934986
 20
-138.8228786545304
 10
102.3944389934986
 20
-138.5755207986895
 10
102.1133192019022
 20
-138.5266004427989
 10
101.7663980865376
 20
-138.5266004427989
 10
101.4466932255064
 20
-138.5266004427989
 10
101.138012670028
 20
-138.5651855122337
 10
101.138012670028
 20
-138.8228786545304
 97
        0
 97
        0
 75
     2
 76
     1
 98
        0
  0
POLYLINE
  5
B6
330
AF
100
AcDbEntity
  8
_U+30EC_U+30A4_U+30E4_U+30FC 1
370
     0
100
AcDb2dPolyline
 66
     1
 10
0.0
 20
0.0
 30
0.0
  0
VERTEX
  5
B7
330
B6
100
AcDbEntity
  8
_U+30EC_U+30A4_U+30E4_U+30FC 1
370
     0
100
AcDbVertex
100
AcDb2dVertex
 10
102.5384439847821
 20
-138.086317239784
 30
0.0
  0
VERTEX
  5
B8
330
B6
100
AcDbEntity
  8
_U+30EC_U+30A4_U+30E4_U+30FC 1
370
     0
100
AcDbVertex
100
AcDb2dVertex
 10
102.2866075048103
 20
-138.086317239784
 30
0.0
  0
VERTEX
  5
B9
330
B6
100
AcDbEntity
  8
_U+30EC_U+30A4_U+30E4_U+30FC 1
370
     0
100
AcDbVertex
100
AcDb2dVertex
 10
102.2866075048103
 20
-137.8341362502637
 30
0.0
  0
VERTEX
  5
BA
330
B6
100
AcDbEntity
  8
_U+30EC_U+30A4_U+30E4_U+30FC 1
370
     0
100
AcDbVertex
100
AcDb2dVertex
 10
102.5384439847821
 20
-137.8341362502637
 30
0.0
  0
VERTEX
  5
BB
330
B6
100
AcDbEntity
  8
_U+30EC_U+30A4_U+30E4_U+30FC 1
370
     0
100
AcDbVertex
100
AcDb2dVertex
 10
102.5384439847821
 20
-138.086317239784
 30
0.0
  0
SEQEND
  5
BC
330
B6
100
AcDbEntity
  8
_U+30EC_U+30A4_U+30E4_U+30FC 1
370
     0
  0
HATCH
  5
BD
330
AF
100
AcDbEntity
  8
_U+30EC_U+30A4_U+30E4_U+30FC 1
 62
   179
420
  2234388
100
AcDbHatch
 10
0.0
 20
0.0
 30
0.0
210
0.0
220
0.0
230
1.0
  2
SOLID
 70
     1
 71
     0
 91
        1
 92
        1
 93
        4
 72
     1
 10
102.5384439847821
 20
-138.086317239784
 11
102.2866075048103
 21
-138.086317239784
 72
     1
 10
102.2866075048103
 20
-138.086317239784
 11
102.2866075048103
 21
-137.8341362502637
 72
     1
 10
102.2866075048103
 20
-137.8341362502637
 11
102.5384439847821
 21
-137.8341362502637
 72
     1
 10
102.5384439847821
 20
-137.8341362502637
 11
102.5384439847821
 21
-138.086317239784
 97
        0
 75
     2
 76
     1
 98
        0
  0
SPLINE
  5
BE
330
AF
100
AcDbEntity
  8
_U+30EC_U+30A4_U+30E4_U+30FC 1
370
     0
100
AcDbSpline
210
0.0
220
0.0
230
1.0
 70
    11
 71
     3
 72
    26
 73
    22
 74
     0
 42
0.0000000001
 43
0.0000000001
 12
1.0
 22
0.0
 32
0.0
 13
1.0
 23
0.0
 33
0.0
 40
0.0
 40
0.0
 40
0.0
 40
0.0
 40
1.0
 40
1.0
 40
1.0
 40
2.0
 40
2.0
 40
2.0
 40
3.0
 40
3.0
 40
3.0
 40
4.0
 40
4.0
 40
4.0
 40
5.0
 40
5.0
 40
5.0
 40
6.0
 40
6.0
 40
6.0
 40
7.0
 40
7.0
 40
7.0
 40
7.0
 10
102.5384439847821
 20
-137.1871473181338
 30
0.0
 10
102.5384439847821
 20
-137.1871473181338
 30
0.0
 10
102.5384439847821
 20
-137.424169887519
 30
0.0
 10
102.5384439847821
 20
-137.424169887519
 30
0.0
 10
102.2294189197551
 20
-137.3986761809281
 30
0.0
 10
101.7112765587736
 20
-137.2057508337541
 30
0.0
 10
101.2055365415389
 20
-136.7999185855917
 30
0.0
 10
101.2055365415389
 20
-136.7999185855917
 30
0.0
 10
101.2055365415389
 20
-137.6377658076045
 30
0.0
 10
101.2055365415389
 20
-137.6377658076045
 30
0.0
 10
101.2055365415389
 20
-137.6377658076045
 30
0.0
 10
100.9940076787446
 20
-137.6377658076045
 30
0.0
 10
100.9940076787446
 20
-137.6377658076045
 30
0.0
 10
100.9940076787446
 20
-137.6377658076045
 30
0.0
 10
100.9940076787446
 20
-136.5628960162065
 30
0.0
 10
100.9940076787446
 20
-136.5628960162065
 30
0.0
 10
100.9940076787446
 20
-136.5628960162065
 30
0.0
 10
101.2055365415389
 20
-136.5628960162065
 30
0.0
 10
101.2055365415389
 20
-136.5628960162065
 30
0.0
 10
101.4956135813969
 20
-136.88673499182
 30
0.0
 10
102.0878254953114
 20
-137.1533853823783
 30
0.0
 10
102.5384439847821
 20
-137.1871473181338
 30
0.0
  0
HATCH
  5
BF
330
AF
100
AcDbEntity
  8
_U+30EC_U+30A4_U+30E4_U+30FC 1
 62
   179
420
  2234388
100
AcDbHatch
 10
0.0
 20
0.0
 30
0.0
210
0.0
220
0.0
230
1.0
  2
SOLID
 70
     1
 71
     0
 91
        1
 92
        1
 93
        1
 72
     4
 94
        3
 73
     0
 74
     1
 95
       26
 96
       22
 40
0.0
 40
0.0
 40
0.0
 40
0.0
 40
1.0
 40
1.0
 40
1.0
 40
2.0
 40
2.0
 40
2.0
 40
3.0
 40
3.0
 40
3.0
 40
4.0
 40
4.0
 40
4.0
 40
5.0
 40
5.0
 40
5.0
 40
6.0
 40
6.0
 40
6.0
 40
7.0
 40
7.0
 40
7.0
 40
7.0
 10
102.5384439847821
 20
-137.1871473181338
 10
102.5384439847821
 20
-137.1871473181338
 10
102.5384439847821
 20
-137.424169887519
 10
102.5384439847821
 20
-137.424169887519
 10
102.2294189197551
 20
-137.3986761809281
 10
101.7112765587736
 20
-137.2057508337541
 10
101.2055365415389
 20
-136.7999185855917
 10
101.2055365415389
 20
-136.7999185855917
 10
101.2055365415389
 20
-137.6377658076045
 10
101.2055365415389
 20
-137.6377658076045
 10
101.2055365415389
 20
-137.6377658076045
 10
100.9940076787446
 20
-137.6377658076045
 10
100.9940076787446
 20
-137.6377658076045
 10
100.9940076787446
 20
-137.6377658076045
 10
100.9940076787446
 20
-136.5628960162065
 10
100.9940076787446
 20
-136.5628960162065
 10
100.9940076787446
 20
-136.5628960162065
 10
101.2055365415389
 20
-136.5628960162065
 10
101.2055365415389
 20
-136.5628960162065
 10
101.4956135813969
 20
-136.88673499182
 10
102.0878254953114
 20
-137.1533853823783
 10
102.5384439847821
 20
-137.1871473181338
 97
        0
 97
        0
 75
     2
 76
     1
 98
        0
  0
ENDBLK
  5
B2
330
AF
100
AcDbEntity
  8
0
100
AcDbBlockEnd
  0
BLOCK
  5
CA
330
C8
100
AcDbEntity
  8
0
100
AcDbBlockBegin
  2
block 5
 70
     0
 10
0.0
 20
0.0
 30
0.0
  3
block 5
  1

  0
SPLINE
  5
CC
330
C8
100
AcDbEntity
  8
_U+30EC_U+30A4_U+30E4_U+30FC 1
370
     0
100
AcDbSpline
210
0.0
220
0.0
230
1.0
 70
    11
 71
     3
 72
    26
 73
    22
 74
     0
 42
0.0000000001
 43
0.0000000001
 12
1.0
 22
0.0
 32
0.0
 13
1.0
 23
0.0
 33
0.0
 40
0.0
 40
0.0
 40
0.0
 40
0.0
 40
1.0
 40
1.0
 40
1.0
 40
2.0
 40
2.0
 40
2.0
 40
3.0
 40
3.0
 40
3.0
 40
4.0
 40
4.0
 40
4.0
 40
5.0
 40
5.0
 40
5.0
 40
6.0
 40
6.0
 40
6.0
 40
7.0
 40
7.0
 40
7.0
 40
7.0
 10
78.4406900845565
 20
-132.1759114252894
 30
0.0
 10
78.4406900845565
 20
-132.1759114252894
 30
0.0
 10
78.4406900845565
 20
-131.0717583222668
 30
0.0
 10
78.4406900845565
 20
-131.0717583222668
 30
0.0
 10
78.4406900845565
 20
-131.0717583222668
 30
0.0
 10
78.11064993706957
 20
-131.0717583222668
 30
0.0
 10
78.11064993706957
 20
-131.0717583222668
 30
0.0
 10
78.11064993706957
 20
-131.0717583222668
 30
0.0
 10
78.11064993706957
 20
-130.9236192164011
 30
0.0
 10
78.11064993706957
 20
-130.9236192164011
 30
0.0
 10
78.44275714184765
 20
-130.9088053058145
 30
0.0
 10
78.48926593089853
 20
-130.7458522893621
 30
0.0
 10
78.51889375207166
 20
-130.6314751192519
 30
0.0
 10
78.51889375207166
 20
-130.6314751192519
 30
0.0
 10
78.66496580064626
 20
-130.6314751192519
 30
0.0
 10
78.66496580064626
 20
-130.6314751192519
 30
0.0
 10
78.66496580064626
 20
-130.6314751192519
 30
0.0
 10
78.66496580064626
 20
-132.1759114252894
 30
0.0
 10
78.66496580064626
 20
-132.1759114252894
 30
0.0
 10
78.66496580064626
 20
-132.1759114252894
 30
0.0
 10
78.4406900845565
 20
-132.1759114252894
 30
0.0
 10
78.4406900845565
 20
-132.1759114252894
 30
0.0
  0
HATCH
  5
CD
330
C8
100
AcDbEntity
  8
_U+30EC_U+30A4_U+30E4_U+30FC 1
 62
   179
420
  2234388
100
AcDbHatch
 10
0.0
 20
0.0
 30
0.0
210
0.0
220
0.0
230
1.0
  2
SOLID
 70
     1
 71
     0
 91
        1
 92
        1
 93
        1
 72
     4
 94
        3
 73
     0
 74
     1
 95
       26
 96
       22
 40
0.0
 40
0.0
 40
0.0
 40
0.0
 40
1.0
 40
1.0
 40
1.0
 40
2.0
 40
2.0
 40
2.0
 40
3.0
 40
3.0
 40
3.0
 40
4.0
 40
4.0
 40
4.0
 40
5.0
 40
5.0
 40
5.0
 40
6.0
 40
6.0
 40
6.0
 40
7.0
 40
7.0
 40
7.0
 40
7.0
 10
78.4406900845565
 20
-132.1759114252894
 10
78.4406900845565
 20
-132.1759114252894
 10
78.4406900845565
 20
-131.0717583222668
 10
78.4406900845565
 20
-131.0717583222668
 10
78.4406900845565
 20
-131.0717583222668
 10
78.11064993706957
 20
-131.0717583222668
 10
78.11064993706957
 20
-131.0717583222668
 10
78.11064993706957
 20
-131.0717583222668
 10
78.11064993706957
 20
-130.9236192164011
 10
78.11064993706957
 20
-130.9236192164011
 10
78.44275714184765
 20
-130.9088053058145
 10
78.48926593089853
 20
-130.7458522893621
 10
78.51889375207166
 20
-130.6314751192519
 10
78.51889375207166
 20
-130.6314751192519
 10
78.66496580064626
 20
-130.6314751192519
 10
78.66496580064626
 20
-130.6314751192519
 10
78.66496580064626
 20
-130.6314751192519
 10
78.66496580064626
 20
-132.1759114252894
 10
78.66496580064626
 20
-132.1759114252894
 10
78.66496580064626
 20
-132.1759114252894
 10
78.4406900845565
 20
-132.1759114252894
 10
78.4406900845565
 20
-132.1759114252894
 97
        0
 97
        0
 75
     2
 76
     1
 98
        0
  0
ENDBLK
  5
CB
330
C8
100
AcDbEntity
  8
0
100
AcDbBlockEnd
  0
BLOCK
  5
DC
330
DA
100
AcDbEntity
  8
0
100
AcDbBlockBegin
  2
block 6
 70
     0
 10
0.0
 20
0.0
 30
0.0
  3
block 6
  1

  0
SPLINE
  5
DE
330
DA
100
AcDbEntity
  8
_U+30EC_U+30A4_U+30E4_U+30FC 1
370
     0
100
AcDbSpline
210
0.0
220
0.0
230
1.0
 70
    11
 71
     3
 72
    26
 73
    22
 74
     0
 42
0.0000000001
 43
0.0000000001
 12
1.0
 22
0.0
 32
0.0
 13
1.0
 23
0.0
 33
0.0
 40
0.0
 40
0.0
 40
0.0
 40
0.0
 40
1.0
 40
1.0
 40
1.0
 40
2.0
 40
2.0
 40
2.0
 40
3.0
 40
3.0
 40
3.0
 40
4.0
 40
4.0
 40
4.0
 40
5.0
 40
5.0
 40
5.0
 40
6.0
 40
6.0
 40
6.0
 40
7.0
 40
7.0
 40
7.0
 40
7.0
 10
95.90043400380267
 20
-132.1759114252894
 30
0.0
 10
95.90043400380267
 20
-132.1759114252894
 30
0.0
 10
95.66341143441748
 20
-132.1759114252894
 30
0.0
 10
95.66341143441748
 20
-132.1759114252894
 30
0.0
 10
95.68890514100833
 20
-131.8668863602624
 30
0.0
 10
95.8814859786338
 20
-131.3487439992809
 30
0.0
 10
96.28766273634476
 20
-130.8430039820462
 30
0.0
 10
96.28766273634476
 20
-130.8430039820462
 30
0.0
 10
95.449815514332
 20
-130.8430039820462
 30
0.0
 10
95.449815514332
 20
-130.8430039820462
 30
0.0
 10
95.449815514332
 20
-130.8430039820462
 30
0.0
 10
95.449815514332
 20
-130.6314751192519
 30
0.0
 10
95.449815514332
 20
-130.6314751192519
 30
0.0
 10
95.449815514332
 20
-130.6314751192519
 30
0.0
 10
96.52468530572995
 20
-130.6314751192519
 30
0.0
 10
96.52468530572995
 20
-130.6314751192519
 30
0.0
 10
96.52468530572995
 20
-130.6314751192519
 30
0.0
 10
96.52468530572995
 20
-130.8430039820462
 30
0.0
 10
96.52468530572995
 20
-130.8430039820462
 30
0.0
 10
96.20084633011646
 20
-131.1330810219042
 30
0.0
 10
95.93419593955812
 20
-131.7252929358187
 30
0.0
 10
95.90043400380267
 20
-132.1759114252894
 30
0.0
  0
HATCH
  5
DF
330
DA
100
AcDbEntity
  8
_U+30EC_U+30A4_U+30E4_U+30FC 1
 62
   179
420
  2234388
100
AcDbHatch
 10
0.0
 20
0.0
 30
0.0
210
0.0
220
0.0
230
1.0
  2
SOLID
 70
     1
 71
     0
 91
        1
 92
        1
 93
        1
 72
     4
 94
        3
 73
     0
 74
     1
 95
       26
 96
       22
 40
0.0
 40
0.0
 40
0.0
 40
0.0
 40
1.0
 40
1.0
 40
1.0
 40
2.0
 40
2.0
 40
2.0
 40
3.0
 40
3.0
 40
3.0
 40
4.0
 40
4.0
 40
4.0
 40
5.0
 40
5.0
 40
5.0
 40
6.0
 40
6.0
 40
6.0
 40
7.0
 40
7.0
 40
7.0
 40
7.0
 10
95.90043400380267
 20
-132.1759114252894
 10
95.90043400380267
 20
-132.1759114252894
 10
95.66341143441748
 20
-132.1759114252894
 10
95.66341143441748
 20
-132.1759114252894
 10
95.68890514100833
 20
-131.8668863602624
 10
95.8814859786338
 20
-131.3487439992809
 10
96.28766273634476
 20
-130.8430039820462
 10
96.28766273634476
 20
-130.8430039820462
 10
95.449815514332
 20
-130.8430039820462
 10
95.449815514332
 20
-130.8430039820462
 10
95.449815514332
 20
-130.8430039820462
 10
95.449815514332
 20
-130.6314751192519
 10
95.449815514332
 20
-130.6314751192519
 10
95.449815514332
 20
-130.6314751192519
 10
96.52468530572995
 20
-130.6314751192519
 10
96.52468530572995
 20
-130.6314751192519
 10
96.52468530572995
 20
-130.6314751192519
 10
96.52468530572995
 20
-130.8430039820462
 10
96.52468530572995
 20
-130.8430039820462
 10
96.20084633011646
 20
-131.1330810219042
 10
95.93419593955812
 20
-131.7252929358187
 10
95.90043400380267
 20
-132.1759114252894
 97
        0
 97
        0
 75
     2
 76
     1
 98
        0
  0
ENDBLK
  5
DD
330
DA
100
AcDbEntity
  8
0
100
AcDbBlockEnd
  0
BLOCK
  5
EE
330
EC
100
AcDbEntity
  8
0
100
AcDbBlockBegin
  2
block 7
 70
     0
 10
0.0
 20
0.0
 30
0.0
  3
block 7
  1

  0
SPLINE
  5
F0
330
EC
100
AcDbEntity
  8
_U+30EC_U+30A4_U+30E4_U+30FC 1
370
     0
100
AcDbSpline
210
0.0
220
0.0
230
1.0
 70
    11
 71
     3
 72
    26
 73
    22
 74
     0
 42
0.0000000001
 43
0.0000000001
 12
1.0
 22
0.0
 32
0.0
 13
1.0
 23
0.0
 33
0.0
 40
0.0
 40
0.0
 40
0.0
 40
0.0
 40
1.0
 40
1.0
 40
1.0
 40
2.0
 40
2.0
 40
2.0
 40
3.0
 40
3.0
 40
3.0
 40
4.0
 40
4.0
 40
4.0
 40
5.0
 40
5.0
 40
5.0
 40
6.0
 40
6.0
 40
6.0
 40
7.0
 40
7.0
 40
7.0
 40
7.0
 10
102.8912217624716
 20
-129.9848306966705
 30
0.0
 10
102.8912217624716
 20
-129.9848306966705
 30
0.0
 10
101.7870686594491
 20
-129.9848306966705
 30
0.0
 10
101.7870686594491
 20
-129.9848306966705
 30
0.0
 10
101.7870686594491
 20
-129.9848306966705
 30
0.0
 10
101.7870686594491
 20
-130.3148708441574
 30
0.0
 10
101.7870686594491
 20
-130.3148708441574
 30
0.0
 10
101.7870686594491
 20
-130.3148708441574
 30
0.0
 10
101.6389295535833
 20
-130.3148708441574
 30
0.0
 10
101.6389295535833
 20
-130.3148708441574
 30
0.0
 10
101.6241156429968
 20
-129.9827636393793
 30
0.0
 10
101.4611626265444
 20
-129.9359103407799
 30
0.0
 10
101.3467854564341
 20
-129.9062825196068
 30
0.0
 10
101.3467854564341
 20
-129.9062825196068
 30
0.0
 10
101.3467854564341
 20
-129.7602104710322
 30
0.0
 10
101.3467854564341
 20
-129.7602104710322
 30
0.0
 10
101.3467854564341
 20
-129.7602104710322
 30
0.0
 10
102.8912217624716
 20
-129.7602104710322
 30
0.0
 10
102.8912217624716
 20
-129.7602104710322
 30
0.0
 10
102.8912217624716
 20
-129.7602104710322
 30
0.0
 10
102.8912217624716
 20
-129.9848306966705
 30
0.0
 10
102.8912217624716
 20
-129.9848306966705
 30
0.0
  0
HATCH
  5
F1
330
EC
100
AcDbEntity
  8
_U+30EC_U+30A4_U+30E4_U+30FC 1
 62
   179
420
  2234388
100
AcDbHatch
 10
0.0
 20
0.0
 30
0.0
210
0.0
220
0.0
230
1.0
  2
SOLID
 70
     1
 71
     0
 91
        1
 92
        1
 93
        1
 72
     4
 94
        3
 73
     0
 74
     1
 95
       26
 96
       22
 40
0.0
 40
0.0
 40
0.0
 40
0.0
 40
1.0
 40
1.0
 40
1.0
 40
2.0
 40
2.0
 40
2.0
 40
3.0
 40
3.0
 40
3.0
 40
4.0
 40
4.0
 40
4.0
 40
5.0
 40
5.0
 40
5.0
 40
6.0
 40
6.0
 40
6.0
 40
7.0
 40
7.0
 40
7.0
 40
7.0
 10
102.8912217624716
 20
-129.9848306966705
 10
102.8912217624716
 20
-129.9848306966705
 10
101.7870686594491
 20
-129.9848306966705
 10
101.7870686594491
 20
-129.9848306966705
 10
101.7870686594491
 20
-129.9848306966705
 10
101.7870686594491
 20
-130.3148708441574
 10
101.7870686594491
 20
-130.3148708441574
 10
101.7870686594491
 20
-130.3148708441574
 10
101.6389295535833
 20
-130.3148708441574
 10
101.6389295535833
 20
-130.3148708441574
 10
101.6241156429968
 20
-129.9827636393793
 10
101.4611626265444
 20
-129.9359103407799
 10
101.3467854564341
 20
-129.9062825196068
 10
101.3467854564341
 20
-129.9062825196068
 10
101.3467854564341
 20
-129.7602104710322
 10
101.3467854564341
 20
-129.7602104710322
 10
101.3467854564341
 20
-129.7602104710322
 10
102.8912217624716
 20
-129.7602104710322
 10
102.8912217624716
 20
-129.7602104710322
 10
102.8912217624716
 20
-129.7602104710322
 10
102.8912217624716
 20
-129.9848306966705
 10
102.8912217624716
 20
-129.9848306966705
 97
        0
 97
        0
 75
     2
 76
     1
 98
        0
  0
SPLINE
  5
F2
330
EC
100
AcDbEntity
  8
_U+30EC_U+30A4_U+30E4_U+30FC 1
370
     0
100
AcDbSpline
210
0.0
220
0.0
230
1.0
 70
    11
 71
     3
 72
    62
 73
    58
 74
     0
 42
0.0000000001
 43
0.0000000001
 12
1.0
 22
0.0
 32
0.0
 13
1.0
 23
0.0
 33
0.0
 40
0.0
 40
0.0
 40
0.0
 40
0.0
 40
1.0
 40
1.0
 40
1.0
 40
2.0
 40
2.0
 40
2.0
 40
3.0
 40
3.0
 40
3.0
 40
4.0
 40
4.0
 40
4.0
 40
5.0
 40
5.0
 40
5.0
 40
6.0
 40
6.0
 40
6.0
 40
7.0
 40
7.0
 40
7.0
 40
8.0
 40
8.0
 40
8.0
 40
9.0
 40
9.0
 40
9.0
 40
10.0
 40
10.0
 40
10.0
 40
11.0
 40
11.0
 40
11.0
 40
12.0
 40
12.0
 40
12.0
 40
13.0
 40
13.0
 40
13.0
 40
14.0
 40
14.0
 40
14.0
 40
15.0
 40
15.0
 40
15.0
 40
16.0
 40
16.0
 40
16.0
 40
17.0
 40
17.0
 40
17.0
 40
18.0
 40
18.0
 40
18.0
 40
19.0
 40
19.0
 40
19.0
 40
19.0
 10
102.9418646661048
 20
-128.7673339521832
 30
0.0
 10
102.9418646661048
 20
-128.8631076066731
 30
0.0
 10
102.9208495836448
 20
-129.0808376413409
 30
0.0
 10
102.7348144274413
 20
-129.205550097907
 30
0.0
 10
102.6225043146222
 20
-129.2799641603883
 30
0.0
 10
102.523285564647
 20
-129.2840982749707
 30
0.0
 10
102.4385362157098
 20
-129.2882323895529
 30
0.0
 10
102.4385362157098
 20
-129.2882323895529
 30
0.0
 10
102.4385362157098
 20
-129.067746278497
 30
0.0
 10
102.4385362157098
 20
-129.067746278497
 30
0.0
 10
102.5126057686427
 20
-129.0656792212058
 30
0.0
 10
102.7472167711882
 20
-129.0553439347501
 30
0.0
 10
102.7472167711882
 20
-128.7721570858625
 30
0.0
 10
102.7472167711882
 20
-128.6345255212268
 30
0.0
 10
102.6776258423861
 20
-128.4819077912302
 30
0.0
 10
102.4492160117141
 20
-128.4819077912302
 30
0.0
 10
102.3327717843126
 20
-128.4819077912302
 30
0.0
 10
102.2841959379706
 20
-128.5201483511165
 30
0.0
 10
102.2525010595063
 20
-128.5518432295808
 30
0.0
 10
102.1784315065734
 20
-128.6259127825137
 30
0.0
 10
102.165684653278
 20
-128.7423570099151
 30
0.0
 10
102.165684653278
 20
-128.7969617733563
 30
0.0
 10
102.165684653278
 20
-128.8162543080737
 30
0.0
 10
102.1677517105692
 20
-128.8520833011203
 30
0.0
 10
102.1718858251515
 20
-128.8796440650023
 30
0.0
 10
102.1718858251515
 20
-128.8796440650023
 30
0.0
 10
101.9772379302349
 20
-128.8796440650023
 30
0.0
 10
101.9772379302349
 20
-128.8796440650023
 30
0.0
 10
101.9837836116568
 20
-128.8417480146646
 30
0.0
 10
101.985850668948
 20
-128.7997178497445
 30
0.0
 10
101.985850668948
 20
-128.792827658774
 30
0.0
 10
101.985850668948
 20
-128.7275430993285
 30
0.0
 10
101.9644910769394
 20
-128.5287610898296
 30
0.0
 10
101.7278130171028
 20
-128.5287610898296
 30
0.0
 10
101.5500460900639
 20
-128.5287610898296
 30
0.0
 10
101.4949245622999
 20
-128.6596747182691
 30
0.0
 10
101.4949245622999
 20
-128.7700900285714
 30
0.0
 10
101.4949245622999
 20
-129.0339843427415
 30
0.0
 10
101.7278130171028
 20
-129.0429415910032
 30
0.0
 10
101.799471003196
 20
-129.0470757055855
 30
0.0
 10
101.799471003196
 20
-129.0470757055855
 30
0.0
 10
101.799471003196
 20
-129.2503363392152
 30
0.0
 10
101.799471003196
 20
-129.2503363392152
 30
0.0
 10
101.6747585466299
 20
-129.2413790909536
 30
0.0
 10
101.2982096100921
 20
-129.2138183270716
 30
0.0
 10
101.2982096100921
 20
-128.7571709205017
 30
0.0
 10
101.2982096100921
 20
-128.5328952044119
 30
0.0
 10
101.4253336334978
 20
-128.2917385204444
 30
0.0
 10
101.7212673356808
 20
-128.2917385204444
 30
0.0
 10
101.9076470014328
 20
-128.2917385204444
 30
0.0
 10
101.9899847835303
 20
-128.3868231558373
 30
0.0
 10
102.0513074831677
 20
-128.486386415361
 30
0.0
 10
102.0788682470497
 20
-128.4250637157236
 30
0.0
 10
102.1591389718561
 20
-128.2431626741024
 30
0.0
 10
102.4364691584187
 20
-128.2431626741024
 30
0.0
 10
102.7747775350702
 20
-128.2431626741024
 30
0.0
 10
102.9418646661048
 20
-128.4905205299434
 30
0.0
 10
102.9418646661048
 20
-128.7673339521832
 30
0.0
  0
HATCH
  5
F3
330
EC
100
AcDbEntity
  8
_U+30EC_U+30A4_U+30E4_U+30FC 1
 62
   179
420
  2234388
100
AcDbHatch
 10
0.0
 20
0.0
 30
0.0
210
0.0
220
0.0
230
1.0
  2
SOLID
 70
     1
 71
     0
 91
        1
 92
        1
 93
        1
 72
     4
 94
        3
 73
     0
 74
     1
 95
       62
 96
       58
 40
0.0
 40
0.0
 40
0.0
 40
0.0
 40
1.0
 40
1.0
 40
1.0
 40
2.0
 40
2.0
 40
2.0
 40
3.0
 40
3.0
 40
3.0
 40
4.0
 40
4.0
 40
4.0
 40
5.0
 40
5.0
 40
5.0
 40
6.0
 40
6.0
 40
6.0
 40
7.0
 40
7.0
 40
7.0
 40
8.0
 40
8.0
 40
8.0
 40
9.0
 40
9.0
 40
9.0
 40
10.0
 40
10.0
 40
10.0
 40
11.0
 40
11.0
 40
11.0
 40
12.0
 40
12.0
 40
12.0
 40
13.0
 40
13.0
 40
13.0
 40
14.0
 40
14.0
 40
14.0
 40
15.0
 40
15.0
 40
15.0
 40
16.0
 40
16.0
 40
16.0
 40
17.0
 40
17.0
 40
17.0
 40
18.0
 40
18.0
 40
18.0
 40
19.0
 40
19.0
 40
19.0
 40
19.0
 10
102.9418646661048
 20
-128.7673339521832
 10
102.9418646661048
 20
-128.8631076066731
 10
102.9208495836448
 20
-129.0808376413409
 10
102.7348144274413
 20
-129.205550097907
 10
102.6225043146222
 20
-129.2799641603883
 10
102.523285564647
 20
-129.2840982749707
 10
102.4385362157098
 20
-129.2882323895529
 10
102.4385362157098
 20
-129.2882323895529
 10
102.4385362157098
 20
-129.067746278497
 10
102.4385362157098
 20
-129.067746278497
 10
102.5126057686427
 20
-129.0656792212058
 10
102.7472167711882
 20
-129.0553439347501
 10
102.7472167711882
 20
-128.7721570858625
 10
102.7472167711882
 20
-128.6345255212268
 10
102.6776258423861
 20
-128.4819077912302
 10
102.4492160117141
 20
-128.4819077912302
 10
102.3327717843126
 20
-128.4819077912302
 10
102.2841959379706
 20
-128.5201483511165
 10
102.2525010595063
 20
-128.5518432295808
 10
102.1784315065734
 20
-128.6259127825137
 10
102.165684653278
 20
-128.7423570099151
 10
102.165684653278
 20
-128.7969617733563
 10
102.165684653278
 20
-128.8162543080737
 10
102.1677517105692
 20
-128.8520833011203
 10
102.1718858251515
 20
-128.8796440650023
 10
102.1718858251515
 20
-128.8796440650023
 10
101.9772379302349
 20
-128.8796440650023
 10
101.9772379302349
 20
-128.8796440650023
 10
101.9837836116568
 20
-128.8417480146646
 10
101.985850668948
 20
-128.7997178497445
 10
101.985850668948
 20
-128.792827658774
 10
101.985850668948
 20
-128.7275430993285
 10
101.9644910769394
 20
-128.5287610898296
 10
101.7278130171028
 20
-128.5287610898296
 10
101.5500460900639
 20
-128.5287610898296
 10
101.4949245622999
 20
-128.6596747182691
 10
101.4949245622999
 20
-128.7700900285714
 10
101.4949245622999
 20
-129.0339843427415
 10
101.7278130171028
 20
-129.0429415910032
 10
101.799471003196
 20
-129.0470757055855
 10
101.799471003196
 20
-129.0470757055855
 10
101.799471003196
 20
-129.2503363392152
 10
101.799471003196
 20
-129.2503363392152
 10
101.6747585466299
 20
-129.2413790909536
 10
101.2982096100921
 20
-129.2138183270716
 10
101.2982096100921
 20
-128.7571709205017
 10
101.2982096100921
 20
-128.5328952044119
 10
101.4253336334978
 20
-128.2917385204444
 10
101.7212673356808
 20
-128.2917385204444
 10
101.9076470014328
 20
-128.2917385204444
 10
101.9899847835303
 20
-128.3868231558373
 10
102.0513074831677
 20
-128.486386415361
 10
102.0788682470497
 20
-128.4250637157236
 10
102.1591389718561
 20
-128.2431626741024
 10
102.4364691584187
 20
-128.2431626741024
 10
102.7747775350702
 20
-128.2431626741024
 10
102.9418646661048
 20
-128.4905205299434
 10
102.9418646661048
 20
-128.7673339521832
 97
        0
 97
        0
 75
     2
 76
     1
 98
        0
  0
ENDBLK
  5
EF
330
EC
100
AcDbEntity
  8
0
100
AcDbBlockEnd
  0
ENDSEC
  0
SECTION
  2
ENTITIES
  0
POLYLINE
  5
41
330
1F
100
AcDbEntity
  8
_U+30EC_U+30A4_U+30E4_U+30FC 1
 62
   179
420
  2234388
370
    25
100
AcDb2dPolyline
 66
     1
 10
0.0
 20
0.0
 30
0.0
  0
VERTEX
  5
42
330
41
100
AcDbEntity
  8
_U+30EC_U+30A4_U+30E4_U+30FC 1
 62
   179
420
  2234388
370
    25
100
AcDbVertex
100
AcDb2dVertex
 10
81.48718430997762
 20
-121.771727469557
 30
0.0
  0
VERTEX
  5
43
330
41
100
AcDbEntity
  8
_U+30EC_U+30A4_U+30E4_U+30FC 1
 62
   179
420
  2234388
370
    25
100
AcDbVertex
100
AcDb2dVertex
 10
81.48718430997762
 20
-136.771662188029
 30
0.0
  0
SEQEND
  5
44
330
41
100
AcDbEntity
  8
_U+30EC_U+30A4_U+30E4_U+30FC 1
 62
   179
420
  2234388
370
    25
  0
POLYLINE
  5
45
330
1F
100
AcDbEntity
  8
_U+30EC_U+30A4_U+30E4_U+30FC 1
 62
   179
420
  2234388
370
    25
100
AcDb2dPolyline
 66
     1
 10
0.0
 20
0.0
 30
0.0
  0
VERTEX
  5
46
330
45
100
AcDbEntity
  8
_U+30EC_U+30A4_U+30E4_U+30FC 1
 62
   179
420
  2234388
370
    25
100
AcDbVertex
100
AcDb2dVertex
 10
82.4876267844542
 20
-135.7715724660569
 30
0.0
  0
VERTEX
  5
47
330
45
100
AcDbEntity
  8
_U+30EC_U+30A4_U+30E4_U+30FC 1
 62
   179
420
  2234388
370
    25
100
AcDbVertex
100
AcDb2dVertex
 10
92.48735958489533
 20
-135.7715724660569
 30
0.0
  0
SEQEND
  5
48
330
45
100
AcDbEntity
  8
_U+30EC_U+30A4_U+30E4_U+30FC 1
 62
   179
420
  2234388
370
    25
  0
POLYLINE
  5
49
330
1F
100
AcDbEntity
  8
_U+30EC_U+30A4_U+30E4_U+30FC 1
 62
   179
420
  2234388
370
    25
100
AcDb2dPolyline
 66
     1
 10
0.0
 20
0.0
 30
0.0
  0
VERTEX
  5
4A
330
49
100
AcDbEntity
  8
_U+30EC_U+30A4_U+30E4_U+30FC 1
 62
   179
420
  2234388
370
    25
100
AcDbVertex
100
AcDb2dVertex
 10
82.4876267844542
 20
-122.7718171915294
 30
0.0
  0
VERTEX
  5
4B
330
49
100
AcDbEntity
  8
_U+30EC_U+30A4_U+30E4_U+30FC 1
 62
   179
420
  2234388
370
    25
100
AcDbVertex
100
AcDb2dVertex
 10
89.48705521699502
 20
-122.7718171915294
 30
0.0
  0
SEQEND
  5
4C
330
49
100
AcDbEntity
  8
_U+30EC_U+30A4_U+30E4_U+30FC 1
 62
   179
420
  2234388
370
    25
  0
POLYLINE
  5
4D
330
1F
100
AcDbEntity
  8
_U+30EC_U+30A4_U+30E4_U+30FC 1
 62
   179
420
  2234388
370
    25
100
AcDb2dPolyline
 66
     1
 10
0.0
 20
0.0
 30
0.0
  0
VERTEX
  5
4E
330
4D
100
AcDbEntity
  8
_U+30EC_U+30A4_U+30E4_U+30FC 1
 62
   179
420
  2234388
370
    25
100
AcDbVertex
100
AcDb2dVertex
 10
81.48718430997762
 20
-121.771727469557
 30
0.0
  0
VERTEX
  5
4F
330
4D
100
AcDbEntity
  8
_U+30EC_U+30A4_U+30E4_U+30FC 1
 62
   179
420
  2234388
370
    25
100
AcDbVertex
100
AcDb2dVertex
 10
89.12323550405462
 20
-121.771727469557
 30
0.0
  0
SEQEND
  5
50
330
4D
100
AcDbEntity
  8
_U+30EC_U+30A4_U+30E4_U+30FC 1
 62
   179
420
  2234388
370
    25
  0
POLYLINE
  5
51
330
1F
100
AcDbEntity
  8
_U+30EC_U+30A4_U+30E4_U+30FC 1
 62
   179
420
  2234388
370
    25
100
AcDb2dPolyline
 66
     1
 10
0.0
 20
0.0
 30
0.0
  0
VERTEX
  5
52
330
51
100
AcDbEntity
  8
_U+30EC_U+30A4_U+30E4_U+30FC 1
 62
   179
420
  2234388
370
    25
100
AcDbVertex
100
AcDb2dVertex
 10
81.48718430997762
 20
-136.771662188029
 30
0.0
  0
VERTEX
  5
53
330
51
100
AcDbEntity
  8
_U+30EC_U+30A4_U+30E4_U+30FC 1
 62
   179
420
  2234388
370
    25
100
AcDbVertex
100
AcDb2dVertex
 10
99.48710551742803
 20
-136.771662188029
 30
0.0
  0
SEQEND
  5
54
330
51
100
AcDbEntity
  8
_U+30EC_U+30A4_U+30E4_U+30FC 1
 62
   179
420
  2234388
370
    25
  0
POLYLINE
  5
55
330
1F
100
AcDbEntity
  8
_U+30EC_U+30A4_U+30E4_U+30FC 1
 62
   179
420
  2234388
370
    25
100
AcDb2dPolyline
 66
     1
 10
0.0
 20
0.0
 30
0.0
  0
VERTEX
  5
56
330
55
100
AcDbEntity
  8
_U+30EC_U+30A4_U+30E4_U+30FC 1
 62
   179
420
  2234388
370
    25
100
AcDbVertex
100
AcDb2dVertex
 10
82.4876267844542
 20
-122.7718171915294
 30
0.0
  0
VERTEX
  5
57
330
55
100
AcDbEntity
  8
_U+30EC_U+30A4_U+30E4_U+30FC 1
 62
   179
420
  2234388
370
    25
100
AcDbVertex
100
AcDb2dVertex
 10
82.4876267844542
 20
-135.7715724660569
 30
0.0
  0
SEQEND
  5
58
330
55
100
AcDbEntity
  8
_U+30EC_U+30A4_U+30E4_U+30FC 1
 62
   179
420
  2234388
370
    25
  0
POLYLINE
  5
59
330
1F
100
AcDbEntity
  8
_U+30EC_U+30A4_U+30E4_U+30FC 1
 62
   179
420
  2234388
370
    25
100
AcDb2dPolyline
 66
     1
 10
0.0
 20
0.0
 30
0.0
  0
VERTEX
  5
5A
330
59
100
AcDbEntity
  8
_U+30EC_U+30A4_U+30E4_U+30FC 1
 62
   179
420
  2234388
370
    25
100
AcDbVertex
100
AcDb2dVertex
 10
92.7871148550257
 20
-136.071609965982
 30
0.0
  0
VERTEX
  5
5B
330
59
100
AcDbEntity
  8
_U+30EC_U+30A4_U+30E4_U+30FC 1
 62
   179
420
  2234388
370
    25
100
AcDbVertex
100
AcDb2dVertex
 10
99.2328610863032
 20
-136.071609965982
 30
0.0
  0
SEQEND
  5
5C
330
59
100
AcDbEntity
  8
_U+30EC_U+30A4_U+30E4_U+30FC 1
 62
   179
420
  2234388
370
    25
  0
POLYLINE
  5
5D
330
1F
100
AcDbEntity
  8
_U+30EC_U+30A4_U+30E4_U+30FC 1
 62
   179
420
  2234388
370
    25
100
AcDb2dPolyline
 66
     1
 10
0.0
 20
0.0
 30
0.0
  0
VERTEX
  5
5E
330
5D
100
AcDbEntity
  8
_U+30EC_U+30A4_U+30E4_U+30FC 1
 62
   179
420
  2234388
370
    25
100
AcDbVertex
100
AcDb2dVertex
 10
89.12323550405462
 20
-121.771727469557
 30
0.0
  0
VERTEX
  5
5F
330
5D
100
AcDbEntity
  8
_U+30EC_U+30A4_U+30E4_U+30FC 1
 62
   179
420
  2234388
370
    25
100
AcDbVertex
100
AcDb2dVertex
 10
89.48705521699502
 20
-122.7718171915294
 30
0.0
  0
SEQEND
  5
60
330
5D
100
AcDbEntity
  8
_U+30EC_U+30A4_U+30E4_U+30FC 1
 62
   179
420
  2234388
370
    25
  0
POLYLINE
  5
61
330
1F
100
AcDbEntity
  8
_U+30EC_U+30A4_U+30E4_U+30FC 1
 62
   179
420
  2234388
370
    25
100
AcDb2dPolyline
 66
     1
 10
0.0
 20
0.0
 30
0.0
  0
VERTEX
  5
62
330
61
100
AcDbEntity
  8
_U+30EC_U+30A4_U+30E4_U+30FC 1
 62
   179
420
  2234388
370
    25
100
AcDbVertex
100
AcDb2dVertex
 10
99.2328610863032
 20
-136.071609965982
 30
0.0
  0
VERTEX
  5
63
330
61
100
AcDbEntity
  8
_U+30EC_U+30A4_U+30E4_U+30FC 1
 62
   179
420
  2234388
370
    25
100
AcDbVertex
100
AcDb2dVertex
 10
99.48710551742803
 20
-136.771662188029
 30
0.0
  0
SEQEND
  5
64
330
61
100
AcDbEntity
  8
_U+30EC_U+30A4_U+30E4_U+30FC 1
 62
   179
420
  2234388
370
    25
  0
POLYLINE
  5
65
330
1F
100
AcDbEntity
  8
_U+30EC_U+30A4_U+30E4_U+30FC 1
 62
   179
420
  2234388
370
    25
100
AcDb2dPolyline
 66
     1
 10
0.0
 20
0.0
 30
0.0
  0
VERTEX
  5
66
330
65
100
AcDbEntity
  8
_U+30EC_U+30A4_U+30E4_U+30FC 1
 62
   179
420
  2234388
370
    25
100
AcDbVertex
100
AcDb2dVertex
 10
92.48735958489533
 20
-135.7715724660569
 30
0.0
  0
VERTEX
  5
67
330
65
100
AcDbEntity
  8
_U+30EC_U+30A4_U+30E4_U+30FC 1
 62
   179
420
  2234388
370
    25
100
AcDbVertex
100
AcDb2dVertex
 10
92.7871148550257
 20
-136.071609965982
 30
0.0
  0
SEQEND
  5
68
330
65
100
AcDbEntity
  8
_U+30EC_U+30A4_U+30E4_U+30FC 1
 62
   179
420
  2234388
370
    25
  0
SPLINE
  5
69
330
1F
100
AcDbEntity
  8
_U+30EC_U+30A4_U+30E4_U+30FC 1
 62
   179
420
  2234388
370
     9
100
AcDbSpline
210
0.0
220
0.0
230
1.0
 70
    11
 71
     3
 72
    17
 73
    13
 74
     0
 42
0.0000000001
 43
0.0000000001
 12
1.0
 22
0.0
 32
0.0
 13
1.0
 23
0.0
 33
0.0
 40
0.0
 40
0.0
 40
0.0
 40
0.0
 40
1.0
 40
1.0
 40
1.0
 40
2.0
 40
2.0
 40
2.0
 40
3.0
 40
3.0
 40
3.0
 40
4.0
 40
4.0
 40
4.0
 40
4.0
 10
81.58779652963301
 20
-132.7715855223625
 30
0.0
 10
81.58779652963301
 20
-132.7164463557101
 30
0.0
 10
81.54299375299824
 20
-132.6716435779434
 30
0.0
 10
81.48718430997762
 20
-132.6716435779434
 30
0.0
 10
81.43208042249455
 20
-132.6716435779434
 30
0.0
 10
81.38727764585978
 20
-132.7164463557101
 30
0.0
 10
81.38727764585978
 20
-132.7715855223625
 30
0.0
 10
81.38727764585978
 20
-132.8270421890152
 30
0.0
 10
81.43208042249455
 20
-132.8714921890042
 30
0.0
 10
81.48718430997762
 20
-132.8714921890042
 30
0.0
 10
81.54299375299824
 20
-132.8714921890042
 30
0.0
 10
81.58779652963301
 20
-132.8270421890152
 30
0.0
 10
81.58779652963301
 20
-132.7715855223625
 30
0.0
  0
SPLINE
  5
6A
330
1F
100
AcDbEntity
  8
_U+30EC_U+30A4_U+30E4_U+30FC 1
 62
   179
420
  2234388
370
     9
100
AcDbSpline
210
0.0
220
0.0
230
1.0
 70
    11
 71
     3
 72
    17
 73
    13
 74
     0
 42
0.0000000001
 43
0.0000000001
 12
1.0
 22
0.0
 32
0.0
 13
1.0
 23
0.0
 33
0.0
 40
0.0
 40
0.0
 40
0.0
 40
0.0
 40
1.0
 40
1.0
 40
1.0
 40
2.0
 40
2.0
 40
2.0
 40
3.0
 40
3.0
 40
3.0
 40
4.0
 40
4.0
 40
4.0
 40
4.0
 10
82.58753344857205
 20
-132.7715855223625
 30
0.0
 10
82.58753344857205
 20
-132.7164463557101
 30
0.0
 10
82.54276594971415
 20
-132.6716435779434
 30
0.0
 10
82.4876267844542
 20
-132.6716435779434
 30
0.0
 10
82.432524979392
 20
-132.6716435779434
 30
0.0
 10
82.38772220162528
 20
-132.7164463557101
 30
0.0
 10
82.38772220162528
 20
-132.7715855223625
 30
0.0
 10
82.38772220162528
 20
-132.8270421890152
 30
0.0
 10
82.432524979392
 20
-132.8714921890042
 30
0.0
 10
82.4876267844542
 20
-132.8714921890042
 30
0.0
 10
82.54276594971415
 20
-132.8714921890042
 30
0.0
 10
82.58753344857205
 20
-132.8270421890152
 30
0.0
 10
82.58753344857205
 20
-132.7715855223625
 30
0.0
  0
SPLINE
  5
6B
330
1F
100
AcDbEntity
  8
_U+30EC_U+30A4_U+30E4_U+30FC 1
 62
   179
420
  2234388
370
     9
100
AcDbSpline
210
0.0
220
0.0
230
1.0
 70
    11
 71
     3
 72
    17
 73
    13
 74
     0
 42
0.0000000001
 43
0.0000000001
 12
1.0
 22
0.0
 32
0.0
 13
1.0
 23
0.0
 33
0.0
 40
0.0
 40
0.0
 40
0.0
 40
0.0
 40
1.0
 40
1.0
 40
1.0
 40
2.0
 40
2.0
 40
2.0
 40
3.0
 40
3.0
 40
3.0
 40
4.0
 40
4.0
 40
4.0
 40
4.0
 10
81.58779652963301
 20
-117.7717919150015
 30
0.0
 10
81.58779652963301
 20
-117.7166880261263
 30
0.0
 10
81.54299375299824
 20
-117.6718852483599
 30
0.0
 10
81.48718430997762
 20
-117.6718852483599
 30
0.0
 10
81.43208042249455
 20
-117.6718852483599
 30
0.0
 10
81.38727764585978
 20
-117.7166880261263
 30
0.0
 10
81.38727764585978
 20
-117.7717919150015
 30
0.0
 10
81.38727764585978
 20
-117.8269310816543
 30
0.0
 10
81.43208042249455
 20
-117.8716985816432
 30
0.0
 10
81.48718430997762
 20
-117.8716985816432
 30
0.0
 10
81.54299375299824
 20
-117.8716985816432
 30
0.0
 10
81.58779652963301
 20
-117.8269310816543
 30
0.0
 10
81.58779652963301
 20
-117.7717919150015
 30
0.0
  0
SPLINE
  5
6C
330
1F
100
AcDbEntity
  8
_U+30EC_U+30A4_U+30E4_U+30FC 1
 62
   179
420
  2234388
370
     9
100
AcDbSpline
210
0.0
220
0.0
230
1.0
 70
    11
 71
     3
 72
    17
 73
    13
 74
     0
 42
0.0000000001
 43
0.0000000001
 12
1.0
 22
0.0
 32
0.0
 13
1.0
 23
0.0
 33
0.0
 40
0.0
 40
0.0
 40
0.0
 40
0.0
 40
1.0
 40
1.0
 40
1.0
 40
2.0
 40
2.0
 40
2.0
 40
3.0
 40
3.0
 40
3.0
 40
4.0
 40
4.0
 40
4.0
 40
4.0
 10
89.58727938110476
 20
-117.7717919150015
 30
0.0
 10
89.58727938110476
 20
-117.7166880261263
 30
0.0
 10
89.54251188224687
 20
-117.6718852483599
 30
0.0
 10
89.48737497762815
 20
-117.6718852483599
 30
0.0
 10
89.43226882950385
 20
-117.6718852483599
 30
0.0
 10
89.38746605286909
 20
-117.7166880261263
 30
0.0
 10
89.38746605286909
 20
-117.7717919150015
 30
0.0
 10
89.38746605286909
 20
-117.8269310816543
 30
0.0
 10
89.43226882950385
 20
-117.8716985816432
 30
0.0
 10
89.48737497762815
 20
-117.8716985816432
 30
0.0
 10
89.54251188224687
 20
-117.8716985816432
 30
0.0
 10
89.58727938110476
 20
-117.8269310816543
 30
0.0
 10
89.58727938110476
 20
-117.7717919150015
 30
0.0
  0
SPLINE
  5
6D
330
1F
100
AcDbEntity
  8
_U+30EC_U+30A4_U+30E4_U+30FC 1
 62
   179
420
  2234388
370
     9
100
AcDbSpline
210
0.0
220
0.0
230
1.0
 70
    11
 71
     3
 72
    17
 73
    13
 74
     0
 42
0.0000000001
 43
0.0000000001
 12
1.0
 22
0.0
 32
0.0
 13
1.0
 23
0.0
 33
0.0
 40
0.0
 40
0.0
 40
0.0
 40
0.0
 40
1.0
 40
1.0
 40
1.0
 40
2.0
 40
2.0
 40
2.0
 40
3.0
 40
3.0
 40
3.0
 40
4.0
 40
4.0
 40
4.0
 40
4.0
 10
103.5874768017077
 20
-122.7718171915294
 30
0.0
 10
103.5874768017077
 20
-122.7167133026542
 30
0.0
 10
103.542674025073
 20
-122.6719105248875
 30
0.0
 10
103.4875701375899
 20
-122.6719105248875
 30
0.0
 10
103.43243097233
 20
-122.6719105248875
 30
0.0
 10
103.3876634734721
 20
-122.7167133026542
 30
0.0
 10
103.3876634734721
 20
-122.7718171915294
 30
0.0
 10
103.3876634734721
 20
-122.8269563581822
 30
0.0
 10
103.43243097233
 20
-122.8717591359486
 30
0.0
 10
103.4875701375899
 20
-122.8717591359486
 30
0.0
 10
103.542674025073
 20
-122.8717591359486
 30
0.0
 10
103.5874768017077
 20
-122.8269563581822
 30
0.0
 10
103.5874768017077
 20
-122.7718171915294
 30
0.0
  0
SPLINE
  5
6E
330
1F
100
AcDbEntity
  8
_U+30EC_U+30A4_U+30E4_U+30FC 1
 62
   179
420
  2234388
370
     9
100
AcDbSpline
210
0.0
220
0.0
230
1.0
 70
    11
 71
     3
 72
    17
 73
    13
 74
     0
 42
0.0000000001
 43
0.0000000001
 12
1.0
 22
0.0
 32
0.0
 13
1.0
 23
0.0
 33
0.0
 40
0.0
 40
0.0
 40
0.0
 40
0.0
 40
1.0
 40
1.0
 40
1.0
 40
2.0
 40
2.0
 40
2.0
 40
3.0
 40
3.0
 40
3.0
 40
4.0
 40
4.0
 40
4.0
 40
4.0
 10
103.5874768017077
 20
-135.7715724660569
 30
0.0
 10
103.5874768017077
 20
-135.7164332994044
 30
0.0
 10
103.542674025073
 20
-135.6716657994152
 30
0.0
 10
103.4875701375899
 20
-135.6716657994152
 30
0.0
 10
103.43243097233
 20
-135.6716657994152
 30
0.0
 10
103.3876634734721
 20
-135.7164332994044
 30
0.0
 10
103.3876634734721
 20
-135.7715724660569
 30
0.0
 10
103.3876634734721
 20
-135.8270291327102
 30
0.0
 10
103.43243097233
 20
-135.8717966326987
 30
0.0
 10
103.4875701375899
 20
-135.8717966326987
 30
0.0
 10
103.542674025073
 20
-135.8717966326987
 30
0.0
 10
103.5874768017077
 20
-135.8270291327102
 30
0.0
 10
103.5874768017077
 20
-135.7715724660569
 30
0.0
  0
SPLINE
  5
6F
330
1F
100
AcDbEntity
  8
_U+30EC_U+30A4_U+30E4_U+30FC 1
 62
   179
420
  2234388
370
     9
100
AcDbSpline
210
0.0
220
0.0
230
1.0
 70
    11
 71
     3
 72
    17
 73
    13
 74
     0
 42
0.0000000001
 43
0.0000000001
 12
1.0
 22
0.0
 32
0.0
 13
1.0
 23
0.0
 33
0.0
 40
0.0
 40
0.0
 40
0.0
 40
0.0
 40
1.0
 40
1.0
 40
1.0
 40
2.0
 40
2.0
 40
2.0
 40
3.0
 40
3.0
 40
3.0
 40
4.0
 40
4.0
 40
4.0
 40
4.0
 10
103.5874768017077
 20
-136.071609965982
 30
0.0
 10
103.5874768017077
 20
-136.0165060771071
 30
0.0
 10
103.542674025073
 20
-135.9717032993404
 30
0.0
 10
103.4875701375899
 20
-135.9717032993404
 30
0.0
 10
103.43243097233
 20
-135.9717032993404
 30
0.0
 10
103.3876634734721
 20
-136.0165060771071
 30
0.0
 10
103.3876634734721
 20
-136.071609965982
 30
0.0
 10
103.3876634734721
 20
-136.1271019104128
 30
0.0
 10
103.43243097233
 20
-136.1718694104014
 30
0.0
 10
103.4875701375899
 20
-136.1718694104014
 30
0.0
 10
103.542674025073
 20
-136.1718694104014
 30
0.0
 10
103.5874768017077
 20
-136.1271019104128
 30
0.0
 10
103.5874768017077
 20
-136.071609965982
 30
0.0
  0
SPLINE
  5
70
330
1F
100
AcDbEntity
  8
_U+30EC_U+30A4_U+30E4_U+30FC 1
 62
   179
420
  2234388
370
     9
100
AcDbSpline
210
0.0
220
0.0
230
1.0
 70
    11
 71
     3
 72
    17
 73
    13
 74
     0
 42
0.0000000001
 43
0.0000000001
 12
1.0
 22
0.0
 32
0.0
 13
1.0
 23
0.0
 33
0.0
 40
0.0
 40
0.0
 40
0.0
 40
0.0
 40
1.0
 40
1.0
 40
1.0
 40
2.0
 40
2.0
 40
2.0
 40
3.0
 40
3.0
 40
3.0
 40
4.0
 40
4.0
 40
4.0
 40
4.0
 10
103.5874768017077
 20
-136.771662188029
 30
0.0
 10
103.5874768017077
 20
-136.7165582991541
 30
0.0
 10
103.542674025073
 20
-136.6717555213874
 30
0.0
 10
103.4875701375899
 20
-136.6717555213874
 30
0.0
 10
103.43243097233
 20
-136.6717555213874
 30
0.0
 10
103.3876634734721
 20
-136.7165582991541
 30
0.0
 10
103.3876634734721
 20
-136.771662188029
 30
0.0
 10
103.3876634734721
 20
-136.8268013546821
 30
0.0
 10
103.43243097233
 20
-136.8715688546713
 30
0.0
 10
103.4875701375899
 20
-136.8715688546713
 30
0.0
 10
103.542674025073
 20
-136.8715688546713
 30
0.0
 10
103.5874768017077
 20
-136.8268013546821
 30
0.0
 10
103.5874768017077
 20
-136.771662188029
 30
0.0
  0
SPLINE
  5
71
330
1F
100
AcDbEntity
  8
_U+30EC_U+30A4_U+30E4_U+30FC 1
 62
   179
420
  2234388
370
     9
100
AcDbSpline
210
0.0
220
0.0
230
1.0
 70
    11
 71
     3
 72
    17
 73
    13
 74
     0
 42
0.0000000001
 43
0.0000000001
 12
1.0
 22
0.0
 32
0.0
 13
1.0
 23
0.0
 33
0.0
 40
0.0
 40
0.0
 40
0.0
 40
0.0
 40
1.0
 40
1.0
 40
1.0
 40
2.0
 40
2.0
 40
2.0
 40
3.0
 40
3.0
 40
3.0
 40
4.0
 40
4.0
 40
4.0
 40
4.0
 10
99.58701218154587
 20
-140.7717741314736
 30
0.0
 10
99.58701218154587
 20
-140.7166349648206
 30
0.0
 10
99.54291496044867
 20
-140.671867464832
 30
0.0
 10
99.48710551742803
 20
-140.671867464832
 30
0.0
 10
99.43200162994496
 20
-140.671867464832
 30
0.0
 10
99.38719885331021
 20
-140.7166349648206
 30
0.0
 10
99.38719885331021
 20
-140.7717741314736
 30
0.0
 10
99.38719885331021
 20
-140.8268780203486
 30
0.0
 10
99.43200162994496
 20
-140.8716807981153
 30
0.0
 10
99.48710551742803
 20
-140.8716807981153
 30
0.0
 10
99.54291496044867
 20
-140.8716807981153
 30
0.0
 10
99.58701218154587
 20
-140.8268780203486
 30
0.0
 10
99.58701218154587
 20
-140.7717741314736
 30
0.0
  0
SPLINE
  5
72
330
1F
100
AcDbEntity
  8
_U+30EC_U+30A4_U+30E4_U+30FC 1
 62
   179
420
  2234388
370
     9
100
AcDbSpline
210
0.0
220
0.0
230
1.0
 70
    11
 71
     3
 72
    17
 73
    13
 74
     0
 42
0.0000000001
 43
0.0000000001
 12
1.0
 22
0.0
 32
0.0
 13
1.0
 23
0.0
 33
0.0
 40
0.0
 40
0.0
 40
0.0
 40
0.0
 40
1.0
 40
1.0
 40
1.0
 40
2.0
 40
2.0
 40
2.0
 40
3.0
 40
3.0
 40
3.0
 40
4.0
 40
4.0
 40
4.0
 40
4.0
 10
81.58779652963301
 20
-140.7717741314736
 30
0.0
 10
81.58779652963301
 20
-140.7166349648206
 30
0.0
 10
81.54299375299824
 20
-140.671867464832
 30
0.0
 10
81.48718430997762
 20
-140.671867464832
 30
0.0
 10
81.43208042249455
 20
-140.671867464832
 30
0.0
 10
81.38727764585978
 20
-140.7166349648206
 30
0.0
 10
81.38727764585978
 20
-140.7717741314736
 30
0.0
 10
81.38727764585978
 20
-140.8268780203486
 30
0.0
 10
81.43208042249455
 20
-140.8716807981153
 30
0.0
 10
81.48718430997762
 20
-140.8716807981153
 30
0.0
 10
81.54299375299824
 20
-140.8716807981153
 30
0.0
 10
81.58779652963301
 20
-140.8268780203486
 30
0.0
 10
81.58779652963301
 20
-140.7717741314736
 30
0.0
  0
SPLINE
  5
73
330
1F
100
AcDbEntity
  8
_U+30EC_U+30A4_U+30E4_U+30FC 1
 62
   179
420
  2234388
370
     9
100
AcDbSpline
210
0.0
220
0.0
230
1.0
 70
    11
 71
     3
 72
    17
 73
    13
 74
     0
 42
0.0000000001
 43
0.0000000001
 12
1.0
 22
0.0
 32
0.0
 13
1.0
 23
0.0
 33
0.0
 40
0.0
 40
0.0
 40
0.0
 40
0.0
 40
1.0
 40
1.0
 40
1.0
 40
2.0
 40
2.0
 40
2.0
 40
3.0
 40
3.0
 40
3.0
 40
4.0
 40
4.0
 40
4.0
 40
4.0
 10
99.58701218154587
 20
-132.7715855223625
 30
0.0
 10
99.58701218154587
 20
-132.7164463557101
 30
0.0
 10
99.54291496044867
 20
-132.6716435779434
 30
0.0
 10
99.48710551742803
 20
-132.6716435779434
 30
0.0
 10
99.43200162994496
 20
-132.6716435779434
 30
0.0
 10
99.38719885331021
 20
-132.7164463557101
 30
0.0
 10
99.38719885331021
 20
-132.7715855223625
 30
0.0
 10
99.38719885331021
 20
-132.8270421890152
 30
0.0
 10
99.43200162994496
 20
-132.8714921890042
 30
0.0
 10
99.48710551742803
 20
-132.8714921890042
 30
0.0
 10
99.54291496044867
 20
-132.8714921890042
 30
0.0
 10
99.58701218154587
 20
-132.8270421890152
 30
0.0
 10
99.58701218154587
 20
-132.7715855223625
 30
0.0
  0
SPLINE
  5
74
330
1F
100
AcDbEntity
  8
_U+30EC_U+30A4_U+30E4_U+30FC 1
 62
   179
420
  2234388
370
     9
100
AcDbSpline
210
0.0
220
0.0
230
1.0
 70
    11
 71
     3
 72
    17
 73
    13
 74
     0
 42
0.0000000001
 43
0.0000000001
 12
1.0
 22
0.0
 32
0.0
 13
1.0
 23
0.0
 33
0.0
 40
0.0
 40
0.0
 40
0.0
 40
0.0
 40
1.0
 40
1.0
 40
1.0
 40
2.0
 40
2.0
 40
2.0
 40
3.0
 40
3.0
 40
3.0
 40
4.0
 40
4.0
 40
4.0
 40
4.0
 10
92.58726624901315
 20
-132.7715855223625
 30
0.0
 10
92.58726624901315
 20
-132.7164463557101
 30
0.0
 10
92.54249875015527
 20
-132.6716435779434
 30
0.0
 10
92.48735958489533
 20
-132.6716435779434
 30
0.0
 10
92.43225569741226
 20
-132.6716435779434
 30
0.0
 10
92.38745292077749
 20
-132.7164463557101
 30
0.0
 10
92.38745292077749
 20
-132.7715855223625
 30
0.0
 10
92.38745292077749
 20
-132.8270421890152
 30
0.0
 10
92.43225569741226
 20
-132.8714921890042
 30
0.0
 10
92.48735958489533
 20
-132.8714921890042
 30
0.0
 10
92.54249875015527
 20
-132.8714921890042
 30
0.0
 10
92.58726624901315
 20
-132.8270421890152
 30
0.0
 10
92.58726624901315
 20
-132.7715855223625
 30
0.0
  0
POLYLINE
  5
75
330
1F
100
AcDbEntity
  8
_U+30EC_U+30A4_U+30E4_U+30FC 1
 62
   179
420
  2234388
370
     9
100
AcDb2dPolyline
 66
     1
 10
0.0
 20
0.0
 30
0.0
  0
VERTEX
  5
76
330
75
100
AcDbEntity
  8
_U+30EC_U+30A4_U+30E4_U+30FC 1
 62
   179
420
  2234388
370
     9
100
AcDbVertex
100
AcDb2dVertex
 10
81.48718430997762
 20
-117.7717919150015
 30
0.0
  0
VERTEX
  5
77
330
75
100
AcDbEntity
  8
_U+30EC_U+30A4_U+30E4_U+30FC 1
 62
   179
420
  2234388
370
     9
100
AcDbVertex
100
AcDb2dVertex
 10
89.48737497762815
 20
-117.7717919150015
 30
0.0
  0
SEQEND
  5
78
330
75
100
AcDbEntity
  8
_U+30EC_U+30A4_U+30E4_U+30FC 1
 62
   179
420
  2234388
370
     9
  0
POLYLINE
  5
79
330
1F
100
AcDbEntity
  8
_U+30EC_U+30A4_U+30E4_U+30FC 1
 62
   179
420
  2234388
370
     9
100
AcDb2dPolyline
 66
     1
 10
0.0
 20
0.0
 30
0.0
  0
VERTEX
  5
7A
330
79
100
AcDbEntity
  8
_U+30EC_U+30A4_U+30E4_U+30FC 1
 62
   179
420
  2234388
370
     9
100
AcDbVertex
100
AcDb2dVertex
 10
81.48718430997762
 20
-119.2316569146367
 30
0.0
  0
VERTEX
  5
7B
330
79
100
AcDbEntity
  8
_U+30EC_U+30A4_U+30E4_U+30FC 1
 62
   179
420
  2234388
370
     9
100
AcDbVertex
100
AcDb2dVertex
 10
81.48718430997762
 20
-116.7720196930293
 30
0.0
  0
SEQEND
  5
7C
330
79
100
AcDbEntity
  8
_U+30EC_U+30A4_U+30E4_U+30FC 1
 62
   179
420
  2234388
370
     9
  0
POLYLINE
  5
7D
330
1F
100
AcDbEntity
  8
_U+30EC_U+30A4_U+30E4_U+30FC 1
 62
   179
420
  2234388
370
     9
100
AcDb2dPolyline
 66
     1
 10
0.0
 20
0.0
 30
0.0
  0
VERTEX
  5
7E
330
7D
100
AcDbEntity
  8
_U+30EC_U+30A4_U+30E4_U+30FC 1
 62
   179
420
  2234388
370
     9
100
AcDbVertex
100
AcDb2dVertex
 10
89.48737497762815
 20
-119.2316569146367
 30
0.0
  0
VERTEX
  5
7F
330
7D
100
AcDbEntity
  8
_U+30EC_U+30A4_U+30E4_U+30FC 1
 62
   179
420
  2234388
370
     9
100
AcDbVertex
100
AcDb2dVertex
 10
89.48737497762815
 20
-116.7720196930293
 30
0.0
  0
SEQEND
  5
80
330
7D
100
AcDbEntity
  8
_U+30EC_U+30A4_U+30E4_U+30FC 1
 62
   179
420
  2234388
370
     9
  0
INSERT
  5
82
330
1F
100
AcDbEntity
  8
_U+30EC_U+30A4_U+30E4_U+30FC 1
100
AcDbBlockReference
  2
block 2
 10
0.0
 20
0.0
 30
0.0
  0
POLYLINE
  5
89
330
1F
100
AcDbEntity
  8
_U+30EC_U+30A4_U+30E4_U+30FC 1
 62
   179
420
  2234388
370
     9
100
AcDb2dPolyline
 66
     1
 10
0.0
 20
0.0
 30
0.0
  0
VERTEX
  5
8A
330
89
100
AcDbEntity
  8
_U+30EC_U+30A4_U+30E4_U+30FC 1
 62
   179
420
  2234388
370
     9
100
AcDbVertex
100
AcDb2dVertex
 10
81.48718430997762
 20
-140.7717741314736
 30
0.0
  0
VERTEX
  5
8B
330
89
100
AcDbEntity
  8
_U+30EC_U+30A4_U+30E4_U+30FC 1
 62
   179
420
  2234388
370
     9
100
AcDbVertex
100
AcDb2dVertex
 10
99.48710551742803
 20
-140.7717741314736
 30
0.0
  0
SEQEND
  5
8C
330
89
100
AcDbEntity
  8
_U+30EC_U+30A4_U+30E4_U+30FC 1
 62
   179
420
  2234388
370
     9
  0
POLYLINE
  5
8D
330
1F
100
AcDbEntity
  8
_U+30EC_U+30A4_U+30E4_U+30FC 1
 62
   179
420
  2234388
370
     9
100
AcDb2dPolyline
 66
     1
 10
0.0
 20
0.0
 30
0.0
  0
VERTEX
  5
8E
330
8D
100
AcDbEntity
  8
_U+30EC_U+30A4_U+30E4_U+30FC 1
 62
   179
420
  2234388
370
     9
100
AcDbVertex
100
AcDb2dVertex
 10
81.48718430997762
 20
-139.3117327429499
 30
0.0
  0
VERTEX
  5
8F
330
8D
100
AcDbEntity
  8
_U+30EC_U+30A4_U+30E4_U+30FC 1
 62
   179
420
  2234388
370
     9
100
AcDbVertex
100
AcDb2dVertex
 10
81.48718430997762
 20
-141.7718638534458
 30
0.0
  0
SEQEND
  5
90
330
8D
100
AcDbEntity
  8
_U+30EC_U+30A4_U+30E4_U+30FC 1
 62
   179
420
  2234388
370
     9
  0
POLYLINE
  5
91
330
1F
100
AcDbEntity
  8
_U+30EC_U+30A4_U+30E4_U+30FC 1
 62
   179
420
  2234388
370
     9
100
AcDb2dPolyline
 66
     1
 10
0.0
 20
0.0
 30
0.0
  0
VERTEX
  5
92
330
91
100
AcDbEntity
  8
_U+30EC_U+30A4_U+30E4_U+30FC 1
 62
   179
420
  2234388
370
     9
100
AcDbVertex
100
AcDb2dVertex
 10
99.48710551742803
 20
-139.3117327429499
 30
0.0
  0
VERTEX
  5
93
330
91
100
AcDbEntity
  8
_U+30EC_U+30A4_U+30E4_U+30FC 1
 62
   179
420
  2234388
370
     9
100
AcDbVertex
100
AcDb2dVertex
 10
99.48710551742803
 20
-141.7718638534458
 30
0.0
  0
SEQEND
  5
94
330
91
100
AcDbEntity
  8
_U+30EC_U+30A4_U+30E4_U+30FC 1
 62
   179
420
  2234388
370
     9
  0
INSERT
  5
96
330
1F
100
AcDbEntity
  8
_U+30EC_U+30A4_U+30E4_U+30FC 1
100
AcDbBlockReference
  2
block 3
 10
0.0
 20
0.0
 30
0.0
  0
POLYLINE
  5
9F
330
1F
100
AcDbEntity
  8
_U+30EC_U+30A4_U+30E4_U+30FC 1
 62
   179
420
  2234388
370
     9
100
AcDb2dPolyline
 66
     1
 10
0.0
 20
0.0
 30
0.0
  0
VERTEX
  5
A0
330
9F
100
AcDbEntity
  8
_U+30EC_U+30A4_U+30E4_U+30FC 1
 62
   179
420
  2234388
370
     9
100
AcDbVertex
100
AcDb2dVertex
 10
103.4875701375899
 20
-136.771662188029
 30
0.0
  0
VERTEX
  5
A1
330
9F
100
AcDbEntity
  8
_U+30EC_U+30A4_U+30E4_U+30FC 1
 62
   179
420
  2234388
370
     9
100
AcDbVertex
100
AcDb2dVertex
 10
103.4875701375899
 20
-142.0295680200479
 30
0.0
  0
SEQEND
  5
A2
330
9F
100
AcDbEntity
  8
_U+30EC_U+30A4_U+30E4_U+30FC 1
 62
   179
420
  2234388
370
     9
  0
POLYLINE
  5
A3
330
1F
100
AcDbEntity
  8
_U+30EC_U+30A4_U+30E4_U+30FC 1
 62
   179
420
  2234388
370
     9
100
AcDb2dPolyline
 66
     1
 10
0.0
 20
0.0
 30
0.0
  0
VERTEX
  5
A4
330
A3
100
AcDbEntity
  8
_U+30EC_U+30A4_U+30E4_U+30FC 1
 62
   179
420
  2234388
370
     9
100
AcDbVertex
100
AcDb2dVertex
 10
103.4875701375899
 20
-136.771662188029
 30
0.0
  0
VERTEX
  5
A5
330
A3
100
AcDbEntity
  8
_U+30EC_U+30A4_U+30E4_U+30FC 1
 62
   179
420
  2234388
370
     9
100
AcDbVertex
100
AcDb2dVertex
 10
103.4875701375899
 20
-136.071609965982
 30
0.0
  0
SEQEND
  5
A6
330
A3
100
AcDbEntity
  8
_U+30EC_U+30A4_U+30E4_U+30FC 1
 62
   179
420
  2234388
370
     9
  0
POLYLINE
  5
A7
330
1F
100
AcDbEntity
  8
_U+30EC_U+30A4_U+30E4_U+30FC 1
 62
   179
420
  2234388
370
     9
100
AcDb2dPolyline
 66
     1
 10
0.0
 20
0.0
 30
0.0
  0
VERTEX
  5
A8
330
A7
100
AcDbEntity
  8
_U+30EC_U+30A4_U+30E4_U+30FC 1
 62
   179
420
  2234388
370
     9
100
AcDbVertex
100
AcDb2dVertex
 10
102.0275287859498
 20
-136.771662188029
 30
0.0
  0
VERTEX
  5
A9
330
A7
100
AcDbEntity
  8
_U+30EC_U+30A4_U+30E4_U+30FC 1
 62
   179
420
  2234388
370
     9
100
AcDbVertex
100
AcDb2dVertex
 10
104.4873423343058
 20
-136.771662188029
 30
0.0
  0
SEQEND
  5
AA
330
A7
100
AcDbEntity
  8
_U+30EC_U+30A4_U+30E4_U+30FC 1
 62
   179
420
  2234388
370
     9
  0
POLYLINE
  5
AB
330
1F
100
AcDbEntity
  8
_U+30EC_U+30A4_U+30E4_U+30FC 1
 62
   179
420
  2234388
370
     9
100
AcDb2dPolyline
 66
     1
 10
0.0
 20
0.0
 30
0.0
  0
VERTEX
  5
AC
330
AB
100
AcDbEntity
  8
_U+30EC_U+30A4_U+30E4_U+30FC 1
 62
   179
420
  2234388
370
     9
100
AcDbVertex
100
AcDb2dVertex
 10
101.772611570231
 20
-136.071609965982
 30
0.0
  0
VERTEX
  5
AD
330
AB
100
AcDbEntity
  8
_U+30EC_U+30A4_U+30E4_U+30FC 1
 62
   179
420
  2234388
370
     9
100
AcDbVertex
100
AcDb2dVertex
 10
104.4873423343058
 20
-136.071609965982
 30
0.0
  0
SEQEND
  5
AE
330
AB
100
AcDbEntity
  8
_U+30EC_U+30A4_U+30E4_U+30FC 1
 62
   179
420
  2234388
370
     9
  0
INSERT
  5
B0
330
1F
100
AcDbEntity
  8
_U+30EC_U+30A4_U+30E4_U+30FC 1
100
AcDbBlockReference
  2
block 4
 10
0.0
 20
0.0
 30
0.0
  0
POLYLINE
  5
C0
330
1F
100
AcDbEntity
  8
_U+30EC_U+30A4_U+30E4_U+30FC 1
 62
   179
420
  2234388
370
     9
100
AcDb2dPolyline
 66
     1
 10
0.0
 20
0.0
 30
0.0
  0
VERTEX
  5
C1
330
C0
100
AcDbEntity
  8
_U+30EC_U+30A4_U+30E4_U+30FC 1
 62
   179
420
  2234388
370
     9
100
AcDbVertex
100
AcDb2dVertex
 10
81.48718430997762
 20
-132.7715855223625
 30
0.0
  0
VERTEX
  5
C2
330
C0
100
AcDbEntity
  8
_U+30EC_U+30A4_U+30E4_U+30FC 1
 62
   179
420
  2234388
370
     9
100
AcDbVertex
100
AcDb2dVertex
 10
77.7168719061663
 20
-132.7715855223625
 30
0.0
  0
SEQEND
  5
C3
330
C0
100
AcDbEntity
  8
_U+30EC_U+30A4_U+30E4_U+30FC 1
 62
   179
420
  2234388
370
     9
  0
POLYLINE
  5
C4
330
1F
100
AcDbEntity
  8
_U+30EC_U+30A4_U+30E4_U+30FC 1
 62
   179
420
  2234388
370
     9
100
AcDb2dPolyline
 66
     1
 10
0.0
 20
0.0
 30
0.0
  0
VERTEX
  5
C5
330
C4
100
AcDbEntity
  8
_U+30EC_U+30A4_U+30E4_U+30FC 1
 62
   179
420
  2234388
370
     9
100
AcDbVertex
100
AcDb2dVertex
 10
81.48718430997762
 20
-132.7715855223625
 30
0.0
  0
VERTEX
  5
C6
330
C4
100
AcDbEntity
  8
_U+30EC_U+30A4_U+30E4_U+30FC 1
 62
   179
420
  2234388
370
     9
100
AcDbVertex
100
AcDb2dVertex
 10
83.48739898117012
 20
-132.7715855223625
 30
0.0
  0
SEQEND
  5
C7
330
C4
100
AcDbEntity
  8
_U+30EC_U+30A4_U+30E4_U+30FC 1
 62
   179
420
  2234388
370
     9
  0
INSERT
  5
C9
330
1F
100
AcDbEntity
  8
_U+30EC_U+30A4_U+30E4_U+30FC 1
100
AcDbBlockReference
  2
block 5
 10
0.0
 20
0.0
 30
0.0
  0
POLYLINE
  5
CE
330
1F
100
AcDbEntity
  8
_U+30EC_U+30A4_U+30E4_U+30FC 1
 62
   179
420
  2234388
370
     9
100
AcDb2dPolyline
 66
     1
 10
0.0
 20
0.0
 30
0.0
  0
VERTEX
  5
CF
330
CE
100
AcDbEntity
  8
_U+30EC_U+30A4_U+30E4_U+30FC 1
 62
   179
420
  2234388
370
     9
100
AcDbVertex
100
AcDb2dVertex
 10
92.48735958489533
 20
-132.7715855223625
 30
0.0
  0
VERTEX
  5
D0
330
CE
100
AcDbEntity
  8
_U+30EC_U+30A4_U+30E4_U+30FC 1
 62
   179
420
  2234388
370
     9
100
AcDbVertex
100
AcDb2dVertex
 10
99.48710551742803
 20
-132.7715855223625
 30
0.0
  0
SEQEND
  5
D1
330
CE
100
AcDbEntity
  8
_U+30EC_U+30A4_U+30E4_U+30FC 1
 62
   179
420
  2234388
370
     9
  0
POLYLINE
  5
D2
330
1F
100
AcDbEntity
  8
_U+30EC_U+30A4_U+30E4_U+30FC 1
 62
   179
420
  2234388
370
     9
100
AcDb2dPolyline
 66
     1
 10
0.0
 20
0.0
 30
0.0
  0
VERTEX
  5
D3
330
D2
100
AcDbEntity
  8
_U+30EC_U+30A4_U+30E4_U+30FC 1
 62
   179
420
  2234388
370
     9
100
AcDbVertex
100
AcDb2dVertex
 10
92.48735958489533
 20
-133.2318194111368
 30
0.0
  0
VERTEX
  5
D4
330
D2
100
AcDbEntity
  8
_U+30EC_U+30A4_U+30E4_U+30FC 1
 62
   179
420
  2234388
370
     9
100
AcDbVertex
100
AcDb2dVertex
 10
92.48735958489533
 20
-131.7718133003906
 30
0.0
  0
SEQEND
  5
D5
330
D2
100
AcDbEntity
  8
_U+30EC_U+30A4_U+30E4_U+30FC 1
 62
   179
420
  2234388
370
     9
  0
POLYLINE
  5
D6
330
1F
100
AcDbEntity
  8
_U+30EC_U+30A4_U+30E4_U+30FC 1
 62
   179
420
  2234388
370
     9
100
AcDb2dPolyline
 66
     1
 10
0.0
 20
0.0
 30
0.0
  0
VERTEX
  5
D7
330
D6
100
AcDbEntity
  8
_U+30EC_U+30A4_U+30E4_U+30FC 1
 62
   179
420
  2234388
370
     9
100
AcDbVertex
100
AcDb2dVertex
 10
99.48710551742803
 20
-134.2315916331087
 30
0.0
  0
VERTEX
  5
D8
330
D6
100
AcDbEntity
  8
_U+30EC_U+30A4_U+30E4_U+30FC 1
 62
   179
420
  2234388
370
     9
100
AcDbVertex
100
AcDb2dVertex
 10
99.48710551742803
 20
-131.7718133003906
 30
0.0
  0
SEQEND
  5
D9
330
D6
100
AcDbEntity
  8
_U+30EC_U+30A4_U+30E4_U+30FC 1
 62
   179
420
  2234388
370
     9
  0
INSERT
  5
DB
330
1F
100
AcDbEntity
  8
_U+30EC_U+30A4_U+30E4_U+30FC 1
100
AcDbBlockReference
  2
block 6
 10
0.0
 20
0.0
 30
0.0
  0
POLYLINE
  5
E0
330
1F
100
AcDbEntity
  8
_U+30EC_U+30A4_U+30E4_U+30FC 1
 62
   179
420
  2234388
370
     9
100
AcDb2dPolyline
 66
     1
 10
0.0
 20
0.0
 30
0.0
  0
VERTEX
  5
E1
330
E0
100
AcDbEntity
  8
_U+30EC_U+30A4_U+30E4_U+30FC 1
 62
   179
420
  2234388
370
     9
100
AcDbVertex
100
AcDb2dVertex
 10
103.4875701375899
 20
-122.7718171915294
 30
0.0
  0
VERTEX
  5
E2
330
E0
100
AcDbEntity
  8
_U+30EC_U+30A4_U+30E4_U+30FC 1
 62
   179
420
  2234388
370
     9
100
AcDbVertex
100
AcDb2dVertex
 10
103.4875701375899
 20
-135.7715724660569
 30
0.0
  0
SEQEND
  5
E3
330
E0
100
AcDbEntity
  8
_U+30EC_U+30A4_U+30E4_U+30FC 1
 62
   179
420
  2234388
370
     9
  0
POLYLINE
  5
E4
330
1F
100
AcDbEntity
  8
_U+30EC_U+30A4_U+30E4_U+30FC 1
 62
   179
420
  2234388
370
     9
100
AcDb2dPolyline
 66
     1
 10
0.0
 20
0.0
 30
0.0
  0
VERTEX
  5
E5
330
E4
100
AcDbEntity
  8
_U+30EC_U+30A4_U+30E4_U+30FC 1
 62
   179
420
  2234388
370
     9
100
AcDbVertex
100
AcDb2dVertex
 10
92.39161569844907
 20
-122.7718171915294
 30
0.0
  0
VERTEX
  5
E6
330
E4
100
AcDbEntity
  8
_U+30EC_U+30A4_U+30E4_U+30FC 1
 62
   179
420
  2234388
370
     9
100
AcDbVertex
100
AcDb2dVertex
 10
104.4873423343058
 20
-122.7718171915294
 30
0.0
  0
SEQEND
  5
E7
330
E4
100
AcDbEntity
  8
_U+30EC_U+30A4_U+30E4_U+30FC 1
 62
   179
420
  2234388
370
     9
  0
POLYLINE
  5
E8
330
1F
100
AcDbEntity
  8
_U+30EC_U+30A4_U+30E4_U+30FC 1
 62
   179
420
  2234388
370
     9
100
AcDb2dPolyline
 66
     1
 10
0.0
 20
0.0
 30
0.0
  0
VERTEX
  5
E9
330
E8
100
AcDbEntity
  8
_U+30EC_U+30A4_U+30E4_U+30FC 1
 62
   179
420
  2234388
370
     9
100
AcDbVertex
100
AcDb2dVertex
 10
95.02711257565639
 20
-135.7715724660569
 30
0.0
  0
VERTEX
  5
EA
330
E8
100
AcDbEntity
  8
_U+30EC_U+30A4_U+30E4_U+30FC 1
 62
   179
420
  2234388
370
     9
100
AcDbVertex
100
AcDb2dVertex
 10
104.4873423343058
 20
-135.7715724660569
 30
0.0
  0
SEQEND
  5
EB
330
E8
100
AcDbEntity
  8
_U+30EC_U+30A4_U+30E4_U+30FC 1
 62
   179
420
  2234388
370
     9
  0
INSERT
  5
ED
330
1F
100
AcDbEntity
  8
_U+30EC_U+30A4_U+30E4_U+30FC 1
100
AcDbBlockReference
  2
block 7
 10
0.0
 20
0.0
 30
0.0
  0
ENDSEC
  0
SECTION
  2
OBJECTS
  0
DICTIONARY
  5
C
330
0
100
AcDbDictionary
281
     1
  3
ACAD_GROUP
350
D
  3
ACAD_LAYOUT
350
1A
  3
ACAD_MATERIAL
350
3B
  3
ACAD_MLEADERSTYLE
350
F5
  3
ACAD_MLINESTYLE
350
17
  3
ACAD_PLOTSETTINGS
350
19
  3
ACAD_PLOTSTYLENAME
350
E
  3
ACAD_TABLESTYLE
350
F4
  3
ACAD_VISUALSTYLE
350
2A
  0
SUN
  5
3F
330
29
100
AcDbSun
 90
        1
290
     0
 63
     7
421
 16777215
 40
1.0
291
     1
 91
  2455826
 92
 54000000
292
     0
 70
     2
 71
   256
280
     1
  0
DICTIONARY
  5
D
102
{ACAD_REACTORS
330
C
102
}
330
C
100
AcDbDictionary
281
     1
  0
DICTIONARY
  5
1A
102
{ACAD_REACTORS
330
C
102
}
330
C
100
AcDbDictionary
281
     1
  3
Layout1
350
1E
  3
Layout2
350
26
  3
Model
350
22
  0
DICTIONARY
  5
3B
102
{ACAD_REACTORS
330
C
102
}
330
C
100
AcDbDictionary
281
     1
  3
ByBlock
350
3D
  3
ByLayer
350
3C
  3
Global
350
3E
  0
DICTIONARY
  5
F5
102
{ACAD_REACTORS
330
C
102
}
330
C
100
AcDbDictionary
281
     1
  0
DICTIONARY
  5
17
102
{ACAD_REACTORS
330
C
102
}
330
C
100
AcDbDictionary
281
     1
  3
Standard
350
18
  0
DICTIONARY
  5
19
102
{ACAD_REACTORS
330
C
102
}
330
C
100
AcDbDictionary
281
     1
  0
ACDBDICTIONARYWDFLT
  5
E
102
{ACAD_REACTORS
330
C
102
}
330
C
100
AcDbDictionary
281
     1
  3
Normal
350
F
100
AcDbDictionaryWithDefault
340
F
  0
DICTIONARY
  5
F4
102
{ACAD_REACTORS
330
C
102
}
330
C
100
AcDbDictionary
281
     1
  0
DICTIONARY
  5
2A
102
{ACAD_REACTORS
330
C
102
}
330
C
100
AcDbDictionary
281
     1
  3
2dWireframe
350
2F
  3
3D Hidden
350
31
  3
3dWireframe
350
30
  3
Basic
350
32
  3
Brighten
350
36
  3
ColorChange
350
3A
  3
Conceptual
350
34
  3
Dim
350
35
  3
Facepattern
350
39
  3
Flat
350
2B
  3
FlatWithEdges
350
2C
  3
Gouraud
350
2D
  3
GouraudWithEdges
350
2E
  3
Linepattern
350
38
  3
Realistic
350
33
  3
Thicken
350
37
  0
LAYOUT
  5
1E
102
{ACAD_REACTORS
330
1A
102
}
330
1A
100
AcDbPlotSettings
  1

  2
none_device
  4

  6

 40
0.0
 41
0.0
 42
0.0
 43
0.0
 44
0.0
 45
0.0
 46
0.0
 47
0.0
 48
0.0
 49
0.0
140
0.0
141
0.0
142
1.0
143
1.0
 70
   688
 72
     0
 73
     0
 74
     5
  7

 75
    16
 76
     0
 77
     2
 78
   300
147
1.0
148
0.0
149
0.0
100
AcDbLayout
  1
Layout1
 70
     1
 71
     1
 10
0.0
 20
0.0
 11
12.0
 21
9.0
 12
0.0
 22
0.0
 32
0.0
 14
1.000000000000000E+20
 24
1.000000000000000E+20
 34
1.000000000000000E+20
 15
-1.000000000000000E+20
 25
-1.000000000000000E+20
 35
-1.000000000000000E+20
146
0.0
 13
0.0
 23
0.0
 33
0.0
 16
1.0
 26
0.0
 36
0.0
 17
0.0
 27
1.0
 37
0.0
 76
     0
330
1B
  0
LAYOUT
  5
26
102
{ACAD_REACTORS
330
1A
102
}
330
1A
100
AcDbPlotSettings
  1

  2
none_device
  4

  6

 40
0.0
 41
0.0
 42
0.0
 43
0.0
 44
0.0
 45
0.0
 46
0.0
 47
0.0
 48
0.0
 49
0.0
140
0.0
141
0.0
142
1.0
143
1.0
 70
   688
 72
     0
 73
     0
 74
     5
  7

 75
    16
 76
     0
 77
     2
 78
   300
147
1.0
148
0.0
149
0.0
100
AcDbLayout
  1
Layout2
 70
     1
 71
     2
 10
0.0
 20
0.0
 11
0.0
 21
0.0
 12
0.0
 22
0.0
 32
0.0
 14
0.0
 24
0.0
 34
0.0
 15
0.0
 25
0.0
 35
0.0
146
0.0
 13
0.0
 23
0.0
 33
0.0
 16
1.0
 26
0.0
 36
0.0
 17
0.0
 27
1.0
 37
0.0
 76
     0
330
23
  0
LAYOUT
  5
22
102
{ACAD_REACTORS
330
1A
102
}
330
1A
100
AcDbPlotSettings
  1

  2
none_device
  4

  6

 40
0.0
 41
0.0
 42
0.0
 43
0.0
 44
0.0
 45
0.0
 46
0.0
 47
0.0
 48
0.0
 49
0.0
140
0.0
141
0.0
142
1.0
143
1.0
 70
  1712
 72
     0
 73
     0
 74
     0
  7

 75
     0
 76
     0
 77
     2
 78
   300
147
1.0
148
0.0
149
0.0
100
AcDbLayout
  1
Model
 70
     1
 71
     0
 10
0.0
 20
0.0
 11
12.0
 21
9.0
 12
0.0
 22
0.0
 32
0.0
 14
1.000000000000000E+20
 24
1.000000000000000E+20
 34
1.000000000000000E+20
 15
-1.000000000000000E+20
 25
-1.000000000000000E+20
 35
-1.000000000000000E+20
146
0.0
 13
0.0
 23
0.0
 33
0.0
 16
1.0
 26
0.0
 36
0.0
 17
0.0
 27
1.0
 37
0.0
 76
     0
330
1F
331
29
  0
MATERIAL
  5
3D
102
{ACAD_REACTORS
330
3B
102
}
330
3B
100
AcDbMaterial
  1
ByBlock
 72
     1
 94
      127
  0
MATERIAL
  5
3C
102
{ACAD_REACTORS
330
3B
102
}
330
3B
100
AcDbMaterial
  1
ByLayer
 72
     1
 94
      127
  0
MATERIAL
  5
3E
102
{ACAD_REACTORS
330
3B
102
}
330
3B
100
AcDbMaterial
  1
Global
 72
     1
 94
      127
  0
MLINESTYLE
  5
18
102
{ACAD_REACTORS
330
17
102
}
330
17
100
AcDbMlineStyle
  2
Standard
 70
     0
  3

 62
   256
 51
90.0
 52
90.0
 71
     2
 49
0.5
 62
   256
  6
BYLAYER
 49
-0.5
 62
   256
  6
BYLAYER
  0
ACDBPLACEHOLDER
  5
F
102
{ACAD_REACTORS
330
E
102
}
330
E
  0
VISUALSTYLE
  5
2F
102
{ACAD_REACTORS
330
2A
102
}
330
2A
100
AcDbVisualStyle
  2
2dWireframe
 70
     4
177
     2
291
     0
 71
     0
176
     1
 72
     2
176
     1
 73
     0
176
     1
 90
        0
176
     1
 40
-0.6
176
     1
 41
-30.0
176
     1
 62
     5
 63
     7
421
 16777215
176
     1
 74
     1
176
     1
 91
        4
176
     1
 64
     7
176
     1
 65
   257
176
     1
 75
     1
176
     1
175
     1
176
     1
 42
1.0
176
     1
 92
        0
176
     1
 66
   257
176
     1
 43
1.0
176
     1
 76
     1
176
     1
 77
     6
176
     1
 78
     2
176
     1
 67
     7
176
     1
 79
     5
176
     1
170
     0
176
     1
171
     0
176
     1
290
     0
176
     1
 93
        1
176
     1
 44
0.0
176
     1
173
     0
176
     1
  0
VISUALSTYLE
  5
31
102
{ACAD_REACTORS
330
2A
102
}
330
2A
100
AcDbVisualStyle
  2
3D Hidden
 70
     6
177
     2
291
     0
 71
     1
176
     1
 72
     2
176
     1
 73
     2
176
     1
 90
        0
176
     1
 40
-0.6
176
     1
 41
-30.0
176
     1
 62
     5
 63
     7
421
 16777215
176
     1
 74
     2
176
     1
 91
        2
176
     1
 64
     7
176
     1
 65
   257
176
     1
 75
     2
176
     1
175
     1
176
     1
 42
40.0
176
     1
 92
        0
176
     1
 66
   257
176
     1
 43
1.0
176
     1
 76
     1
176
     1
 77
     6
176
     1
 78
     2
176
     1
 67
     7
176
     1
 79
     3
176
     1
170
     0
176
     1
171
     0
176
     1
290
     0
176
     1
 93
        1
176
     1
 44
0.0
176
     1
173
     0
176
     1
  0
VISUALSTYLE
  5
30
102
{ACAD_REACTORS
330
2A
102
}
330
2A
100
AcDbVisualStyle
  2
3dWireframe
 70
     5
177
     2
291
     0
 71
     0
176
     1
 72
     2
176
     1
 73
     0
176
     1
 90
        0
176
     1
 40
-0.6
176
     1
 41
-30.0
176
     1
 62
     5
 63
     7
421
 16777215
176
     1
 74
     1
176
     1
 91
        4
176
     1
 64
     7
176
     1
 65
   257
176
     1
 75
     1
176
     1
175
     1
176
     1
 42
1.0
176
     1
 92
        0
176
     1
 66
   257
176
     1
 43
1.0
176
     1
 76
     1
176
     1
 77
     6
176
     1
 78
     2
176
     1
 67
     7
176
     1
 79
     5
176
     1
170
     0
176
     1
171
     0
176
     1
290
     0
176
     1
 93
        1
176
     1
 44
0.0
176
     1
173
     0
176
     1
  0
VISUALSTYLE
  5
32
102
{ACAD_REACTORS
330
2A
102
}
330
2A
100
AcDbVisualStyle
  2
Basic
 70
     7
177
     2
291
     1
 71
     1
176
     1
 72
     0
176
     1
 73
     1
176
     1
 90
        0
176
     1
 40
-0.6
176
     1
 41
-30.0
176
     1
 62
     5
 63
     7
421
 16777215
176
     1
 74
     0
176
     1
 91
        4
176
     1
 64
     7
176
     1
 65
   257
176
     1
 75
     1
176
     1
175
     1
176
     1
 42
1.0
176
     1
 92
        8
176
     1
 66
     7
176
     1
 43
1.0
176
     1
 76
     1
176
     1
 77
     6
176
     1
 78
     2
176
     1
 67
     7
176
     1
 79
     5
176
     1
170
     0
176
     1
171
     0
176
     1
290
     0
176
     1
 93
        1
176
     1
 44
0.0
176
     1
173
     0
176
     1
  0
VISUALSTYLE
  5
36
102
{ACAD_REACTORS
330
2A
102
}
330
2A
100
AcDbVisualStyle
  2
Brighten
 70
    12
177
     2
291
     1
 71
     2
176
     1
 72
     2
176
     1
 73
     0
176
     1
 90
        0
176
     1
 40
-0.6
176
     1
 41
-30.0
176
     1
 62
     5
 63
     7
421
 16777215
176
     1
 74
     1
176
     1
 91
        4
176
     1
 64
     7
176
     1
 65
   257
176
     1
 75
     1
176
     1
175
     1
176
     1
 42
1.0
176
     1
 92
        8
176
     1
 66
     7
176
     1
 43
1.0
176
     1
 76
     1
176
     1
 77
     6
176
     1
 78
     2
176
     1
 67
     7
176
     1
 79
     5
176
     1
170
     0
176
     1
171
     0
176
     1
290
     0
176
     1
 93
        1
176
     1
 44
50.0
176
     1
173
     0
176
     1
  0
VISUALSTYLE
  5
3A
102
{ACAD_REACTORS
330
2A
102
}
330
2A
100
AcDbVisualStyle
  2
ColorChange
 70
    16
177
     2
291
     1
 71
     2
176
     1
 72
     2
176
     1
 73
     3
176
     1
 90
        0
176
     1
 40
-0.6
176
     1
 41
-30.0
176
     1
 62
     5
 63
     8
421
  8421504
176
     1
 74
     1
176
     1
 91
        4
176
     1
 64
     7
176
     1
 65
   257
176
     1
 75
     1
176
     1
175
     1
176
     1
 42
1.0
176
     1
 92
        8
176
     1
 66
     8
424
  8421504
176
     1
 43
1.0
176
     1
 76
     1
176
     1
 77
     6
176
     1
 78
     2
176
     1
 67
     7
176
     1
 79
     5
176
     1
170
     0
176
     1
171
     0
176
     1
290
     0
176
     1
 93
        1
176
     1
 44
0.0
176
     1
173
     0
176
     1
  0
VISUALSTYLE
  5
34
102
{ACAD_REACTORS
330
2A
102
}
330
2A
100
AcDbVisualStyle
  2
Conceptual
 70
     9
177
     2
291
     0
 71
     3
176
     1
 72
     2
176
     1
 73
     0
176
     1
 90
        0
176
     1
 40
-0.6
176
     1
 41
-30.0
176
     1
 62
     5
 63
     7
421
 16777215
176
     1
 74
     2
176
     1
 91
        2
176
     1
 64
     7
176
     1
 65
   257
176
     1
 75
     1
176
     1
175
     1
176
     1
 42
40.0
176
     1
 92
        8
176
     1
 66
     7
176
     1
 43
1.0
176
     1
 76
     1
176
     1
 77
     6
176
     1
 78
     2
176
     1
 67
     7
176
     1
 79
     3
176
     1
170
     0
176
     1
171
     0
176
     1
290
     0
176
     1
 93
        1
176
     1
 44
0.0
176
     1
173
     0
176
     1
  0
VISUALSTYLE
  5
35
102
{ACAD_REACTORS
330
2A
102
}
330
2A
100
AcDbVisualStyle
  2
Dim
 70
    11
177
     2
291
     1
 71
     2
176
     1
 72
     2
176
     1
 73
     0
176
     1
 90
        0
176
     1
 40
-0.6
176
     1
 41
-30.0
176
     1
 62
     5
 63
     7
421
 16777215
176
     1
 74
     1
176
     1
 91
        4
176
     1
 64
     7
176
     1
 65
   257
176
     1
 75
     1
176
     1
175
     1
176
     1
 42
1.0
176
     1
 92
        8
176
     1
 66
     7
176
     1
 43
1.0
176
     1
 76
     1
176
     1
 77
     6
176
     1
 78
     2
176
     1
 67
     7
176
     1
 79
     5
176
     1
170
     0
176
     1
171
     0
176
     1
290
     0
176
     1
 93
        1
176
     1
 44
-50.0
176
     1
173
     0
176
     1
  0
VISUALSTYLE
  5
39
102
{ACAD_REACTORS
330
2A
102
}
330
2A
100
AcDbVisualStyle
  2
Facepattern
 70
    15
177
     2
291
     1
 71
     2
176
     1
 72
     2
176
     1
 73
     0
176
     1
 90
        0
176
     1
 40
-0.6
176
     1
 41
-30.0
176
     1
 62
     5
 63
     7
421
 16777215
176
     1
 74
     1
176
     1
 91
        4
176
     1
 64
     7
176
     1
 65
   257
176
     1
 75
     1
176
     1
175
     1
176
     1
 42
1.0
176
     1
 92
        8
176
     1
 66
     7
176
     1
 43
1.0
176
     1
 76
     1
176
     1
 77
     6
176
     1
 78
     2
176
     1
 67
     7
176
     1
 79
     5
176
     1
170
     0
176
     1
171
     0
176
     1
290
     0
176
     1
 93
        1
176
     1
 44
0.0
176
     1
173
     0
176
     1
  0
VISUALSTYLE
  5
2B
102
{ACAD_REACTORS
330
2A
102
}
330
2A
100
AcDbVisualStyle
  2
Flat
 70
     0
177
     2
291
     1
 71
     2
176
     1
 72
     1
176
     1
 73
     1
176
     1
 90
        2
176
     1
 40
-0.6
176
     1
 41
30.0
176
     1
 62
     5
 63
     7
421
 16777215
176
     1
 74
     0
176
     1
 91
        4
176
     1
 64
     7
176
     1
 65
   257
176
     1
 75
     1
176
     1
175
     1
176
     1
 42
1.0
176
     1
 92
        8
176
     1
 66
     7
176
     1
 43
1.0
176
     1
 76
     1
176
     1
 77
     6
176
     1
 78
     2
176
     1
 67
     7
176
     1
 79
     5
176
     1
170
     0
176
     1
171
     0
176
     1
290
     0
176
     1
 93
       13
176
     1
 44
0.0
176
     1
173
     0
176
     1
  0
VISUALSTYLE
  5
2C
102
{ACAD_REACTORS
330
2A
102
}
330
2A
100
AcDbVisualStyle
  2
FlatWithEdges
 70
     1
177
     2
291
     1
 71
     2
176
     1
 72
     1
176
     1
 73
     1
176
     1
 90
        2
176
     1
 40
-0.6
176
     1
 41
30.0
176
     1
 62
     5
 63
     7
421
 16777215
176
     1
 74
     1
176
     1
 91
        4
176
     1
 64
     7
176
     1
 65
   257
176
     1
 75
     1
176
     1
175
     1
176
     1
 42
1.0
176
     1
 92
        0
176
     1
 66
   257
176
     1
 43
1.0
176
     1
 76
     1
176
     1
 77
     6
176
     1
 78
     2
176
     1
 67
     7
176
     1
 79
     5
176
     1
170
     0
176
     1
171
     0
176
     1
290
     0
176
     1
 93
       13
176
     1
 44
0.0
176
     1
173
     0
176
     1
  0
VISUALSTYLE
  5
2D
102
{ACAD_REACTORS
330
2A
102
}
330
2A
100
AcDbVisualStyle
  2
Gouraud
 70
     2
177
     2
291
     1
 71
     2
176
     1
 72
     2
176
     1
 73
     1
176
     1
 90
        2
176
     1
 40
-0.6
176
     1
 41
30.0
176
     1
 62
     5
 63
     7
421
 16777215
176
     1
 74
     0
176
     1
 91
        4
176
     1
 64
     7
176
     1
 65
   257
176
     1
 75
     1
176
     1
175
     1
176
     1
 42
1.0
176
     1
 92
        0
176
     1
 66
     7
176
     1
 43
1.0
176
     1
 76
     1
176
     1
 77
     6
176
     1
 78
     2
176
     1
 67
     7
176
     1
 79
     5
176
     1
170
     0
176
     1
171
     0
176
     1
290
     0
176
     1
 93
       13
176
     1
 44
0.0
176
     1
173
     0
176
     1
  0
VISUALSTYLE
  5
2E
102
{ACAD_REACTORS
330
2A
102
}
330
2A
100
AcDbVisualStyle
  2
GouraudWithEdges
 70
     3
177
     2
291
     1
 71
     2
176
     1
 72
     2
176
     1
 73
     1
176
     1
 90
        2
176
     1
 40
-0.6
176
     1
 41
30.0
176
     1
 62
     5
 63
     7
421
 16777215
176
     1
 74
     1
176
     1
 91
        4
176
     1
 64
     7
176
     1
 65
   257
176
     1
 75
     1
176
     1
175
     1
176
     1
 42
1.0
176
     1
 92
        0
176
     1
 66
   257
176
     1
 43
1.0
176
     1
 76
     1
176
     1
 77
     6
176
     1
 78
     2
176
     1
 67
     7
176
     1
 79
     5
176
     1
170
     0
176
     1
171
     0
176
     1
290
     0
176
     1
 93
       13
176
     1
 44
0.0
176
     1
173
     0
176
     1
  0
VISUALSTYLE
  5
38
102
{ACAD_REACTORS
330
2A
102
}
330
2A
100
AcDbVisualStyle
  2
Linepattern
 70
    14
177
     2
291
     1
 71
     2
176
     1
 72
     2
176
     1
 73
     0
176
     1
 90
        0
176
     1
 40
-0.6
176
     1
 41
-30.0
176
     1
 62
     5
 63
     7
421
 16777215
176
     1
 74
     1
176
     1
 91
        4
176
     1
 64
     7
176
     1
 65
   257
176
     1
 75
     7
176
     1
175
     7
176
     1
 42
1.0
176
     1
 92
        8
176
     1
 66
     7
176
     1
 43
1.0
176
     1
 76
     1
176
     1
 77
     6
176
     1
 78
     2
176
     1
 67
     7
176
     1
 79
     5
176
     1
170
     0
176
     1
171
     0
176
     1
290
     0
176
     1
 93
        1
176
     1
 44
0.0
176
     1
173
     0
176
     1
  0
VISUALSTYLE
  5
33
102
{ACAD_REACTORS
330
2A
102
}
330
2A
100
AcDbVisualStyle
  2
Realistic
 70
     8
177
     2
291
     0
 71
     2
176
     1
 72
     2
176
     1
 73
     0
176
     1
 90
        0
176
     1
 40
-0.6
176
     1
 41
-30.0
176
     1
 62
     5
 63
     7
421
 16777215
176
     1
 74
     1
176
     1
 91
        0
176
     1
 64
     7
176
     1
 65
   257
176
     1
 75
     1
176
     1
175
     1
176
     1
 42
1.0
176
     1
 92
        8
176
     1
 66
     8
424
  7895160
176
     1
 43
1.0
176
     1
 76
     1
176
     1
 77
     6
176
     1
 78
     2
176
     1
 67
     7
176
     1
 79
     5
176
     1
170
     0
176
     1
171
     0
176
     1
290
     0
176
     1
 93
       13
176
     1
 44
0.0
176
     1
173
     0
176
     1
  0
VISUALSTYLE
  5
37
102
{ACAD_REACTORS
330
2A
102
}
330
2A
100
AcDbVisualStyle
  2
Thicken
 70
    13
177
     2
291
     1
 71
     2
176
     1
 72
     2
176
     1
 73
     0
176
     1
 90
        0
176
     1
 40
-0.6
176
     1
 41
-30.0
176
     1
 62
     5
 63
     7
421
 16777215
176
     1
 74
     1
176
     1
 91
        4
176
     1
 64
     7
176
     1
 65
   257
176
     1
 75
     1
176
     1
175
     1
176
     1
 42
1.0
176
     1
 92
       12
176
     1
 66
     7
176
     1
 43
1.0
176
     1
 76
     1
176
     1
 77
     6
176
     1
 78
     2
176
     1
 67
     7
176
     1
 79
     5
176
     1
170
     0
176
     1
171
     0
176
     1
290
     0
176
     1
 93
        1
176
     1
 44
0.0
176
     1
173
     0
176
     1
  0
ENDSEC
  0
EOF
