  0
SECTION
  2
HEADER
  9
$ACADVER
  1
AC1024
  9
$ACADMAINTVER
 70
     6
  9
$DWGCODEPAGE
  3
UNDEFINED
  9
$INSBASE
 10
0.0
 20
0.0
 30
0.0
  9
$EXTMIN
 10
1.000000000000000E+20
 20
1.000000000000000E+20
 30
1.000000000000000E+20
  9
$EXTMAX
 10
-1.000000000000000E+20
 20
-1.000000000000000E+20
 30
-1.000000000000000E+20
  9
$LIMMIN
 10
0.0
 20
0.0
  9
$LIMMAX
 10
12.0
 20
9.0
  9
$ORTHOMODE
 70
     0
  9
$REGENMODE
 70
     1
  9
$FILLMODE
 70
     1
  9
$QTEXTMODE
 70
     0
  9
$MIRRTEXT
 70
     1
  9
$LTSCALE
 40
1.0
  9
$ATTMODE
 70
     1
  9
$TEXTSIZE
 40
0.2
  9
$TRACEWID
 40
0.05
  9
$TEXTSTYLE
  7
Standard
  9
$CLAYER
  8
0
  9
$CELTYPE
  6
ByLayer
  9
$CECOLOR
 62
   256
  9
$CELTSCALE
 40
1.0
  9
$DISPSILH
 70
     0
  9
$DIMSCALE
 40
1.0
  9
$DIMASZ
 40
0.18
  9
$DIMEXO
 40
0.0625
  9
$DIMDLI
 40
0.38
  9
$DIMRND
 40
0.0
  9
$DIMDLE
 40
0.0
  9
$DIMEXE
 40
0.18
  9
$DIMTP
 40
0.0
  9
$DIMTM
 40
0.0
  9
$DIMTXT
 40
0.18
  9
$DIMCEN
 40
0.09
  9
$DIMTSZ
 40
0.0
  9
$DIMTOL
 70
     0
  9
$DIMLIM
 70
     0
  9
$DIMTIH
 70
     1
  9
$DIMTOH
 70
     1
  9
$DIMSE1
 70
     0
  9
$DIMSE2
 70
     0
  9
$DIMTAD
 70
     0
  9
$DIMZIN
 70
     0
  9
$DIMBLK
  1

  9
$DIMASO
 70
     1
  9
$DIMSHO
 70
     1
  9
$DIMPOST
  1

  9
$DIMAPOST
  1

  9
$DIMALT
 70
     0
  9
$DIMALTD
 70
     2
  9
$DIMALTF
 40
25.4
  9
$DIMLFAC
 40
1.0
  9
$DIMTOFL
 70
     0
  9
$DIMTVP
 40
0.0
  9
$DIMTIX
 70
     0
  9
$DIMSOXD
 70
     0
  9
$DIMSAH
 70
     0
  9
$DIMBLK1
  1

  9
$DIMBLK2
  1

  9
$DIMSTYLE
  2
Standard
  9
$DIMCLRD
 70
     0
  9
$DIMCLRE
 70
     0
  9
$DIMCLRT
 70
     0
  9
$DIMTFAC
 40
1.0
  9
$DIMGAP
 40
0.09
  9
$DIMJUST
 70
     0
  9
$DIMSD1
 70
     0
  9
$DIMSD2
 70
     0
  9
$DIMTOLJ
 70
     1
  9
$DIMTZIN
 70
     0
  9
$DIMALTZ
 70
     0
  9
$DIMALTTZ
 70
     0
  9
$DIMUPT
 70
     0
  9
$DIMDEC
 70
     4
  9
$DIMTDEC
 70
     4
  9
$DIMALTU
 70
     2
  9
$DIMALTTD
 70
     2
  9
$DIMTXSTY
  7
Standard
  9
$DIMAUNIT
 70
     0
  9
$DIMADEC
 70
     0
  9
$DIMALTRND
 40
0.0
  9
$DIMAZIN
 70
     0
  9
$DIMDSEP
 70
    46
  9
$DIMATFIT
 70
     3
  9
$DIMFRAC
 70
     0
  9
$DIMLDRBLK
  1

  9
$DIMLUNIT
 70
     2
  9
$DIMLWD
 70
    -2
  9
$DIMLWE
 70
    -2
  9
$DIMTMOVE
 70
     0
  9
$DIMFXL
 40
1.0
  9
$DIMFXLON
 70
     0
  9
$DIMJOGANG
 40
0.7853981633974483
  9
$DIMTFILL
 70
     0
  9
$DIMTFILLCLR
 70
     0
  9
$DIMARCSYM
 70
     0
  9
$DIMLTYPE
  6

  9
$DIMLTEX1
  6

  9
$DIMLTEX2
  6

  9
$DIMTXTDIRECTION
 70
     0
  9
$LUNITS
 70
     2
  9
$LUPREC
 70
     4
  9
$SKETCHINC
 40
0.1
  9
$FILLETRAD
 40
0.5
  9
$AUNITS
 70
     0
  9
$AUPREC
 70
     0
  9
$MENU
  1
.
  9
$ELEVATION
 40
0.0
  9
$PELEVATION
 40
0.0
  9
$THICKNESS
 40
0.0
  9
$LIMCHECK
 70
     0
  9
$CHAMFERA
 40
0.5
  9
$CHAMFERB
 40
0.5
  9
$CHAMFERC
 40
1.0
  9
$CHAMFERD
 40
0.0
  9
$SKPOLY
 70
     0
  9
$TDCREATE
 40
2457917.59400463
  9
$TDUCREATE
 40
2457917.21900463
  9
$TDUPDATE
 40
2457917.59400463
  9
$TDUUPDATE
 40
2457917.21900463
  9
$TDINDWG
 40
0.0000000116
  9
$TDUSRTIMER
 40
0.0000000116
  9
$USRTIMER
 70
     1
  9
$ANGBASE
 50
0.0
  9
$ANGDIR
 70
     0
  9
$PDMODE
 70
     0
  9
$PDSIZE
 40
0.0
  9
$PLINEWID
 40
0.0
  9
$SPLFRAME
 70
     0
  9
$SPLINETYPE
 70
     6
  9
$SPLINESEGS
 70
     8
  9
$HANDSEED
  5
F7
  9
$SURFTAB1
 70
     6
  9
$SURFTAB2
 70
     6
  9
$SURFTYPE
 70
     6
  9
$SURFU
 70
     6
  9
$SURFV
 70
     6
  9
$UCSBASE
  2

  9
$UCSNAME
  2

  9
$UCSORG
 10
0.0
 20
0.0
 30
0.0
  9
$UCSXDIR
 10
1.0
 20
0.0
 30
0.0
  9
$UCSYDIR
 10
0.0
 20
1.0
 30
0.0
  9
$UCSORTHOREF
  2

  9
$UCSORTHOVIEW
 70
     0
  9
$UCSORGTOP
 10
0.0
 20
0.0
 30
0.0
  9
$UCSORGBOTTOM
 10
0.0
 20
0.0
 30
0.0
  9
$UCSORGLEFT
 10
0.0
 20
0.0
 30
0.0
  9
$UCSORGRIGHT
 10
0.0
 20
0.0
 30
0.0
  9
$UCSORGFRONT
 10
0.0
 20
0.0
 30
0.0
  9
$UCSORGBACK
 10
0.0
 20
0.0
 30
0.0
  9
$PUCSBASE
  2

  9
$PUCSNAME
  2

  9
$PUCSORG
 10
0.0
 20
0.0
 30
0.0
  9
$PUCSXDIR
 10
1.0
 20
0.0
 30
0.0
  9
$PUCSYDIR
 10
0.0
 20
1.0
 30
0.0
  9
$PUCSORTHOREF
  2

  9
$PUCSORTHOVIEW
 70
     0
  9
$PUCSORGTOP
 10
0.0
 20
0.0
 30
0.0
  9
$PUCSORGBOTTOM
 10
0.0
 20
0.0
 30
0.0
  9
$PUCSORGLEFT
 10
0.0
 20
0.0
 30
0.0
  9
$PUCSORGRIGHT
 10
0.0
 20
0.0
 30
0.0
  9
$PUCSORGFRONT
 10
0.0
 20
0.0
 30
0.0
  9
$PUCSORGBACK
 10
0.0
 20
0.0
 30
0.0
  9
$USERI1
 70
     0
  9
$USERI2
 70
     0
  9
$USERI3
 70
     0
  9
$USERI4
 70
     0
  9
$USERI5
 70
     0
  9
$USERR1
 40
0.0
  9
$USERR2
 40
0.0
  9
$USERR3
 40
0.0
  9
$USERR4
 40
0.0
  9
$USERR5
 40
0.0
  9
$WORLDVIEW
 70
     1
  9
$SHADEDGE
 70
     3
  9
$SHADEDIF
 70
    70
  9
$TILEMODE
 70
     1
  9
$MAXACTVP
 70
    64
  9
$PINSBASE
 10
0.0
 20
0.0
 30
0.0
  9
$PLIMCHECK
 70
     0
  9
$PEXTMIN
 10
1.000000000000000E+20
 20
1.000000000000000E+20
 30
1.000000000000000E+20
  9
$PEXTMAX
 10
-1.000000000000000E+20
 20
-1.000000000000000E+20
 30
-1.000000000000000E+20
  9
$PLIMMIN
 10
0.0
 20
0.0
  9
$PLIMMAX
 10
12.0
 20
9.0
  9
$UNITMODE
 70
     0
  9
$VISRETAIN
 70
     1
  9
$PLINEGEN
 70
     0
  9
$PSLTSCALE
 70
     1
  9
$TREEDEPTH
 70
  3020
  9
$CMLSTYLE
  2
Standard
  9
$CMLJUST
 70
     0
  9
$CMLSCALE
 40
1.0
  9
$PROXYGRAPHICS
 70
     1
  9
$MEASUREMENT
 70
     0
  9
$CELWEIGHT
370
    -1
  9
$ENDCAPS
280
     0
  9
$JOINSTYLE
280
     0
  9
$LWDISPLAY
290
     1
  9
$INSUNITS
 70
     1
  9
$HYPERLINKBASE
  1

  9
$STYLESHEET
  1

  9
$XEDIT
290
     1
  9
$CEPSNTYPE
380
     0
  9
$PSTYLEMODE
290
     1
  9
$FINGERPRINTGUID
  2
{CE00A57C-04C3-EEAD-C23B-E3C061D075D6}
  9
$VERSIONGUID
  2
{FAEB1C32-E019-11D5-929B-00C0DF256EC4}
  9
$EXTNAMES
290
     1
  9
$PSVPSCALE
 40
0.0
  9
$OLESTARTUP
290
     0
  9
$SORTENTS
280
   127
  9
$INDEXCTL
280
     0
  9
$HIDETEXT
280
     1
  9
$XCLIPFRAME
280
     2
  9
$HALOGAP
280
     0
  9
$OBSCOLOR
 70
   257
  9
$OBSLTYPE
280
     0
  9
$INTERSECTIONDISPLAY
280
     0
  9
$INTERSECTIONCOLOR
 70
   257
  9
$DIMASSOC
280
     2
  9
$PROJECTNAME
  1

  9
$CAMERADISPLAY
290
     0
  9
$LENSLENGTH
 40
50.0
  9
$CAMERAHEIGHT
 40
0.0
  9
$STEPSPERSEC
 40
2.0
  9
$STEPSIZE
 40
6.0
  9
$3DDWFPREC
 40
2.0
  9
$PSOLWIDTH
 40
0.25
  9
$PSOLHEIGHT
 40
4.0
  9
$LOFTANG1
 40
1.570796326794897
  9
$LOFTANG2
 40
1.570796326794897
  9
$LOFTMAG1
 40
0.0
  9
$LOFTMAG2
 40
0.0
  9
$LOFTPARAM
 70
     7
  9
$LOFTNORMALS
280
     1
  9
$LATITUDE
 40
37.795
  9
$LONGITUDE
 40
-122.394
  9
$NORTHDIRECTION
 40
0.0
  9
$TIMEZONE
 70
 -8000
  9
$LIGHTGLYPHDISPLAY
280
     1
  9
$TILEMODELIGHTSYNCH
280
     1
  9
$CMATERIAL
347
3C
  9
$SOLIDHIST
280
     1
  9
$SHOWHIST
280
     1
  9
$DWFFRAME
280
     2
  9
$DGNFRAME
280
     2
  9
$REALWORLDSCALE
290
     1
  9
$INTERFERECOLOR
 62
   256
  9
$CSHADOW
280
     0
  9
$SHADOWPLANELOCATION
 40
0.0
  0
ENDSEC
  0
SECTION
  2
CLASSES
  0
CLASS
  1
ACDBDICTIONARYWDFLT
  2
AcDbDictionaryWithDefault
  3
ObjectDBX Classes
 90
        0
 91
        4
280
     0
281
     0
  0
CLASS
  1
VISUALSTYLE
  2
AcDbVisualStyle
  3
ObjectDBX Classes
 90
     4095
 91
        4
280
     0
281
     0
  0
CLASS
  1
MATERIAL
  2
AcDbMaterial
  3
ObjectDBX Classes
 90
     1153
 91
        4
280
     0
281
     0
  0
CLASS
  1
SUN
  2
AcDbSun
  3
SCENEOE
 90
     1024
 91
        4
280
     0
281
     0
  0
ENDSEC
  0
SECTION
  2
TABLES
  0
TABLE
  2
VPORT
  5
8
330
0
100
AcDbSymbolTable
 70
     1
  0
VPORT
  5
29
330
8
100
AcDbSymbolTableRecord
100
AcDbViewportTableRecord
  2
*Active
 70
     0
 10
0.0
 20
0.0
 11
1.0
 21
1.0
 12
0.0
 22
0.0
 13
0.0
 23
0.0
 14
0.5
 24
0.5
 15
0.5
 25
0.5
 16
0.0
 26
0.0
 36
1.0
 17
91.00082462281999
 27
-128.4993055234307
 37
0.0
 40
256.9986110468615
 41
0.7081814508812795
 42
50.0
 43
0.0
 44
0.0
 50
0.0
 51
0.0
 71
     0
 72
   100
 73
     1
 74
     3
 75
     0
 76
     0
 77
     0
 78
     0
281
     0
 65
     1
110
0.0
120
0.0
130
0.0
111
1.0
121
0.0
131
0.0
112
0.0
122
1.0
132
0.0
 79
     0
146
0.0
 60
     3
 61
     5
292
     1
282
     1
141
0.0
142
0.0
 63
   250
361
3F
  0
ENDTAB
  0
TABLE
  2
LTYPE
  5
5
330
0
100
AcDbSymbolTable
 70
     1
  0
LTYPE
  5
14
330
5
100
AcDbSymbolTableRecord
100
AcDbLinetypeTableRecord
  2
ByBlock
 70
     0
  3

 72
    65
 73
     0
 40
0.0
  0
LTYPE
  5
15
330
5
100
AcDbSymbolTableRecord
100
AcDbLinetypeTableRecord
  2
ByLayer
 70
     0
  3

 72
    65
 73
     0
 40
0.0
  0
LTYPE
  5
16
330
5
100
AcDbSymbolTableRecord
100
AcDbLinetypeTableRecord
  2
Continuous
 70
     0
  3
Solid line
 72
    65
 73
     0
 40
0.0
  0
ENDTAB
  0
TABLE
  2
LAYER
  5
2
330
0
100
AcDbSymbolTable
 70
     2
  0
LAYER
  5
10
330
2
100
AcDbSymbolTableRecord
100
AcDbLayerTableRecord
  2
0
 70
     0
 62
     7
  6
Continuous
370
    -3
390
F
347
3E
  0
LAYER
  5
40
330
2
100
AcDbSymbolTableRecord
100
AcDbLayerTableRecord
  2
_U+30EC_U+30A4_U+30E4_U+30FC 1
 70
     0
 62
     7
  6
Continuous
370
    -3
390
F
347
3E
  0
ENDTAB
  0
TABLE
  2
STYLE
  5
3
330
0
100
AcDbSymbolTable
 70
     1
  0
STYLE
  5
11
330
3
100
AcDbSymbolTableRecord
100
AcDbTextStyleTableRecord
  2
Standard
 70
     0
 40
0.0
 41
1.0
 50
0.0
 71
     0
 42
0.2
  3
txt
  4

  0
ENDTAB
  0
TABLE
  2
VIEW
  5
6
330
0
100
AcDbSymbolTable
 70
     0
  0
ENDTAB
  0
TABLE
  2
UCS
  5
7
330
0
100
AcDbSymbolTable
 70
     0
  0
ENDTAB
  0
TABLE
  2
APPID
  5
9
330
0
100
AcDbSymbolTable
 70
     1
  0
APPID
  5
12
330
9
100
AcDbSymbolTableRecord
100
AcDbRegAppTableRecord
  2
ACAD
 70
     0
  0
ENDTAB
  0
TABLE
  2
DIMSTYLE
  5
A
330
0
100
AcDbSymbolTable
 70
     1
100
AcDbDimStyleTable
  0
DIMSTYLE
105
27
330
A
100
AcDbSymbolTableRecord
100
AcDbDimStyleTableRecord
  2
Standard
 70
     0
178
     0
340
11
  0
ENDTAB
  0
TABLE
  2
BLOCK_RECORD
  5
1
330
0
100
AcDbSymbolTable
 70
     7
  0
BLOCK_RECORD
  5
1F
330
1
100
AcDbSymbolTableRecord
100
AcDbBlockTableRecord
  2
*Model_Space
340
22
 70
     0
280
     1
281
     0
  0
BLOCK_RECORD
  5
1B
330
1
100
AcDbSymbolTableRecord
100
AcDbBlockTableRecord
  2
*Paper_Space
340
1E
 70
     0
280
     1
281
     0
  0
BLOCK_RECORD
  5
23
330
1
100
AcDbSymbolTableRecord
100
AcDbBlockTableRecord
  2
*Paper_Space0
340
26
 70
     0
280
     1
281
     0
  0
BLOCK_RECORD
  5
81
330
1
100
AcDbSymbolTableRecord
100
AcDbBlockTableRecord
  2
block 2
340
0
102
{BLKREFS
331
82
102
}
 70
     0
280
     1
281
     0
  0
BLOCK_RECORD
  5
95
330
1
100
AcDbSymbolTableRecord
100
AcDbBlockTableRecord
  2
block 3
340
0
102
{BLKREFS
331
96
102
}
 70
     0
280
     1
281
     0
  0
BLOCK_RECORD
  5
AF
330
1
100
AcDbSymbolTableRecord
100
AcDbBlockTableRecord
  2
block 4
340
0
102
{BLKREFS
331
B0
102
}
 70
     0
280
     1
281
     0
  0
BLOCK_RECORD
  5
C8
330
1
100
AcDbSymbolTableRecord
100
AcDbBlockTableRecord
  2
block 5
340
0
102
{BLKREFS
331
C9
102
}
 70
     0
280
     1
281
     0
  0
BLOCK_RECORD
  5
DA
330
1
100
AcDbSymbolTableRecord
100
AcDbBlockTableRecord
  2
block 6
340
0
102
{BLKREFS
331
DB
102
}
 70
     0
280
     1
281
     0
  0
BLOCK_RECORD
  5
EC
330
1
100
AcDbSymbolTableRecord
100
AcDbBlockTableRecord
  2
block 7
340
0
102
{BLKREFS
331
ED
102
}
 70
     0
280
     1
281
     0
  0
ENDTAB
  0
ENDSEC
  0
SECTION
  2
BLOCKS
  0
BLOCK
  5
20
330
1F
100
AcDbEntity
  8
0
100
AcDbBlockBegin
  2
*Model_Space
 70
     0
 10
0.0
 20
0.0
 30
0.0
  3
*Model_Space
  1

  0
ENDBLK
  5
21
330
1F
100
AcDbEntity
  8
0
100
AcDbBlockEnd
  0
BLOCK
  5
1C
330
1B
100
AcDbEntity
 67
     1
  8
0
100
AcDbBlockBegin
  2
*Paper_Space
 70
     0
 10
0.0
 20
0.0
 30
0.0
  3
*Paper_Space
  1

  0
ENDBLK
  5
1D
330
1B
100
AcDbEntity
 67
     1
  8
0
100
AcDbBlockEnd
  0
BLOCK
  5
24
330
23
100
AcDbEntity
  8
0
100
AcDbBlockBegin
  2
*Paper_Space0
 70
     0
 10
0.0
 20
0.0
 30
0.0
  3
*Paper_Space0
  1

  0
ENDBLK
  5
25
330
23
100
AcDbEntity
  8
0
100
AcDbBlockEnd
  0
BLOCK
  5
83
330
81
100
AcDbEntity
  8
0
100
AcDbBlockBegin
  2
block 2
 70
     0
 10
0.0
 20
0.0
 30
0.0
  3
block 2
  1

  0
SPLINE
  5
85
330
81
100
AcDbEntity
  8
_U+30EC_U+30A4_U+30E4_U+30FC 1
370
     0
100
AcDbSpline
210
0.0
220
0.0
230
1.0
 70
    11
 71
     3
 72
    29
 73
    25
 74
     0
 42
0.0000000001
 43
0.0000000001
 12
1.0
 22
0.0
 32
0.0
 13
1.0
 23
0.0
 33
0.0
 40
0.0
 40
0.0
 40
0.0
 40
0.0
 40
1.0
 40
1.0
 40
1.0
 40
2.0
 40
2.0
 40
2.0
 40
3.0
 40
3.0
 40
3.0
 40
4.0
 40
4.0
 40
4.0
 40
5.0
 40
5.0
 40
5.0
 40
6.0
 40
6.0
 40
6.0
 40
7.0
 40
7.0
 40
7.0
 40
8.0
 40
8.0
 40
8.0
 40
8.0
 10
85.4547322377509
 20
-118.6825059382113
 30
0.0
 10
85.18825410196683
 20
-118.6825059382113
 30
0.0
 10
84.93435056470392
 20
-118.5448743735756
 30
0.0
 10
84.93435056470392
 20
-118.1958862009198
 30
0.0
 10
84.93435056470392
 20
-117.9399156063657
 30
0.0
 10
85.07611624392194
 20
-117.8446587161986
 30
0.0
 10
85.18188067531912
 20
-117.7833360165611
 30
0.0
 10
85.0569959639788
 20
-117.7240803742148
 30
0.0
 10
84.9808593537548
 20
-117.6098754588788
 30
0.0
 10
84.9808593537548
 20
-117.4491617544919
 30
0.0
 10
84.9808593537548
 20
-117.1740708799947
 30
0.0
 10
85.17981361802796
 20
-117.0386786274244
 30
0.0
 10
85.4547322377509
 20
-117.0386786274244
 30
0.0
 10
85.73826359618697
 20
-117.0386786274244
 30
0.0
 10
85.92860512174703
 20
-117.1825113639335
 30
0.0
 10
85.92860512174703
 20
-117.4491617544919
 30
0.0
 10
85.92860512174703
 20
-117.6098754588788
 30
0.0
 10
85.85040145423184
 20
-117.7240803742148
 30
0.0
 10
85.72551674289154
 20
-117.7833360165611
 30
0.0
 10
85.814400206411
 20
-117.8341511749686
 30
0.0
 10
85.97304685350674
 20
-117.9294080651357
 30
0.0
 10
85.97304685350674
 20
-118.1915798315632
 30
0.0
 10
85.97304685350674
 20
-118.5660617108099
 30
0.0
 10
85.69382186442725
 20
-118.6825059382113
 30
0.0
 10
85.4547322377509
 20
-118.6825059382113
 30
0.0
  0
SPLINE
  5
86
330
81
100
AcDbEntity
  8
_U+30EC_U+30A4_U+30E4_U+30FC 1
370
     0
100
AcDbSpline
210
0.0
220
0.0
230
1.0
 70
    11
 71
     3
 72
    17
 73
    13
 74
     0
 42
0.0000000001
 43
0.0000000001
 12
1.0
 22
0.0
 32
0.0
 13
1.0
 23
0.0
 33
0.0
 40
0.0
 40
0.0
 40
0.0
 40
0.0
 40
1.0
 40
1.0
 40
1.0
 40
2.0
 40
2.0
 40
2.0
 40
3.0
 40
3.0
 40
3.0
 40
4.0
 40
4.0
 40
4.0
 40
4.0
 10
85.4547322377509
 20
-117.8913397600237
 30
0.0
 10
85.31089950124172
 20
-117.8913397600237
 30
0.0
 10
85.15862628079368
 20
-117.9779839114777
 30
0.0
 10
85.15862628079368
 20
-118.1810722903332
 30
0.0
 10
85.15862628079368
 20
-118.3862277264798
 30
0.0
 10
85.28557804942514
 20
-118.4878580432947
 30
0.0
 10
85.4547322377509
 20
-118.4878580432947
 30
0.0
 10
85.64093964872866
 20
-118.4878580432947
 30
0.0
 10
85.7510104494824
 20
-118.3652126440198
 30
0.0
 10
85.7510104494824
 20
-118.1874457169809
 30
0.0
 10
85.7510104494824
 20
-117.9652370581823
 30
0.0
 10
85.58805743303007
 20
-117.8913397600237
 30
0.0
 10
85.4547322377509
 20
-117.8913397600237
 30
0.0
  0
SPLINE
  5
87
330
81
100
AcDbEntity
  8
_U+30EC_U+30A4_U+30E4_U+30FC 1
370
     0
100
AcDbSpline
210
0.0
220
0.0
230
1.0
 70
    11
 71
     3
 72
    17
 73
    13
 74
     0
 42
0.0000000001
 43
0.0000000001
 12
1.0
 22
0.0
 32
0.0
 13
1.0
 23
0.0
 33
0.0
 40
0.0
 40
0.0
 40
0.0
 40
0.0
 40
1.0
 40
1.0
 40
1.0
 40
2.0
 40
2.0
 40
2.0
 40
3.0
 40
3.0
 40
3.0
 40
4.0
 40
4.0
 40
4.0
 40
4.0
 10
85.4547322377509
 20
-117.2312594650498
 30
0.0
 10
85.28971216400744
 20
-117.2312594650498
 30
0.0
 10
85.20513506984456
 20
-117.3263441004427
 30
0.0
 10
85.20513506984456
 20
-117.461736353013
 30
0.0
 10
85.20513506984456
 20
-117.5845540070622
 30
0.0
 10
85.27713756548627
 20
-117.7030652917548
 30
0.0
 10
85.4547322377509
 20
-117.7030652917548
 30
0.0
 10
85.63249916478979
 20
-117.7030652917548
 30
0.0
 10
85.70432940565726
 20
-117.5845540070622
 30
0.0
 10
85.70432940565726
 20
-117.461736353013
 30
0.0
 10
85.70432940565726
 20
-117.3263441004427
 30
0.0
 10
85.61768525420322
 20
-117.2312594650498
 30
0.0
 10
85.4547322377509
 20
-117.2312594650498
 30
0.0
  0
HATCH
  5
88
330
81
100
AcDbEntity
  8
_U+30EC_U+30A4_U+30E4_U+30FC 1
 62
   179
420
  2234388
100
AcDbHatch
 10
0.0
 20
0.0
 30
0.0
210
0.0
220
0.0
230
1.0
  2
SOLID
 70
     1
 71
     0
 91
        3
 92
        1
 93
        1
 72
     4
 94
        3
 73
     0
 74
     1
 95
       29
 96
       25
 40
0.0
 40
0.0
 40
0.0
 40
0.0
 40
1.0
 40
1.0
 40
1.0
 40
2.0
 40
2.0
 40
2.0
 40
3.0
 40
3.0
 40
3.0
 40
4.0
 40
4.0
 40
4.0
 40
5.0
 40
5.0
 40
5.0
 40
6.0
 40
6.0
 40
6.0
 40
7.0
 40
7.0
 40
7.0
 40
8.0
 40
8.0
 40
8.0
 40
8.0
 10
85.4547322377509
 20
-118.6825059382113
 10
85.18825410196683
 20
-118.6825059382113
 10
84.93435056470392
 20
-118.5448743735756
 10
84.93435056470392
 20
-118.1958862009198
 10
84.93435056470392
 20
-117.9399156063657
 10
85.07611624392194
 20
-117.8446587161986
 10
85.18188067531912
 20
-117.7833360165611
 10
85.0569959639788
 20
-117.7240803742148
 10
84.9808593537548
 20
-117.6098754588788
 10
84.9808593537548
 20
-117.4491617544919
 10
84.9808593537548
 20
-117.1740708799947
 10
85.17981361802796
 20
-117.0386786274244
 10
85.4547322377509
 20
-117.0386786274244
 10
85.73826359618697
 20
-117.0386786274244
 10
85.92860512174703
 20
-117.1825113639335
 10
85.92860512174703
 20
-117.4491617544919
 10
85.92860512174703
 20
-117.6098754588788
 10
85.85040145423184
 20
-117.7240803742148
 10
85.72551674289154
 20
-117.7833360165611
 10
85.814400206411
 20
-117.8341511749686
 10
85.97304685350674
 20
-117.9294080651357
 10
85.97304685350674
 20
-118.1915798315632
 10
85.97304685350674
 20
-118.5660617108099
 10
85.69382186442725
 20
-118.6825059382113
 10
85.4547322377509
 20
-118.6825059382113
 97
        0
 97
        0
 92
        1
 93
        1
 72
     4
 94
        3
 73
     0
 74
     1
 95
       17
 96
       13
 40
0.0
 40
0.0
 40
0.0
 40
0.0
 40
1.0
 40
1.0
 40
1.0
 40
2.0
 40
2.0
 40
2.0
 40
3.0
 40
3.0
 40
3.0
 40
4.0
 40
4.0
 40
4.0
 40
4.0
 10
85.4547322377509
 20
-117.8913397600237
 10
85.31089950124172
 20
-117.8913397600237
 10
85.15862628079368
 20
-117.9779839114777
 10
85.15862628079368
 20
-118.1810722903332
 10
85.15862628079368
 20
-118.3862277264798
 10
85.28557804942514
 20
-118.4878580432947
 10
85.4547322377509
 20
-118.4878580432947
 10
85.64093964872866
 20
-118.4878580432947
 10
85.7510104494824
 20
-118.3652126440198
 10
85.7510104494824
 20
-118.1874457169809
 10
85.7510104494824
 20
-117.9652370581823
 10
85.58805743303007
 20
-117.8913397600237
 10
85.4547322377509
 20
-117.8913397600237
 97
        0
 97
        0
 92
        1
 93
        1
 72
     4
 94
        3
 73
     0
 74
     1
 95
       17
 96
       13
 40
0.0
 40
0.0
 40
0.0
 40
0.0
 40
1.0
 40
1.0
 40
1.0
 40
2.0
 40
2.0
 40
2.0
 40
3.0
 40
3.0
 40
3.0
 40
4.0
 40
4.0
 40
4.0
 40
4.0
 10
85.4547322377509
 20
-117.2312594650498
 10
85.28971216400744
 20
-117.2312594650498
 10
85.20513506984456
 20
-117.3263441004427
 10
85.20513506984456
 20
-117.461736353013
 10
85.20513506984456
 20
-117.5845540070622
 10
85.27713756548627
 20
-117.7030652917548
 10
85.4547322377509
 20
-117.7030652917548
 10
85.63249916478979
 20
-117.7030652917548
 10
85.70432940565726
 20
-117.5845540070622
 10
85.70432940565726
 20
-117.461736353013
 10
85.70432940565726
 20
-117.3263441004427
 10
85.61768525420322
 20
-117.2312594650498
 10
85.4547322377509
 20
-117.2312594650498
 97
        0
 97
        0
 75
     2
 76
     1
 98
        0
  0
ENDBLK
  5
84
330
81
100
AcDbEntity
  8
0
100
AcDbBlockEnd
  0
BLOCK
  5
97
330
95
100
AcDbEntity
  8
0
100
AcDbBlockBegin
  2
block 3
 70
     0
 10
0.0
 20
0.0
 30
0.0
  3
block 3
  1

  0
SPLINE
  5
99
330
95
100
AcDbEntity
  8
_U+30EC_U+30A4_U+30E4_U+30FC 1
370
     0
100
AcDbSpline
210
0.0
220
0.0
230
1.0
 70
    11
 71
     3
 72
    26
 73
    22
 74
     0
 42
0.0000000001
 43
0.0000000001
 12
1.0
 22
0.0
 32
0.0
 13
1.0
 23
0.0
 33
0.0
 40
0.0
 40
0.0
 40
0.0
 40
0.0
 40
1.0
 40
1.0
 40
1.0
 40
2.0
 40
2.0
 40
2.0
 40
3.0
 40
3.0
 40
3.0
 40
4.0
 40
4.0
 40
4.0
 40
5.0
 40
5.0
 40
5.0
 40
6.0
 40
6.0
 40
6.0
 40
7.0
 40
7.0
 40
7.0
 40
7.0
 10
89.7395697475304
 20
-138.6320203646476
 30
0.0
 10
89.7395697475304
 20
-138.6320203646476
 30
0.0
 10
89.7395697475304
 20
-137.5282117711735
 30
0.0
 10
89.7395697475304
 20
-137.5282117711735
 30
0.0
 10
89.7395697475304
 20
-137.5282117711735
 30
0.0
 10
89.40952960004346
 20
-137.5282117711735
 30
0.0
 10
89.40952960004346
 20
-137.5282117711735
 30
0.0
 10
89.40952960004346
 20
-137.5282117711735
 30
0.0
 10
89.40952960004346
 20
-137.3800726653078
 30
0.0
 10
89.40952960004346
 20
-137.3800726653078
 30
0.0
 10
89.74163680482154
 20
-137.3649142451727
 30
0.0
 10
89.78814559387241
 20
-137.2023057382689
 30
0.0
 10
89.81777341504556
 20
-137.0879285681586
 30
0.0
 10
89.81777341504556
 20
-137.0879285681586
 30
0.0
 10
89.96384546362016
 20
-137.0879285681586
 30
0.0
 10
89.96384546362016
 20
-137.0879285681586
 30
0.0
 10
89.96384546362016
 20
-137.0879285681586
 30
0.0
 10
89.96384546362016
 20
-138.6320203646476
 30
0.0
 10
89.96384546362016
 20
-138.6320203646476
 30
0.0
 10
89.96384546362016
 20
-138.6320203646476
 30
0.0
 10
89.7395697475304
 20
-138.6320203646476
 30
0.0
 10
89.7395697475304
 20
-138.6320203646476
 30
0.0
  0
HATCH
  5
9A
330
95
100
AcDbEntity
  8
_U+30EC_U+30A4_U+30E4_U+30FC 1
 62
   179
420
  2234388
100
AcDbHatch
 10
0.0
 20
0.0
 30
0.0
210
0.0
220
0.0
230
1.0
  2
SOLID
 70
     1
 71
     0
 91
        1
 92
        1
 93
        1
 72
     4
 94
        3
 73
     0
 74
     1
 95
       26
 96
       22
 40
0.0
 40
0.0
 40
0.0
 40
0.0
 40
1.0
 40
1.0
 40
1.0
 40
2.0
 40
2.0
 40
2.0
 40
3.0
 40
3.0
 40
3.0
 40
4.0
 40
4.0
 40
4.0
 40
5.0
 40
5.0
 40
5.0
 40
6.0
 40
6.0
 40
6.0
 40
7.0
 40
7.0
 40
7.0
 40
7.0
 10
89.7395697475304
 20
-138.6320203646476
 10
89.7395697475304
 20
-138.6320203646476
 10
89.7395697475304
 20
-137.5282117711735
 10
89.7395697475304
 20
-137.5282117711735
 10
89.7395697475304
 20
-137.5282117711735
 10
89.40952960004346
 20
-137.5282117711735
 10
89.40952960004346
 20
-137.5282117711735
 10
89.40952960004346
 20
-137.5282117711735
 10
89.40952960004346
 20
-137.3800726653078
 10
89.40952960004346
 20
-137.3800726653078
 10
89.74163680482154
 20
-137.3649142451727
 10
89.78814559387241
 20
-137.2023057382689
 10
89.81777341504556
 20
-137.0879285681586
 10
89.81777341504556
 20
-137.0879285681586
 10
89.96384546362016
 20
-137.0879285681586
 10
89.96384546362016
 20
-137.0879285681586
 10
89.96384546362016
 20
-137.0879285681586
 10
89.96384546362016
 20
-138.6320203646476
 10
89.96384546362016
 20
-138.6320203646476
 10
89.96384546362016
 20
-138.6320203646476
 10
89.7395697475304
 20
-138.6320203646476
 10
89.7395697475304
 20
-138.6320203646476
 97
        0
 97
        0
 75
     2
 76
     1
 98
        0
  0
SPLINE
  5
9B
330
95
100
AcDbEntity
  8
_U+30EC_U+30A4_U+30E4_U+30FC 1
370
     0
100
AcDbSpline
210
0.0
220
0.0
230
1.0
 70
    11
 71
     3
 72
    29
 73
    25
 74
     0
 42
0.0000000001
 43
0.0000000001
 12
1.0
 22
0.0
 32
0.0
 13
1.0
 23
0.0
 33
0.0
 40
0.0
 40
0.0
 40
0.0
 40
0.0
 40
1.0
 40
1.0
 40
1.0
 40
2.0
 40
2.0
 40
2.0
 40
3.0
 40
3.0
 40
3.0
 40
4.0
 40
4.0
 40
4.0
 40
5.0
 40
5.0
 40
5.0
 40
6.0
 40
6.0
 40
6.0
 40
7.0
 40
7.0
 40
7.0
 40
8.0
 40
8.0
 40
8.0
 40
8.0
 10
90.96499021163376
 20
-138.6830077778293
 30
0.0
 10
90.69833982107542
 20
-138.6830077778293
 30
0.0
 10
90.44478079336103
 20
-138.5452039584193
 30
0.0
 10
90.44478079336103
 20
-138.196560295312
 30
0.0
 10
90.44478079336103
 20
-137.9402451912094
 30
0.0
 10
90.5863742178048
 20
-137.8451605558165
 30
0.0
 10
90.69213864920196
 20
-137.783837856179
 30
0.0
 10
90.56742619263592
 20
-137.7245822138327
 30
0.0
 10
90.49128958241191
 20
-137.6102050437225
 30
0.0
 10
90.49128958241191
 20
-137.4496635941098
 30
0.0
 10
90.49128958241191
 20
-137.1747449743869
 30
0.0
 10
90.69007159191082
 20
-137.039008212268
 30
0.0
 10
90.96499021163376
 20
-137.039008212268
 30
0.0
 10
91.24852157006981
 20
-137.039008212268
 30
0.0
 10
91.43903535040414
 20
-137.1830132035515
 30
0.0
 10
91.43903535040414
 20
-137.4496635941098
 30
0.0
 10
91.43903535040414
 20
-137.6102050437225
 30
0.0
 10
91.36048717334043
 20
-137.7245822138327
 30
0.0
 10
91.2357747167744
 20
-137.783837856179
 30
0.0
 10
91.32465818029384
 20
-137.8348252693607
 30
0.0
 10
91.48347708216386
 20
-137.9299099047536
 30
0.0
 10
91.48347708216386
 20
-138.1924261807297
 30
0.0
 10
91.48347708216386
 20
-138.5665635504278
 30
0.0
 10
91.2040798383101
 20
-138.6830077778293
 30
0.0
 10
90.96499021163376
 20
-138.6830077778293
 30
0.0
  0
SPLINE
  5
9C
330
95
100
AcDbEntity
  8
_U+30EC_U+30A4_U+30E4_U+30FC 1
370
     0
100
AcDbSpline
210
0.0
220
0.0
230
1.0
 70
    11
 71
     3
 72
    17
 73
    13
 74
     0
 42
0.0000000001
 43
0.0000000001
 12
1.0
 22
0.0
 32
0.0
 13
1.0
 23
0.0
 33
0.0
 40
0.0
 40
0.0
 40
0.0
 40
0.0
 40
1.0
 40
1.0
 40
1.0
 40
2.0
 40
2.0
 40
2.0
 40
3.0
 40
3.0
 40
3.0
 40
4.0
 40
4.0
 40
4.0
 40
4.0
 10
90.96499021163376
 20
-137.8920138544159
 30
0.0
 10
90.82132972989884
 20
-137.8920138544159
 30
0.0
 10
90.66871199990227
 20
-137.9788302606442
 30
0.0
 10
90.66871199990227
 20
-138.1814018751769
 30
0.0
 10
90.66871199990227
 20
-138.3867295660978
 30
0.0
 10
90.79583602330798
 20
-138.4880153733641
 30
0.0
 10
90.96499021163376
 20
-138.4880153733641
 30
0.0
 10
91.15102536783725
 20
-138.4880153733641
 30
0.0
 10
91.26126842336524
 20
-138.3653699740892
 30
0.0
 10
91.26126842336524
 20
-138.1876030470503
 30
0.0
 10
91.26126842336524
 20
-137.9657388978002
 30
0.0
 10
91.09831540691293
 20
-137.8920138544159
 30
0.0
 10
90.96499021163376
 20
-137.8920138544159
 30
0.0
  0
SPLINE
  5
9D
330
95
100
AcDbEntity
  8
_U+30EC_U+30A4_U+30E4_U+30FC 1
370
     0
100
AcDbSpline
210
0.0
220
0.0
230
1.0
 70
    11
 71
     3
 72
    17
 73
    13
 74
     0
 42
0.0000000001
 43
0.0000000001
 12
1.0
 22
0.0
 32
0.0
 13
1.0
 23
0.0
 33
0.0
 40
0.0
 40
0.0
 40
0.0
 40
0.0
 40
1.0
 40
1.0
 40
1.0
 40
2.0
 40
2.0
 40
2.0
 40
3.0
 40
3.0
 40
3.0
 40
4.0
 40
4.0
 40
4.0
 40
4.0
 10
90.96499021163376
 20
-137.231933559442
 30
0.0
 10
90.79997013789028
 20
-137.231933559442
 30
0.0
 10
90.71556529850167
 20
-137.3270181948349
 30
0.0
 10
90.71556529850167
 20
-137.4620659378567
 30
0.0
 10
90.71556529850167
 20
-137.5847113371316
 30
0.0
 10
90.78722328459486
 20
-137.7032226218242
 30
0.0
 10
90.96499021163376
 20
-137.7032226218242
 30
0.0
 10
91.14275713867265
 20
-137.7032226218242
 30
0.0
 10
91.21475963431438
 20
-137.5847113371316
 30
0.0
 10
91.21475963431438
 20
-137.4620659378567
 30
0.0
 10
91.21475963431438
 20
-137.3270181948349
 30
0.0
 10
91.12794322808607
 20
-137.231933559442
 30
0.0
 10
90.96499021163376
 20
-137.231933559442
 30
0.0
  0
HATCH
  5
9E
330
95
100
AcDbEntity
  8
_U+30EC_U+30A4_U+30E4_U+30FC 1
 62
   179
420
  2234388
100
AcDbHatch
 10
0.0
 20
0.0
 30
0.0
210
0.0
220
0.0
230
1.0
  2
SOLID
 70
     1
 71
     0
 91
        3
 92
        1
 93
        1
 72
     4
 94
        3
 73
     0
 74
     1
 95
       29
 96
       25
 40
0.0
 40
0.0
 40
0.0
 40
0.0
 40
1.0
 40
1.0
 40
1.0
 40
2.0
 40
2.0
 40
2.0
 40
3.0
 40
3.0
 40
3.0
 40
4.0
 40
4.0
 40
4.0
 40
5.0
 40
5.0
 40
5.0
 40
6.0
 40
6.0
 40
6.0
 40
7.0
 40
7.0
 40
7.0
 40
8.0
 40
8.0
 40
8.0
 40
8.0
 10
90.96499021163376
 20
-138.6830077778293
 10
90.69833982107542
 20
-138.6830077778293
 10
90.44478079336103
 20
-138.5452039584193
 10
90.44478079336103
 20
-138.196560295312
 10
90.44478079336103
 20
-137.9402451912094
 10
90.5863742178048
 20
-137.8451605558165
 10
90.69213864920196
 20
-137.783837856179
 10
90.56742619263592
 20
-137.7245822138327
 10
90.49128958241191
 20
-137.6102050437225
 10
90.49128958241191
 20
-137.4496635941098
 10
90.49128958241191
 20
-137.1747449743869
 10
90.69007159191082
 20
-137.039008212268
 10
90.96499021163376
 20
-137.039008212268
 10
91.24852157006981
 20
-137.039008212268
 10
91.43903535040414
 20
-137.1830132035515
 10
91.43903535040414
 20
-137.4496635941098
 10
91.43903535040414
 20
-137.6102050437225
 10
91.36048717334043
 20
-137.7245822138327
 10
91.2357747167744
 20
-137.783837856179
 10
91.32465818029384
 20
-137.8348252693607
 10
91.48347708216386
 20
-137.9299099047536
 10
91.48347708216386
 20
-138.1924261807297
 10
91.48347708216386
 20
-138.5665635504278
 10
91.2040798383101
 20
-138.6830077778293
 10
90.96499021163376
 20
-138.6830077778293
 97
        0
 97
        0
 92
        1
 93
        1
 72
     4
 94
        3
 73
     0
 74
     1
 95
       17
 96
       13
 40
0.0
 40
0.0
 40
0.0
 40
0.0
 40
1.0
 40
1.0
 40
1.0
 40
2.0
 40
2.0
 40
2.0
 40
3.0
 40
3.0
 40
3.0
 40
4.0
 40
4.0
 40
4.0
 40
4.0
 10
90.96499021163376
 20
-137.8920138544159
 10
90.82132972989884
 20
-137.8920138544159
 10
90.66871199990227
 20
-137.9788302606442
 10
90.66871199990227
 20
-138.1814018751769
 10
90.66871199990227
 20
-138.3867295660978
 10
90.79583602330798
 20
-138.4880153733641
 10
90.96499021163376
 20
-138.4880153733641
 10
91.15102536783725
 20
-138.4880153733641
 10
91.26126842336524
 20
-138.3653699740892
 10
91.26126842336524
 20
-138.1876030470503
 10
91.26126842336524
 20
-137.9657388978002
 10
91.09831540691293
 20
-137.8920138544159
 10
90.96499021163376
 20
-137.8920138544159
 97
        0
 97
        0
 92
        1
 93
        1
 72
     4
 94
        3
 73
     0
 74
     1
 95
       17
 96
       13
 40
0.0
 40
0.0
 40
0.0
 40
0.0
 40
1.0
 40
1.0
 40
1.0
 40
2.0
 40
2.0
 40
2.0
 40
3.0
 40
3.0
 40
3.0
 40
4.0
 40
4.0
 40
4.0
 40
4.0
 10
90.96499021163376
 20
-137.231933559442
 10
90.79997013789028
 20
-137.231933559442
 10
90.71556529850167
 20
-137.3270181948349
 10
90.71556529850167
 20
-137.4620659378567
 10
90.71556529850167
 20
-137.5847113371316
 10
90.78722328459486
 20
-137.7032226218242
 10
90.96499021163376
 20
-137.7032226218242
 10
91.14275713867265
 20
-137.7032226218242
 10
91.21475963431438
 20
-137.5847113371316
 10
91.21475963431438
 20
-137.4620659378567
 10
91.21475963431438
 20
-137.3270181948349
 10
91.12794322808607
 20
-137.231933559442
 10
90.96499021163376
 20
-137.231933559442
 97
        0
 97
        0
 75
     2
 76
     1
 98
        0
  0
ENDBLK
  5
98
330
95
100
AcDbEntity
  8
0
100
AcDbBlockEnd
  0
BLOCK
  5
B1
330
AF
100
AcDbEntity
  8
0
100
AcDbBlockBegin
  2
block 4
 70
     0
 10
0.0
 20
0.0
 30
0.0
  3
block 4
  1

  0
SPLINE
  5
B3
330
AF
100
AcDbEntity
  8
_U+30EC_U+30A4_U+30E4_U+30FC 1
370
     0
100
AcDbSpline
210
0.0
220
0.0
230
1.0
 70
    11
 71
     3
 72
    29
 73
    25
 74
     0
 42
0.0000000001
 43
0.0000000001
 12
1.0
 22
0.0
 32
0.0
 13
1.0
 23
0.0
 33
0.0
 40
0.0
 40
0.0
 40
0.0
 40
0.0
 40
1.0
 40
1.0
 40
1.0
 40
2.0
 40
2.0
 40
2.0
 40
3.0
 40
3.0
 40
3.0
 40
4.0
 40
4.0
 40
4.0
 40
5.0
 40
5.0
 40
5.0
 40
6.0
 40
6.0
 40
6.0
 40
7.0
 40
7.0
 40
7.0
 40
8.0
 40
8.0
 40
8.0
 40
8.0
 10
102.2084038372951
 20
-136.8819118581406
 30
0.0
 10
102.4178656427983
 20
-136.9900878563775
 30
0.0
 10
102.4368136679672
 20
-137.163031649737
 30
0.0
 10
102.4368136679672
 20
-137.2794758771385
 30
0.0
 10
102.4368136679672
 20
-137.4407063458482
 30
0.0
 10
102.3903048789163
 20
-137.5819552607434
 30
0.0
 10
102.2084038372951
 20
-137.6770398961363
 30
0.0
 10
102.0137559423785
 20
-137.7810817797908
 30
0.0
 10
101.7767333729933
 20
-137.8003743145082
 30
0.0
 10
101.6141248660895
 20
-137.8003743145082
 30
0.0
 10
101.4701198748061
 20
-137.8003743145082
 30
0.0
 10
101.2182833948343
 20
-137.783148837082
 30
0.0
 10
101.0195013853354
 20
-137.6770398961363
 30
0.0
 10
100.8165852612542
 20
-137.5695529169965
 30
0.0
 10
100.7931586119545
 20
-137.4083224482868
 30
0.0
 10
100.7931586119545
 20
-137.2794758771385
 30
0.0
 10
100.7931586119545
 20
-137.121001484817
 30
0.0
 10
100.8376003437142
 20
-136.9769964935335
 30
0.0
 10
101.0195013853354
 20
-136.8819118581406
 30
0.0
 10
101.2120822229609
 20
-136.7826931081654
 30
0.0
 10
101.4404920536329
 20
-136.7592664588657
 30
0.0
 10
101.6141248660895
 20
-136.7592664588657
 30
0.0
 10
101.7853461117064
 20
-136.7592664588657
 30
0.0
 10
102.0158229996697
 20
-136.7806260508743
 30
0.0
 10
102.2084038372951
 20
-136.8819118581406
 30
0.0
  0
SPLINE
  5
B4
330
AF
100
AcDbEntity
  8
_U+30EC_U+30A4_U+30E4_U+30FC 1
370
     0
100
AcDbSpline
210
0.0
220
0.0
230
1.0
 70
    11
 71
     3
 72
    17
 73
    13
 74
     0
 42
0.0000000001
 43
0.0000000001
 12
1.0
 22
0.0
 32
0.0
 13
1.0
 23
0.0
 33
0.0
 40
0.0
 40
0.0
 40
0.0
 40
0.0
 40
1.0
 40
1.0
 40
1.0
 40
2.0
 40
2.0
 40
2.0
 40
3.0
 40
3.0
 40
3.0
 40
4.0
 40
4.0
 40
4.0
 40
4.0
 10
100.98573944958
 20
-137.2794758771385
 30
0.0
 10
100.98573944958
 20
-137.5295898093676
 30
0.0
 10
101.269270808016
 20
-137.57575408887
 30
0.0
 10
101.6141248660895
 20
-137.57575408887
 30
0.0
 10
101.9334852175722
 20
-137.57575408887
 30
0.0
 10
102.2421657730506
 20
-137.5399250958233
 30
0.0
 10
102.2421657730506
 20
-137.2794758771385
 30
0.0
 10
102.2421657730506
 20
-137.0321180212975
 30
0.0
 10
101.9610459814542
 20
-136.983197665407
 30
0.0
 10
101.6141248660895
 20
-136.983197665407
 30
0.0
 10
101.2944200050583
 20
-136.983197665407
 30
0.0
 10
100.98573944958
 20
-137.0217827348418
 30
0.0
 10
100.98573944958
 20
-137.2794758771385
 30
0.0
  0
HATCH
  5
B5
330
AF
100
AcDbEntity
  8
_U+30EC_U+30A4_U+30E4_U+30FC 1
 62
   179
420
  2234388
100
AcDbHatch
 10
0.0
 20
0.0
 30
0.0
210
0.0
220
0.0
230
1.0
  2
SOLID
 70
     1
 71
     0
 91
        2
 92
        1
 93
        1
 72
     4
 94
        3
 73
     0
 74
     1
 95
       29
 96
       25
 40
0.0
 40
0.0
 40
0.0
 40
0.0
 40
1.0
 40
1.0
 40
1.0
 40
2.0
 40
2.0
 40
2.0
 40
3.0
 40
3.0
 40
3.0
 40
4.0
 40
4.0
 40
4.0
 40
5.0
 40
5.0
 40
5.0
 40
6.0
 40
6.0
 40
6.0
 40
7.0
 40
7.0
 40
7.0
 40
8.0
 40
8.0
 40
8.0
 40
8.0
 10
102.2084038372951
 20
-136.8819118581406
 10
102.4178656427983
 20
-136.9900878563775
 10
102.4368136679672
 20
-137.163031649737
 10
102.4368136679672
 20
-137.2794758771385
 10
102.4368136679672
 20
-137.4407063458482
 10
102.3903048789163
 20
-137.5819552607434
 10
102.2084038372951
 20
-137.6770398961363
 10
102.0137559423785
 20
-137.7810817797908
 10
101.7767333729933
 20
-137.8003743145082
 10
101.6141248660895
 20
-137.8003743145082
 10
101.4701198748061
 20
-137.8003743145082
 10
101.2182833948343
 20
-137.783148837082
 10
101.0195013853354
 20
-137.6770398961363
 10
100.8165852612542
 20
-137.5695529169965
 10
100.7931586119545
 20
-137.4083224482868
 10
100.7931586119545
 20
-137.2794758771385
 10
100.7931586119545
 20
-137.121001484817
 10
100.8376003437142
 20
-136.9769964935335
 10
101.0195013853354
 20
-136.8819118581406
 10
101.2120822229609
 20
-136.7826931081654
 10
101.4404920536329
 20
-136.7592664588657
 10
101.6141248660895
 20
-136.7592664588657
 10
101.7853461117064
 20
-136.7592664588657
 10
102.0158229996697
 20
-136.7806260508743
 10
102.2084038372951
 20
-136.8819118581406
 97
        0
 97
        0
 92
        1
 93
        1
 72
     4
 94
        3
 73
     0
 74
     1
 95
       17
 96
       13
 40
0.0
 40
0.0
 40
0.0
 40
0.0
 40
1.0
 40
1.0
 40
1.0
 40
2.0
 40
2.0
 40
2.0
 40
3.0
 40
3.0
 40
3.0
 40
4.0
 40
4.0
 40
4.0
 40
4.0
 10
100.98573944958
 20
-137.2794758771385
 10
100.98573944958
 20
-137.5295898093676
 10
101.269270808016
 20
-137.57575408887
 10
101.6141248660895
 20
-137.57575408887
 10
101.9334852175722
 20
-137.57575408887
 10
102.2421657730506
 20
-137.5399250958233
 10
102.2421657730506
 20
-137.2794758771385
 10
102.2421657730506
 20
-137.0321180212975
 10
101.9610459814542
 20
-136.983197665407
 10
101.6141248660895
 20
-136.983197665407
 10
101.2944200050583
 20
-136.983197665407
 10
100.98573944958
 20
-137.0217827348418
 10
100.98573944958
 20
-137.2794758771385
 97
        0
 97
        0
 75
     2
 76
     1
 98
        0
  0
POLYLINE
  5
B6
330
AF
100
AcDbEntity
  8
_U+30EC_U+30A4_U+30E4_U+30FC 1
370
     0
100
AcDb2dPolyline
 66
     1
 10
0.0
 20
0.0
 30
0.0
  0
VERTEX
  5
B7
330
B6
100
AcDbEntity
  8
_U+30EC_U+30A4_U+30E4_U+30FC 1
370
     0
100
AcDbVertex
100
AcDb2dVertex
 10
102.386170764334
 20
-136.542914462392
 30
0.0
  0
VERTEX
  5
B8
330
B6
100
AcDbEntity
  8
_U+30EC_U+30A4_U+30E4_U+30FC 1
370
     0
100
AcDbVertex
100
AcDb2dVertex
 10
102.1343342843623
 20
-136.542914462392
 30
0.0
  0
VERTEX
  5
B9
330
B6
100
AcDbEntity
  8
_U+30EC_U+30A4_U+30E4_U+30FC 1
370
     0
100
AcDbVertex
100
AcDb2dVertex
 10
102.1343342843623
 20
-136.2907334728718
 30
0.0
  0
VERTEX
  5
BA
330
B6
100
AcDbEntity
  8
_U+30EC_U+30A4_U+30E4_U+30FC 1
370
     0
100
AcDbVertex
100
AcDb2dVertex
 10
102.386170764334
 20
-136.2907334728718
 30
0.0
  0
VERTEX
  5
BB
330
B6
100
AcDbEntity
  8
_U+30EC_U+30A4_U+30E4_U+30FC 1
370
     0
100
AcDbVertex
100
AcDb2dVertex
 10
102.386170764334
 20
-136.542914462392
 30
0.0
  0
SEQEND
  5
BC
330
B6
100
AcDbEntity
  8
_U+30EC_U+30A4_U+30E4_U+30FC 1
370
     0
  0
HATCH
  5
BD
330
AF
100
AcDbEntity
  8
_U+30EC_U+30A4_U+30E4_U+30FC 1
 62
   179
420
  2234388
100
AcDbHatch
 10
0.0
 20
0.0
 30
0.0
210
0.0
220
0.0
230
1.0
  2
SOLID
 70
     1
 71
     0
 91
        1
 92
        1
 93
        4
 72
     1
 10
102.386170764334
 20
-136.542914462392
 11
102.1343342843623
 21
-136.542914462392
 72
     1
 10
102.1343342843623
 20
-136.542914462392
 11
102.1343342843623
 21
-136.2907334728718
 72
     1
 10
102.1343342843623
 20
-136.2907334728718
 11
102.386170764334
 21
-136.2907334728718
 72
     1
 10
102.386170764334
 20
-136.2907334728718
 11
102.386170764334
 21
-136.542914462392
 97
        0
 75
     2
 76
     1
 98
        0
  0
SPLINE
  5
BE
330
AF
100
AcDbEntity
  8
_U+30EC_U+30A4_U+30E4_U+30FC 1
370
     0
100
AcDbSpline
210
0.0
220
0.0
230
1.0
 70
    11
 71
     3
 72
    26
 73
    22
 74
     0
 42
0.0000000001
 43
0.0000000001
 12
1.0
 22
0.0
 32
0.0
 13
1.0
 23
0.0
 33
0.0
 40
0.0
 40
0.0
 40
0.0
 40
0.0
 40
1.0
 40
1.0
 40
1.0
 40
2.0
 40
2.0
 40
2.0
 40
3.0
 40
3.0
 40
3.0
 40
4.0
 40
4.0
 40
4.0
 40
5.0
 40
5.0
 40
5.0
 40
6.0
 40
6.0
 40
6.0
 40
7.0
 40
7.0
 40
7.0
 40
7.0
 10
102.386170764334
 20
-135.6437445407418
 30
0.0
 10
102.386170764334
 20
-135.6437445407418
 30
0.0
 10
102.386170764334
 20
-135.880767110127
 30
0.0
 10
102.386170764334
 20
-135.880767110127
 30
0.0
 10
102.0771456993071
 20
-135.8552734035362
 30
0.0
 10
101.5590033383255
 20
-135.6623480563622
 30
0.0
 10
101.0532633210909
 20
-135.2565158081998
 30
0.0
 10
101.0532633210909
 20
-135.2565158081998
 30
0.0
 10
101.0532633210909
 20
-136.0943630302125
 30
0.0
 10
101.0532633210909
 20
-136.0943630302125
 30
0.0
 10
101.0532633210909
 20
-136.0943630302125
 30
0.0
 10
100.8417344582965
 20
-136.0943630302125
 30
0.0
 10
100.8417344582965
 20
-136.0943630302125
 30
0.0
 10
100.8417344582965
 20
-136.0943630302125
 30
0.0
 10
100.8417344582965
 20
-135.0194932388146
 30
0.0
 10
100.8417344582965
 20
-135.0194932388146
 30
0.0
 10
100.8417344582965
 20
-135.0194932388146
 30
0.0
 10
101.0532633210909
 20
-135.0194932388146
 30
0.0
 10
101.0532633210909
 20
-135.0194932388146
 30
0.0
 10
101.3433403609489
 20
-135.3433322144281
 30
0.0
 10
101.9355522748633
 20
-135.6099826049864
 30
0.0
 10
102.386170764334
 20
-135.6437445407418
 30
0.0
  0
HATCH
  5
BF
330
AF
100
AcDbEntity
  8
_U+30EC_U+30A4_U+30E4_U+30FC 1
 62
   179
420
  2234388
100
AcDbHatch
 10
0.0
 20
0.0
 30
0.0
210
0.0
220
0.0
230
1.0
  2
SOLID
 70
     1
 71
     0
 91
        1
 92
        1
 93
        1
 72
     4
 94
        3
 73
     0
 74
     1
 95
       26
 96
       22
 40
0.0
 40
0.0
 40
0.0
 40
0.0
 40
1.0
 40
1.0
 40
1.0
 40
2.0
 40
2.0
 40
2.0
 40
3.0
 40
3.0
 40
3.0
 40
4.0
 40
4.0
 40
4.0
 40
5.0
 40
5.0
 40
5.0
 40
6.0
 40
6.0
 40
6.0
 40
7.0
 40
7.0
 40
7.0
 40
7.0
 10
102.386170764334
 20
-135.6437445407418
 10
102.386170764334
 20
-135.6437445407418
 10
102.386170764334
 20
-135.880767110127
 10
102.386170764334
 20
-135.880767110127
 10
102.0771456993071
 20
-135.8552734035362
 10
101.5590033383255
 20
-135.6623480563622
 10
101.0532633210909
 20
-135.2565158081998
 10
101.0532633210909
 20
-135.2565158081998
 10
101.0532633210909
 20
-136.0943630302125
 10
101.0532633210909
 20
-136.0943630302125
 10
101.0532633210909
 20
-136.0943630302125
 10
100.8417344582965
 20
-136.0943630302125
 10
100.8417344582965
 20
-136.0943630302125
 10
100.8417344582965
 20
-136.0943630302125
 10
100.8417344582965
 20
-135.0194932388146
 10
100.8417344582965
 20
-135.0194932388146
 10
100.8417344582965
 20
-135.0194932388146
 10
101.0532633210909
 20
-135.0194932388146
 10
101.0532633210909
 20
-135.0194932388146
 10
101.3433403609489
 20
-135.3433322144281
 10
101.9355522748633
 20
-135.6099826049864
 10
102.386170764334
 20
-135.6437445407418
 97
        0
 97
        0
 75
     2
 76
     1
 98
        0
  0
ENDBLK
  5
B2
330
AF
100
AcDbEntity
  8
0
100
AcDbBlockEnd
  0
BLOCK
  5
CA
330
C8
100
AcDbEntity
  8
0
100
AcDbBlockBegin
  2
block 5
 70
     0
 10
0.0
 20
0.0
 30
0.0
  3
block 5
  1

  0
SPLINE
  5
CC
330
C8
100
AcDbEntity
  8
_U+30EC_U+30A4_U+30E4_U+30FC 1
370
     0
100
AcDbSpline
210
0.0
220
0.0
230
1.0
 70
    11
 71
     3
 72
    26
 73
    22
 74
     0
 42
0.0000000001
 43
0.0000000001
 12
1.0
 22
0.0
 32
0.0
 13
1.0
 23
0.0
 33
0.0
 40
0.0
 40
0.0
 40
0.0
 40
0.0
 40
1.0
 40
1.0
 40
1.0
 40
2.0
 40
2.0
 40
2.0
 40
3.0
 40
3.0
 40
3.0
 40
4.0
 40
4.0
 40
4.0
 40
5.0
 40
5.0
 40
5.0
 40
6.0
 40
6.0
 40
6.0
 40
7.0
 40
7.0
 40
7.0
 40
7.0
 10
78.40641138447826
 20
-130.6318196288004
 30
0.0
 10
78.40641138447826
 20
-130.6318196288004
 30
0.0
 10
78.40641138447826
 20
-129.5276665257778
 30
0.0
 10
78.40641138447826
 20
-129.5276665257778
 30
0.0
 10
78.40641138447826
 20
-129.5276665257778
 30
0.0
 10
78.07637123699132
 20
-129.5276665257778
 30
0.0
 10
78.07637123699132
 20
-129.5276665257778
 30
0.0
 10
78.07637123699132
 20
-129.5276665257778
 30
0.0
 10
78.07637123699132
 20
-129.3795274199121
 30
0.0
 10
78.07637123699132
 20
-129.3795274199121
 30
0.0
 10
78.40847844176942
 20
-129.3647135093255
 30
0.0
 10
78.45498723082028
 20
-129.2017604928732
 30
0.0
 10
78.48461505199343
 20
-129.0873833227629
 30
0.0
 10
78.48461505199343
 20
-129.0873833227629
 30
0.0
 10
78.63068710056803
 20
-129.0873833227629
 30
0.0
 10
78.63068710056803
 20
-129.0873833227629
 30
0.0
 10
78.63068710056803
 20
-129.0873833227629
 30
0.0
 10
78.63068710056803
 20
-130.6318196288004
 30
0.0
 10
78.63068710056803
 20
-130.6318196288004
 30
0.0
 10
78.63068710056803
 20
-130.6318196288004
 30
0.0
 10
78.40641138447826
 20
-130.6318196288004
 30
0.0
 10
78.40641138447826
 20
-130.6318196288004
 30
0.0
  0
HATCH
  5
CD
330
C8
100
AcDbEntity
  8
_U+30EC_U+30A4_U+30E4_U+30FC 1
 62
   179
420
  2234388
100
AcDbHatch
 10
0.0
 20
0.0
 30
0.0
210
0.0
220
0.0
230
1.0
  2
SOLID
 70
     1
 71
     0
 91
        1
 92
        1
 93
        1
 72
     4
 94
        3
 73
     0
 74
     1
 95
       26
 96
       22
 40
0.0
 40
0.0
 40
0.0
 40
0.0
 40
1.0
 40
1.0
 40
1.0
 40
2.0
 40
2.0
 40
2.0
 40
3.0
 40
3.0
 40
3.0
 40
4.0
 40
4.0
 40
4.0
 40
5.0
 40
5.0
 40
5.0
 40
6.0
 40
6.0
 40
6.0
 40
7.0
 40
7.0
 40
7.0
 40
7.0
 10
78.40641138447826
 20
-130.6318196288004
 10
78.40641138447826
 20
-130.6318196288004
 10
78.40641138447826
 20
-129.5276665257778
 10
78.40641138447826
 20
-129.5276665257778
 10
78.40641138447826
 20
-129.5276665257778
 10
78.07637123699132
 20
-129.5276665257778
 10
78.07637123699132
 20
-129.5276665257778
 10
78.07637123699132
 20
-129.5276665257778
 10
78.07637123699132
 20
-129.3795274199121
 10
78.07637123699132
 20
-129.3795274199121
 10
78.40847844176942
 20
-129.3647135093255
 10
78.45498723082028
 20
-129.2017604928732
 10
78.48461505199343
 20
-129.0873833227629
 10
78.48461505199343
 20
-129.0873833227629
 10
78.63068710056803
 20
-129.0873833227629
 10
78.63068710056803
 20
-129.0873833227629
 10
78.63068710056803
 20
-129.0873833227629
 10
78.63068710056803
 20
-130.6318196288004
 10
78.63068710056803
 20
-130.6318196288004
 10
78.63068710056803
 20
-130.6318196288004
 10
78.40641138447826
 20
-130.6318196288004
 10
78.40641138447826
 20
-130.6318196288004
 97
        0
 97
        0
 75
     2
 76
     1
 98
        0
  0
ENDBLK
  5
CB
330
C8
100
AcDbEntity
  8
0
100
AcDbBlockEnd
  0
BLOCK
  5
DC
330
DA
100
AcDbEntity
  8
0
100
AcDbBlockBegin
  2
block 6
 70
     0
 10
0.0
 20
0.0
 30
0.0
  3
block 6
  1

  0
SPLINE
  5
DE
330
DA
100
AcDbEntity
  8
_U+30EC_U+30A4_U+30E4_U+30FC 1
370
     0
100
AcDbSpline
210
0.0
220
0.0
230
1.0
 70
    11
 71
     3
 72
    26
 73
    22
 74
     0
 42
0.0000000001
 43
0.0000000001
 12
1.0
 22
0.0
 32
0.0
 13
1.0
 23
0.0
 33
0.0
 40
0.0
 40
0.0
 40
0.0
 40
0.0
 40
1.0
 40
1.0
 40
1.0
 40
2.0
 40
2.0
 40
2.0
 40
3.0
 40
3.0
 40
3.0
 40
4.0
 40
4.0
 40
4.0
 40
5.0
 40
5.0
 40
5.0
 40
6.0
 40
6.0
 40
6.0
 40
7.0
 40
7.0
 40
7.0
 40
7.0
 10
95.8663275584987
 20
-130.6318196288004
 30
0.0
 10
95.8663275584987
 20
-130.6318196288004
 30
0.0
 10
95.6293049891135
 20
-130.6318196288004
 30
0.0
 10
95.6293049891135
 20
-130.6318196288004
 30
0.0
 10
95.65479869570436
 20
-130.3227945637735
 30
0.0
 10
95.84737953332983
 20
-129.8046522027919
 30
0.0
 10
96.25355629104078
 20
-129.2989121855572
 30
0.0
 10
96.25355629104078
 20
-129.2989121855572
 30
0.0
 10
95.41570906902803
 20
-129.2989121855572
 30
0.0
 10
95.41570906902803
 20
-129.2989121855572
 30
0.0
 10
95.41570906902803
 20
-129.2989121855572
 30
0.0
 10
95.41570906902803
 20
-129.0873833227629
 30
0.0
 10
95.41570906902803
 20
-129.0873833227629
 30
0.0
 10
95.41570906902803
 20
-129.0873833227629
 30
0.0
 10
96.49057886042597
 20
-129.0873833227629
 30
0.0
 10
96.49057886042597
 20
-129.0873833227629
 30
0.0
 10
96.49057886042597
 20
-129.0873833227629
 30
0.0
 10
96.49057886042597
 20
-129.2989121855572
 30
0.0
 10
96.49057886042597
 20
-129.2989121855572
 30
0.0
 10
96.16673988481249
 20
-129.5889892254152
 30
0.0
 10
95.90008949425415
 20
-130.1812011393297
 30
0.0
 10
95.8663275584987
 20
-130.6318196288004
 30
0.0
  0
HATCH
  5
DF
330
DA
100
AcDbEntity
  8
_U+30EC_U+30A4_U+30E4_U+30FC 1
 62
   179
420
  2234388
100
AcDbHatch
 10
0.0
 20
0.0
 30
0.0
210
0.0
220
0.0
230
1.0
  2
SOLID
 70
     1
 71
     0
 91
        1
 92
        1
 93
        1
 72
     4
 94
        3
 73
     0
 74
     1
 95
       26
 96
       22
 40
0.0
 40
0.0
 40
0.0
 40
0.0
 40
1.0
 40
1.0
 40
1.0
 40
2.0
 40
2.0
 40
2.0
 40
3.0
 40
3.0
 40
3.0
 40
4.0
 40
4.0
 40
4.0
 40
5.0
 40
5.0
 40
5.0
 40
6.0
 40
6.0
 40
6.0
 40
7.0
 40
7.0
 40
7.0
 40
7.0
 10
95.8663275584987
 20
-130.6318196288004
 10
95.8663275584987
 20
-130.6318196288004
 10
95.6293049891135
 20
-130.6318196288004
 10
95.6293049891135
 20
-130.6318196288004
 10
95.65479869570436
 20
-130.3227945637735
 10
95.84737953332983
 20
-129.8046522027919
 10
96.25355629104078
 20
-129.2989121855572
 10
96.25355629104078
 20
-129.2989121855572
 10
95.41570906902803
 20
-129.2989121855572
 10
95.41570906902803
 20
-129.2989121855572
 10
95.41570906902803
 20
-129.2989121855572
 10
95.41570906902803
 20
-129.0873833227629
 10
95.41570906902803
 20
-129.0873833227629
 10
95.41570906902803
 20
-129.0873833227629
 10
96.49057886042597
 20
-129.0873833227629
 10
96.49057886042597
 20
-129.0873833227629
 10
96.49057886042597
 20
-129.0873833227629
 10
96.49057886042597
 20
-129.2989121855572
 10
96.49057886042597
 20
-129.2989121855572
 10
96.16673988481249
 20
-129.5889892254152
 10
95.90008949425415
 20
-130.1812011393297
 10
95.8663275584987
 20
-130.6318196288004
 97
        0
 97
        0
 75
     2
 76
     1
 98
        0
  0
ENDBLK
  5
DD
330
DA
100
AcDbEntity
  8
0
100
AcDbBlockEnd
  0
BLOCK
  5
EE
330
EC
100
AcDbEntity
  8
0
100
AcDbBlockBegin
  2
block 7
 70
     0
 10
0.0
 20
0.0
 30
0.0
  3
block 7
  1

  0
SPLINE
  5
F0
330
EC
100
AcDbEntity
  8
_U+30EC_U+30A4_U+30E4_U+30FC 1
370
     0
100
AcDbSpline
210
0.0
220
0.0
230
1.0
 70
    11
 71
     3
 72
    26
 73
    22
 74
     0
 42
0.0000000001
 43
0.0000000001
 12
1.0
 22
0.0
 32
0.0
 13
1.0
 23
0.0
 33
0.0
 40
0.0
 40
0.0
 40
0.0
 40
0.0
 40
1.0
 40
1.0
 40
1.0
 40
2.0
 40
2.0
 40
2.0
 40
3.0
 40
3.0
 40
3.0
 40
4.0
 40
4.0
 40
4.0
 40
5.0
 40
5.0
 40
5.0
 40
6.0
 40
6.0
 40
6.0
 40
7.0
 40
7.0
 40
7.0
 40
7.0
 10
102.8564262980706
 20
-129.9414224935563
 30
0.0
 10
102.8564262980706
 20
-129.9414224935563
 30
0.0
 10
101.752273195048
 20
-129.9414224935563
 30
0.0
 10
101.752273195048
 20
-129.9414224935563
 30
0.0
 10
101.752273195048
 20
-129.9414224935563
 30
0.0
 10
101.752273195048
 20
-130.2714626410433
 30
0.0
 10
101.752273195048
 20
-130.2714626410433
 30
0.0
 10
101.752273195048
 20
-130.2714626410433
 30
0.0
 10
101.6041340891823
 20
-130.2714626410433
 30
0.0
 10
101.6041340891823
 20
-130.2714626410433
 30
0.0
 10
101.5893201785957
 20
-129.9393554362652
 30
0.0
 10
101.4263671621434
 20
-129.8925021376658
 30
0.0
 10
101.3119899920331
 20
-129.8628743164926
 30
0.0
 10
101.3119899920331
 20
-129.8628743164926
 30
0.0
 10
101.3119899920331
 20
-129.716802267918
 30
0.0
 10
101.3119899920331
 20
-129.716802267918
 30
0.0
 10
101.3119899920331
 20
-129.716802267918
 30
0.0
 10
102.8564262980706
 20
-129.716802267918
 30
0.0
 10
102.8564262980706
 20
-129.716802267918
 30
0.0
 10
102.8564262980706
 20
-129.716802267918
 30
0.0
 10
102.8564262980706
 20
-129.9414224935563
 30
0.0
 10
102.8564262980706
 20
-129.9414224935563
 30
0.0
  0
HATCH
  5
F1
330
EC
100
AcDbEntity
  8
_U+30EC_U+30A4_U+30E4_U+30FC 1
 62
   179
420
  2234388
100
AcDbHatch
 10
0.0
 20
0.0
 30
0.0
210
0.0
220
0.0
230
1.0
  2
SOLID
 70
     1
 71
     0
 91
        1
 92
        1
 93
        1
 72
     4
 94
        3
 73
     0
 74
     1
 95
       26
 96
       22
 40
0.0
 40
0.0
 40
0.0
 40
0.0
 40
1.0
 40
1.0
 40
1.0
 40
2.0
 40
2.0
 40
2.0
 40
3.0
 40
3.0
 40
3.0
 40
4.0
 40
4.0
 40
4.0
 40
5.0
 40
5.0
 40
5.0
 40
6.0
 40
6.0
 40
6.0
 40
7.0
 40
7.0
 40
7.0
 40
7.0
 10
102.8564262980706
 20
-129.9414224935563
 10
102.8564262980706
 20
-129.9414224935563
 10
101.752273195048
 20
-129.9414224935563
 10
101.752273195048
 20
-129.9414224935563
 10
101.752273195048
 20
-129.9414224935563
 10
101.752273195048
 20
-130.2714626410433
 10
101.752273195048
 20
-130.2714626410433
 10
101.752273195048
 20
-130.2714626410433
 10
101.6041340891823
 20
-130.2714626410433
 10
101.6041340891823
 20
-130.2714626410433
 10
101.5893201785957
 20
-129.9393554362652
 10
101.4263671621434
 20
-129.8925021376658
 10
101.3119899920331
 20
-129.8628743164926
 10
101.3119899920331
 20
-129.8628743164926
 10
101.3119899920331
 20
-129.716802267918
 10
101.3119899920331
 20
-129.716802267918
 10
101.3119899920331
 20
-129.716802267918
 10
102.8564262980706
 20
-129.716802267918
 10
102.8564262980706
 20
-129.716802267918
 10
102.8564262980706
 20
-129.716802267918
 10
102.8564262980706
 20
-129.9414224935563
 10
102.8564262980706
 20
-129.9414224935563
 97
        0
 97
        0
 75
     2
 76
     1
 98
        0
  0
SPLINE
  5
F2
330
EC
100
AcDbEntity
  8
_U+30EC_U+30A4_U+30E4_U+30FC 1
370
     0
100
AcDbSpline
210
0.0
220
0.0
230
1.0
 70
    11
 71
     3
 72
    29
 73
    25
 74
     0
 42
0.0000000001
 43
0.0000000001
 12
1.0
 22
0.0
 32
0.0
 13
1.0
 23
0.0
 33
0.0
 40
0.0
 40
0.0
 40
0.0
 40
0.0
 40
1.0
 40
1.0
 40
1.0
 40
2.0
 40
2.0
 40
2.0
 40
3.0
 40
3.0
 40
3.0
 40
4.0
 40
4.0
 40
4.0
 40
5.0
 40
5.0
 40
5.0
 40
6.0
 40
6.0
 40
6.0
 40
7.0
 40
7.0
 40
7.0
 40
8.0
 40
8.0
 40
8.0
 40
8.0
 10
102.6786593710317
 20
-128.3179212461323
 30
0.0
 10
102.8881211765349
 20
-128.4260972443692
 30
0.0
 10
102.9070692017038
 20
-128.5993855472773
 30
0.0
 10
102.9070692017038
 20
-128.7158297746787
 30
0.0
 10
102.9070692017038
 20
-128.8768879886141
 30
0.0
 10
102.8605604126529
 20
-129.0181369035094
 30
0.0
 10
102.6786593710317
 20
-129.1132215389023
 30
0.0
 10
102.4840114761151
 20
-129.2172634225568
 30
0.0
 10
102.2469889067299
 20
-129.2365559572742
 30
0.0
 10
102.0843803998261
 20
-129.2365559572742
 30
0.0
 10
101.9403754085427
 20
-129.2365559572742
 30
0.0
 10
101.6885389285709
 20
-129.2193304798479
 30
0.0
 10
101.489756919072
 20
-129.1132215389023
 30
0.0
 10
101.2868407949908
 20
-129.0057345597625
 30
0.0
 10
101.2634141456911
 20
-128.8445040910528
 30
0.0
 10
101.2634141456911
 20
-128.7158297746787
 30
0.0
 10
101.2634141456911
 20
-128.5570108728087
 30
0.0
 10
101.3078558774508
 20
-128.4133503910737
 30
0.0
 10
101.489756919072
 20
-128.3179212461323
 30
0.0
 10
101.6823377566975
 20
-128.2187024961571
 30
0.0
 10
101.9107475873695
 20
-128.1952758468574
 30
0.0
 10
102.0843803998261
 20
-128.1952758468574
 30
0.0
 10
102.2556016454431
 20
-128.1952758468574
 30
0.0
 10
102.4860785334063
 20
-128.216635438866
 30
0.0
 10
102.6786593710317
 20
-128.3179212461323
 30
0.0
  0
SPLINE
  5
F3
330
EC
100
AcDbEntity
  8
_U+30EC_U+30A4_U+30E4_U+30FC 1
370
     0
100
AcDbSpline
210
0.0
220
0.0
230
1.0
 70
    11
 71
     3
 72
    17
 73
    13
 74
     0
 42
0.0000000001
 43
0.0000000001
 12
1.0
 22
0.0
 32
0.0
 13
1.0
 23
0.0
 33
0.0
 40
0.0
 40
0.0
 40
0.0
 40
0.0
 40
1.0
 40
1.0
 40
1.0
 40
2.0
 40
2.0
 40
2.0
 40
3.0
 40
3.0
 40
3.0
 40
4.0
 40
4.0
 40
4.0
 40
4.0
 10
101.4559949833166
 20
-128.7158297746787
 30
0.0
 10
101.4559949833166
 20
-128.9657714521336
 30
0.0
 10
101.7395263417526
 20
-129.0119357316359
 30
0.0
 10
102.0843803998261
 20
-129.0119357316359
 30
0.0
 10
102.4037407513088
 20
-129.0119357316359
 30
0.0
 10
102.7124213067872
 20
-128.9761067385893
 30
0.0
 10
102.7124213067872
 20
-128.7158297746787
 30
0.0
 10
102.7124213067872
 20
-128.4681274092892
 30
0.0
 10
102.4313015151908
 20
-128.4195515629472
 30
0.0
 10
102.0843803998261
 20
-128.4195515629472
 30
0.0
 10
101.7646755387949
 20
-128.4195515629472
 30
0.0
 10
101.4559949833166
 20
-128.4577921228335
 30
0.0
 10
101.4559949833166
 20
-128.7158297746787
 30
0.0
  0
HATCH
  5
F4
330
EC
100
AcDbEntity
  8
_U+30EC_U+30A4_U+30E4_U+30FC 1
 62
   179
420
  2234388
100
AcDbHatch
 10
0.0
 20
0.0
 30
0.0
210
0.0
220
0.0
230
1.0
  2
SOLID
 70
     1
 71
     0
 91
        2
 92
        1
 93
        1
 72
     4
 94
        3
 73
     0
 74
     1
 95
       29
 96
       25
 40
0.0
 40
0.0
 40
0.0
 40
0.0
 40
1.0
 40
1.0
 40
1.0
 40
2.0
 40
2.0
 40
2.0
 40
3.0
 40
3.0
 40
3.0
 40
4.0
 40
4.0
 40
4.0
 40
5.0
 40
5.0
 40
5.0
 40
6.0
 40
6.0
 40
6.0
 40
7.0
 40
7.0
 40
7.0
 40
8.0
 40
8.0
 40
8.0
 40
8.0
 10
102.6786593710317
 20
-128.3179212461323
 10
102.8881211765349
 20
-128.4260972443692
 10
102.9070692017038
 20
-128.5993855472773
 10
102.9070692017038
 20
-128.7158297746787
 10
102.9070692017038
 20
-128.8768879886141
 10
102.8605604126529
 20
-129.0181369035094
 10
102.6786593710317
 20
-129.1132215389023
 10
102.4840114761151
 20
-129.2172634225568
 10
102.2469889067299
 20
-129.2365559572742
 10
102.0843803998261
 20
-129.2365559572742
 10
101.9403754085427
 20
-129.2365559572742
 10
101.6885389285709
 20
-129.2193304798479
 10
101.489756919072
 20
-129.1132215389023
 10
101.2868407949908
 20
-129.0057345597625
 10
101.2634141456911
 20
-128.8445040910528
 10
101.2634141456911
 20
-128.7158297746787
 10
101.2634141456911
 20
-128.5570108728087
 10
101.3078558774508
 20
-128.4133503910737
 10
101.489756919072
 20
-128.3179212461323
 10
101.6823377566975
 20
-128.2187024961571
 10
101.9107475873695
 20
-128.1952758468574
 10
102.0843803998261
 20
-128.1952758468574
 10
102.2556016454431
 20
-128.1952758468574
 10
102.4860785334063
 20
-128.216635438866
 10
102.6786593710317
 20
-128.3179212461323
 97
        0
 97
        0
 92
        1
 93
        1
 72
     4
 94
        3
 73
     0
 74
     1
 95
       17
 96
       13
 40
0.0
 40
0.0
 40
0.0
 40
0.0
 40
1.0
 40
1.0
 40
1.0
 40
2.0
 40
2.0
 40
2.0
 40
3.0
 40
3.0
 40
3.0
 40
4.0
 40
4.0
 40
4.0
 40
4.0
 10
101.4559949833166
 20
-128.7158297746787
 10
101.4559949833166
 20
-128.9657714521336
 10
101.7395263417526
 20
-129.0119357316359
 10
102.0843803998261
 20
-129.0119357316359
 10
102.4037407513088
 20
-129.0119357316359
 10
102.7124213067872
 20
-128.9761067385893
 10
102.7124213067872
 20
-128.7158297746787
 10
102.7124213067872
 20
-128.4681274092892
 10
102.4313015151908
 20
-128.4195515629472
 10
102.0843803998261
 20
-128.4195515629472
 10
101.7646755387949
 20
-128.4195515629472
 10
101.4559949833166
 20
-128.4577921228335
 10
101.4559949833166
 20
-128.7158297746787
 97
        0
 97
        0
 75
     2
 76
     1
 98
        0
  0
ENDBLK
  5
EF
330
EC
100
AcDbEntity
  8
0
100
AcDbBlockEnd
  0
ENDSEC
  0
SECTION
  2
ENTITIES
  0
POLYLINE
  5
41
330
1F
100
AcDbEntity
  8
_U+30EC_U+30A4_U+30E4_U+30FC 1
 62
   179
420
  2234388
370
    25
100
AcDb2dPolyline
 66
     1
 10
0.0
 20
0.0
 30
0.0
  0
VERTEX
  5
42
330
41
100
AcDbEntity
  8
_U+30EC_U+30A4_U+30E4_U+30FC 1
 62
   179
420
  2234388
370
    25
100
AcDbVertex
100
AcDb2dVertex
 10
81.45324708862121
 20
-123.2279588580819
 30
0.0
  0
VERTEX
  5
43
330
41
100
AcDbEntity
  8
_U+30EC_U+30A4_U+30E4_U+30FC 1
 62
   179
420
  2234388
370
    25
100
AcDbVertex
100
AcDb2dVertex
 10
81.45324708862121
 20
-135.2279066328599
 30
0.0
  0
SEQEND
  5
44
330
41
100
AcDbEntity
  8
_U+30EC_U+30A4_U+30E4_U+30FC 1
 62
   179
420
  2234388
370
    25
  0
POLYLINE
  5
45
330
1F
100
AcDbEntity
  8
_U+30EC_U+30A4_U+30E4_U+30FC 1
 62
   179
420
  2234388
370
    25
100
AcDb2dPolyline
 66
     1
 10
0.0
 20
0.0
 30
0.0
  0
VERTEX
  5
46
330
45
100
AcDbEntity
  8
_U+30EC_U+30A4_U+30E4_U+30FC 1
 62
   179
420
  2234388
370
    25
100
AcDbVertex
100
AcDb2dVertex
 10
82.45301928533712
 20
-134.2278169108878
 30
0.0
  0
VERTEX
  5
47
330
45
100
AcDbEntity
  8
_U+30EC_U+30A4_U+30E4_U+30FC 1
 62
   179
420
  2234388
370
    25
100
AcDbVertex
100
AcDb2dVertex
 10
92.45257569689385
 20
-134.2278169108878
 30
0.0
  0
SEQEND
  5
48
330
45
100
AcDbEntity
  8
_U+30EC_U+30A4_U+30E4_U+30FC 1
 62
   179
420
  2234388
370
    25
  0
POLYLINE
  5
49
330
1F
100
AcDbEntity
  8
_U+30EC_U+30A4_U+30E4_U+30FC 1
 62
   179
420
  2234388
370
    25
100
AcDb2dPolyline
 66
     1
 10
0.0
 20
0.0
 30
0.0
  0
VERTEX
  5
4A
330
49
100
AcDbEntity
  8
_U+30EC_U+30A4_U+30E4_U+30FC 1
 62
   179
420
  2234388
370
    25
100
AcDbVertex
100
AcDb2dVertex
 10
82.45301928533712
 20
-124.2280838578319
 30
0.0
  0
VERTEX
  5
4B
330
49
100
AcDbEntity
  8
_U+30EC_U+30A4_U+30E4_U+30FC 1
 62
   179
420
  2234388
370
    25
100
AcDbVertex
100
AcDb2dVertex
 10
89.45121299568721
 20
-124.2280838578319
 30
0.0
  0
SEQEND
  5
4C
330
49
100
AcDbEntity
  8
_U+30EC_U+30A4_U+30E4_U+30FC 1
 62
   179
420
  2234388
370
    25
  0
POLYLINE
  5
4D
330
1F
100
AcDbEntity
  8
_U+30EC_U+30A4_U+30E4_U+30FC 1
 62
   179
420
  2234388
370
    25
100
AcDb2dPolyline
 66
     1
 10
0.0
 20
0.0
 30
0.0
  0
VERTEX
  5
4E
330
4D
100
AcDbEntity
  8
_U+30EC_U+30A4_U+30E4_U+30FC 1
 62
   179
420
  2234388
370
    25
100
AcDbVertex
100
AcDb2dVertex
 10
81.45324708862121
 20
-123.2279588580819
 30
0.0
  0
VERTEX
  5
4F
330
4D
100
AcDbEntity
  8
_U+30EC_U+30A4_U+30E4_U+30FC 1
 62
   179
420
  2234388
370
    25
100
AcDbVertex
100
AcDb2dVertex
 10
89.08672300498613
 20
-123.2279588580819
 30
0.0
  0
SEQEND
  5
50
330
4D
100
AcDbEntity
  8
_U+30EC_U+30A4_U+30E4_U+30FC 1
 62
   179
420
  2234388
370
    25
  0
POLYLINE
  5
51
330
1F
100
AcDbEntity
  8
_U+30EC_U+30A4_U+30E4_U+30FC 1
 62
   179
420
  2234388
370
    25
100
AcDb2dPolyline
 66
     1
 10
0.0
 20
0.0
 30
0.0
  0
VERTEX
  5
52
330
51
100
AcDbEntity
  8
_U+30EC_U+30A4_U+30E4_U+30FC 1
 62
   179
420
  2234388
370
    25
100
AcDbVertex
100
AcDb2dVertex
 10
81.45324708862121
 20
-135.2279066328599
 30
0.0
  0
VERTEX
  5
53
330
51
100
AcDbEntity
  8
_U+30EC_U+30A4_U+30E4_U+30FC 1
 62
   179
420
  2234388
370
    25
100
AcDbVertex
100
AcDb2dVertex
 10
99.45302718496411
 20
-135.2279066328599
 30
0.0
  0
SEQEND
  5
54
330
51
100
AcDbEntity
  8
_U+30EC_U+30A4_U+30E4_U+30FC 1
 62
   179
420
  2234388
370
    25
  0
POLYLINE
  5
55
330
1F
100
AcDbEntity
  8
_U+30EC_U+30A4_U+30E4_U+30FC 1
 62
   179
420
  2234388
370
    25
100
AcDb2dPolyline
 66
     1
 10
0.0
 20
0.0
 30
0.0
  0
VERTEX
  5
56
330
55
100
AcDbEntity
  8
_U+30EC_U+30A4_U+30E4_U+30FC 1
 62
   179
420
  2234388
370
    25
100
AcDbVertex
100
AcDb2dVertex
 10
82.45301928533712
 20
-124.2280838578319
 30
0.0
  0
VERTEX
  5
57
330
55
100
AcDbEntity
  8
_U+30EC_U+30A4_U+30E4_U+30FC 1
 62
   179
420
  2234388
370
    25
100
AcDbVertex
100
AcDb2dVertex
 10
82.45301928533712
 20
-134.2278169108878
 30
0.0
  0
SEQEND
  5
58
330
55
100
AcDbEntity
  8
_U+30EC_U+30A4_U+30E4_U+30FC 1
 62
   179
420
  2234388
370
    25
  0
POLYLINE
  5
59
330
1F
100
AcDbEntity
  8
_U+30EC_U+30A4_U+30E4_U+30FC 1
 62
   179
420
  2234388
370
    25
100
AcDb2dPolyline
 66
     1
 10
0.0
 20
0.0
 30
0.0
  0
VERTEX
  5
5A
330
59
100
AcDbEntity
  8
_U+30EC_U+30A4_U+30E4_U+30FC 1
 62
   179
420
  2234388
370
    25
100
AcDbVertex
100
AcDb2dVertex
 10
92.75300124478491
 20
-134.5278896885905
 30
0.0
  0
VERTEX
  5
5B
330
59
100
AcDbEntity
  8
_U+30EC_U+30A4_U+30E4_U+30FC 1
 62
   179
420
  2234388
370
    25
100
AcDbVertex
100
AcDb2dVertex
 10
99.19807469146849
 20
-134.5278896885905
 30
0.0
  0
SEQEND
  5
5C
330
59
100
AcDbEntity
  8
_U+30EC_U+30A4_U+30E4_U+30FC 1
 62
   179
420
  2234388
370
    25
  0
POLYLINE
  5
5D
330
1F
100
AcDbEntity
  8
_U+30EC_U+30A4_U+30E4_U+30FC 1
 62
   179
420
  2234388
370
    25
100
AcDb2dPolyline
 66
     1
 10
0.0
 20
0.0
 30
0.0
  0
VERTEX
  5
5E
330
5D
100
AcDbEntity
  8
_U+30EC_U+30A4_U+30E4_U+30FC 1
 62
   179
420
  2234388
370
    25
100
AcDbVertex
100
AcDb2dVertex
 10
89.08672300498613
 20
-123.2279588580819
 30
0.0
  0
VERTEX
  5
5F
330
5D
100
AcDbEntity
  8
_U+30EC_U+30A4_U+30E4_U+30FC 1
 62
   179
420
  2234388
370
    25
100
AcDbVertex
100
AcDb2dVertex
 10
89.45121299568721
 20
-124.2280838578319
 30
0.0
  0
SEQEND
  5
60
330
5D
100
AcDbEntity
  8
_U+30EC_U+30A4_U+30E4_U+30FC 1
 62
   179
420
  2234388
370
    25
  0
POLYLINE
  5
61
330
1F
100
AcDbEntity
  8
_U+30EC_U+30A4_U+30E4_U+30FC 1
 62
   179
420
  2234388
370
    25
100
AcDb2dPolyline
 66
     1
 10
0.0
 20
0.0
 30
0.0
  0
VERTEX
  5
62
330
61
100
AcDbEntity
  8
_U+30EC_U+30A4_U+30E4_U+30FC 1
 62
   179
420
  2234388
370
    25
100
AcDbVertex
100
AcDb2dVertex
 10
99.19807469146849
 20
-134.5278896885905
 30
0.0
  0
VERTEX
  5
63
330
61
100
AcDbEntity
  8
_U+30EC_U+30A4_U+30E4_U+30FC 1
 62
   179
420
  2234388
370
    25
100
AcDbVertex
100
AcDb2dVertex
 10
99.45302718496411
 20
-135.2279066328599
 30
0.0
  0
SEQEND
  5
64
330
61
100
AcDbEntity
  8
_U+30EC_U+30A4_U+30E4_U+30FC 1
 62
   179
420
  2234388
370
    25
  0
POLYLINE
  5
65
330
1F
100
AcDbEntity
  8
_U+30EC_U+30A4_U+30E4_U+30FC 1
 62
   179
420
  2234388
370
    25
100
AcDb2dPolyline
 66
     1
 10
0.0
 20
0.0
 30
0.0
  0
VERTEX
  5
66
330
65
100
AcDbEntity
  8
_U+30EC_U+30A4_U+30E4_U+30FC 1
 62
   179
420
  2234388
370
    25
100
AcDbVertex
100
AcDb2dVertex
 10
92.45257569689385
 20
-134.2278169108878
 30
0.0
  0
VERTEX
  5
67
330
65
100
AcDbEntity
  8
_U+30EC_U+30A4_U+30E4_U+30FC 1
 62
   179
420
  2234388
370
    25
100
AcDbVertex
100
AcDb2dVertex
 10
92.75300124478491
 20
-134.5278896885905
 30
0.0
  0
SEQEND
  5
68
330
65
100
AcDbEntity
  8
_U+30EC_U+30A4_U+30E4_U+30FC 1
 62
   179
420
  2234388
370
    25
  0
SPLINE
  5
69
330
1F
100
AcDbEntity
  8
_U+30EC_U+30A4_U+30E4_U+30FC 1
 62
   179
420
  2234388
370
     9
100
AcDbSpline
210
0.0
220
0.0
230
1.0
 70
    11
 71
     3
 72
    17
 73
    13
 74
     0
 42
0.0000000001
 43
0.0000000001
 12
1.0
 22
0.0
 32
0.0
 13
1.0
 23
0.0
 33
0.0
 40
0.0
 40
0.0
 40
0.0
 40
0.0
 40
1.0
 40
1.0
 40
1.0
 40
2.0
 40
2.0
 40
2.0
 40
3.0
 40
3.0
 40
3.0
 40
4.0
 40
4.0
 40
4.0
 40
4.0
 10
81.55315375273905
 20
-131.2278299671928
 30
0.0
 10
81.55315375273905
 20
-131.1726908005404
 30
0.0
 10
81.50838625388116
 20
-131.1279233005512
 30
0.0
 10
81.45324708862121
 20
-131.1279233005512
 30
0.0
 10
81.39743764560059
 20
-131.1279233005512
 30
0.0
 10
81.35267220188398
 20
-131.1726908005404
 30
0.0
 10
81.35267220188398
 20
-131.2278299671928
 30
0.0
 10
81.35267220188398
 20
-131.2832866338461
 30
0.0
 10
81.39743764560059
 20
-131.3277366338345
 30
0.0
 10
81.45324708862121
 20
-131.3277366338345
 30
0.0
 10
81.50838625388116
 20
-131.3277366338345
 30
0.0
 10
81.55315375273905
 20
-131.2832866338461
 30
0.0
 10
81.55315375273905
 20
-131.2278299671928
 30
0.0
  0
SPLINE
  5
6A
330
1F
100
AcDbEntity
  8
_U+30EC_U+30A4_U+30E4_U+30FC 1
 62
   179
420
  2234388
370
     9
100
AcDbSpline
210
0.0
220
0.0
230
1.0
 70
    11
 71
     3
 72
    17
 73
    13
 74
     0
 42
0.0000000001
 43
0.0000000001
 12
1.0
 22
0.0
 32
0.0
 13
1.0
 23
0.0
 33
0.0
 40
0.0
 40
0.0
 40
0.0
 40
0.0
 40
1.0
 40
1.0
 40
1.0
 40
2.0
 40
2.0
 40
2.0
 40
3.0
 40
3.0
 40
3.0
 40
4.0
 40
4.0
 40
4.0
 40
4.0
 10
82.55292594945496
 20
-131.2278299671928
 30
0.0
 10
82.55292594945496
 20
-131.1726908005404
 30
0.0
 10
82.50812317282019
 20
-131.1279233005512
 30
0.0
 10
82.45301928533712
 20
-131.1279233005512
 30
0.0
 10
82.39788012007718
 20
-131.1279233005512
 30
0.0
 10
82.35311262121928
 20
-131.1726908005404
 30
0.0
 10
82.35311262121928
 20
-131.2278299671928
 30
0.0
 10
82.35311262121928
 20
-131.2832866338461
 30
0.0
 10
82.39788012007718
 20
-131.3277366338345
 30
0.0
 10
82.45301928533712
 20
-131.3277366338345
 30
0.0
 10
82.50812317282019
 20
-131.3277366338345
 30
0.0
 10
82.55292594945496
 20
-131.2832866338461
 30
0.0
 10
82.55292594945496
 20
-131.2278299671928
 30
0.0
  0
SPLINE
  5
6B
330
1F
100
AcDbEntity
  8
_U+30EC_U+30A4_U+30E4_U+30FC 1
 62
   179
420
  2234388
370
     9
100
AcDbSpline
210
0.0
220
0.0
230
1.0
 70
    11
 71
     3
 72
    17
 73
    13
 74
     0
 42
0.0000000001
 43
0.0000000001
 12
1.0
 22
0.0
 32
0.0
 13
1.0
 23
0.0
 33
0.0
 40
0.0
 40
0.0
 40
0.0
 40
0.0
 40
1.0
 40
1.0
 40
1.0
 40
2.0
 40
2.0
 40
2.0
 40
3.0
 40
3.0
 40
3.0
 40
4.0
 40
4.0
 40
4.0
 40
4.0
 10
81.55315375273905
 20
-119.2278821924151
 30
0.0
 10
81.55315375273905
 20
-119.1727430257624
 30
0.0
 10
81.50838625388116
 20
-119.1279402479957
 30
0.0
 10
81.45324708862121
 20
-119.1279402479957
 30
0.0
 10
81.39743764560059
 20
-119.1279402479957
 30
0.0
 10
81.35267220188398
 20
-119.1727430257624
 30
0.0
 10
81.35267220188398
 20
-119.2278821924151
 30
0.0
 10
81.35267220188398
 20
-119.2829860812904
 30
0.0
 10
81.39743764560059
 20
-119.3277888590571
 30
0.0
 10
81.45324708862121
 20
-119.3277888590571
 30
0.0
 10
81.50838625388116
 20
-119.3277888590571
 30
0.0
 10
81.55315375273905
 20
-119.2829860812904
 30
0.0
 10
81.55315375273905
 20
-119.2278821924151
 30
0.0
  0
SPLINE
  5
6C
330
1F
100
AcDbEntity
  8
_U+30EC_U+30A4_U+30E4_U+30FC 1
 62
   179
420
  2234388
370
     9
100
AcDbSpline
210
0.0
220
0.0
230
1.0
 70
    11
 71
     3
 72
    17
 73
    13
 74
     0
 42
0.0000000001
 43
0.0000000001
 12
1.0
 22
0.0
 32
0.0
 13
1.0
 23
0.0
 33
0.0
 40
0.0
 40
0.0
 40
0.0
 40
0.0
 40
1.0
 40
1.0
 40
1.0
 40
2.0
 40
2.0
 40
2.0
 40
3.0
 40
3.0
 40
3.0
 40
4.0
 40
4.0
 40
4.0
 40
4.0
 10
89.55267188198766
 20
-119.2278821924151
 30
0.0
 10
89.55267188198766
 20
-119.1727430257624
 30
0.0
 10
89.50786910535291
 20
-119.1279402479957
 30
0.0
 10
89.45276521786984
 20
-119.1279402479957
 30
0.0
 10
89.39762605260988
 20
-119.1279402479957
 30
0.0
 10
89.352858553752
 20
-119.1727430257624
 30
0.0
 10
89.352858553752
 20
-119.2278821924151
 30
0.0
 10
89.352858553752
 20
-119.2829860812904
 30
0.0
 10
89.39762605260988
 20
-119.3277888590571
 30
0.0
 10
89.45276521786984
 20
-119.3277888590571
 30
0.0
 10
89.50786910535291
 20
-119.3277888590571
 30
0.0
 10
89.55267188198766
 20
-119.2829860812904
 30
0.0
 10
89.55267188198766
 20
-119.2278821924151
 30
0.0
  0
SPLINE
  5
6D
330
1F
100
AcDbEntity
  8
_U+30EC_U+30A4_U+30E4_U+30FC 1
 62
   179
420
  2234388
370
     9
100
AcDbSpline
210
0.0
220
0.0
230
1.0
 70
    11
 71
     3
 72
    17
 73
    13
 74
     0
 42
0.0000000001
 43
0.0000000001
 12
1.0
 22
0.0
 32
0.0
 13
1.0
 23
0.0
 33
0.0
 40
0.0
 40
0.0
 40
0.0
 40
0.0
 40
1.0
 40
1.0
 40
1.0
 40
2.0
 40
2.0
 40
2.0
 40
3.0
 40
3.0
 40
3.0
 40
4.0
 40
4.0
 40
4.0
 40
4.0
 10
103.5526929137063
 20
-124.2280838578319
 30
0.0
 10
103.5526929137063
 20
-124.1729446911792
 30
0.0
 10
103.5078901370715
 20
-124.1281771911903
 30
0.0
 10
103.4527888630258
 20
-124.1281771911903
 30
0.0
 10
103.3976470843285
 20
-124.1281771911903
 30
0.0
 10
103.3528795854706
 20
-124.1729446911792
 30
0.0
 10
103.3528795854706
 20
-124.2280838578319
 30
0.0
 10
103.3528795854706
 20
-124.2831877467072
 30
0.0
 10
103.3976470843285
 20
-124.3279905244736
 30
0.0
 10
103.4527888630258
 20
-124.3279905244736
 30
0.0
 10
103.5078901370715
 20
-124.3279905244736
 30
0.0
 10
103.5526929137063
 20
-124.2831877467072
 30
0.0
 10
103.5526929137063
 20
-124.2280838578319
 30
0.0
  0
SPLINE
  5
6E
330
1F
100
AcDbEntity
  8
_U+30EC_U+30A4_U+30E4_U+30FC 1
 62
   179
420
  2234388
370
     9
100
AcDbSpline
210
0.0
220
0.0
230
1.0
 70
    11
 71
     3
 72
    17
 73
    13
 74
     0
 42
0.0000000001
 43
0.0000000001
 12
1.0
 22
0.0
 32
0.0
 13
1.0
 23
0.0
 33
0.0
 40
0.0
 40
0.0
 40
0.0
 40
0.0
 40
1.0
 40
1.0
 40
1.0
 40
2.0
 40
2.0
 40
2.0
 40
3.0
 40
3.0
 40
3.0
 40
4.0
 40
4.0
 40
4.0
 40
4.0
 10
103.5526929137063
 20
-134.2278169108878
 30
0.0
 10
103.5526929137063
 20
-134.1726777442347
 30
0.0
 10
103.5078901370715
 20
-134.1279102442455
 30
0.0
 10
103.4527888630258
 20
-134.1279102442455
 30
0.0
 10
103.3976470843285
 20
-134.1279102442455
 30
0.0
 10
103.3528795854706
 20
-134.1726777442347
 30
0.0
 10
103.3528795854706
 20
-134.2278169108878
 30
0.0
 10
103.3528795854706
 20
-134.2832735775405
 30
0.0
 10
103.3976470843285
 20
-134.3280763553066
 30
0.0
 10
103.4527888630258
 20
-134.3280763553066
 30
0.0
 10
103.5078901370715
 20
-134.3280763553066
 30
0.0
 10
103.5526929137063
 20
-134.2832735775405
 30
0.0
 10
103.5526929137063
 20
-134.2278169108878
 30
0.0
  0
SPLINE
  5
6F
330
1F
100
AcDbEntity
  8
_U+30EC_U+30A4_U+30E4_U+30FC 1
 62
   179
420
  2234388
370
     9
100
AcDbSpline
210
0.0
220
0.0
230
1.0
 70
    11
 71
     3
 72
    17
 73
    13
 74
     0
 42
0.0000000001
 43
0.0000000001
 12
1.0
 22
0.0
 32
0.0
 13
1.0
 23
0.0
 33
0.0
 40
0.0
 40
0.0
 40
0.0
 40
0.0
 40
1.0
 40
1.0
 40
1.0
 40
2.0
 40
2.0
 40
2.0
 40
3.0
 40
3.0
 40
3.0
 40
4.0
 40
4.0
 40
4.0
 40
4.0
 10
103.5526929137063
 20
-134.5278896885905
 30
0.0
 10
103.5526929137063
 20
-134.4727505219374
 30
0.0
 10
103.5078901370715
 20
-134.4279830219488
 30
0.0
 10
103.4527888630258
 20
-134.4279830219488
 30
0.0
 10
103.3976470843285
 20
-134.4279830219488
 30
0.0
 10
103.3528795854706
 20
-134.4727505219374
 30
0.0
 10
103.3528795854706
 20
-134.5278896885905
 30
0.0
 10
103.3528795854706
 20
-134.5833463552432
 30
0.0
 10
103.3976470843285
 20
-134.6281138552317
 30
0.0
 10
103.4527888630258
 20
-134.6281138552317
 30
0.0
 10
103.5078901370715
 20
-134.6281138552317
 30
0.0
 10
103.5526929137063
 20
-134.5833463552432
 30
0.0
 10
103.5526929137063
 20
-134.5278896885905
 30
0.0
  0
SPLINE
  5
70
330
1F
100
AcDbEntity
  8
_U+30EC_U+30A4_U+30E4_U+30FC 1
 62
   179
420
  2234388
370
     9
100
AcDbSpline
210
0.0
220
0.0
230
1.0
 70
    11
 71
     3
 72
    17
 73
    13
 74
     0
 42
0.0000000001
 43
0.0000000001
 12
1.0
 22
0.0
 32
0.0
 13
1.0
 23
0.0
 33
0.0
 40
0.0
 40
0.0
 40
0.0
 40
0.0
 40
1.0
 40
1.0
 40
1.0
 40
2.0
 40
2.0
 40
2.0
 40
3.0
 40
3.0
 40
3.0
 40
4.0
 40
4.0
 40
4.0
 40
4.0
 10
103.5526929137063
 20
-135.2279066328599
 30
0.0
 10
103.5526929137063
 20
-135.1728027439844
 30
0.0
 10
103.5078901370715
 20
-135.1279999662183
 30
0.0
 10
103.4527888630258
 20
-135.1279999662183
 30
0.0
 10
103.3976470843285
 20
-135.1279999662183
 30
0.0
 10
103.3528795854706
 20
-135.1728027439844
 30
0.0
 10
103.3528795854706
 20
-135.2279066328599
 30
0.0
 10
103.3528795854706
 20
-135.2830457995124
 30
0.0
 10
103.3976470843285
 20
-135.3278132995016
 30
0.0
 10
103.4527888630258
 20
-135.3278132995016
 30
0.0
 10
103.5078901370715
 20
-135.3278132995016
 30
0.0
 10
103.5526929137063
 20
-135.2830457995124
 30
0.0
 10
103.5526929137063
 20
-135.2279066328599
 30
0.0
  0
SPLINE
  5
71
330
1F
100
AcDbEntity
  8
_U+30EC_U+30A4_U+30E4_U+30FC 1
 62
   179
420
  2234388
370
     9
100
AcDbSpline
210
0.0
220
0.0
230
1.0
 70
    11
 71
     3
 72
    17
 73
    13
 74
     0
 42
0.0000000001
 43
0.0000000001
 12
1.0
 22
0.0
 32
0.0
 13
1.0
 23
0.0
 33
0.0
 40
0.0
 40
0.0
 40
0.0
 40
0.0
 40
1.0
 40
1.0
 40
1.0
 40
2.0
 40
2.0
 40
2.0
 40
3.0
 40
3.0
 40
3.0
 40
4.0
 40
4.0
 40
4.0
 40
4.0
 10
99.55293384908195
 20
-139.228018576304
 30
0.0
 10
99.55293384908195
 20
-139.172914687429
 30
0.0
 10
99.50813107244718
 20
-139.1281119096623
 30
0.0
 10
99.45302718496411
 20
-139.1281119096623
 30
0.0
 10
99.39788801970417
 20
-139.1281119096623
 30
0.0
 10
99.35312052084629
 20
-139.172914687429
 30
0.0
 10
99.35312052084629
 20
-139.228018576304
 30
0.0
 10
99.35312052084629
 20
-139.283157742957
 30
0.0
 10
99.39788801970417
 20
-139.3279252429456
 30
0.0
 10
99.45302718496411
 20
-139.3279252429456
 30
0.0
 10
99.50813107244718
 20
-139.3279252429456
 30
0.0
 10
99.55293384908195
 20
-139.283157742957
 30
0.0
 10
99.55293384908195
 20
-139.228018576304
 30
0.0
  0
SPLINE
  5
72
330
1F
100
AcDbEntity
  8
_U+30EC_U+30A4_U+30E4_U+30FC 1
 62
   179
420
  2234388
370
     9
100
AcDbSpline
210
0.0
220
0.0
230
1.0
 70
    11
 71
     3
 72
    17
 73
    13
 74
     0
 42
0.0000000001
 43
0.0000000001
 12
1.0
 22
0.0
 32
0.0
 13
1.0
 23
0.0
 33
0.0
 40
0.0
 40
0.0
 40
0.0
 40
0.0
 40
1.0
 40
1.0
 40
1.0
 40
2.0
 40
2.0
 40
2.0
 40
3.0
 40
3.0
 40
3.0
 40
4.0
 40
4.0
 40
4.0
 40
4.0
 10
81.55315375273905
 20
-139.228018576304
 30
0.0
 10
81.55315375273905
 20
-139.172914687429
 30
0.0
 10
81.50838625388116
 20
-139.1281119096623
 30
0.0
 10
81.45324708862121
 20
-139.1281119096623
 30
0.0
 10
81.39743764560059
 20
-139.1281119096623
 30
0.0
 10
81.35267220188398
 20
-139.172914687429
 30
0.0
 10
81.35267220188398
 20
-139.228018576304
 30
0.0
 10
81.35267220188398
 20
-139.283157742957
 30
0.0
 10
81.39743764560059
 20
-139.3279252429456
 30
0.0
 10
81.45324708862121
 20
-139.3279252429456
 30
0.0
 10
81.50838625388116
 20
-139.3279252429456
 30
0.0
 10
81.55315375273905
 20
-139.283157742957
 30
0.0
 10
81.55315375273905
 20
-139.228018576304
 30
0.0
  0
SPLINE
  5
73
330
1F
100
AcDbEntity
  8
_U+30EC_U+30A4_U+30E4_U+30FC 1
 62
   179
420
  2234388
370
     9
100
AcDbSpline
210
0.0
220
0.0
230
1.0
 70
    11
 71
     3
 72
    17
 73
    13
 74
     0
 42
0.0000000001
 43
0.0000000001
 12
1.0
 22
0.0
 32
0.0
 13
1.0
 23
0.0
 33
0.0
 40
0.0
 40
0.0
 40
0.0
 40
0.0
 40
1.0
 40
1.0
 40
1.0
 40
2.0
 40
2.0
 40
2.0
 40
3.0
 40
3.0
 40
3.0
 40
4.0
 40
4.0
 40
4.0
 40
4.0
 10
99.55293384908195
 20
-131.2278299671928
 30
0.0
 10
99.55293384908195
 20
-131.1726908005404
 30
0.0
 10
99.50813107244718
 20
-131.1279233005512
 30
0.0
 10
99.45302718496411
 20
-131.1279233005512
 30
0.0
 10
99.39788801970417
 20
-131.1279233005512
 30
0.0
 10
99.35312052084629
 20
-131.1726908005404
 30
0.0
 10
99.35312052084629
 20
-131.2278299671928
 30
0.0
 10
99.35312052084629
 20
-131.2832866338461
 30
0.0
 10
99.39788801970417
 20
-131.3277366338345
 30
0.0
 10
99.45302718496411
 20
-131.3277366338345
 30
0.0
 10
99.50813107244718
 20
-131.3277366338345
 30
0.0
 10
99.55293384908195
 20
-131.2832866338461
 30
0.0
 10
99.55293384908195
 20
-131.2278299671928
 30
0.0
  0
SPLINE
  5
74
330
1F
100
AcDbEntity
  8
_U+30EC_U+30A4_U+30E4_U+30FC 1
 62
   179
420
  2234388
370
     9
100
AcDbSpline
210
0.0
220
0.0
230
1.0
 70
    11
 71
     3
 72
    17
 73
    13
 74
     0
 42
0.0000000001
 43
0.0000000001
 12
1.0
 22
0.0
 32
0.0
 13
1.0
 23
0.0
 33
0.0
 40
0.0
 40
0.0
 40
0.0
 40
0.0
 40
1.0
 40
1.0
 40
1.0
 40
2.0
 40
2.0
 40
2.0
 40
3.0
 40
3.0
 40
3.0
 40
4.0
 40
4.0
 40
4.0
 40
4.0
 10
92.55318791654923
 20
-131.2278299671928
 30
0.0
 10
92.55318791654923
 20
-131.1726908005404
 30
0.0
 10
92.50838513991448
 20
-131.1279233005512
 30
0.0
 10
92.45257569689385
 20
-131.1279233005512
 30
0.0
 10
92.39747180941077
 20
-131.1279233005512
 30
0.0
 10
92.352669032776
 20
-131.1726908005404
 30
0.0
 10
92.352669032776
 20
-131.2278299671928
 30
0.0
 10
92.352669032776
 20
-131.2832866338461
 30
0.0
 10
92.39747180941077
 20
-131.3277366338345
 30
0.0
 10
92.45257569689385
 20
-131.3277366338345
 30
0.0
 10
92.50838513991448
 20
-131.3277366338345
 30
0.0
 10
92.55318791654923
 20
-131.2832866338461
 30
0.0
 10
92.55318791654923
 20
-131.2278299671928
 30
0.0
  0
POLYLINE
  5
75
330
1F
100
AcDbEntity
  8
_U+30EC_U+30A4_U+30E4_U+30FC 1
 62
   179
420
  2234388
370
     9
100
AcDb2dPolyline
 66
     1
 10
0.0
 20
0.0
 30
0.0
  0
VERTEX
  5
76
330
75
100
AcDbEntity
  8
_U+30EC_U+30A4_U+30E4_U+30FC 1
 62
   179
420
  2234388
370
     9
100
AcDbVertex
100
AcDb2dVertex
 10
81.45324708862121
 20
-119.2278821924151
 30
0.0
  0
VERTEX
  5
77
330
75
100
AcDbEntity
  8
_U+30EC_U+30A4_U+30E4_U+30FC 1
 62
   179
420
  2234388
370
     9
100
AcDbVertex
100
AcDb2dVertex
 10
89.45276521786984
 20
-119.2278821924151
 30
0.0
  0
SEQEND
  5
78
330
75
100
AcDbEntity
  8
_U+30EC_U+30A4_U+30E4_U+30FC 1
 62
   179
420
  2234388
370
     9
  0
POLYLINE
  5
79
330
1F
100
AcDbEntity
  8
_U+30EC_U+30A4_U+30E4_U+30FC 1
 62
   179
420
  2234388
370
     9
100
AcDb2dPolyline
 66
     1
 10
0.0
 20
0.0
 30
0.0
  0
VERTEX
  5
7A
330
79
100
AcDbEntity
  8
_U+30EC_U+30A4_U+30E4_U+30FC 1
 62
   179
420
  2234388
370
     9
100
AcDbVertex
100
AcDb2dVertex
 10
81.45324708862121
 20
-120.6878883031613
 30
0.0
  0
VERTEX
  5
7B
330
79
100
AcDbEntity
  8
_U+30EC_U+30A4_U+30E4_U+30FC 1
 62
   179
420
  2234388
370
     9
100
AcDbVertex
100
AcDb2dVertex
 10
81.45324708862121
 20
-118.2281099704429
 30
0.0
  0
SEQEND
  5
7C
330
79
100
AcDbEntity
  8
_U+30EC_U+30A4_U+30E4_U+30FC 1
 62
   179
420
  2234388
370
     9
  0
POLYLINE
  5
7D
330
1F
100
AcDbEntity
  8
_U+30EC_U+30A4_U+30E4_U+30FC 1
 62
   179
420
  2234388
370
     9
100
AcDb2dPolyline
 66
     1
 10
0.0
 20
0.0
 30
0.0
  0
VERTEX
  5
7E
330
7D
100
AcDbEntity
  8
_U+30EC_U+30A4_U+30E4_U+30FC 1
 62
   179
420
  2234388
370
     9
100
AcDbVertex
100
AcDb2dVertex
 10
89.45276521786984
 20
-120.6878883031613
 30
0.0
  0
VERTEX
  5
7F
330
7D
100
AcDbEntity
  8
_U+30EC_U+30A4_U+30E4_U+30FC 1
 62
   179
420
  2234388
370
     9
100
AcDbVertex
100
AcDb2dVertex
 10
89.45276521786984
 20
-118.2281099704429
 30
0.0
  0
SEQEND
  5
80
330
7D
100
AcDbEntity
  8
_U+30EC_U+30A4_U+30E4_U+30FC 1
 62
   179
420
  2234388
370
     9
  0
INSERT
  5
82
330
1F
100
AcDbEntity
  8
_U+30EC_U+30A4_U+30E4_U+30FC 1
100
AcDbBlockReference
  2
block 2
 10
0.0
 20
0.0
 30
0.0
  0
POLYLINE
  5
89
330
1F
100
AcDbEntity
  8
_U+30EC_U+30A4_U+30E4_U+30FC 1
 62
   179
420
  2234388
370
     9
100
AcDb2dPolyline
 66
     1
 10
0.0
 20
0.0
 30
0.0
  0
VERTEX
  5
8A
330
89
100
AcDbEntity
  8
_U+30EC_U+30A4_U+30E4_U+30FC 1
 62
   179
420
  2234388
370
     9
100
AcDbVertex
100
AcDb2dVertex
 10
81.45324708862121
 20
-139.228018576304
 30
0.0
  0
VERTEX
  5
8B
330
89
100
AcDbEntity
  8
_U+30EC_U+30A4_U+30E4_U+30FC 1
 62
   179
420
  2234388
370
     9
100
AcDbVertex
100
AcDb2dVertex
 10
99.45302718496411
 20
-139.228018576304
 30
0.0
  0
SEQEND
  5
8C
330
89
100
AcDbEntity
  8
_U+30EC_U+30A4_U+30E4_U+30FC 1
 62
   179
420
  2234388
370
     9
  0
POLYLINE
  5
8D
330
1F
100
AcDbEntity
  8
_U+30EC_U+30A4_U+30E4_U+30FC 1
 62
   179
420
  2234388
370
     9
100
AcDb2dPolyline
 66
     1
 10
0.0
 20
0.0
 30
0.0
  0
VERTEX
  5
8E
330
8D
100
AcDbEntity
  8
_U+30EC_U+30A4_U+30E4_U+30FC 1
 62
   179
420
  2234388
370
     9
100
AcDbVertex
100
AcDb2dVertex
 10
81.45324708862121
 20
-137.7679771877802
 30
0.0
  0
VERTEX
  5
8F
330
8D
100
AcDbEntity
  8
_U+30EC_U+30A4_U+30E4_U+30FC 1
 62
   179
420
  2234388
370
     9
100
AcDbVertex
100
AcDb2dVertex
 10
81.45324708862121
 20
-140.2281435760543
 30
0.0
  0
SEQEND
  5
90
330
8D
100
AcDbEntity
  8
_U+30EC_U+30A4_U+30E4_U+30FC 1
 62
   179
420
  2234388
370
     9
  0
POLYLINE
  5
91
330
1F
100
AcDbEntity
  8
_U+30EC_U+30A4_U+30E4_U+30FC 1
 62
   179
420
  2234388
370
     9
100
AcDb2dPolyline
 66
     1
 10
0.0
 20
0.0
 30
0.0
  0
VERTEX
  5
92
330
91
100
AcDbEntity
  8
_U+30EC_U+30A4_U+30E4_U+30FC 1
 62
   179
420
  2234388
370
     9
100
AcDbVertex
100
AcDb2dVertex
 10
99.45302718496411
 20
-137.7679771877802
 30
0.0
  0
VERTEX
  5
93
330
91
100
AcDbEntity
  8
_U+30EC_U+30A4_U+30E4_U+30FC 1
 62
   179
420
  2234388
370
     9
100
AcDbVertex
100
AcDb2dVertex
 10
99.45302718496411
 20
-140.2281435760543
 30
0.0
  0
SEQEND
  5
94
330
91
100
AcDbEntity
  8
_U+30EC_U+30A4_U+30E4_U+30FC 1
 62
   179
420
  2234388
370
     9
  0
INSERT
  5
96
330
1F
100
AcDbEntity
  8
_U+30EC_U+30A4_U+30E4_U+30FC 1
100
AcDbBlockReference
  2
block 3
 10
0.0
 20
0.0
 30
0.0
  0
POLYLINE
  5
9F
330
1F
100
AcDbEntity
  8
_U+30EC_U+30A4_U+30E4_U+30FC 1
 62
   179
420
  2234388
370
     9
100
AcDb2dPolyline
 66
     1
 10
0.0
 20
0.0
 30
0.0
  0
VERTEX
  5
A0
330
9F
100
AcDbEntity
  8
_U+30EC_U+30A4_U+30E4_U+30FC 1
 62
   179
420
  2234388
370
     9
100
AcDbVertex
100
AcDb2dVertex
 10
103.4527888630258
 20
-135.2279066328599
 30
0.0
  0
VERTEX
  5
A1
330
9F
100
AcDbEntity
  8
_U+30EC_U+30A4_U+30E4_U+30FC 1
 62
   179
420
  2234388
370
     9
100
AcDbVertex
100
AcDb2dVertex
 10
103.4527888630258
 20
-140.4858124648788
 30
0.0
  0
SEQEND
  5
A2
330
9F
100
AcDbEntity
  8
_U+30EC_U+30A4_U+30E4_U+30FC 1
 62
   179
420
  2234388
370
     9
  0
POLYLINE
  5
A3
330
1F
100
AcDbEntity
  8
_U+30EC_U+30A4_U+30E4_U+30FC 1
 62
   179
420
  2234388
370
     9
100
AcDb2dPolyline
 66
     1
 10
0.0
 20
0.0
 30
0.0
  0
VERTEX
  5
A4
330
A3
100
AcDbEntity
  8
_U+30EC_U+30A4_U+30E4_U+30FC 1
 62
   179
420
  2234388
370
     9
100
AcDbVertex
100
AcDb2dVertex
 10
103.4527888630258
 20
-135.2279066328599
 30
0.0
  0
VERTEX
  5
A5
330
A3
100
AcDbEntity
  8
_U+30EC_U+30A4_U+30E4_U+30FC 1
 62
   179
420
  2234388
370
     9
100
AcDbVertex
100
AcDb2dVertex
 10
103.4527888630258
 20
-134.5278896885905
 30
0.0
  0
SEQEND
  5
A6
330
A3
100
AcDbEntity
  8
_U+30EC_U+30A4_U+30E4_U+30FC 1
 62
   179
420
  2234388
370
     9
  0
POLYLINE
  5
A7
330
1F
100
AcDbEntity
  8
_U+30EC_U+30A4_U+30E4_U+30FC 1
 62
   179
420
  2234388
370
     9
100
AcDb2dPolyline
 66
     1
 10
0.0
 20
0.0
 30
0.0
  0
VERTEX
  5
A8
330
A7
100
AcDbEntity
  8
_U+30EC_U+30A4_U+30E4_U+30FC 1
 62
   179
420
  2234388
370
     9
100
AcDbVertex
100
AcDb2dVertex
 10
101.9927448979483
 20
-135.2279066328599
 30
0.0
  0
VERTEX
  5
A9
330
A7
100
AcDbEntity
  8
_U+30EC_U+30A4_U+30E4_U+30FC 1
 62
   179
420
  2234388
370
     9
100
AcDbVertex
100
AcDb2dVertex
 10
104.453228724065
 20
-135.2279066328599
 30
0.0
  0
SEQEND
  5
AA
330
A7
100
AcDbEntity
  8
_U+30EC_U+30A4_U+30E4_U+30FC 1
 62
   179
420
  2234388
370
     9
  0
POLYLINE
  5
AB
330
1F
100
AcDbEntity
  8
_U+30EC_U+30A4_U+30E4_U+30FC 1
 62
   179
420
  2234388
370
     9
100
AcDb2dPolyline
 66
     1
 10
0.0
 20
0.0
 30
0.0
  0
VERTEX
  5
AC
330
AB
100
AcDbEntity
  8
_U+30EC_U+30A4_U+30E4_U+30FC 1
 62
   179
420
  2234388
370
     9
100
AcDbVertex
100
AcDb2dVertex
 10
101.7377924044527
 20
-134.5278896885905
 30
0.0
  0
VERTEX
  5
AD
330
AB
100
AcDbEntity
  8
_U+30EC_U+30A4_U+30E4_U+30FC 1
 62
   179
420
  2234388
370
     9
100
AcDbVertex
100
AcDb2dVertex
 10
104.453228724065
 20
-134.5278896885905
 30
0.0
  0
SEQEND
  5
AE
330
AB
100
AcDbEntity
  8
_U+30EC_U+30A4_U+30E4_U+30FC 1
 62
   179
420
  2234388
370
     9
  0
INSERT
  5
B0
330
1F
100
AcDbEntity
  8
_U+30EC_U+30A4_U+30E4_U+30FC 1
100
AcDbBlockReference
  2
block 4
 10
0.0
 20
0.0
 30
0.0
  0
POLYLINE
  5
C0
330
1F
100
AcDbEntity
  8
_U+30EC_U+30A4_U+30E4_U+30FC 1
 62
   179
420
  2234388
370
     9
100
AcDb2dPolyline
 66
     1
 10
0.0
 20
0.0
 30
0.0
  0
VERTEX
  5
C1
330
C0
100
AcDbEntity
  8
_U+30EC_U+30A4_U+30E4_U+30FC 1
 62
   179
420
  2234388
370
     9
100
AcDbVertex
100
AcDb2dVertex
 10
81.45324708862121
 20
-131.2278299671928
 30
0.0
  0
VERTEX
  5
C2
330
C0
100
AcDbEntity
  8
_U+30EC_U+30A4_U+30E4_U+30FC 1
 62
   179
420
  2234388
370
     9
100
AcDbVertex
100
AcDb2dVertex
 10
77.6829346848099
 20
-131.2278299671928
 30
0.0
  0
SEQEND
  5
C3
330
C0
100
AcDbEntity
  8
_U+30EC_U+30A4_U+30E4_U+30FC 1
 62
   179
420
  2234388
370
     9
  0
POLYLINE
  5
C4
330
1F
100
AcDbEntity
  8
_U+30EC_U+30A4_U+30E4_U+30FC 1
 62
   179
420
  2234388
370
     9
100
AcDb2dPolyline
 66
     1
 10
0.0
 20
0.0
 30
0.0
  0
VERTEX
  5
C5
330
C4
100
AcDbEntity
  8
_U+30EC_U+30A4_U+30E4_U+30FC 1
 62
   179
420
  2234388
370
     9
100
AcDbVertex
100
AcDb2dVertex
 10
81.45324708862121
 20
-131.2278299671928
 30
0.0
  0
VERTEX
  5
C6
330
C4
100
AcDbEntity
  8
_U+30EC_U+30A4_U+30E4_U+30FC 1
 62
   179
420
  2234388
370
     9
100
AcDbVertex
100
AcDb2dVertex
 10
83.45279148205303
 20
-131.2278299671928
 30
0.0
  0
SEQEND
  5
C7
330
C4
100
AcDbEntity
  8
_U+30EC_U+30A4_U+30E4_U+30FC 1
 62
   179
420
  2234388
370
     9
  0
INSERT
  5
C9
330
1F
100
AcDbEntity
  8
_U+30EC_U+30A4_U+30E4_U+30FC 1
100
AcDbBlockReference
  2
block 5
 10
0.0
 20
0.0
 30
0.0
  0
POLYLINE
  5
CE
330
1F
100
AcDbEntity
  8
_U+30EC_U+30A4_U+30E4_U+30FC 1
 62
   179
420
  2234388
370
     9
100
AcDb2dPolyline
 66
     1
 10
0.0
 20
0.0
 30
0.0
  0
VERTEX
  5
CF
330
CE
100
AcDbEntity
  8
_U+30EC_U+30A4_U+30E4_U+30FC 1
 62
   179
420
  2234388
370
     9
100
AcDbVertex
100
AcDb2dVertex
 10
92.45257569689385
 20
-131.2278299671928
 30
0.0
  0
VERTEX
  5
D0
330
CE
100
AcDbEntity
  8
_U+30EC_U+30A4_U+30E4_U+30FC 1
 62
   179
420
  2234388
370
     9
100
AcDbVertex
100
AcDb2dVertex
 10
99.45302718496411
 20
-131.2278299671928
 30
0.0
  0
SEQEND
  5
D1
330
CE
100
AcDbEntity
  8
_U+30EC_U+30A4_U+30E4_U+30FC 1
 62
   179
420
  2234388
370
     9
  0
POLYLINE
  5
D2
330
1F
100
AcDbEntity
  8
_U+30EC_U+30A4_U+30E4_U+30FC 1
 62
   179
420
  2234388
370
     9
100
AcDb2dPolyline
 66
     1
 10
0.0
 20
0.0
 30
0.0
  0
VERTEX
  5
D3
330
D2
100
AcDbEntity
  8
_U+30EC_U+30A4_U+30E4_U+30FC 1
 62
   179
420
  2234388
370
     9
100
AcDbVertex
100
AcDb2dVertex
 10
92.45257569689385
 20
-131.6880991337446
 30
0.0
  0
VERTEX
  5
D4
330
D2
100
AcDbEntity
  8
_U+30EC_U+30A4_U+30E4_U+30FC 1
 62
   179
420
  2234388
370
     9
100
AcDbVertex
100
AcDb2dVertex
 10
92.45257569689385
 20
-130.2280577452209
 30
0.0
  0
SEQEND
  5
D5
330
D2
100
AcDbEntity
  8
_U+30EC_U+30A4_U+30E4_U+30FC 1
 62
   179
420
  2234388
370
     9
  0
POLYLINE
  5
D6
330
1F
100
AcDbEntity
  8
_U+30EC_U+30A4_U+30E4_U+30FC 1
 62
   179
420
  2234388
370
     9
100
AcDb2dPolyline
 66
     1
 10
0.0
 20
0.0
 30
0.0
  0
VERTEX
  5
D7
330
D6
100
AcDbEntity
  8
_U+30EC_U+30A4_U+30E4_U+30FC 1
 62
   179
420
  2234388
370
     9
100
AcDbVertex
100
AcDb2dVertex
 10
99.45302718496411
 20
-132.687836077939
 30
0.0
  0
VERTEX
  5
D8
330
D6
100
AcDbEntity
  8
_U+30EC_U+30A4_U+30E4_U+30FC 1
 62
   179
420
  2234388
370
     9
100
AcDbVertex
100
AcDb2dVertex
 10
99.45302718496411
 20
-130.2280577452209
 30
0.0
  0
SEQEND
  5
D9
330
D6
100
AcDbEntity
  8
_U+30EC_U+30A4_U+30E4_U+30FC 1
 62
   179
420
  2234388
370
     9
  0
INSERT
  5
DB
330
1F
100
AcDbEntity
  8
_U+30EC_U+30A4_U+30E4_U+30FC 1
100
AcDbBlockReference
  2
block 6
 10
0.0
 20
0.0
 30
0.0
  0
POLYLINE
  5
E0
330
1F
100
AcDbEntity
  8
_U+30EC_U+30A4_U+30E4_U+30FC 1
 62
   179
420
  2234388
370
     9
100
AcDb2dPolyline
 66
     1
 10
0.0
 20
0.0
 30
0.0
  0
VERTEX
  5
E1
330
E0
100
AcDbEntity
  8
_U+30EC_U+30A4_U+30E4_U+30FC 1
 62
   179
420
  2234388
370
     9
100
AcDbVertex
100
AcDb2dVertex
 10
103.4527888630258
 20
-124.2280838578319
 30
0.0
  0
VERTEX
  5
E2
330
E0
100
AcDbEntity
  8
_U+30EC_U+30A4_U+30E4_U+30FC 1
 62
   179
420
  2234388
370
     9
100
AcDbVertex
100
AcDb2dVertex
 10
103.4527888630258
 20
-134.2278169108878
 30
0.0
  0
SEQEND
  5
E3
330
E0
100
AcDbEntity
  8
_U+30EC_U+30A4_U+30E4_U+30FC 1
 62
   179
420
  2234388
370
     9
  0
POLYLINE
  5
E4
330
1F
100
AcDbEntity
  8
_U+30EC_U+30A4_U+30E4_U+30FC 1
 62
   179
420
  2234388
370
     9
100
AcDb2dPolyline
 66
     1
 10
0.0
 20
0.0
 30
0.0
  0
VERTEX
  5
E5
330
E4
100
AcDbEntity
  8
_U+30EC_U+30A4_U+30E4_U+30FC 1
 62
   179
420
  2234388
370
     9
100
AcDbVertex
100
AcDb2dVertex
 10
92.35679653267071
 20
-124.2280838578319
 30
0.0
  0
VERTEX
  5
E6
330
E4
100
AcDbEntity
  8
_U+30EC_U+30A4_U+30E4_U+30FC 1
 62
   179
420
  2234388
370
     9
100
AcDbVertex
100
AcDb2dVertex
 10
104.453228724065
 20
-124.2280838578319
 30
0.0
  0
SEQEND
  5
E7
330
E4
100
AcDbEntity
  8
_U+30EC_U+30A4_U+30E4_U+30FC 1
 62
   179
420
  2234388
370
     9
  0
POLYLINE
  5
E8
330
1F
100
AcDbEntity
  8
_U+30EC_U+30A4_U+30E4_U+30FC 1
 62
   179
420
  2234388
370
     9
100
AcDb2dPolyline
 66
     1
 10
0.0
 20
0.0
 30
0.0
  0
VERTEX
  5
E9
330
E8
100
AcDbEntity
  8
_U+30EC_U+30A4_U+30E4_U+30FC 1
 62
   179
420
  2234388
370
     9
100
AcDbVertex
100
AcDb2dVertex
 10
94.99299896541558
 20
-134.2278169108878
 30
0.0
  0
VERTEX
  5
EA
330
E8
100
AcDbEntity
  8
_U+30EC_U+30A4_U+30E4_U+30FC 1
 62
   179
420
  2234388
370
     9
100
AcDbVertex
100
AcDb2dVertex
 10
104.453228724065
 20
-134.2278169108878
 30
0.0
  0
SEQEND
  5
EB
330
E8
100
AcDbEntity
  8
_U+30EC_U+30A4_U+30E4_U+30FC 1
 62
   179
420
  2234388
370
     9
  0
INSERT
  5
ED
330
1F
100
AcDbEntity
  8
_U+30EC_U+30A4_U+30E4_U+30FC 1
100
AcDbBlockReference
  2
block 7
 10
0.0
 20
0.0
 30
0.0
  0
ENDSEC
  0
SECTION
  2
OBJECTS
  0
DICTIONARY
  5
C
330
0
100
AcDbDictionary
281
     1
  3
ACAD_GROUP
350
D
  3
ACAD_LAYOUT
350
1A
  3
ACAD_MATERIAL
350
3B
  3
ACAD_MLEADERSTYLE
350
F6
  3
ACAD_MLINESTYLE
350
17
  3
ACAD_PLOTSETTINGS
350
19
  3
ACAD_PLOTSTYLENAME
350
E
  3
ACAD_TABLESTYLE
350
F5
  3
ACAD_VISUALSTYLE
350
2A
  0
SUN
  5
3F
330
29
100
AcDbSun
 90
        1
290
     0
 63
     7
421
 16777215
 40
1.0
291
     1
 91
  2455826
 92
 54000000
292
     0
 70
     2
 71
   256
280
     1
  0
DICTIONARY
  5
D
102
{ACAD_REACTORS
330
C
102
}
330
C
100
AcDbDictionary
281
     1
  0
DICTIONARY
  5
1A
102
{ACAD_REACTORS
330
C
102
}
330
C
100
AcDbDictionary
281
     1
  3
Layout1
350
1E
  3
Layout2
350
26
  3
Model
350
22
  0
DICTIONARY
  5
3B
102
{ACAD_REACTORS
330
C
102
}
330
C
100
AcDbDictionary
281
     1
  3
ByBlock
350
3D
  3
ByLayer
350
3C
  3
Global
350
3E
  0
DICTIONARY
  5
F6
102
{ACAD_REACTORS
330
C
102
}
330
C
100
AcDbDictionary
281
     1
  0
DICTIONARY
  5
17
102
{ACAD_REACTORS
330
C
102
}
330
C
100
AcDbDictionary
281
     1
  3
Standard
350
18
  0
DICTIONARY
  5
19
102
{ACAD_REACTORS
330
C
102
}
330
C
100
AcDbDictionary
281
     1
  0
ACDBDICTIONARYWDFLT
  5
E
102
{ACAD_REACTORS
330
C
102
}
330
C
100
AcDbDictionary
281
     1
  3
Normal
350
F
100
AcDbDictionaryWithDefault
340
F
  0
DICTIONARY
  5
F5
102
{ACAD_REACTORS
330
C
102
}
330
C
100
AcDbDictionary
281
     1
  0
DICTIONARY
  5
2A
102
{ACAD_REACTORS
330
C
102
}
330
C
100
AcDbDictionary
281
     1
  3
2dWireframe
350
2F
  3
3D Hidden
350
31
  3
3dWireframe
350
30
  3
Basic
350
32
  3
Brighten
350
36
  3
ColorChange
350
3A
  3
Conceptual
350
34
  3
Dim
350
35
  3
Facepattern
350
39
  3
Flat
350
2B
  3
FlatWithEdges
350
2C
  3
Gouraud
350
2D
  3
GouraudWithEdges
350
2E
  3
Linepattern
350
38
  3
Realistic
350
33
  3
Thicken
350
37
  0
LAYOUT
  5
1E
102
{ACAD_REACTORS
330
1A
102
}
330
1A
100
AcDbPlotSettings
  1

  2
none_device
  4

  6

 40
0.0
 41
0.0
 42
0.0
 43
0.0
 44
0.0
 45
0.0
 46
0.0
 47
0.0
 48
0.0
 49
0.0
140
0.0
141
0.0
142
1.0
143
1.0
 70
   688
 72
     0
 73
     0
 74
     5
  7

 75
    16
 76
     0
 77
     2
 78
   300
147
1.0
148
0.0
149
0.0
100
AcDbLayout
  1
Layout1
 70
     1
 71
     1
 10
0.0
 20
0.0
 11
12.0
 21
9.0
 12
0.0
 22
0.0
 32
0.0
 14
1.000000000000000E+20
 24
1.000000000000000E+20
 34
1.000000000000000E+20
 15
-1.000000000000000E+20
 25
-1.000000000000000E+20
 35
-1.000000000000000E+20
146
0.0
 13
0.0
 23
0.0
 33
0.0
 16
1.0
 26
0.0
 36
0.0
 17
0.0
 27
1.0
 37
0.0
 76
     0
330
1B
  0
LAYOUT
  5
26
102
{ACAD_REACTORS
330
1A
102
}
330
1A
100
AcDbPlotSettings
  1

  2
none_device
  4

  6

 40
0.0
 41
0.0
 42
0.0
 43
0.0
 44
0.0
 45
0.0
 46
0.0
 47
0.0
 48
0.0
 49
0.0
140
0.0
141
0.0
142
1.0
143
1.0
 70
   688
 72
     0
 73
     0
 74
     5
  7

 75
    16
 76
     0
 77
     2
 78
   300
147
1.0
148
0.0
149
0.0
100
AcDbLayout
  1
Layout2
 70
     1
 71
     2
 10
0.0
 20
0.0
 11
0.0
 21
0.0
 12
0.0
 22
0.0
 32
0.0
 14
0.0
 24
0.0
 34
0.0
 15
0.0
 25
0.0
 35
0.0
146
0.0
 13
0.0
 23
0.0
 33
0.0
 16
1.0
 26
0.0
 36
0.0
 17
0.0
 27
1.0
 37
0.0
 76
     0
330
23
  0
LAYOUT
  5
22
102
{ACAD_REACTORS
330
1A
102
}
330
1A
100
AcDbPlotSettings
  1

  2
none_device
  4

  6

 40
0.0
 41
0.0
 42
0.0
 43
0.0
 44
0.0
 45
0.0
 46
0.0
 47
0.0
 48
0.0
 49
0.0
140
0.0
141
0.0
142
1.0
143
1.0
 70
  1712
 72
     0
 73
     0
 74
     0
  7

 75
     0
 76
     0
 77
     2
 78
   300
147
1.0
148
0.0
149
0.0
100
AcDbLayout
  1
Model
 70
     1
 71
     0
 10
0.0
 20
0.0
 11
12.0
 21
9.0
 12
0.0
 22
0.0
 32
0.0
 14
1.000000000000000E+20
 24
1.000000000000000E+20
 34
1.000000000000000E+20
 15
-1.000000000000000E+20
 25
-1.000000000000000E+20
 35
-1.000000000000000E+20
146
0.0
 13
0.0
 23
0.0
 33
0.0
 16
1.0
 26
0.0
 36
0.0
 17
0.0
 27
1.0
 37
0.0
 76
     0
330
1F
331
29
  0
MATERIAL
  5
3D
102
{ACAD_REACTORS
330
3B
102
}
330
3B
100
AcDbMaterial
  1
ByBlock
 72
     1
 94
      127
  0
MATERIAL
  5
3C
102
{ACAD_REACTORS
330
3B
102
}
330
3B
100
AcDbMaterial
  1
ByLayer
 72
     1
 94
      127
  0
MATERIAL
  5
3E
102
{ACAD_REACTORS
330
3B
102
}
330
3B
100
AcDbMaterial
  1
Global
 72
     1
 94
      127
  0
MLINESTYLE
  5
18
102
{ACAD_REACTORS
330
17
102
}
330
17
100
AcDbMlineStyle
  2
Standard
 70
     0
  3

 62
   256
 51
90.0
 52
90.0
 71
     2
 49
0.5
 62
   256
  6
BYLAYER
 49
-0.5
 62
   256
  6
BYLAYER
  0
ACDBPLACEHOLDER
  5
F
102
{ACAD_REACTORS
330
E
102
}
330
E
  0
VISUALSTYLE
  5
2F
102
{ACAD_REACTORS
330
2A
102
}
330
2A
100
AcDbVisualStyle
  2
2dWireframe
 70
     4
177
     2
291
     0
 71
     0
176
     1
 72
     2
176
     1
 73
     0
176
     1
 90
        0
176
     1
 40
-0.6
176
     1
 41
-30.0
176
     1
 62
     5
 63
     7
421
 16777215
176
     1
 74
     1
176
     1
 91
        4
176
     1
 64
     7
176
     1
 65
   257
176
     1
 75
     1
176
     1
175
     1
176
     1
 42
1.0
176
     1
 92
        0
176
     1
 66
   257
176
     1
 43
1.0
176
     1
 76
     1
176
     1
 77
     6
176
     1
 78
     2
176
     1
 67
     7
176
     1
 79
     5
176
     1
170
     0
176
     1
171
     0
176
     1
290
     0
176
     1
 93
        1
176
     1
 44
0.0
176
     1
173
     0
176
     1
  0
VISUALSTYLE
  5
31
102
{ACAD_REACTORS
330
2A
102
}
330
2A
100
AcDbVisualStyle
  2
3D Hidden
 70
     6
177
     2
291
     0
 71
     1
176
     1
 72
     2
176
     1
 73
     2
176
     1
 90
        0
176
     1
 40
-0.6
176
     1
 41
-30.0
176
     1
 62
     5
 63
     7
421
 16777215
176
     1
 74
     2
176
     1
 91
        2
176
     1
 64
     7
176
     1
 65
   257
176
     1
 75
     2
176
     1
175
     1
176
     1
 42
40.0
176
     1
 92
        0
176
     1
 66
   257
176
     1
 43
1.0
176
     1
 76
     1
176
     1
 77
     6
176
     1
 78
     2
176
     1
 67
     7
176
     1
 79
     3
176
     1
170
     0
176
     1
171
     0
176
     1
290
     0
176
     1
 93
        1
176
     1
 44
0.0
176
     1
173
     0
176
     1
  0
VISUALSTYLE
  5
30
102
{ACAD_REACTORS
330
2A
102
}
330
2A
100
AcDbVisualStyle
  2
3dWireframe
 70
     5
177
     2
291
     0
 71
     0
176
     1
 72
     2
176
     1
 73
     0
176
     1
 90
        0
176
     1
 40
-0.6
176
     1
 41
-30.0
176
     1
 62
     5
 63
     7
421
 16777215
176
     1
 74
     1
176
     1
 91
        4
176
     1
 64
     7
176
     1
 65
   257
176
     1
 75
     1
176
     1
175
     1
176
     1
 42
1.0
176
     1
 92
        0
176
     1
 66
   257
176
     1
 43
1.0
176
     1
 76
     1
176
     1
 77
     6
176
     1
 78
     2
176
     1
 67
     7
176
     1
 79
     5
176
     1
170
     0
176
     1
171
     0
176
     1
290
     0
176
     1
 93
        1
176
     1
 44
0.0
176
     1
173
     0
176
     1
  0
VISUALSTYLE
  5
32
102
{ACAD_REACTORS
330
2A
102
}
330
2A
100
AcDbVisualStyle
  2
Basic
 70
     7
177
     2
291
     1
 71
     1
176
     1
 72
     0
176
     1
 73
     1
176
     1
 90
        0
176
     1
 40
-0.6
176
     1
 41
-30.0
176
     1
 62
     5
 63
     7
421
 16777215
176
     1
 74
     0
176
     1
 91
        4
176
     1
 64
     7
176
     1
 65
   257
176
     1
 75
     1
176
     1
175
     1
176
     1
 42
1.0
176
     1
 92
        8
176
     1
 66
     7
176
     1
 43
1.0
176
     1
 76
     1
176
     1
 77
     6
176
     1
 78
     2
176
     1
 67
     7
176
     1
 79
     5
176
     1
170
     0
176
     1
171
     0
176
     1
290
     0
176
     1
 93
        1
176
     1
 44
0.0
176
     1
173
     0
176
     1
  0
VISUALSTYLE
  5
36
102
{ACAD_REACTORS
330
2A
102
}
330
2A
100
AcDbVisualStyle
  2
Brighten
 70
    12
177
     2
291
     1
 71
     2
176
     1
 72
     2
176
     1
 73
     0
176
     1
 90
        0
176
     1
 40
-0.6
176
     1
 41
-30.0
176
     1
 62
     5
 63
     7
421
 16777215
176
     1
 74
     1
176
     1
 91
        4
176
     1
 64
     7
176
     1
 65
   257
176
     1
 75
     1
176
     1
175
     1
176
     1
 42
1.0
176
     1
 92
        8
176
     1
 66
     7
176
     1
 43
1.0
176
     1
 76
     1
176
     1
 77
     6
176
     1
 78
     2
176
     1
 67
     7
176
     1
 79
     5
176
     1
170
     0
176
     1
171
     0
176
     1
290
     0
176
     1
 93
        1
176
     1
 44
50.0
176
     1
173
     0
176
     1
  0
VISUALSTYLE
  5
3A
102
{ACAD_REACTORS
330
2A
102
}
330
2A
100
AcDbVisualStyle
  2
ColorChange
 70
    16
177
     2
291
     1
 71
     2
176
     1
 72
     2
176
     1
 73
     3
176
     1
 90
        0
176
     1
 40
-0.6
176
     1
 41
-30.0
176
     1
 62
     5
 63
     8
421
  8421504
176
     1
 74
     1
176
     1
 91
        4
176
     1
 64
     7
176
     1
 65
   257
176
     1
 75
     1
176
     1
175
     1
176
     1
 42
1.0
176
     1
 92
        8
176
     1
 66
     8
424
  8421504
176
     1
 43
1.0
176
     1
 76
     1
176
     1
 77
     6
176
     1
 78
     2
176
     1
 67
     7
176
     1
 79
     5
176
     1
170
     0
176
     1
171
     0
176
     1
290
     0
176
     1
 93
        1
176
     1
 44
0.0
176
     1
173
     0
176
     1
  0
VISUALSTYLE
  5
34
102
{ACAD_REACTORS
330
2A
102
}
330
2A
100
AcDbVisualStyle
  2
Conceptual
 70
     9
177
     2
291
     0
 71
     3
176
     1
 72
     2
176
     1
 73
     0
176
     1
 90
        0
176
     1
 40
-0.6
176
     1
 41
-30.0
176
     1
 62
     5
 63
     7
421
 16777215
176
     1
 74
     2
176
     1
 91
        2
176
     1
 64
     7
176
     1
 65
   257
176
     1
 75
     1
176
     1
175
     1
176
     1
 42
40.0
176
     1
 92
        8
176
     1
 66
     7
176
     1
 43
1.0
176
     1
 76
     1
176
     1
 77
     6
176
     1
 78
     2
176
     1
 67
     7
176
     1
 79
     3
176
     1
170
     0
176
     1
171
     0
176
     1
290
     0
176
     1
 93
        1
176
     1
 44
0.0
176
     1
173
     0
176
     1
  0
VISUALSTYLE
  5
35
102
{ACAD_REACTORS
330
2A
102
}
330
2A
100
AcDbVisualStyle
  2
Dim
 70
    11
177
     2
291
     1
 71
     2
176
     1
 72
     2
176
     1
 73
     0
176
     1
 90
        0
176
     1
 40
-0.6
176
     1
 41
-30.0
176
     1
 62
     5
 63
     7
421
 16777215
176
     1
 74
     1
176
     1
 91
        4
176
     1
 64
     7
176
     1
 65
   257
176
     1
 75
     1
176
     1
175
     1
176
     1
 42
1.0
176
     1
 92
        8
176
     1
 66
     7
176
     1
 43
1.0
176
     1
 76
     1
176
     1
 77
     6
176
     1
 78
     2
176
     1
 67
     7
176
     1
 79
     5
176
     1
170
     0
176
     1
171
     0
176
     1
290
     0
176
     1
 93
        1
176
     1
 44
-50.0
176
     1
173
     0
176
     1
  0
VISUALSTYLE
  5
39
102
{ACAD_REACTORS
330
2A
102
}
330
2A
100
AcDbVisualStyle
  2
Facepattern
 70
    15
177
     2
291
     1
 71
     2
176
     1
 72
     2
176
     1
 73
     0
176
     1
 90
        0
176
     1
 40
-0.6
176
     1
 41
-30.0
176
     1
 62
     5
 63
     7
421
 16777215
176
     1
 74
     1
176
     1
 91
        4
176
     1
 64
     7
176
     1
 65
   257
176
     1
 75
     1
176
     1
175
     1
176
     1
 42
1.0
176
     1
 92
        8
176
     1
 66
     7
176
     1
 43
1.0
176
     1
 76
     1
176
     1
 77
     6
176
     1
 78
     2
176
     1
 67
     7
176
     1
 79
     5
176
     1
170
     0
176
     1
171
     0
176
     1
290
     0
176
     1
 93
        1
176
     1
 44
0.0
176
     1
173
     0
176
     1
  0
VISUALSTYLE
  5
2B
102
{ACAD_REACTORS
330
2A
102
}
330
2A
100
AcDbVisualStyle
  2
Flat
 70
     0
177
     2
291
     1
 71
     2
176
     1
 72
     1
176
     1
 73
     1
176
     1
 90
        2
176
     1
 40
-0.6
176
     1
 41
30.0
176
     1
 62
     5
 63
     7
421
 16777215
176
     1
 74
     0
176
     1
 91
        4
176
     1
 64
     7
176
     1
 65
   257
176
     1
 75
     1
176
     1
175
     1
176
     1
 42
1.0
176
     1
 92
        8
176
     1
 66
     7
176
     1
 43
1.0
176
     1
 76
     1
176
     1
 77
     6
176
     1
 78
     2
176
     1
 67
     7
176
     1
 79
     5
176
     1
170
     0
176
     1
171
     0
176
     1
290
     0
176
     1
 93
       13
176
     1
 44
0.0
176
     1
173
     0
176
     1
  0
VISUALSTYLE
  5
2C
102
{ACAD_REACTORS
330
2A
102
}
330
2A
100
AcDbVisualStyle
  2
FlatWithEdges
 70
     1
177
     2
291
     1
 71
     2
176
     1
 72
     1
176
     1
 73
     1
176
     1
 90
        2
176
     1
 40
-0.6
176
     1
 41
30.0
176
     1
 62
     5
 63
     7
421
 16777215
176
     1
 74
     1
176
     1
 91
        4
176
     1
 64
     7
176
     1
 65
   257
176
     1
 75
     1
176
     1
175
     1
176
     1
 42
1.0
176
     1
 92
        0
176
     1
 66
   257
176
     1
 43
1.0
176
     1
 76
     1
176
     1
 77
     6
176
     1
 78
     2
176
     1
 67
     7
176
     1
 79
     5
176
     1
170
     0
176
     1
171
     0
176
     1
290
     0
176
     1
 93
       13
176
     1
 44
0.0
176
     1
173
     0
176
     1
  0
VISUALSTYLE
  5
2D
102
{ACAD_REACTORS
330
2A
102
}
330
2A
100
AcDbVisualStyle
  2
Gouraud
 70
     2
177
     2
291
     1
 71
     2
176
     1
 72
     2
176
     1
 73
     1
176
     1
 90
        2
176
     1
 40
-0.6
176
     1
 41
30.0
176
     1
 62
     5
 63
     7
421
 16777215
176
     1
 74
     0
176
     1
 91
        4
176
     1
 64
     7
176
     1
 65
   257
176
     1
 75
     1
176
     1
175
     1
176
     1
 42
1.0
176
     1
 92
        0
176
     1
 66
     7
176
     1
 43
1.0
176
     1
 76
     1
176
     1
 77
     6
176
     1
 78
     2
176
     1
 67
     7
176
     1
 79
     5
176
     1
170
     0
176
     1
171
     0
176
     1
290
     0
176
     1
 93
       13
176
     1
 44
0.0
176
     1
173
     0
176
     1
  0
VISUALSTYLE
  5
2E
102
{ACAD_REACTORS
330
2A
102
}
330
2A
100
AcDbVisualStyle
  2
GouraudWithEdges
 70
     3
177
     2
291
     1
 71
     2
176
     1
 72
     2
176
     1
 73
     1
176
     1
 90
        2
176
     1
 40
-0.6
176
     1
 41
30.0
176
     1
 62
     5
 63
     7
421
 16777215
176
     1
 74
     1
176
     1
 91
        4
176
     1
 64
     7
176
     1
 65
   257
176
     1
 75
     1
176
     1
175
     1
176
     1
 42
1.0
176
     1
 92
        0
176
     1
 66
   257
176
     1
 43
1.0
176
     1
 76
     1
176
     1
 77
     6
176
     1
 78
     2
176
     1
 67
     7
176
     1
 79
     5
176
     1
170
     0
176
     1
171
     0
176
     1
290
     0
176
     1
 93
       13
176
     1
 44
0.0
176
     1
173
     0
176
     1
  0
VISUALSTYLE
  5
38
102
{ACAD_REACTORS
330
2A
102
}
330
2A
100
AcDbVisualStyle
  2
Linepattern
 70
    14
177
     2
291
     1
 71
     2
176
     1
 72
     2
176
     1
 73
     0
176
     1
 90
        0
176
     1
 40
-0.6
176
     1
 41
-30.0
176
     1
 62
     5
 63
     7
421
 16777215
176
     1
 74
     1
176
     1
 91
        4
176
     1
 64
     7
176
     1
 65
   257
176
     1
 75
     7
176
     1
175
     7
176
     1
 42
1.0
176
     1
 92
        8
176
     1
 66
     7
176
     1
 43
1.0
176
     1
 76
     1
176
     1
 77
     6
176
     1
 78
     2
176
     1
 67
     7
176
     1
 79
     5
176
     1
170
     0
176
     1
171
     0
176
     1
290
     0
176
     1
 93
        1
176
     1
 44
0.0
176
     1
173
     0
176
     1
  0
VISUALSTYLE
  5
33
102
{ACAD_REACTORS
330
2A
102
}
330
2A
100
AcDbVisualStyle
  2
Realistic
 70
     8
177
     2
291
     0
 71
     2
176
     1
 72
     2
176
     1
 73
     0
176
     1
 90
        0
176
     1
 40
-0.6
176
     1
 41
-30.0
176
     1
 62
     5
 63
     7
421
 16777215
176
     1
 74
     1
176
     1
 91
        0
176
     1
 64
     7
176
     1
 65
   257
176
     1
 75
     1
176
     1
175
     1
176
     1
 42
1.0
176
     1
 92
        8
176
     1
 66
     8
424
  7895160
176
     1
 43
1.0
176
     1
 76
     1
176
     1
 77
     6
176
     1
 78
     2
176
     1
 67
     7
176
     1
 79
     5
176
     1
170
     0
176
     1
171
     0
176
     1
290
     0
176
     1
 93
       13
176
     1
 44
0.0
176
     1
173
     0
176
     1
  0
VISUALSTYLE
  5
37
102
{ACAD_REACTORS
330
2A
102
}
330
2A
100
AcDbVisualStyle
  2
Thicken
 70
    13
177
     2
291
     1
 71
     2
176
     1
 72
     2
176
     1
 73
     0
176
     1
 90
        0
176
     1
 40
-0.6
176
     1
 41
-30.0
176
     1
 62
     5
 63
     7
421
 16777215
176
     1
 74
     1
176
     1
 91
        4
176
     1
 64
     7
176
     1
 65
   257
176
     1
 75
     1
176
     1
175
     1
176
     1
 42
1.0
176
     1
 92
       12
176
     1
 66
     7
176
     1
 43
1.0
176
     1
 76
     1
176
     1
 77
     6
176
     1
 78
     2
176
     1
 67
     7
176
     1
 79
     5
176
     1
170
     0
176
     1
171
     0
176
     1
290
     0
176
     1
 93
        1
176
     1
 44
0.0
176
     1
173
     0
176
     1
  0
ENDSEC
  0
EOF
