  0
SECTION
  2
HEADER
  9
$ACADVER
  1
AC1024
  9
$ACADMAINTVER
 70
     6
  9
$DWGCODEPAGE
  3
UNDEFINED
  9
$INSBASE
 10
0.0
 20
0.0
 30
0.0
  9
$EXTMIN
 10
1.000000000000000E+20
 20
1.000000000000000E+20
 30
1.000000000000000E+20
  9
$EXTMAX
 10
-1.000000000000000E+20
 20
-1.000000000000000E+20
 30
-1.000000000000000E+20
  9
$LIMMIN
 10
0.0
 20
0.0
  9
$LIMMAX
 10
12.0
 20
9.0
  9
$ORTHOMODE
 70
     0
  9
$REGENMODE
 70
     1
  9
$FILLMODE
 70
     1
  9
$QTEXTMODE
 70
     0
  9
$MIRRTEXT
 70
     1
  9
$LTSCALE
 40
1.0
  9
$ATTMODE
 70
     1
  9
$TEXTSIZE
 40
0.2
  9
$TRACEWID
 40
0.05
  9
$TEXTSTYLE
  7
Standard
  9
$CLAYER
  8
0
  9
$CELTYPE
  6
ByLayer
  9
$CECOLOR
 62
   256
  9
$CELTSCALE
 40
1.0
  9
$DISPSILH
 70
     0
  9
$DIMSCALE
 40
1.0
  9
$DIMASZ
 40
0.18
  9
$DIMEXO
 40
0.0625
  9
$DIMDLI
 40
0.38
  9
$DIMRND
 40
0.0
  9
$DIMDLE
 40
0.0
  9
$DIMEXE
 40
0.18
  9
$DIMTP
 40
0.0
  9
$DIMTM
 40
0.0
  9
$DIMTXT
 40
0.18
  9
$DIMCEN
 40
0.09
  9
$DIMTSZ
 40
0.0
  9
$DIMTOL
 70
     0
  9
$DIMLIM
 70
     0
  9
$DIMTIH
 70
     1
  9
$DIMTOH
 70
     1
  9
$DIMSE1
 70
     0
  9
$DIMSE2
 70
     0
  9
$DIMTAD
 70
     0
  9
$DIMZIN
 70
     0
  9
$DIMBLK
  1

  9
$DIMASO
 70
     1
  9
$DIMSHO
 70
     1
  9
$DIMPOST
  1

  9
$DIMAPOST
  1

  9
$DIMALT
 70
     0
  9
$DIMALTD
 70
     2
  9
$DIMALTF
 40
25.4
  9
$DIMLFAC
 40
1.0
  9
$DIMTOFL
 70
     0
  9
$DIMTVP
 40
0.0
  9
$DIMTIX
 70
     0
  9
$DIMSOXD
 70
     0
  9
$DIMSAH
 70
     0
  9
$DIMBLK1
  1

  9
$DIMBLK2
  1

  9
$DIMSTYLE
  2
Standard
  9
$DIMCLRD
 70
     0
  9
$DIMCLRE
 70
     0
  9
$DIMCLRT
 70
     0
  9
$DIMTFAC
 40
1.0
  9
$DIMGAP
 40
0.09
  9
$DIMJUST
 70
     0
  9
$DIMSD1
 70
     0
  9
$DIMSD2
 70
     0
  9
$DIMTOLJ
 70
     1
  9
$DIMTZIN
 70
     0
  9
$DIMALTZ
 70
     0
  9
$DIMALTTZ
 70
     0
  9
$DIMUPT
 70
     0
  9
$DIMDEC
 70
     4
  9
$DIMTDEC
 70
     4
  9
$DIMALTU
 70
     2
  9
$DIMALTTD
 70
     2
  9
$DIMTXSTY
  7
Standard
  9
$DIMAUNIT
 70
     0
  9
$DIMADEC
 70
     0
  9
$DIMALTRND
 40
0.0
  9
$DIMAZIN
 70
     0
  9
$DIMDSEP
 70
    46
  9
$DIMATFIT
 70
     3
  9
$DIMFRAC
 70
     0
  9
$DIMLDRBLK
  1

  9
$DIMLUNIT
 70
     2
  9
$DIMLWD
 70
    -2
  9
$DIMLWE
 70
    -2
  9
$DIMTMOVE
 70
     0
  9
$DIMFXL
 40
1.0
  9
$DIMFXLON
 70
     0
  9
$DIMJOGANG
 40
0.7853981633974483
  9
$DIMTFILL
 70
     0
  9
$DIMTFILLCLR
 70
     0
  9
$DIMARCSYM
 70
     0
  9
$DIMLTYPE
  6

  9
$DIMLTEX1
  6

  9
$DIMLTEX2
  6

  9
$DIMTXTDIRECTION
 70
     0
  9
$LUNITS
 70
     2
  9
$LUPREC
 70
     4
  9
$SKETCHINC
 40
0.1
  9
$FILLETRAD
 40
0.5
  9
$AUNITS
 70
     0
  9
$AUPREC
 70
     0
  9
$MENU
  1
.
  9
$ELEVATION
 40
0.0
  9
$PELEVATION
 40
0.0
  9
$THICKNESS
 40
0.0
  9
$LIMCHECK
 70
     0
  9
$CHAMFERA
 40
0.5
  9
$CHAMFERB
 40
0.5
  9
$CHAMFERC
 40
1.0
  9
$CHAMFERD
 40
0.0
  9
$SKPOLY
 70
     0
  9
$TDCREATE
 40
2457917.593981482
  9
$TDUCREATE
 40
2457917.218981482
  9
$TDUPDATE
 40
2457917.593981482
  9
$TDUUPDATE
 40
2457917.218981482
  9
$TDINDWG
 40
0.0000000116
  9
$TDUSRTIMER
 40
0.0000000116
  9
$USRTIMER
 70
     1
  9
$ANGBASE
 50
0.0
  9
$ANGDIR
 70
     0
  9
$PDMODE
 70
     0
  9
$PDSIZE
 40
0.0
  9
$PLINEWID
 40
0.0
  9
$SPLFRAME
 70
     0
  9
$SPLINETYPE
 70
     6
  9
$SPLINESEGS
 70
     8
  9
$HANDSEED
  5
100
  9
$SURFTAB1
 70
     6
  9
$SURFTAB2
 70
     6
  9
$SURFTYPE
 70
     6
  9
$SURFU
 70
     6
  9
$SURFV
 70
     6
  9
$UCSBASE
  2

  9
$UCSNAME
  2

  9
$UCSORG
 10
0.0
 20
0.0
 30
0.0
  9
$UCSXDIR
 10
1.0
 20
0.0
 30
0.0
  9
$UCSYDIR
 10
0.0
 20
1.0
 30
0.0
  9
$UCSORTHOREF
  2

  9
$UCSORTHOVIEW
 70
     0
  9
$UCSORGTOP
 10
0.0
 20
0.0
 30
0.0
  9
$UCSORGBOTTOM
 10
0.0
 20
0.0
 30
0.0
  9
$UCSORGLEFT
 10
0.0
 20
0.0
 30
0.0
  9
$UCSORGRIGHT
 10
0.0
 20
0.0
 30
0.0
  9
$UCSORGFRONT
 10
0.0
 20
0.0
 30
0.0
  9
$UCSORGBACK
 10
0.0
 20
0.0
 30
0.0
  9
$PUCSBASE
  2

  9
$PUCSNAME
  2

  9
$PUCSORG
 10
0.0
 20
0.0
 30
0.0
  9
$PUCSXDIR
 10
1.0
 20
0.0
 30
0.0
  9
$PUCSYDIR
 10
0.0
 20
1.0
 30
0.0
  9
$PUCSORTHOREF
  2

  9
$PUCSORTHOVIEW
 70
     0
  9
$PUCSORGTOP
 10
0.0
 20
0.0
 30
0.0
  9
$PUCSORGBOTTOM
 10
0.0
 20
0.0
 30
0.0
  9
$PUCSORGLEFT
 10
0.0
 20
0.0
 30
0.0
  9
$PUCSORGRIGHT
 10
0.0
 20
0.0
 30
0.0
  9
$PUCSORGFRONT
 10
0.0
 20
0.0
 30
0.0
  9
$PUCSORGBACK
 10
0.0
 20
0.0
 30
0.0
  9
$USERI1
 70
     0
  9
$USERI2
 70
     0
  9
$USERI3
 70
     0
  9
$USERI4
 70
     0
  9
$USERI5
 70
     0
  9
$USERR1
 40
0.0
  9
$USERR2
 40
0.0
  9
$USERR3
 40
0.0
  9
$USERR4
 40
0.0
  9
$USERR5
 40
0.0
  9
$WORLDVIEW
 70
     1
  9
$SHADEDGE
 70
     3
  9
$SHADEDIF
 70
    70
  9
$TILEMODE
 70
     1
  9
$MAXACTVP
 70
    64
  9
$PINSBASE
 10
0.0
 20
0.0
 30
0.0
  9
$PLIMCHECK
 70
     0
  9
$PEXTMIN
 10
1.000000000000000E+20
 20
1.000000000000000E+20
 30
1.000000000000000E+20
  9
$PEXTMAX
 10
-1.000000000000000E+20
 20
-1.000000000000000E+20
 30
-1.000000000000000E+20
  9
$PLIMMIN
 10
0.0
 20
0.0
  9
$PLIMMAX
 10
12.0
 20
9.0
  9
$UNITMODE
 70
     0
  9
$VISRETAIN
 70
     1
  9
$PLINEGEN
 70
     0
  9
$PSLTSCALE
 70
     1
  9
$TREEDEPTH
 70
  3020
  9
$CMLSTYLE
  2
Standard
  9
$CMLJUST
 70
     0
  9
$CMLSCALE
 40
1.0
  9
$PROXYGRAPHICS
 70
     1
  9
$MEASUREMENT
 70
     0
  9
$CELWEIGHT
370
    -1
  9
$ENDCAPS
280
     0
  9
$JOINSTYLE
280
     0
  9
$LWDISPLAY
290
     1
  9
$INSUNITS
 70
     1
  9
$HYPERLINKBASE
  1

  9
$STYLESHEET
  1

  9
$XEDIT
290
     1
  9
$CEPSNTYPE
380
     0
  9
$PSTYLEMODE
290
     1
  9
$FINGERPRINTGUID
  2
{CC22F58F-695B-F9D5-E9F4-A8F6010B325E}
  9
$VERSIONGUID
  2
{FAEB1C32-E019-11D5-929B-00C0DF256EC4}
  9
$EXTNAMES
290
     1
  9
$PSVPSCALE
 40
0.0
  9
$OLESTARTUP
290
     0
  9
$SORTENTS
280
   127
  9
$INDEXCTL
280
     0
  9
$HIDETEXT
280
     1
  9
$XCLIPFRAME
280
     2
  9
$HALOGAP
280
     0
  9
$OBSCOLOR
 70
   257
  9
$OBSLTYPE
280
     0
  9
$INTERSECTIONDISPLAY
280
     0
  9
$INTERSECTIONCOLOR
 70
   257
  9
$DIMASSOC
280
     2
  9
$PROJECTNAME
  1

  9
$CAMERADISPLAY
290
     0
  9
$LENSLENGTH
 40
50.0
  9
$CAMERAHEIGHT
 40
0.0
  9
$STEPSPERSEC
 40
2.0
  9
$STEPSIZE
 40
6.0
  9
$3DDWFPREC
 40
2.0
  9
$PSOLWIDTH
 40
0.25
  9
$PSOLHEIGHT
 40
4.0
  9
$LOFTANG1
 40
1.570796326794897
  9
$LOFTANG2
 40
1.570796326794897
  9
$LOFTMAG1
 40
0.0
  9
$LOFTMAG2
 40
0.0
  9
$LOFTPARAM
 70
     7
  9
$LOFTNORMALS
280
     1
  9
$LATITUDE
 40
37.795
  9
$LONGITUDE
 40
-122.394
  9
$NORTHDIRECTION
 40
0.0
  9
$TIMEZONE
 70
 -8000
  9
$LIGHTGLYPHDISPLAY
280
     1
  9
$TILEMODELIGHTSYNCH
280
     1
  9
$CMATERIAL
347
3C
  9
$SOLIDHIST
280
     1
  9
$SHOWHIST
280
     1
  9
$DWFFRAME
280
     2
  9
$DGNFRAME
280
     2
  9
$REALWORLDSCALE
290
     1
  9
$INTERFERECOLOR
 62
   256
  9
$CSHADOW
280
     0
  9
$SHADOWPLANELOCATION
 40
0.0
  0
ENDSEC
  0
SECTION
  2
CLASSES
  0
CLASS
  1
ACDBDICTIONARYWDFLT
  2
AcDbDictionaryWithDefault
  3
ObjectDBX Classes
 90
        0
 91
        4
280
     0
281
     0
  0
CLASS
  1
VISUALSTYLE
  2
AcDbVisualStyle
  3
ObjectDBX Classes
 90
     4095
 91
        4
280
     0
281
     0
  0
CLASS
  1
MATERIAL
  2
AcDbMaterial
  3
ObjectDBX Classes
 90
     1153
 91
        4
280
     0
281
     0
  0
CLASS
  1
SUN
  2
AcDbSun
  3
SCENEOE
 90
     1024
 91
        4
280
     0
281
     0
  0
ENDSEC
  0
SECTION
  2
TABLES
  0
TABLE
  2
VPORT
  5
8
330
0
100
AcDbSymbolTable
 70
     1
  0
VPORT
  5
29
330
8
100
AcDbSymbolTableRecord
100
AcDbViewportTableRecord
  2
*Active
 70
     0
 10
0.0
 20
0.0
 11
1.0
 21
1.0
 12
0.0
 22
0.0
 13
0.0
 23
0.0
 14
0.5
 24
0.5
 15
0.5
 25
0.5
 16
0.0
 26
0.0
 36
1.0
 17
91.00082462281999
 27
-128.4993055234307
 37
0.0
 40
256.9986110468615
 41
0.7081814508812795
 42
50.0
 43
0.0
 44
0.0
 50
0.0
 51
0.0
 71
     0
 72
   100
 73
     1
 74
     3
 75
     0
 76
     0
 77
     0
 78
     0
281
     0
 65
     1
110
0.0
120
0.0
130
0.0
111
1.0
121
0.0
131
0.0
112
0.0
122
1.0
132
0.0
 79
     0
146
0.0
 60
     3
 61
     5
292
     1
282
     1
141
0.0
142
0.0
 63
   250
361
3F
  0
ENDTAB
  0
TABLE
  2
LTYPE
  5
5
330
0
100
AcDbSymbolTable
 70
     1
  0
LTYPE
  5
14
330
5
100
AcDbSymbolTableRecord
100
AcDbLinetypeTableRecord
  2
ByBlock
 70
     0
  3

 72
    65
 73
     0
 40
0.0
  0
LTYPE
  5
15
330
5
100
AcDbSymbolTableRecord
100
AcDbLinetypeTableRecord
  2
ByLayer
 70
     0
  3

 72
    65
 73
     0
 40
0.0
  0
LTYPE
  5
16
330
5
100
AcDbSymbolTableRecord
100
AcDbLinetypeTableRecord
  2
Continuous
 70
     0
  3
Solid line
 72
    65
 73
     0
 40
0.0
  0
ENDTAB
  0
TABLE
  2
LAYER
  5
2
330
0
100
AcDbSymbolTable
 70
     2
  0
LAYER
  5
10
330
2
100
AcDbSymbolTableRecord
100
AcDbLayerTableRecord
  2
0
 70
     0
 62
     7
  6
Continuous
370
    -3
390
F
347
3E
  0
LAYER
  5
40
330
2
100
AcDbSymbolTableRecord
100
AcDbLayerTableRecord
  2
_U+30EC_U+30A4_U+30E4_U+30FC 1
 70
     0
 62
     7
  6
Continuous
370
    -3
390
F
347
3E
  0
ENDTAB
  0
TABLE
  2
STYLE
  5
3
330
0
100
AcDbSymbolTable
 70
     1
  0
STYLE
  5
11
330
3
100
AcDbSymbolTableRecord
100
AcDbTextStyleTableRecord
  2
Standard
 70
     0
 40
0.0
 41
1.0
 50
0.0
 71
     0
 42
0.2
  3
txt
  4

  0
ENDTAB
  0
TABLE
  2
VIEW
  5
6
330
0
100
AcDbSymbolTable
 70
     0
  0
ENDTAB
  0
TABLE
  2
UCS
  5
7
330
0
100
AcDbSymbolTable
 70
     0
  0
ENDTAB
  0
TABLE
  2
APPID
  5
9
330
0
100
AcDbSymbolTable
 70
     1
  0
APPID
  5
12
330
9
100
AcDbSymbolTableRecord
100
AcDbRegAppTableRecord
  2
ACAD
 70
     0
  0
ENDTAB
  0
TABLE
  2
DIMSTYLE
  5
A
330
0
100
AcDbSymbolTable
 70
     1
100
AcDbDimStyleTable
  0
DIMSTYLE
105
27
330
A
100
AcDbSymbolTableRecord
100
AcDbDimStyleTableRecord
  2
Standard
 70
     0
178
     0
340
11
  0
ENDTAB
  0
TABLE
  2
BLOCK_RECORD
  5
1
330
0
100
AcDbSymbolTable
 70
     7
  0
BLOCK_RECORD
  5
1F
330
1
100
AcDbSymbolTableRecord
100
AcDbBlockTableRecord
  2
*Model_Space
340
22
 70
     0
280
     1
281
     0
  0
BLOCK_RECORD
  5
1B
330
1
100
AcDbSymbolTableRecord
100
AcDbBlockTableRecord
  2
*Paper_Space
340
1E
 70
     0
280
     1
281
     0
  0
BLOCK_RECORD
  5
23
330
1
100
AcDbSymbolTableRecord
100
AcDbBlockTableRecord
  2
*Paper_Space0
340
26
 70
     0
280
     1
281
     0
  0
BLOCK_RECORD
  5
81
330
1
100
AcDbSymbolTableRecord
100
AcDbBlockTableRecord
  2
block 2
340
0
102
{BLKREFS
331
82
102
}
 70
     0
280
     1
281
     0
  0
BLOCK_RECORD
  5
95
330
1
100
AcDbSymbolTableRecord
100
AcDbBlockTableRecord
  2
block 3
340
0
102
{BLKREFS
331
96
102
}
 70
     0
280
     1
281
     0
  0
BLOCK_RECORD
  5
AF
330
1
100
AcDbSymbolTableRecord
100
AcDbBlockTableRecord
  2
block 4
340
0
102
{BLKREFS
331
B0
102
}
 70
     0
280
     1
281
     0
  0
BLOCK_RECORD
  5
C8
330
1
100
AcDbSymbolTableRecord
100
AcDbBlockTableRecord
  2
block 5
340
0
102
{BLKREFS
331
C9
102
}
 70
     0
280
     1
281
     0
  0
BLOCK_RECORD
  5
DA
330
1
100
AcDbSymbolTableRecord
100
AcDbBlockTableRecord
  2
block 6
340
0
102
{BLKREFS
331
DB
102
}
 70
     0
280
     1
281
     0
  0
BLOCK_RECORD
  5
EC
330
1
100
AcDbSymbolTableRecord
100
AcDbBlockTableRecord
  2
block 7
340
0
102
{BLKREFS
331
ED
102
}
 70
     0
280
     1
281
     0
  0
ENDTAB
  0
ENDSEC
  0
SECTION
  2
BLOCKS
  0
BLOCK
  5
20
330
1F
100
AcDbEntity
  8
0
100
AcDbBlockBegin
  2
*Model_Space
 70
     0
 10
0.0
 20
0.0
 30
0.0
  3
*Model_Space
  1

  0
ENDBLK
  5
21
330
1F
100
AcDbEntity
  8
0
100
AcDbBlockEnd
  0
BLOCK
  5
1C
330
1B
100
AcDbEntity
 67
     1
  8
0
100
AcDbBlockBegin
  2
*Paper_Space
 70
     0
 10
0.0
 20
0.0
 30
0.0
  3
*Paper_Space
  1

  0
ENDBLK
  5
1D
330
1B
100
AcDbEntity
 67
     1
  8
0
100
AcDbBlockEnd
  0
BLOCK
  5
24
330
23
100
AcDbEntity
  8
0
100
AcDbBlockBegin
  2
*Paper_Space0
 70
     0
 10
0.0
 20
0.0
 30
0.0
  3
*Paper_Space0
  1

  0
ENDBLK
  5
25
330
23
100
AcDbEntity
  8
0
100
AcDbBlockEnd
  0
BLOCK
  5
83
330
81
100
AcDbEntity
  8
0
100
AcDbBlockBegin
  2
block 2
 70
     0
 10
0.0
 20
0.0
 30
0.0
  3
block 2
  1

  0
SPLINE
  5
85
330
81
100
AcDbEntity
  8
_U+30EC_U+30A4_U+30E4_U+30FC 1
370
     0
100
AcDbSpline
210
0.0
220
0.0
230
1.0
 70
    11
 71
     3
 72
    29
 73
    25
 74
     0
 42
0.0000000001
 43
0.0000000001
 12
1.0
 22
0.0
 32
0.0
 13
1.0
 23
0.0
 33
0.0
 40
0.0
 40
0.0
 40
0.0
 40
0.0
 40
1.0
 40
1.0
 40
1.0
 40
2.0
 40
2.0
 40
2.0
 40
3.0
 40
3.0
 40
3.0
 40
4.0
 40
4.0
 40
4.0
 40
5.0
 40
5.0
 40
5.0
 40
6.0
 40
6.0
 40
6.0
 40
7.0
 40
7.0
 40
7.0
 40
8.0
 40
8.0
 40
8.0
 40
8.0
 10
85.50795896299802
 20
-119.3825493408141
 30
0.0
 10
85.24148082721393
 20
-119.3825493408141
 30
0.0
 10
84.98757728995102
 20
-119.2449177761784
 30
0.0
 10
84.98757728995102
 20
-118.8959296035225
 30
0.0
 10
84.98757728995102
 20
-118.6399590089685
 30
0.0
 10
85.12934296916906
 20
-118.5447021188013
 30
0.0
 10
85.23510740056622
 20
-118.4833794191639
 30
0.0
 10
85.11022268922592
 20
-118.4241237768176
 30
0.0
 10
85.0340860790019
 20
-118.3099188614815
 30
0.0
 10
85.0340860790019
 20
-118.1492051570946
 30
0.0
 10
85.0340860790019
 20
-117.8741142825974
 30
0.0
 10
85.23304034327508
 20
-117.7387220300271
 30
0.0
 10
85.50795896299802
 20
-117.7387220300271
 30
0.0
 10
85.79149032143408
 20
-117.7387220300271
 30
0.0
 10
85.98183184699413
 20
-117.8825547665363
 30
0.0
 10
85.98183184699413
 20
-118.1492051570946
 30
0.0
 10
85.98183184699413
 20
-118.3099188614815
 30
0.0
 10
85.90362817947896
 20
-118.4241237768176
 30
0.0
 10
85.77874346813866
 20
-118.4833794191639
 30
0.0
 10
85.8676269316581
 20
-118.5341945775713
 30
0.0
 10
86.02627357875386
 20
-118.6294514677385
 30
0.0
 10
86.02627357875386
 20
-118.891623234166
 30
0.0
 10
86.02627357875386
 20
-119.2661051134126
 30
0.0
 10
85.74704858967435
 20
-119.3825493408141
 30
0.0
 10
85.50795896299802
 20
-119.3825493408141
 30
0.0
  0
SPLINE
  5
86
330
81
100
AcDbEntity
  8
_U+30EC_U+30A4_U+30E4_U+30FC 1
370
     0
100
AcDbSpline
210
0.0
220
0.0
230
1.0
 70
    11
 71
     3
 72
    17
 73
    13
 74
     0
 42
0.0000000001
 43
0.0000000001
 12
1.0
 22
0.0
 32
0.0
 13
1.0
 23
0.0
 33
0.0
 40
0.0
 40
0.0
 40
0.0
 40
0.0
 40
1.0
 40
1.0
 40
1.0
 40
2.0
 40
2.0
 40
2.0
 40
3.0
 40
3.0
 40
3.0
 40
4.0
 40
4.0
 40
4.0
 40
4.0
 10
85.50795896299802
 20
-118.5913831626265
 30
0.0
 10
85.36412622648884
 20
-118.5913831626265
 30
0.0
 10
85.2118530060408
 20
-118.6780273140805
 30
0.0
 10
85.2118530060408
 20
-118.881115692936
 30
0.0
 10
85.2118530060408
 20
-119.0862711290826
 30
0.0
 10
85.33880477467224
 20
-119.1879014458975
 30
0.0
 10
85.50795896299802
 20
-119.1879014458975
 30
0.0
 10
85.69416637397576
 20
-119.1879014458975
 30
0.0
 10
85.8042371747295
 20
-119.0652560466226
 30
0.0
 10
85.8042371747295
 20
-118.8874891195837
 30
0.0
 10
85.8042371747295
 20
-118.6652804607851
 30
0.0
 10
85.64128415827719
 20
-118.5913831626265
 30
0.0
 10
85.50795896299802
 20
-118.5913831626265
 30
0.0
  0
SPLINE
  5
87
330
81
100
AcDbEntity
  8
_U+30EC_U+30A4_U+30E4_U+30FC 1
370
     0
100
AcDbSpline
210
0.0
220
0.0
230
1.0
 70
    11
 71
     3
 72
    17
 73
    13
 74
     0
 42
0.0000000001
 43
0.0000000001
 12
1.0
 22
0.0
 32
0.0
 13
1.0
 23
0.0
 33
0.0
 40
0.0
 40
0.0
 40
0.0
 40
0.0
 40
1.0
 40
1.0
 40
1.0
 40
2.0
 40
2.0
 40
2.0
 40
3.0
 40
3.0
 40
3.0
 40
4.0
 40
4.0
 40
4.0
 40
4.0
 10
85.50795896299802
 20
-117.9313028676526
 30
0.0
 10
85.34293888925454
 20
-117.9313028676526
 30
0.0
 10
85.25836179509166
 20
-118.0263875030455
 30
0.0
 10
85.25836179509166
 20
-118.1617797556158
 30
0.0
 10
85.25836179509166
 20
-118.284597409665
 30
0.0
 10
85.33036429073339
 20
-118.4031086943576
 30
0.0
 10
85.50795896299802
 20
-118.4031086943576
 30
0.0
 10
85.6857258900369
 20
-118.4031086943576
 30
0.0
 10
85.75755613090436
 20
-118.284597409665
 30
0.0
 10
85.75755613090436
 20
-118.1617797556158
 30
0.0
 10
85.75755613090436
 20
-118.0263875030455
 30
0.0
 10
85.67091197945034
 20
-117.9313028676526
 30
0.0
 10
85.50795896299802
 20
-117.9313028676526
 30
0.0
  0
HATCH
  5
88
330
81
100
AcDbEntity
  8
_U+30EC_U+30A4_U+30E4_U+30FC 1
 62
   179
420
  2234388
100
AcDbHatch
 10
0.0
 20
0.0
 30
0.0
210
0.0
220
0.0
230
1.0
  2
SOLID
 70
     1
 71
     0
 91
        3
 92
        1
 93
        1
 72
     4
 94
        3
 73
     0
 74
     1
 95
       29
 96
       25
 40
0.0
 40
0.0
 40
0.0
 40
0.0
 40
1.0
 40
1.0
 40
1.0
 40
2.0
 40
2.0
 40
2.0
 40
3.0
 40
3.0
 40
3.0
 40
4.0
 40
4.0
 40
4.0
 40
5.0
 40
5.0
 40
5.0
 40
6.0
 40
6.0
 40
6.0
 40
7.0
 40
7.0
 40
7.0
 40
8.0
 40
8.0
 40
8.0
 40
8.0
 10
85.50795896299802
 20
-119.3825493408141
 10
85.24148082721393
 20
-119.3825493408141
 10
84.98757728995102
 20
-119.2449177761784
 10
84.98757728995102
 20
-118.8959296035225
 10
84.98757728995102
 20
-118.6399590089685
 10
85.12934296916906
 20
-118.5447021188013
 10
85.23510740056622
 20
-118.4833794191639
 10
85.11022268922592
 20
-118.4241237768176
 10
85.0340860790019
 20
-118.3099188614815
 10
85.0340860790019
 20
-118.1492051570946
 10
85.0340860790019
 20
-117.8741142825974
 10
85.23304034327508
 20
-117.7387220300271
 10
85.50795896299802
 20
-117.7387220300271
 10
85.79149032143408
 20
-117.7387220300271
 10
85.98183184699413
 20
-117.8825547665363
 10
85.98183184699413
 20
-118.1492051570946
 10
85.98183184699413
 20
-118.3099188614815
 10
85.90362817947896
 20
-118.4241237768176
 10
85.77874346813866
 20
-118.4833794191639
 10
85.8676269316581
 20
-118.5341945775713
 10
86.02627357875386
 20
-118.6294514677385
 10
86.02627357875386
 20
-118.891623234166
 10
86.02627357875386
 20
-119.2661051134126
 10
85.74704858967435
 20
-119.3825493408141
 10
85.50795896299802
 20
-119.3825493408141
 97
        0
 97
        0
 92
        1
 93
        1
 72
     4
 94
        3
 73
     0
 74
     1
 95
       17
 96
       13
 40
0.0
 40
0.0
 40
0.0
 40
0.0
 40
1.0
 40
1.0
 40
1.0
 40
2.0
 40
2.0
 40
2.0
 40
3.0
 40
3.0
 40
3.0
 40
4.0
 40
4.0
 40
4.0
 40
4.0
 10
85.50795896299802
 20
-118.5913831626265
 10
85.36412622648884
 20
-118.5913831626265
 10
85.2118530060408
 20
-118.6780273140805
 10
85.2118530060408
 20
-118.881115692936
 10
85.2118530060408
 20
-119.0862711290826
 10
85.33880477467224
 20
-119.1879014458975
 10
85.50795896299802
 20
-119.1879014458975
 10
85.69416637397576
 20
-119.1879014458975
 10
85.8042371747295
 20
-119.0652560466226
 10
85.8042371747295
 20
-118.8874891195837
 10
85.8042371747295
 20
-118.6652804607851
 10
85.64128415827719
 20
-118.5913831626265
 10
85.50795896299802
 20
-118.5913831626265
 97
        0
 97
        0
 92
        1
 93
        1
 72
     4
 94
        3
 73
     0
 74
     1
 95
       17
 96
       13
 40
0.0
 40
0.0
 40
0.0
 40
0.0
 40
1.0
 40
1.0
 40
1.0
 40
2.0
 40
2.0
 40
2.0
 40
3.0
 40
3.0
 40
3.0
 40
4.0
 40
4.0
 40
4.0
 40
4.0
 10
85.50795896299802
 20
-117.9313028676526
 10
85.34293888925454
 20
-117.9313028676526
 10
85.25836179509166
 20
-118.0263875030455
 10
85.25836179509166
 20
-118.1617797556158
 10
85.25836179509166
 20
-118.284597409665
 10
85.33036429073339
 20
-118.4031086943576
 10
85.50795896299802
 20
-118.4031086943576
 10
85.6857258900369
 20
-118.4031086943576
 10
85.75755613090436
 20
-118.284597409665
 10
85.75755613090436
 20
-118.1617797556158
 10
85.75755613090436
 20
-118.0263875030455
 10
85.67091197945034
 20
-117.9313028676526
 10
85.50795896299802
 20
-117.9313028676526
 97
        0
 97
        0
 75
     2
 76
     1
 98
        0
  0
ENDBLK
  5
84
330
81
100
AcDbEntity
  8
0
100
AcDbBlockEnd
  0
BLOCK
  5
97
330
95
100
AcDbEntity
  8
0
100
AcDbBlockBegin
  2
block 3
 70
     0
 10
0.0
 20
0.0
 30
0.0
  3
block 3
  1

  0
SPLINE
  5
99
330
95
100
AcDbEntity
  8
_U+30EC_U+30A4_U+30E4_U+30FC 1
370
     0
100
AcDbSpline
210
0.0
220
0.0
230
1.0
 70
    11
 71
     3
 72
    26
 73
    22
 74
     0
 42
0.0000000001
 43
0.0000000001
 12
1.0
 22
0.0
 32
0.0
 13
1.0
 23
0.0
 33
0.0
 40
0.0
 40
0.0
 40
0.0
 40
0.0
 40
1.0
 40
1.0
 40
1.0
 40
2.0
 40
2.0
 40
2.0
 40
3.0
 40
3.0
 40
3.0
 40
4.0
 40
4.0
 40
4.0
 40
5.0
 40
5.0
 40
5.0
 40
6.0
 40
6.0
 40
6.0
 40
7.0
 40
7.0
 40
7.0
 40
7.0
 10
89.79331323710029
 20
-137.9388671530153
 30
0.0
 10
89.79331323710029
 20
-137.9388671530153
 30
0.0
 10
89.79331323710029
 20
-136.8347140499927
 30
0.0
 10
89.79331323710029
 20
-136.8347140499927
 30
0.0
 10
89.79331323710029
 20
-136.8347140499927
 30
0.0
 10
89.46327308961335
 20
-136.8347140499927
 30
0.0
 10
89.46327308961335
 20
-136.8347140499927
 30
0.0
 10
89.46327308961335
 20
-136.8347140499927
 30
0.0
 10
89.46327308961335
 20
-136.686574944127
 30
0.0
 10
89.46327308961335
 20
-136.686574944127
 30
0.0
 10
89.79538029439144
 20
-136.6717610335404
 30
0.0
 10
89.84188908344231
 20
-136.5088080170881
 30
0.0
 10
89.87151690461546
 20
-136.3944308469778
 30
0.0
 10
89.87151690461546
 20
-136.3944308469778
 30
0.0
 10
90.01758895319006
 20
-136.3944308469778
 30
0.0
 10
90.01758895319006
 20
-136.3944308469778
 30
0.0
 10
90.01758895319006
 20
-136.3944308469778
 30
0.0
 10
90.01758895319006
 20
-137.9388671530153
 30
0.0
 10
90.01758895319006
 20
-137.9388671530153
 30
0.0
 10
90.01758895319006
 20
-137.9388671530153
 30
0.0
 10
89.79331323710029
 20
-137.9388671530153
 30
0.0
 10
89.79331323710029
 20
-137.9388671530153
 30
0.0
  0
HATCH
  5
9A
330
95
100
AcDbEntity
  8
_U+30EC_U+30A4_U+30E4_U+30FC 1
 62
   179
420
  2234388
100
AcDbHatch
 10
0.0
 20
0.0
 30
0.0
210
0.0
220
0.0
230
1.0
  2
SOLID
 70
     1
 71
     0
 91
        1
 92
        1
 93
        1
 72
     4
 94
        3
 73
     0
 74
     1
 95
       26
 96
       22
 40
0.0
 40
0.0
 40
0.0
 40
0.0
 40
1.0
 40
1.0
 40
1.0
 40
2.0
 40
2.0
 40
2.0
 40
3.0
 40
3.0
 40
3.0
 40
4.0
 40
4.0
 40
4.0
 40
5.0
 40
5.0
 40
5.0
 40
6.0
 40
6.0
 40
6.0
 40
7.0
 40
7.0
 40
7.0
 40
7.0
 10
89.79331323710029
 20
-137.9388671530153
 10
89.79331323710029
 20
-137.9388671530153
 10
89.79331323710029
 20
-136.8347140499927
 10
89.79331323710029
 20
-136.8347140499927
 10
89.79331323710029
 20
-136.8347140499927
 10
89.46327308961335
 20
-136.8347140499927
 10
89.46327308961335
 20
-136.8347140499927
 10
89.46327308961335
 20
-136.8347140499927
 10
89.46327308961335
 20
-136.686574944127
 10
89.46327308961335
 20
-136.686574944127
 10
89.79538029439144
 20
-136.6717610335404
 10
89.84188908344231
 20
-136.5088080170881
 10
89.87151690461546
 20
-136.3944308469778
 10
89.87151690461546
 20
-136.3944308469778
 10
90.01758895319006
 20
-136.3944308469778
 10
90.01758895319006
 20
-136.3944308469778
 10
90.01758895319006
 20
-136.3944308469778
 10
90.01758895319006
 20
-137.9388671530153
 10
90.01758895319006
 20
-137.9388671530153
 10
90.01758895319006
 20
-137.9388671530153
 10
89.79331323710029
 20
-137.9388671530153
 10
89.79331323710029
 20
-137.9388671530153
 97
        0
 97
        0
 75
     2
 76
     1
 98
        0
  0
SPLINE
  5
9B
330
95
100
AcDbEntity
  8
_U+30EC_U+30A4_U+30E4_U+30FC 1
370
     0
100
AcDbSpline
210
0.0
220
0.0
230
1.0
 70
    11
 71
     3
 72
    29
 73
    25
 74
     0
 42
0.0000000001
 43
0.0000000001
 12
1.0
 22
0.0
 32
0.0
 13
1.0
 23
0.0
 33
0.0
 40
0.0
 40
0.0
 40
0.0
 40
0.0
 40
1.0
 40
1.0
 40
1.0
 40
2.0
 40
2.0
 40
2.0
 40
3.0
 40
3.0
 40
3.0
 40
4.0
 40
4.0
 40
4.0
 40
5.0
 40
5.0
 40
5.0
 40
6.0
 40
6.0
 40
6.0
 40
7.0
 40
7.0
 40
7.0
 40
8.0
 40
8.0
 40
8.0
 40
8.0
 10
91.01873370120366
 20
-137.9895100566485
 30
0.0
 10
90.75208331064532
 20
-137.9895100566485
 30
0.0
 10
90.49852428293093
 20
-137.852050746787
 30
0.0
 10
90.49852428293093
 20
-137.5030625741312
 30
0.0
 10
90.49852428293093
 20
-137.2470919795771
 30
0.0
 10
90.6401177073747
 20
-137.1520073441842
 30
0.0
 10
90.74588213877186
 20
-137.0906846445468
 30
0.0
 10
90.62116968220582
 20
-137.0314290022005
 30
0.0
 10
90.5450330719818
 20
-136.9170518320902
 30
0.0
 10
90.5450330719818
 20
-136.756165872929
 30
0.0
 10
90.5450330719818
 20
-136.4812472532061
 30
0.0
 10
90.74381508148072
 20
-136.3458550006358
 30
0.0
 10
91.01873370120366
 20
-136.3458550006358
 30
0.0
 10
91.30226505963972
 20
-136.3458550006358
 30
0.0
 10
91.49277883997404
 20
-136.4898599919192
 30
0.0
 10
91.49277883997404
 20
-136.756165872929
 30
0.0
 10
91.49277883997404
 20
-136.9170518320902
 30
0.0
 10
91.41423066291034
 20
-137.0314290022005
 30
0.0
 10
91.2895182063443
 20
-137.0906846445468
 30
0.0
 10
91.37840166986373
 20
-137.14132754818
 30
0.0
 10
91.53722057173376
 20
-137.2364121835728
 30
0.0
 10
91.53722057173376
 20
-137.4989284595489
 30
0.0
 10
91.53722057173376
 20
-137.8734103387955
 30
0.0
 10
91.25782332787999
 20
-137.9895100566485
 30
0.0
 10
91.01873370120366
 20
-137.9895100566485
 30
0.0
  0
SPLINE
  5
9C
330
95
100
AcDbEntity
  8
_U+30EC_U+30A4_U+30E4_U+30FC 1
370
     0
100
AcDbSpline
210
0.0
220
0.0
230
1.0
 70
    11
 71
     3
 72
    17
 73
    13
 74
     0
 42
0.0000000001
 43
0.0000000001
 12
1.0
 22
0.0
 32
0.0
 13
1.0
 23
0.0
 33
0.0
 40
0.0
 40
0.0
 40
0.0
 40
0.0
 40
1.0
 40
1.0
 40
1.0
 40
2.0
 40
2.0
 40
2.0
 40
3.0
 40
3.0
 40
3.0
 40
4.0
 40
4.0
 40
4.0
 40
4.0
 10
91.01873370120366
 20
-137.1985161332351
 30
0.0
 10
90.87507321946873
 20
-137.1985161332351
 30
0.0
 10
90.72245548947217
 20
-137.2853325394634
 30
0.0
 10
90.72245548947217
 20
-137.4882486635446
 30
0.0
 10
90.72245548947217
 20
-137.6935763544655
 30
0.0
 10
90.84957951287788
 20
-137.7948621617319
 30
0.0
 10
91.01873370120366
 20
-137.7948621617319
 30
0.0
 10
91.20476885740715
 20
-137.7948621617319
 30
0.0
 10
91.31501191293513
 20
-137.6722167624569
 30
0.0
 10
91.31501191293513
 20
-137.4944498354181
 30
0.0
 10
91.31501191293513
 20
-137.272585686168
 30
0.0
 10
91.15205889648283
 20
-137.1985161332351
 30
0.0
 10
91.01873370120366
 20
-137.1985161332351
 30
0.0
  0
SPLINE
  5
9D
330
95
100
AcDbEntity
  8
_U+30EC_U+30A4_U+30E4_U+30FC 1
370
     0
100
AcDbSpline
210
0.0
220
0.0
230
1.0
 70
    11
 71
     3
 72
    17
 73
    13
 74
     0
 42
0.0000000001
 43
0.0000000001
 12
1.0
 22
0.0
 32
0.0
 13
1.0
 23
0.0
 33
0.0
 40
0.0
 40
0.0
 40
0.0
 40
0.0
 40
1.0
 40
1.0
 40
1.0
 40
2.0
 40
2.0
 40
2.0
 40
3.0
 40
3.0
 40
3.0
 40
4.0
 40
4.0
 40
4.0
 40
4.0
 10
91.01873370120366
 20
-136.5384358382612
 30
0.0
 10
90.85371362746018
 20
-136.5384358382612
 30
0.0
 10
90.76930878807157
 20
-136.6335204736541
 30
0.0
 10
90.76930878807157
 20
-136.7689127262244
 30
0.0
 10
90.76930878807157
 20
-136.8915581254993
 30
0.0
 10
90.84096677416477
 20
-137.0100694101919
 30
0.0
 10
91.01873370120366
 20
-137.0100694101919
 30
0.0
 10
91.19650062824255
 20
-137.0100694101919
 30
0.0
 10
91.26850312388427
 20
-136.8915581254993
 30
0.0
 10
91.26850312388427
 20
-136.7689127262244
 30
0.0
 10
91.26850312388427
 20
-136.6335204736541
 30
0.0
 10
91.18168671765598
 20
-136.5384358382612
 30
0.0
 10
91.01873370120366
 20
-136.5384358382612
 30
0.0
  0
HATCH
  5
9E
330
95
100
AcDbEntity
  8
_U+30EC_U+30A4_U+30E4_U+30FC 1
 62
   179
420
  2234388
100
AcDbHatch
 10
0.0
 20
0.0
 30
0.0
210
0.0
220
0.0
230
1.0
  2
SOLID
 70
     1
 71
     0
 91
        3
 92
        1
 93
        1
 72
     4
 94
        3
 73
     0
 74
     1
 95
       29
 96
       25
 40
0.0
 40
0.0
 40
0.0
 40
0.0
 40
1.0
 40
1.0
 40
1.0
 40
2.0
 40
2.0
 40
2.0
 40
3.0
 40
3.0
 40
3.0
 40
4.0
 40
4.0
 40
4.0
 40
5.0
 40
5.0
 40
5.0
 40
6.0
 40
6.0
 40
6.0
 40
7.0
 40
7.0
 40
7.0
 40
8.0
 40
8.0
 40
8.0
 40
8.0
 10
91.01873370120366
 20
-137.9895100566485
 10
90.75208331064532
 20
-137.9895100566485
 10
90.49852428293093
 20
-137.852050746787
 10
90.49852428293093
 20
-137.5030625741312
 10
90.49852428293093
 20
-137.2470919795771
 10
90.6401177073747
 20
-137.1520073441842
 10
90.74588213877186
 20
-137.0906846445468
 10
90.62116968220582
 20
-137.0314290022005
 10
90.5450330719818
 20
-136.9170518320902
 10
90.5450330719818
 20
-136.756165872929
 10
90.5450330719818
 20
-136.4812472532061
 10
90.74381508148072
 20
-136.3458550006358
 10
91.01873370120366
 20
-136.3458550006358
 10
91.30226505963972
 20
-136.3458550006358
 10
91.49277883997404
 20
-136.4898599919192
 10
91.49277883997404
 20
-136.756165872929
 10
91.49277883997404
 20
-136.9170518320902
 10
91.41423066291034
 20
-137.0314290022005
 10
91.2895182063443
 20
-137.0906846445468
 10
91.37840166986373
 20
-137.14132754818
 10
91.53722057173376
 20
-137.2364121835728
 10
91.53722057173376
 20
-137.4989284595489
 10
91.53722057173376
 20
-137.8734103387955
 10
91.25782332787999
 20
-137.9895100566485
 10
91.01873370120366
 20
-137.9895100566485
 97
        0
 97
        0
 92
        1
 93
        1
 72
     4
 94
        3
 73
     0
 74
     1
 95
       17
 96
       13
 40
0.0
 40
0.0
 40
0.0
 40
0.0
 40
1.0
 40
1.0
 40
1.0
 40
2.0
 40
2.0
 40
2.0
 40
3.0
 40
3.0
 40
3.0
 40
4.0
 40
4.0
 40
4.0
 40
4.0
 10
91.01873370120366
 20
-137.1985161332351
 10
90.87507321946873
 20
-137.1985161332351
 10
90.72245548947217
 20
-137.2853325394634
 10
90.72245548947217
 20
-137.4882486635446
 10
90.72245548947217
 20
-137.6935763544655
 10
90.84957951287788
 20
-137.7948621617319
 10
91.01873370120366
 20
-137.7948621617319
 10
91.20476885740715
 20
-137.7948621617319
 10
91.31501191293513
 20
-137.6722167624569
 10
91.31501191293513
 20
-137.4944498354181
 10
91.31501191293513
 20
-137.272585686168
 10
91.15205889648283
 20
-137.1985161332351
 10
91.01873370120366
 20
-137.1985161332351
 97
        0
 97
        0
 92
        1
 93
        1
 72
     4
 94
        3
 73
     0
 74
     1
 95
       17
 96
       13
 40
0.0
 40
0.0
 40
0.0
 40
0.0
 40
1.0
 40
1.0
 40
1.0
 40
2.0
 40
2.0
 40
2.0
 40
3.0
 40
3.0
 40
3.0
 40
4.0
 40
4.0
 40
4.0
 40
4.0
 10
91.01873370120366
 20
-136.5384358382612
 10
90.85371362746018
 20
-136.5384358382612
 10
90.76930878807157
 20
-136.6335204736541
 10
90.76930878807157
 20
-136.7689127262244
 10
90.76930878807157
 20
-136.8915581254993
 10
90.84096677416477
 20
-137.0100694101919
 10
91.01873370120366
 20
-137.0100694101919
 10
91.19650062824255
 20
-137.0100694101919
 10
91.26850312388427
 20
-136.8915581254993
 10
91.26850312388427
 20
-136.7689127262244
 10
91.26850312388427
 20
-136.6335204736541
 10
91.18168671765598
 20
-136.5384358382612
 10
91.01873370120366
 20
-136.5384358382612
 97
        0
 97
        0
 75
     2
 76
     1
 98
        0
  0
ENDBLK
  5
98
330
95
100
AcDbEntity
  8
0
100
AcDbBlockEnd
  0
BLOCK
  5
B1
330
AF
100
AcDbEntity
  8
0
100
AcDbBlockBegin
  2
block 4
 70
     0
 10
0.0
 20
0.0
 30
0.0
  3
block 4
  1

  0
SPLINE
  5
B3
330
AF
100
AcDbEntity
  8
_U+30EC_U+30A4_U+30E4_U+30FC 1
370
     0
100
AcDbSpline
210
0.0
220
0.0
230
1.0
 70
    11
 71
     3
 72
    29
 73
    25
 74
     0
 42
0.0000000001
 43
0.0000000001
 12
1.0
 22
0.0
 32
0.0
 13
1.0
 23
0.0
 33
0.0
 40
0.0
 40
0.0
 40
0.0
 40
0.0
 40
1.0
 40
1.0
 40
1.0
 40
2.0
 40
2.0
 40
2.0
 40
3.0
 40
3.0
 40
3.0
 40
4.0
 40
4.0
 40
4.0
 40
5.0
 40
5.0
 40
5.0
 40
6.0
 40
6.0
 40
6.0
 40
7.0
 40
7.0
 40
7.0
 40
8.0
 40
8.0
 40
8.0
 40
8.0
 10
102.262147326865
 20
-136.1877251178628
 30
0.0
 10
102.4716091323682
 20
-136.2959011160996
 30
0.0
 10
102.4905571575371
 20
-136.4691894190077
 30
0.0
 10
102.4905571575371
 20
-136.5856336464091
 30
0.0
 10
102.4905571575371
 20
-136.7465196055703
 30
0.0
 10
102.4440483684862
 20
-136.8881130300141
 30
0.0
 10
102.262147326865
 20
-136.983197665407
 30
0.0
 10
102.0674994319484
 20
-137.086895039513
 30
0.0
 10
101.8304768625632
 20
-137.1061875742304
 30
0.0
 10
101.6678683556594
 20
-137.1061875742304
 30
0.0
 10
101.523863364376
 20
-137.1061875742304
 30
0.0
 10
101.2720268844042
 20
-137.0889620968042
 30
0.0
 10
101.0732448749053
 20
-136.983197665407
 30
0.0
 10
100.8703287508241
 20
-136.8753661767187
 30
0.0
 10
100.8469021015244
 20
-136.7144802175575
 30
0.0
 10
100.8469021015244
 20
-136.5856336464091
 30
0.0
 10
100.8469021015244
 20
-136.4268147445391
 30
0.0
 10
100.8913438332841
 20
-136.2831542628042
 30
0.0
 10
101.0732448749053
 20
-136.1877251178628
 30
0.0
 10
101.2658257125308
 20
-136.0885063678876
 30
0.0
 10
101.4942355432028
 20
-136.0650797185879
 30
0.0
 10
101.6678683556594
 20
-136.0650797185879
 30
0.0
 10
101.8390896012763
 20
-136.0650797185879
 30
0.0
 10
102.0695664892396
 20
-136.0864393105965
 30
0.0
 10
102.262147326865
 20
-136.1877251178628
 30
0.0
  0
SPLINE
  5
B4
330
AF
100
AcDbEntity
  8
_U+30EC_U+30A4_U+30E4_U+30FC 1
370
     0
100
AcDbSpline
210
0.0
220
0.0
230
1.0
 70
    11
 71
     3
 72
    17
 73
    13
 74
     0
 42
0.0000000001
 43
0.0000000001
 12
1.0
 22
0.0
 32
0.0
 13
1.0
 23
0.0
 33
0.0
 40
0.0
 40
0.0
 40
0.0
 40
0.0
 40
1.0
 40
1.0
 40
1.0
 40
2.0
 40
2.0
 40
2.0
 40
3.0
 40
3.0
 40
3.0
 40
4.0
 40
4.0
 40
4.0
 40
4.0
 10
101.0394829391498
 20
-136.5856336464091
 30
0.0
 10
101.0394829391498
 20
-136.8354030690898
 30
0.0
 10
101.3230142975859
 20
-136.8819118581406
 30
0.0
 10
101.6678683556594
 20
-136.8819118581406
 30
0.0
 10
101.9872287071421
 20
-136.8819118581406
 30
0.0
 10
102.2959092626205
 20
-136.8457383555455
 30
0.0
 10
102.2959092626205
 20
-136.5856336464091
 30
0.0
 10
102.2959092626205
 20
-136.3379312810197
 30
0.0
 10
102.0147894710241
 20
-136.2893554346777
 30
0.0
 10
101.6678683556594
 20
-136.2893554346777
 30
0.0
 10
101.3481634946282
 20
-136.2893554346777
 30
0.0
 10
101.0394829391498
 20
-136.3275959945639
 30
0.0
 10
101.0394829391498
 20
-136.5856336464091
 30
0.0
  0
HATCH
  5
B5
330
AF
100
AcDbEntity
  8
_U+30EC_U+30A4_U+30E4_U+30FC 1
 62
   179
420
  2234388
100
AcDbHatch
 10
0.0
 20
0.0
 30
0.0
210
0.0
220
0.0
230
1.0
  2
SOLID
 70
     1
 71
     0
 91
        2
 92
        1
 93
        1
 72
     4
 94
        3
 73
     0
 74
     1
 95
       29
 96
       25
 40
0.0
 40
0.0
 40
0.0
 40
0.0
 40
1.0
 40
1.0
 40
1.0
 40
2.0
 40
2.0
 40
2.0
 40
3.0
 40
3.0
 40
3.0
 40
4.0
 40
4.0
 40
4.0
 40
5.0
 40
5.0
 40
5.0
 40
6.0
 40
6.0
 40
6.0
 40
7.0
 40
7.0
 40
7.0
 40
8.0
 40
8.0
 40
8.0
 40
8.0
 10
102.262147326865
 20
-136.1877251178628
 10
102.4716091323682
 20
-136.2959011160996
 10
102.4905571575371
 20
-136.4691894190077
 10
102.4905571575371
 20
-136.5856336464091
 10
102.4905571575371
 20
-136.7465196055703
 10
102.4440483684862
 20
-136.8881130300141
 10
102.262147326865
 20
-136.983197665407
 10
102.0674994319484
 20
-137.086895039513
 10
101.8304768625632
 20
-137.1061875742304
 10
101.6678683556594
 20
-137.1061875742304
 10
101.523863364376
 20
-137.1061875742304
 10
101.2720268844042
 20
-137.0889620968042
 10
101.0732448749053
 20
-136.983197665407
 10
100.8703287508241
 20
-136.8753661767187
 10
100.8469021015244
 20
-136.7144802175575
 10
100.8469021015244
 20
-136.5856336464091
 10
100.8469021015244
 20
-136.4268147445391
 10
100.8913438332841
 20
-136.2831542628042
 10
101.0732448749053
 20
-136.1877251178628
 10
101.2658257125308
 20
-136.0885063678876
 10
101.4942355432028
 20
-136.0650797185879
 10
101.6678683556594
 20
-136.0650797185879
 10
101.8390896012763
 20
-136.0650797185879
 10
102.0695664892396
 20
-136.0864393105965
 10
102.262147326865
 20
-136.1877251178628
 97
        0
 97
        0
 92
        1
 93
        1
 72
     4
 94
        3
 73
     0
 74
     1
 95
       17
 96
       13
 40
0.0
 40
0.0
 40
0.0
 40
0.0
 40
1.0
 40
1.0
 40
1.0
 40
2.0
 40
2.0
 40
2.0
 40
3.0
 40
3.0
 40
3.0
 40
4.0
 40
4.0
 40
4.0
 40
4.0
 10
101.0394829391498
 20
-136.5856336464091
 10
101.0394829391498
 20
-136.8354030690898
 10
101.3230142975859
 20
-136.8819118581406
 10
101.6678683556594
 20
-136.8819118581406
 10
101.9872287071421
 20
-136.8819118581406
 10
102.2959092626205
 20
-136.8457383555455
 10
102.2959092626205
 20
-136.5856336464091
 10
102.2959092626205
 20
-136.3379312810197
 10
102.0147894710241
 20
-136.2893554346777
 10
101.6678683556594
 20
-136.2893554346777
 10
101.3481634946282
 20
-136.2893554346777
 10
101.0394829391498
 20
-136.3275959945639
 10
101.0394829391498
 20
-136.5856336464091
 97
        0
 97
        0
 75
     2
 76
     1
 98
        0
  0
POLYLINE
  5
B6
330
AF
100
AcDbEntity
  8
_U+30EC_U+30A4_U+30E4_U+30FC 1
370
     0
100
AcDb2dPolyline
 66
     1
 10
0.0
 20
0.0
 30
0.0
  0
VERTEX
  5
B7
330
B6
100
AcDbEntity
  8
_U+30EC_U+30A4_U+30E4_U+30FC 1
370
     0
100
AcDbVertex
100
AcDb2dVertex
 10
102.4399142539039
 20
-135.8487277221142
 30
0.0
  0
VERTEX
  5
B8
330
B6
100
AcDbEntity
  8
_U+30EC_U+30A4_U+30E4_U+30FC 1
370
     0
100
AcDbVertex
100
AcDb2dVertex
 10
102.1880777739322
 20
-135.8487277221142
 30
0.0
  0
VERTEX
  5
B9
330
B6
100
AcDbEntity
  8
_U+30EC_U+30A4_U+30E4_U+30FC 1
370
     0
100
AcDbVertex
100
AcDb2dVertex
 10
102.1880777739322
 20
-135.5968912421424
 30
0.0
  0
VERTEX
  5
BA
330
B6
100
AcDbEntity
  8
_U+30EC_U+30A4_U+30E4_U+30FC 1
370
     0
100
AcDbVertex
100
AcDb2dVertex
 10
102.4399142539039
 20
-135.5968912421424
 30
0.0
  0
VERTEX
  5
BB
330
B6
100
AcDbEntity
  8
_U+30EC_U+30A4_U+30E4_U+30FC 1
370
     0
100
AcDbVertex
100
AcDb2dVertex
 10
102.4399142539039
 20
-135.8487277221142
 30
0.0
  0
SEQEND
  5
BC
330
B6
100
AcDbEntity
  8
_U+30EC_U+30A4_U+30E4_U+30FC 1
370
     0
  0
HATCH
  5
BD
330
AF
100
AcDbEntity
  8
_U+30EC_U+30A4_U+30E4_U+30FC 1
 62
   179
420
  2234388
100
AcDbHatch
 10
0.0
 20
0.0
 30
0.0
210
0.0
220
0.0
230
1.0
  2
SOLID
 70
     1
 71
     0
 91
        1
 92
        1
 93
        4
 72
     1
 10
102.4399142539039
 20
-135.8487277221142
 11
102.1880777739322
 21
-135.8487277221142
 72
     1
 10
102.1880777739322
 20
-135.8487277221142
 11
102.1880777739322
 21
-135.5968912421424
 72
     1
 10
102.1880777739322
 20
-135.5968912421424
 11
102.4399142539039
 21
-135.5968912421424
 72
     1
 10
102.4399142539039
 20
-135.5968912421424
 11
102.4399142539039
 21
-135.8487277221142
 97
        0
 75
     2
 76
     1
 98
        0
  0
SPLINE
  5
BE
330
AF
100
AcDbEntity
  8
_U+30EC_U+30A4_U+30E4_U+30FC 1
370
     0
100
AcDbSpline
210
0.0
220
0.0
230
1.0
 70
    11
 71
     3
 72
    26
 73
    22
 74
     0
 42
0.0000000001
 43
0.0000000001
 12
1.0
 22
0.0
 32
0.0
 13
1.0
 23
0.0
 33
0.0
 40
0.0
 40
0.0
 40
0.0
 40
0.0
 40
1.0
 40
1.0
 40
1.0
 40
2.0
 40
2.0
 40
2.0
 40
3.0
 40
3.0
 40
3.0
 40
4.0
 40
4.0
 40
4.0
 40
5.0
 40
5.0
 40
5.0
 40
6.0
 40
6.0
 40
6.0
 40
7.0
 40
7.0
 40
7.0
 40
7.0
 10
102.4399142539039
 20
-134.949557800464
 30
0.0
 10
102.4399142539039
 20
-134.949557800464
 30
0.0
 10
102.4399142539039
 20
-135.1865803698492
 30
0.0
 10
102.4399142539039
 20
-135.1865803698492
 30
0.0
 10
102.130889188877
 20
-135.1610866632583
 30
0.0
 10
101.6127468278954
 20
-134.9685058256329
 30
0.0
 10
101.1070068106607
 20
-134.5623290679219
 30
0.0
 10
101.1070068106607
 20
-134.5623290679219
 30
0.0
 10
101.1070068106607
 20
-135.4001762899347
 30
0.0
 10
101.1070068106607
 20
-135.4001762899347
 30
0.0
 10
101.1070068106607
 20
-135.4001762899347
 30
0.0
 10
100.8954779478664
 20
-135.4001762899347
 30
0.0
 10
100.8954779478664
 20
-135.4001762899347
 30
0.0
 10
100.8954779478664
 20
-135.4001762899347
 30
0.0
 10
100.8954779478664
 20
-134.3253064985367
 30
0.0
 10
100.8954779478664
 20
-134.3253064985367
 30
0.0
 10
100.8954779478664
 20
-134.3253064985367
 30
0.0
 10
101.1070068106607
 20
-134.3253064985367
 30
0.0
 10
101.1070068106607
 20
-134.3253064985367
 30
0.0
 10
101.3970838505188
 20
-134.6491454741502
 30
0.0
 10
101.9892957644332
 20
-134.9157958647086
 30
0.0
 10
102.4399142539039
 20
-134.949557800464
 30
0.0
  0
HATCH
  5
BF
330
AF
100
AcDbEntity
  8
_U+30EC_U+30A4_U+30E4_U+30FC 1
 62
   179
420
  2234388
100
AcDbHatch
 10
0.0
 20
0.0
 30
0.0
210
0.0
220
0.0
230
1.0
  2
SOLID
 70
     1
 71
     0
 91
        1
 92
        1
 93
        1
 72
     4
 94
        3
 73
     0
 74
     1
 95
       26
 96
       22
 40
0.0
 40
0.0
 40
0.0
 40
0.0
 40
1.0
 40
1.0
 40
1.0
 40
2.0
 40
2.0
 40
2.0
 40
3.0
 40
3.0
 40
3.0
 40
4.0
 40
4.0
 40
4.0
 40
5.0
 40
5.0
 40
5.0
 40
6.0
 40
6.0
 40
6.0
 40
7.0
 40
7.0
 40
7.0
 40
7.0
 10
102.4399142539039
 20
-134.949557800464
 10
102.4399142539039
 20
-134.949557800464
 10
102.4399142539039
 20
-135.1865803698492
 10
102.4399142539039
 20
-135.1865803698492
 10
102.130889188877
 20
-135.1610866632583
 10
101.6127468278954
 20
-134.9685058256329
 10
101.1070068106607
 20
-134.5623290679219
 10
101.1070068106607
 20
-134.5623290679219
 10
101.1070068106607
 20
-135.4001762899347
 10
101.1070068106607
 20
-135.4001762899347
 10
101.1070068106607
 20
-135.4001762899347
 10
100.8954779478664
 20
-135.4001762899347
 10
100.8954779478664
 20
-135.4001762899347
 10
100.8954779478664
 20
-135.4001762899347
 10
100.8954779478664
 20
-134.3253064985367
 10
100.8954779478664
 20
-134.3253064985367
 10
100.8954779478664
 20
-134.3253064985367
 10
101.1070068106607
 20
-134.3253064985367
 10
101.1070068106607
 20
-134.3253064985367
 10
101.3970838505188
 20
-134.6491454741502
 10
101.9892957644332
 20
-134.9157958647086
 10
102.4399142539039
 20
-134.949557800464
 97
        0
 97
        0
 75
     2
 76
     1
 98
        0
  0
ENDBLK
  5
B2
330
AF
100
AcDbEntity
  8
0
100
AcDbBlockEnd
  0
BLOCK
  5
CA
330
C8
100
AcDbEntity
  8
0
100
AcDbBlockBegin
  2
block 5
 70
     0
 10
0.0
 20
0.0
 30
0.0
  3
block 5
  1

  0
SPLINE
  5
CC
330
C8
100
AcDbEntity
  8
_U+30EC_U+30A4_U+30E4_U+30FC 1
370
     0
100
AcDbSpline
210
0.0
220
0.0
230
1.0
 70
    11
 71
     3
 72
    26
 73
    22
 74
     0
 42
0.0000000001
 43
0.0000000001
 12
1.0
 22
0.0
 32
0.0
 13
1.0
 23
0.0
 33
0.0
 40
0.0
 40
0.0
 40
0.0
 40
0.0
 40
1.0
 40
1.0
 40
1.0
 40
2.0
 40
2.0
 40
2.0
 40
3.0
 40
3.0
 40
3.0
 40
4.0
 40
4.0
 40
4.0
 40
5.0
 40
5.0
 40
5.0
 40
6.0
 40
6.0
 40
6.0
 40
7.0
 40
7.0
 40
7.0
 40
7.0
 10
78.45963810972538
 20
-131.3318630314031
 30
0.0
 10
78.45963810972538
 20
-131.3318630314031
 30
0.0
 10
78.45963810972538
 20
-130.2277099283806
 30
0.0
 10
78.45963810972538
 20
-130.2277099283806
 30
0.0
 10
78.45963810972538
 20
-130.2277099283806
 30
0.0
 10
78.12959796223844
 20
-130.2277099283806
 30
0.0
 10
78.12959796223844
 20
-130.2277099283806
 30
0.0
 10
78.12959796223844
 20
-130.2277099283806
 30
0.0
 10
78.12959796223844
 20
-130.0795708225148
 30
0.0
 10
78.12959796223844
 20
-130.0795708225148
 30
0.0
 10
78.46170516701652
 20
-130.0647569119283
 30
0.0
 10
78.5082139560674
 20
-129.901803895476
 30
0.0
 10
78.53784177724054
 20
-129.7874267253657
 30
0.0
 10
78.53784177724054
 20
-129.7874267253657
 30
0.0
 10
78.68391382581514
 20
-129.7874267253657
 30
0.0
 10
78.68391382581514
 20
-129.7874267253657
 30
0.0
 10
78.68391382581514
 20
-129.7874267253657
 30
0.0
 10
78.68391382581514
 20
-131.3318630314031
 30
0.0
 10
78.68391382581514
 20
-131.3318630314031
 30
0.0
 10
78.68391382581514
 20
-131.3318630314031
 30
0.0
 10
78.45963810972538
 20
-131.3318630314031
 30
0.0
 10
78.45963810972538
 20
-131.3318630314031
 30
0.0
  0
HATCH
  5
CD
330
C8
100
AcDbEntity
  8
_U+30EC_U+30A4_U+30E4_U+30FC 1
 62
   179
420
  2234388
100
AcDbHatch
 10
0.0
 20
0.0
 30
0.0
210
0.0
220
0.0
230
1.0
  2
SOLID
 70
     1
 71
     0
 91
        1
 92
        1
 93
        1
 72
     4
 94
        3
 73
     0
 74
     1
 95
       26
 96
       22
 40
0.0
 40
0.0
 40
0.0
 40
0.0
 40
1.0
 40
1.0
 40
1.0
 40
2.0
 40
2.0
 40
2.0
 40
3.0
 40
3.0
 40
3.0
 40
4.0
 40
4.0
 40
4.0
 40
5.0
 40
5.0
 40
5.0
 40
6.0
 40
6.0
 40
6.0
 40
7.0
 40
7.0
 40
7.0
 40
7.0
 10
78.45963810972538
 20
-131.3318630314031
 10
78.45963810972538
 20
-131.3318630314031
 10
78.45963810972538
 20
-130.2277099283806
 10
78.45963810972538
 20
-130.2277099283806
 10
78.45963810972538
 20
-130.2277099283806
 10
78.12959796223844
 20
-130.2277099283806
 10
78.12959796223844
 20
-130.2277099283806
 10
78.12959796223844
 20
-130.2277099283806
 10
78.12959796223844
 20
-130.0795708225148
 10
78.12959796223844
 20
-130.0795708225148
 10
78.46170516701652
 20
-130.0647569119283
 10
78.5082139560674
 20
-129.901803895476
 10
78.53784177724054
 20
-129.7874267253657
 10
78.53784177724054
 20
-129.7874267253657
 10
78.68391382581514
 20
-129.7874267253657
 10
78.68391382581514
 20
-129.7874267253657
 10
78.68391382581514
 20
-129.7874267253657
 10
78.68391382581514
 20
-131.3318630314031
 10
78.68391382581514
 20
-131.3318630314031
 10
78.68391382581514
 20
-131.3318630314031
 10
78.45963810972538
 20
-131.3318630314031
 10
78.45963810972538
 20
-131.3318630314031
 97
        0
 97
        0
 75
     2
 76
     1
 98
        0
  0
ENDBLK
  5
CB
330
C8
100
AcDbEntity
  8
0
100
AcDbBlockEnd
  0
BLOCK
  5
DC
330
DA
100
AcDbEntity
  8
0
100
AcDbBlockBegin
  2
block 6
 70
     0
 10
0.0
 20
0.0
 30
0.0
  3
block 6
  1

  0
SPLINE
  5
DE
330
DA
100
AcDbEntity
  8
_U+30EC_U+30A4_U+30E4_U+30FC 1
370
     0
100
AcDbSpline
210
0.0
220
0.0
230
1.0
 70
    11
 71
     3
 72
    26
 73
    22
 74
     0
 42
0.0000000001
 43
0.0000000001
 12
1.0
 22
0.0
 32
0.0
 13
1.0
 23
0.0
 33
0.0
 40
0.0
 40
0.0
 40
0.0
 40
0.0
 40
1.0
 40
1.0
 40
1.0
 40
2.0
 40
2.0
 40
2.0
 40
3.0
 40
3.0
 40
3.0
 40
4.0
 40
4.0
 40
4.0
 40
5.0
 40
5.0
 40
5.0
 40
6.0
 40
6.0
 40
6.0
 40
7.0
 40
7.0
 40
7.0
 40
7.0
 10
95.91972653852007
 20
-131.3318630314031
 30
0.0
 10
95.91972653852007
 20
-131.3318630314031
 30
0.0
 10
95.68270396913488
 20
-131.3318630314031
 30
0.0
 10
95.68270396913488
 20
-131.3318630314031
 30
0.0
 10
95.70819767572573
 20
-131.0228379663762
 30
0.0
 10
95.9007785133512
 20
-130.5046956053947
 30
0.0
 10
96.30695527106215
 20
-129.99895558816
 30
0.0
 10
96.30695527106215
 20
-129.99895558816
 30
0.0
 10
95.4691080490494
 20
-129.99895558816
 30
0.0
 10
95.4691080490494
 20
-129.99895558816
 30
0.0
 10
95.4691080490494
 20
-129.99895558816
 30
0.0
 10
95.4691080490494
 20
-129.7874267253657
 30
0.0
 10
95.4691080490494
 20
-129.7874267253657
 30
0.0
 10
95.4691080490494
 20
-129.7874267253657
 30
0.0
 10
96.54397784044734
 20
-129.7874267253657
 30
0.0
 10
96.54397784044734
 20
-129.7874267253657
 30
0.0
 10
96.54397784044734
 20
-129.7874267253657
 30
0.0
 10
96.54397784044734
 20
-129.99895558816
 30
0.0
 10
96.54397784044734
 20
-129.99895558816
 30
0.0
 10
96.22013886483386
 20
-130.289032628018
 30
0.0
 10
95.95348847427552
 20
-130.8812445419325
 30
0.0
 10
95.91972653852007
 20
-131.3318630314031
 30
0.0
  0
HATCH
  5
DF
330
DA
100
AcDbEntity
  8
_U+30EC_U+30A4_U+30E4_U+30FC 1
 62
   179
420
  2234388
100
AcDbHatch
 10
0.0
 20
0.0
 30
0.0
210
0.0
220
0.0
230
1.0
  2
SOLID
 70
     1
 71
     0
 91
        1
 92
        1
 93
        1
 72
     4
 94
        3
 73
     0
 74
     1
 95
       26
 96
       22
 40
0.0
 40
0.0
 40
0.0
 40
0.0
 40
1.0
 40
1.0
 40
1.0
 40
2.0
 40
2.0
 40
2.0
 40
3.0
 40
3.0
 40
3.0
 40
4.0
 40
4.0
 40
4.0
 40
5.0
 40
5.0
 40
5.0
 40
6.0
 40
6.0
 40
6.0
 40
7.0
 40
7.0
 40
7.0
 40
7.0
 10
95.91972653852007
 20
-131.3318630314031
 10
95.91972653852007
 20
-131.3318630314031
 10
95.68270396913488
 20
-131.3318630314031
 10
95.68270396913488
 20
-131.3318630314031
 10
95.70819767572573
 20
-131.0228379663762
 10
95.9007785133512
 20
-130.5046956053947
 10
96.30695527106215
 20
-129.99895558816
 10
96.30695527106215
 20
-129.99895558816
 10
95.4691080490494
 20
-129.99895558816
 10
95.4691080490494
 20
-129.99895558816
 10
95.4691080490494
 20
-129.99895558816
 10
95.4691080490494
 20
-129.7874267253657
 10
95.4691080490494
 20
-129.7874267253657
 10
95.4691080490494
 20
-129.7874267253657
 10
96.54397784044734
 20
-129.7874267253657
 10
96.54397784044734
 20
-129.7874267253657
 10
96.54397784044734
 20
-129.7874267253657
 10
96.54397784044734
 20
-129.99895558816
 10
96.54397784044734
 20
-129.99895558816
 10
96.22013886483386
 20
-130.289032628018
 10
95.95348847427552
 20
-130.8812445419325
 10
95.91972653852007
 20
-131.3318630314031
 97
        0
 97
        0
 75
     2
 76
     1
 98
        0
  0
ENDBLK
  5
DD
330
DA
100
AcDbEntity
  8
0
100
AcDbBlockEnd
  0
BLOCK
  5
EE
330
EC
100
AcDbEntity
  8
0
100
AcDbBlockBegin
  2
block 7
 70
     0
 10
0.0
 20
0.0
 30
0.0
  3
block 7
  1

  0
SPLINE
  5
F0
330
EC
100
AcDbEntity
  8
_U+30EC_U+30A4_U+30E4_U+30FC 1
370
     0
100
AcDbSpline
210
0.0
220
0.0
230
1.0
 70
    11
 71
     3
 72
    29
 73
    25
 74
     0
 42
0.0000000001
 43
0.0000000001
 12
1.0
 22
0.0
 32
0.0
 13
1.0
 23
0.0
 33
0.0
 40
0.0
 40
0.0
 40
0.0
 40
0.0
 40
1.0
 40
1.0
 40
1.0
 40
2.0
 40
2.0
 40
2.0
 40
3.0
 40
3.0
 40
3.0
 40
4.0
 40
4.0
 40
4.0
 40
5.0
 40
5.0
 40
5.0
 40
6.0
 40
6.0
 40
6.0
 40
7.0
 40
7.0
 40
7.0
 40
8.0
 40
8.0
 40
8.0
 40
8.0
 10
102.9608126912737
 20
-130.5925455402685
 30
0.0
 10
102.9608126912737
 20
-130.8591959308269
 30
0.0
 10
102.8233533814122
 20
-131.1130994680898
 30
0.0
 10
102.4743652087564
 20
-131.1130994680898
 30
0.0
 10
102.2183946142024
 20
-131.1130994680898
 30
0.0
 10
102.1233099788095
 20
-130.9711615340975
 30
0.0
 10
102.061987279172
 20
-130.8653971027003
 30
0.0
 10
102.0027316368257
 20
-130.9901095592664
 30
0.0
 10
101.8883544667154
 20
-131.0662461694904
 30
0.0
 10
101.7274685075542
 20
-131.0662461694904
 30
0.0
 10
101.4525498878313
 20
-131.0662461694904
 30
0.0
 10
101.317157635261
 20
-130.8674641599915
 30
0.0
 10
101.317157635261
 20
-130.5925455402685
 30
0.0
 10
101.317157635261
 20
-130.3090141818325
 30
0.0
 10
101.4611626265444
 20
-130.1185004014982
 30
0.0
 10
101.7274685075542
 20
-130.1185004014982
 30
0.0
 10
101.8883544667154
 20
-130.1185004014982
 30
0.0
 10
102.0027316368257
 20
-130.1970485785619
 30
0.0
 10
102.061987279172
 20
-130.3217610351279
 30
0.0
 10
102.1126301828052
 20
-130.2328775716084
 30
0.0
 10
102.2077148181981
 20
-130.0740586697384
 30
0.0
 10
102.4702310941741
 20
-130.0740586697384
 30
0.0
 10
102.8447129734208
 20
-130.0740586697384
 30
0.0
 10
102.9608126912737
 20
-130.3534559135922
 30
0.0
 10
102.9608126912737
 20
-130.5925455402685
 30
0.0
  0
SPLINE
  5
F1
330
EC
100
AcDbEntity
  8
_U+30EC_U+30A4_U+30E4_U+30FC 1
370
     0
100
AcDbSpline
210
0.0
220
0.0
230
1.0
 70
    11
 71
     3
 72
    17
 73
    13
 74
     0
 42
0.0000000001
 43
0.0000000001
 12
1.0
 22
0.0
 32
0.0
 13
1.0
 23
0.0
 33
0.0
 40
0.0
 40
0.0
 40
0.0
 40
0.0
 40
1.0
 40
1.0
 40
1.0
 40
2.0
 40
2.0
 40
2.0
 40
3.0
 40
3.0
 40
3.0
 40
4.0
 40
4.0
 40
4.0
 40
4.0
 10
101.5097384728865
 20
-130.5925455402685
 30
0.0
 10
101.5097384728865
 20
-130.757565614012
 30
0.0
 10
101.6048231082793
 20
-130.8423149629492
 30
0.0
 10
101.7402153608497
 20
-130.8423149629492
 30
0.0
 10
101.8628607601246
 20
-130.8423149629492
 30
0.0
 10
101.9813720448172
 20
-130.7703124673074
 30
0.0
 10
101.9813720448172
 20
-130.5925455402685
 30
0.0
 10
101.9813720448172
 20
-130.4147786132297
 30
0.0
 10
101.8628607601246
 20
-130.3427761175879
 30
0.0
 10
101.7402153608497
 20
-130.3427761175879
 30
0.0
 10
101.6048231082793
 20
-130.3427761175879
 30
0.0
 10
101.5097384728865
 20
-130.4295925238162
 30
0.0
 10
101.5097384728865
 20
-130.5925455402685
 30
0.0
  0
SPLINE
  5
F2
330
EC
100
AcDbEntity
  8
_U+30EC_U+30A4_U+30E4_U+30FC 1
370
     0
100
AcDbSpline
210
0.0
220
0.0
230
1.0
 70
    11
 71
     3
 72
    17
 73
    13
 74
     0
 42
0.0000000001
 43
0.0000000001
 12
1.0
 22
0.0
 32
0.0
 13
1.0
 23
0.0
 33
0.0
 40
0.0
 40
0.0
 40
0.0
 40
0.0
 40
1.0
 40
1.0
 40
1.0
 40
2.0
 40
2.0
 40
2.0
 40
3.0
 40
3.0
 40
3.0
 40
4.0
 40
4.0
 40
4.0
 40
4.0
 10
102.1698187678603
 20
-130.5925455402685
 30
0.0
 10
102.1698187678603
 20
-130.7362060220034
 30
0.0
 10
102.2566351740886
 20
-130.888823752
 30
0.0
 10
102.4595512981698
 20
-130.888823752
 30
0.0
 10
102.6648789890907
 20
-130.888823752
 30
0.0
 10
102.7661647963571
 20
-130.7616997285943
 30
0.0
 10
102.7661647963571
 20
-130.5925455402685
 30
0.0
 10
102.7661647963571
 20
-130.4065103840651
 30
0.0
 10
102.6435193970822
 20
-130.2962673285371
 30
0.0
 10
102.4657524700433
 20
-130.2962673285371
 30
0.0
 10
102.2438883207932
 20
-130.2962673285371
 30
0.0
 10
102.1698187678603
 20
-130.4592203449894
 30
0.0
 10
102.1698187678603
 20
-130.5925455402685
 30
0.0
  0
HATCH
  5
F3
330
EC
100
AcDbEntity
  8
_U+30EC_U+30A4_U+30E4_U+30FC 1
 62
   179
420
  2234388
100
AcDbHatch
 10
0.0
 20
0.0
 30
0.0
210
0.0
220
0.0
230
1.0
  2
SOLID
 70
     1
 71
     0
 91
        3
 92
        1
 93
        1
 72
     4
 94
        3
 73
     0
 74
     1
 95
       29
 96
       25
 40
0.0
 40
0.0
 40
0.0
 40
0.0
 40
1.0
 40
1.0
 40
1.0
 40
2.0
 40
2.0
 40
2.0
 40
3.0
 40
3.0
 40
3.0
 40
4.0
 40
4.0
 40
4.0
 40
5.0
 40
5.0
 40
5.0
 40
6.0
 40
6.0
 40
6.0
 40
7.0
 40
7.0
 40
7.0
 40
8.0
 40
8.0
 40
8.0
 40
8.0
 10
102.9608126912737
 20
-130.5925455402685
 10
102.9608126912737
 20
-130.8591959308269
 10
102.8233533814122
 20
-131.1130994680898
 10
102.4743652087564
 20
-131.1130994680898
 10
102.2183946142024
 20
-131.1130994680898
 10
102.1233099788095
 20
-130.9711615340975
 10
102.061987279172
 20
-130.8653971027003
 10
102.0027316368257
 20
-130.9901095592664
 10
101.8883544667154
 20
-131.0662461694904
 10
101.7274685075542
 20
-131.0662461694904
 10
101.4525498878313
 20
-131.0662461694904
 10
101.317157635261
 20
-130.8674641599915
 10
101.317157635261
 20
-130.5925455402685
 10
101.317157635261
 20
-130.3090141818325
 10
101.4611626265444
 20
-130.1185004014982
 10
101.7274685075542
 20
-130.1185004014982
 10
101.8883544667154
 20
-130.1185004014982
 10
102.0027316368257
 20
-130.1970485785619
 10
102.061987279172
 20
-130.3217610351279
 10
102.1126301828052
 20
-130.2328775716084
 10
102.2077148181981
 20
-130.0740586697384
 10
102.4702310941741
 20
-130.0740586697384
 10
102.8447129734208
 20
-130.0740586697384
 10
102.9608126912737
 20
-130.3534559135922
 10
102.9608126912737
 20
-130.5925455402685
 97
        0
 97
        0
 92
        1
 93
        1
 72
     4
 94
        3
 73
     0
 74
     1
 95
       17
 96
       13
 40
0.0
 40
0.0
 40
0.0
 40
0.0
 40
1.0
 40
1.0
 40
1.0
 40
2.0
 40
2.0
 40
2.0
 40
3.0
 40
3.0
 40
3.0
 40
4.0
 40
4.0
 40
4.0
 40
4.0
 10
101.5097384728865
 20
-130.5925455402685
 10
101.5097384728865
 20
-130.757565614012
 10
101.6048231082793
 20
-130.8423149629492
 10
101.7402153608497
 20
-130.8423149629492
 10
101.8628607601246
 20
-130.8423149629492
 10
101.9813720448172
 20
-130.7703124673074
 10
101.9813720448172
 20
-130.5925455402685
 10
101.9813720448172
 20
-130.4147786132297
 10
101.8628607601246
 20
-130.3427761175879
 10
101.7402153608497
 20
-130.3427761175879
 10
101.6048231082793
 20
-130.3427761175879
 10
101.5097384728865
 20
-130.4295925238162
 10
101.5097384728865
 20
-130.5925455402685
 97
        0
 97
        0
 92
        1
 93
        1
 72
     4
 94
        3
 73
     0
 74
     1
 95
       17
 96
       13
 40
0.0
 40
0.0
 40
0.0
 40
0.0
 40
1.0
 40
1.0
 40
1.0
 40
2.0
 40
2.0
 40
2.0
 40
3.0
 40
3.0
 40
3.0
 40
4.0
 40
4.0
 40
4.0
 40
4.0
 10
102.1698187678603
 20
-130.5925455402685
 10
102.1698187678603
 20
-130.7362060220034
 10
102.2566351740886
 20
-130.888823752
 10
102.4595512981698
 20
-130.888823752
 10
102.6648789890907
 20
-130.888823752
 10
102.7661647963571
 20
-130.7616997285943
 10
102.7661647963571
 20
-130.5925455402685
 10
102.7661647963571
 20
-130.4065103840651
 10
102.6435193970822
 20
-130.2962673285371
 10
102.4657524700433
 20
-130.2962673285371
 10
102.2438883207932
 20
-130.2962673285371
 10
102.1698187678603
 20
-130.4592203449894
 10
102.1698187678603
 20
-130.5925455402685
 97
        0
 97
        0
 75
     2
 76
     1
 98
        0
  0
POLYLINE
  5
F4
330
EC
100
AcDbEntity
  8
_U+30EC_U+30A4_U+30E4_U+30FC 1
370
     0
100
AcDb2dPolyline
 66
     1
 10
0.0
 20
0.0
 30
0.0
  0
VERTEX
  5
F5
330
F4
100
AcDbEntity
  8
_U+30EC_U+30A4_U+30E4_U+30FC 1
370
     0
100
AcDbVertex
100
AcDb2dVertex
 10
102.9101697876405
 20
-129.8556396159736
 30
0.0
  0
VERTEX
  5
F6
330
F4
100
AcDbEntity
  8
_U+30EC_U+30A4_U+30E4_U+30FC 1
370
     0
100
AcDbVertex
100
AcDb2dVertex
 10
102.6583333076688
 20
-129.8556396159736
 30
0.0
  0
VERTEX
  5
F7
330
F4
100
AcDbEntity
  8
_U+30EC_U+30A4_U+30E4_U+30FC 1
370
     0
100
AcDbVertex
100
AcDb2dVertex
 10
102.6583333076688
 20
-129.6038031360018
 30
0.0
  0
VERTEX
  5
F8
330
F4
100
AcDbEntity
  8
_U+30EC_U+30A4_U+30E4_U+30FC 1
370
     0
100
AcDbVertex
100
AcDb2dVertex
 10
102.9101697876405
 20
-129.6038031360018
 30
0.0
  0
VERTEX
  5
F9
330
F4
100
AcDbEntity
  8
_U+30EC_U+30A4_U+30E4_U+30FC 1
370
     0
100
AcDbVertex
100
AcDb2dVertex
 10
102.9101697876405
 20
-129.8556396159736
 30
0.0
  0
SEQEND
  5
FA
330
F4
100
AcDbEntity
  8
_U+30EC_U+30A4_U+30E4_U+30FC 1
370
     0
  0
HATCH
  5
FB
330
EC
100
AcDbEntity
  8
_U+30EC_U+30A4_U+30E4_U+30FC 1
 62
   179
420
  2234388
100
AcDbHatch
 10
0.0
 20
0.0
 30
0.0
210
0.0
220
0.0
230
1.0
  2
SOLID
 70
     1
 71
     0
 91
        1
 92
        1
 93
        4
 72
     1
 10
102.9101697876405
 20
-129.8556396159736
 11
102.6583333076688
 21
-129.8556396159736
 72
     1
 10
102.6583333076688
 20
-129.8556396159736
 11
102.6583333076688
 21
-129.6038031360018
 72
     1
 10
102.6583333076688
 20
-129.6038031360018
 11
102.9101697876405
 21
-129.6038031360018
 72
     1
 10
102.9101697876405
 20
-129.6038031360018
 11
102.9101697876405
 21
-129.8556396159736
 97
        0
 75
     2
 76
     1
 98
        0
  0
SPLINE
  5
FC
330
EC
100
AcDbEntity
  8
_U+30EC_U+30A4_U+30E4_U+30FC 1
370
     0
100
AcDbSpline
210
0.0
220
0.0
230
1.0
 70
    11
 71
     3
 72
    53
 73
    49
 74
     0
 42
0.0000000001
 43
0.0000000001
 12
1.0
 22
0.0
 32
0.0
 13
1.0
 23
0.0
 33
0.0
 40
0.0
 40
0.0
 40
0.0
 40
0.0
 40
1.0
 40
1.0
 40
1.0
 40
2.0
 40
2.0
 40
2.0
 40
3.0
 40
3.0
 40
3.0
 40
4.0
 40
4.0
 40
4.0
 40
5.0
 40
5.0
 40
5.0
 40
6.0
 40
6.0
 40
6.0
 40
7.0
 40
7.0
 40
7.0
 40
8.0
 40
8.0
 40
8.0
 40
9.0
 40
9.0
 40
9.0
 40
10.0
 40
10.0
 40
10.0
 40
11.0
 40
11.0
 40
11.0
 40
12.0
 40
12.0
 40
12.0
 40
13.0
 40
13.0
 40
13.0
 40
14.0
 40
14.0
 40
14.0
 40
15.0
 40
15.0
 40
15.0
 40
16.0
 40
16.0
 40
16.0
 40
16.0
 10
102.9608126912737
 20
-128.8865342559728
 30
0.0
 10
102.9608126912737
 20
-128.964737923488
 30
0.0
 10
102.943931723396
 20
-129.0663682403029
 30
0.0
 10
102.8805419664674
 20
-129.1679985571177
 30
0.0
 10
102.7706434204879
 20
-129.3412868600258
 30
0.0
 10
102.6393852824999
 20
-129.3626464520343
 30
0.0
 10
102.5315537938116
 20
-129.3815944772032
 30
0.0
 10
102.5315537938116
 20
-129.3815944772032
 30
0.0
 10
102.5315537938116
 20
-129.1593858184046
 30
0.0
 10
102.5315537938116
 20
-129.1593858184046
 30
0.0
 10
102.7303358033105
 20
-129.1046088001891
 30
0.0
 10
102.7599636244836
 20
-128.9774847767834
 30
0.0
 10
102.7599636244836
 20
-128.8844671986817
 30
0.0
 10
102.7599636244836
 20
-128.744940831529
 30
0.0
 10
102.6604003649599
 20
-128.592667611081
 30
0.0
 10
102.4278564197055
 20
-128.592667611081
 30
0.0
 10
102.1718858251515
 20
-128.592667611081
 30
0.0
 10
102.1019503868009
 20
-128.7725015954111
 30
0.0
 10
102.1019503868009
 20
-128.8930799373948
 30
0.0
 10
102.1019503868009
 20
-128.9247748158591
 30
0.0
 10
102.1019503868009
 20
-129.0663682403029
 30
0.0
 10
102.2311414674978
 20
-129.1552517038223
 30
0.0
 10
102.2311414674978
 20
-129.1552517038223
 30
0.0
 10
102.2121934423289
 20
-129.33095157357
 30
0.0
 10
102.2121934423289
 20
-129.33095157357
 30
0.0
 10
102.2121934423289
 20
-129.33095157357
 30
0.0
 10
101.365733481603
 20
-129.2103732315863
 30
0.0
 10
101.365733481603
 20
-129.2103732315863
 30
0.0
 10
101.365733481603
 20
-129.2103732315863
 30
0.0
 10
101.365733481603
 20
-128.4317816519198
 30
0.0
 10
101.365733481603
 20
-128.4317816519198
 30
0.0
 10
101.365733481603
 20
-128.4317816519198
 30
0.0
 10
101.5603813765196
 20
-128.4317816519198
 30
0.0
 10
101.5603813765196
 20
-128.4317816519198
 30
0.0
 10
101.5603813765196
 20
-128.4317816519198
 30
0.0
 10
101.5603813765196
 20
-129.047420215134
 30
0.0
 10
101.5603813765196
 20
-129.047420215134
 30
0.0
 10
101.5603813765196
 20
-129.047420215134
 30
0.0
 10
101.9834391021083
 20
-129.1128770293537
 30
0.0
 10
101.9834391021083
 20
-129.1128770293537
 30
0.0
 10
101.9496771663529
 20
-129.0515543297163
 30
0.0
 10
101.9093695491754
 20
-128.9692165476188
 30
0.0
 10
101.9093695491754
 20
-128.8507052629262
 30
0.0
 10
101.9093695491754
 20
-128.5968017256633
 30
0.0
 10
102.0957492149275
 20
-128.3597791562781
 30
0.0
 10
102.4089083945367
 20
-128.3597791562781
 30
0.0
 10
102.7262016887282
 20
-128.3597791562781
 30
0.0
 10
102.9608126912737
 20
-128.5840548723679
 30
0.0
 10
102.9608126912737
 20
-128.8865342559728
 30
0.0
  0
HATCH
  5
FD
330
EC
100
AcDbEntity
  8
_U+30EC_U+30A4_U+30E4_U+30FC 1
 62
   179
420
  2234388
100
AcDbHatch
 10
0.0
 20
0.0
 30
0.0
210
0.0
220
0.0
230
1.0
  2
SOLID
 70
     1
 71
     0
 91
        1
 92
        1
 93
        1
 72
     4
 94
        3
 73
     0
 74
     1
 95
       53
 96
       49
 40
0.0
 40
0.0
 40
0.0
 40
0.0
 40
1.0
 40
1.0
 40
1.0
 40
2.0
 40
2.0
 40
2.0
 40
3.0
 40
3.0
 40
3.0
 40
4.0
 40
4.0
 40
4.0
 40
5.0
 40
5.0
 40
5.0
 40
6.0
 40
6.0
 40
6.0
 40
7.0
 40
7.0
 40
7.0
 40
8.0
 40
8.0
 40
8.0
 40
9.0
 40
9.0
 40
9.0
 40
10.0
 40
10.0
 40
10.0
 40
11.0
 40
11.0
 40
11.0
 40
12.0
 40
12.0
 40
12.0
 40
13.0
 40
13.0
 40
13.0
 40
14.0
 40
14.0
 40
14.0
 40
15.0
 40
15.0
 40
15.0
 40
16.0
 40
16.0
 40
16.0
 40
16.0
 10
102.9608126912737
 20
-128.8865342559728
 10
102.9608126912737
 20
-128.964737923488
 10
102.943931723396
 20
-129.0663682403029
 10
102.8805419664674
 20
-129.1679985571177
 10
102.7706434204879
 20
-129.3412868600258
 10
102.6393852824999
 20
-129.3626464520343
 10
102.5315537938116
 20
-129.3815944772032
 10
102.5315537938116
 20
-129.3815944772032
 10
102.5315537938116
 20
-129.1593858184046
 10
102.5315537938116
 20
-129.1593858184046
 10
102.7303358033105
 20
-129.1046088001891
 10
102.7599636244836
 20
-128.9774847767834
 10
102.7599636244836
 20
-128.8844671986817
 10
102.7599636244836
 20
-128.744940831529
 10
102.6604003649599
 20
-128.592667611081
 10
102.4278564197055
 20
-128.592667611081
 10
102.1718858251515
 20
-128.592667611081
 10
102.1019503868009
 20
-128.7725015954111
 10
102.1019503868009
 20
-128.8930799373948
 10
102.1019503868009
 20
-128.9247748158591
 10
102.1019503868009
 20
-129.0663682403029
 10
102.2311414674978
 20
-129.1552517038223
 10
102.2311414674978
 20
-129.1552517038223
 10
102.2121934423289
 20
-129.33095157357
 10
102.2121934423289
 20
-129.33095157357
 10
102.2121934423289
 20
-129.33095157357
 10
101.365733481603
 20
-129.2103732315863
 10
101.365733481603
 20
-129.2103732315863
 10
101.365733481603
 20
-129.2103732315863
 10
101.365733481603
 20
-128.4317816519198
 10
101.365733481603
 20
-128.4317816519198
 10
101.365733481603
 20
-128.4317816519198
 10
101.5603813765196
 20
-128.4317816519198
 10
101.5603813765196
 20
-128.4317816519198
 10
101.5603813765196
 20
-128.4317816519198
 10
101.5603813765196
 20
-129.047420215134
 10
101.5603813765196
 20
-129.047420215134
 10
101.5603813765196
 20
-129.047420215134
 10
101.9834391021083
 20
-129.1128770293537
 10
101.9834391021083
 20
-129.1128770293537
 10
101.9496771663529
 20
-129.0515543297163
 10
101.9093695491754
 20
-128.9692165476188
 10
101.9093695491754
 20
-128.8507052629262
 10
101.9093695491754
 20
-128.5968017256633
 10
102.0957492149275
 20
-128.3597791562781
 10
102.4089083945367
 20
-128.3597791562781
 10
102.7262016887282
 20
-128.3597791562781
 10
102.9608126912737
 20
-128.5840548723679
 10
102.9608126912737
 20
-128.8865342559728
 97
        0
 97
        0
 75
     2
 76
     1
 98
        0
  0
ENDBLK
  5
EF
330
EC
100
AcDbEntity
  8
0
100
AcDbBlockEnd
  0
ENDSEC
  0
SECTION
  2
ENTITIES
  0
POLYLINE
  5
41
330
1F
100
AcDbEntity
  8
_U+30EC_U+30A4_U+30E4_U+30FC 1
 62
   179
420
  2234388
370
    25
100
AcDb2dPolyline
 66
     1
 10
0.0
 20
0.0
 30
0.0
  0
VERTEX
  5
42
330
41
100
AcDbEntity
  8
_U+30EC_U+30A4_U+30E4_U+30FC 1
 62
   179
420
  2234388
370
    25
100
AcDbVertex
100
AcDb2dVertex
 10
81.50648331295685
 20
-123.9280110801292
 30
0.0
  0
VERTEX
  5
43
330
41
100
AcDbEntity
  8
_U+30EC_U+30A4_U+30E4_U+30FC 1
 62
   179
420
  2234388
370
    25
100
AcDbVertex
100
AcDb2dVertex
 10
81.50648331295685
 20
-134.5812649663548
 30
0.0
  0
SEQEND
  5
44
330
41
100
AcDbEntity
  8
_U+30EC_U+30A4_U+30E4_U+30FC 1
 62
   179
420
  2234388
370
    25
  0
POLYLINE
  5
45
330
1F
100
AcDbEntity
  8
_U+30EC_U+30A4_U+30E4_U+30FC 1
 62
   179
420
  2234388
370
    25
100
AcDb2dPolyline
 66
     1
 10
0.0
 20
0.0
 30
0.0
  0
VERTEX
  5
46
330
45
100
AcDbEntity
  8
_U+30EC_U+30A4_U+30E4_U+30FC 1
 62
   179
420
  2234388
370
    25
100
AcDbVertex
100
AcDb2dVertex
 10
82.50692372840635
 20
-133.5346438555052
 30
0.0
  0
VERTEX
  5
47
330
45
100
AcDbEntity
  8
_U+30EC_U+30A4_U+30E4_U+30FC 1
 62
   179
420
  2234388
370
    25
100
AcDbVertex
100
AcDb2dVertex
 10
92.50665652884746
 20
-133.5346438555052
 30
0.0
  0
SEQEND
  5
48
330
45
100
AcDbEntity
  8
_U+30EC_U+30A4_U+30E4_U+30FC 1
 62
   179
420
  2234388
370
    25
  0
POLYLINE
  5
49
330
1F
100
AcDbEntity
  8
_U+30EC_U+30A4_U+30E4_U+30FC 1
 62
   179
420
  2234388
370
    25
100
AcDb2dPolyline
 66
     1
 10
0.0
 20
0.0
 30
0.0
  0
VERTEX
  5
4A
330
49
100
AcDbEntity
  8
_U+30EC_U+30A4_U+30E4_U+30FC 1
 62
   179
420
  2234388
370
    25
100
AcDbVertex
100
AcDb2dVertex
 10
82.50692372840635
 20
-124.9281360798792
 30
0.0
  0
VERTEX
  5
4B
330
49
100
AcDbEntity
  8
_U+30EC_U+30A4_U+30E4_U+30FC 1
 62
   179
420
  2234388
370
    25
100
AcDbVertex
100
AcDb2dVertex
 10
89.50702243870784
 20
-124.9281360798792
 30
0.0
  0
SEQEND
  5
4C
330
49
100
AcDbEntity
  8
_U+30EC_U+30A4_U+30E4_U+30FC 1
 62
   179
420
  2234388
370
    25
  0
POLYLINE
  5
4D
330
1F
100
AcDbEntity
  8
_U+30EC_U+30A4_U+30E4_U+30FC 1
 62
   179
420
  2234388
370
    25
100
AcDb2dPolyline
 66
     1
 10
0.0
 20
0.0
 30
0.0
  0
VERTEX
  5
4E
330
4D
100
AcDbEntity
  8
_U+30EC_U+30A4_U+30E4_U+30FC 1
 62
   179
420
  2234388
370
    25
100
AcDbVertex
100
AcDb2dVertex
 10
81.50648331295685
 20
-123.9280110801292
 30
0.0
  0
VERTEX
  5
4F
330
4D
100
AcDbEntity
  8
_U+30EC_U+30A4_U+30E4_U+30FC 1
 62
   179
420
  2234388
370
    25
100
AcDbVertex
100
AcDb2dVertex
 10
89.14323800354431
 20
-123.9280110801292
 30
0.0
  0
SEQEND
  5
50
330
4D
100
AcDbEntity
  8
_U+30EC_U+30A4_U+30E4_U+30FC 1
 62
   179
420
  2234388
370
    25
  0
POLYLINE
  5
51
330
1F
100
AcDbEntity
  8
_U+30EC_U+30A4_U+30E4_U+30FC 1
 62
   179
420
  2234388
370
    25
100
AcDb2dPolyline
 66
     1
 10
0.0
 20
0.0
 30
0.0
  0
VERTEX
  5
52
330
51
100
AcDbEntity
  8
_U+30EC_U+30A4_U+30E4_U+30FC 1
 62
   179
420
  2234388
370
    25
100
AcDbVertex
100
AcDb2dVertex
 10
81.50648331295685
 20
-134.5351216330327
 30
0.0
  0
VERTEX
  5
53
330
51
100
AcDbEntity
  8
_U+30EC_U+30A4_U+30E4_U+30FC 1
 62
   179
420
  2234388
370
    25
100
AcDbVertex
100
AcDb2dVertex
 10
99.50710801691774
 20
-134.5351216330327
 30
0.0
  0
SEQEND
  5
54
330
51
100
AcDbEntity
  8
_U+30EC_U+30A4_U+30E4_U+30FC 1
 62
   179
420
  2234388
370
    25
  0
POLYLINE
  5
55
330
1F
100
AcDbEntity
  8
_U+30EC_U+30A4_U+30E4_U+30FC 1
 62
   179
420
  2234388
370
    25
100
AcDb2dPolyline
 66
     1
 10
0.0
 20
0.0
 30
0.0
  0
VERTEX
  5
56
330
55
100
AcDbEntity
  8
_U+30EC_U+30A4_U+30E4_U+30FC 1
 62
   179
420
  2234388
370
    25
100
AcDbVertex
100
AcDb2dVertex
 10
82.50692372840635
 20
-124.9281360798792
 30
0.0
  0
VERTEX
  5
57
330
55
100
AcDbEntity
  8
_U+30EC_U+30A4_U+30E4_U+30FC 1
 62
   179
420
  2234388
370
    25
100
AcDbVertex
100
AcDb2dVertex
 10
82.50692372840635
 20
-133.4278580221985
 30
0.0
  0
SEQEND
  5
58
330
55
100
AcDbEntity
  8
_U+30EC_U+30A4_U+30E4_U+30FC 1
 62
   179
420
  2234388
370
    25
  0
POLYLINE
  5
59
330
1F
100
AcDbEntity
  8
_U+30EC_U+30A4_U+30E4_U+30FC 1
 62
   179
420
  2234388
370
    25
100
AcDb2dPolyline
 66
     1
 10
0.0
 20
0.0
 30
0.0
  0
VERTEX
  5
5A
330
59
100
AcDbEntity
  8
_U+30EC_U+30A4_U+30E4_U+30FC 1
 62
   179
420
  2234388
370
    25
100
AcDbVertex
100
AcDb2dVertex
 10
92.80637652120097
 20
-133.8350694109857
 30
0.0
  0
VERTEX
  5
5B
330
59
100
AcDbEntity
  8
_U+30EC_U+30A4_U+30E4_U+30FC 1
 62
   179
420
  2234388
370
    25
100
AcDbVertex
100
AcDb2dVertex
 10
99.25215552342212
 20
-133.8350694109857
 30
0.0
  0
SEQEND
  5
5C
330
59
100
AcDbEntity
  8
_U+30EC_U+30A4_U+30E4_U+30FC 1
 62
   179
420
  2234388
370
    25
  0
POLYLINE
  5
5D
330
1F
100
AcDbEntity
  8
_U+30EC_U+30A4_U+30E4_U+30FC 1
 62
   179
420
  2234388
370
    25
100
AcDb2dPolyline
 66
     1
 10
0.0
 20
0.0
 30
0.0
  0
VERTEX
  5
5E
330
5D
100
AcDbEntity
  8
_U+30EC_U+30A4_U+30E4_U+30FC 1
 62
   179
420
  2234388
370
    25
100
AcDbVertex
100
AcDb2dVertex
 10
89.14323800354431
 20
-123.9280110801292
 30
0.0
  0
VERTEX
  5
5F
330
5D
100
AcDbEntity
  8
_U+30EC_U+30A4_U+30E4_U+30FC 1
 62
   179
420
  2234388
370
    25
100
AcDbVertex
100
AcDb2dVertex
 10
89.50702243870784
 20
-124.9281360798792
 30
0.0
  0
SEQEND
  5
60
330
5D
100
AcDbEntity
  8
_U+30EC_U+30A4_U+30E4_U+30FC 1
 62
   179
420
  2234388
370
    25
  0
POLYLINE
  5
61
330
1F
100
AcDbEntity
  8
_U+30EC_U+30A4_U+30E4_U+30FC 1
 62
   179
420
  2234388
370
    25
100
AcDb2dPolyline
 66
     1
 10
0.0
 20
0.0
 30
0.0
  0
VERTEX
  5
62
330
61
100
AcDbEntity
  8
_U+30EC_U+30A4_U+30E4_U+30FC 1
 62
   179
420
  2234388
370
    25
100
AcDbVertex
100
AcDb2dVertex
 10
99.25215552342212
 20
-133.8350694109857
 30
0.0
  0
VERTEX
  5
63
330
61
100
AcDbEntity
  8
_U+30EC_U+30A4_U+30E4_U+30FC 1
 62
   179
420
  2234388
370
    25
100
AcDbVertex
100
AcDb2dVertex
 10
99.50710801691774
 20
-134.5351216330327
 30
0.0
  0
SEQEND
  5
64
330
61
100
AcDbEntity
  8
_U+30EC_U+30A4_U+30E4_U+30FC 1
 62
   179
420
  2234388
370
    25
  0
POLYLINE
  5
65
330
1F
100
AcDbEntity
  8
_U+30EC_U+30A4_U+30E4_U+30FC 1
 62
   179
420
  2234388
370
    25
100
AcDb2dPolyline
 66
     1
 10
0.0
 20
0.0
 30
0.0
  0
VERTEX
  5
66
330
65
100
AcDbEntity
  8
_U+30EC_U+30A4_U+30E4_U+30FC 1
 62
   179
420
  2234388
370
    25
100
AcDbVertex
100
AcDb2dVertex
 10
92.50665652884746
 20
-133.5346438555052
 30
0.0
  0
VERTEX
  5
67
330
65
100
AcDbEntity
  8
_U+30EC_U+30A4_U+30E4_U+30FC 1
 62
   179
420
  2234388
370
    25
100
AcDbVertex
100
AcDb2dVertex
 10
92.80637652120097
 20
-133.8350694109857
 30
0.0
  0
SEQEND
  5
68
330
65
100
AcDbEntity
  8
_U+30EC_U+30A4_U+30E4_U+30FC 1
 62
   179
420
  2234388
370
    25
  0
SPLINE
  5
69
330
1F
100
AcDbEntity
  8
_U+30EC_U+30A4_U+30E4_U+30FC 1
 62
   179
420
  2234388
370
     9
100
AcDbSpline
210
0.0
220
0.0
230
1.0
 70
    11
 71
     3
 72
    17
 73
    13
 74
     0
 42
0.0000000001
 43
0.0000000001
 12
1.0
 22
0.0
 32
0.0
 13
1.0
 23
0.0
 33
0.0
 40
0.0
 40
0.0
 40
0.0
 40
0.0
 40
1.0
 40
1.0
 40
1.0
 40
2.0
 40
2.0
 40
2.0
 40
3.0
 40
3.0
 40
3.0
 40
4.0
 40
4.0
 40
4.0
 40
4.0
 10
81.60705819580828
 20
-131.9278821892404
 30
0.0
 10
81.60705819580828
 20
-131.8727430225874
 30
0.0
 10
81.56229069695038
 20
-131.8279402448207
 30
0.0
 10
81.50648331295685
 20
-131.8279402448207
 30
0.0
 10
81.4513420886698
 20
-131.8279402448207
 30
0.0
 10
81.40657458981192
 20
-131.8727430225874
 30
0.0
 10
81.40657458981192
 20
-131.9278821892404
 30
0.0
 10
81.40657458981192
 20
-131.9833388558931
 30
0.0
 10
81.4513420886698
 20
-132.0277888558821
 30
0.0
 10
81.50648331295685
 20
-132.0277888558821
 30
0.0
 10
81.56229069695038
 20
-132.0277888558821
 30
0.0
 10
81.60705819580828
 20
-131.9833388558931
 30
0.0
 10
81.60705819580828
 20
-131.9278821892404
 30
0.0
  0
SPLINE
  5
6A
330
1F
100
AcDbEntity
  8
_U+30EC_U+30A4_U+30E4_U+30FC 1
 62
   179
420
  2234388
370
     9
100
AcDbSpline
210
0.0
220
0.0
230
1.0
 70
    11
 71
     3
 72
    17
 73
    13
 74
     0
 42
0.0000000001
 43
0.0000000001
 12
1.0
 22
0.0
 32
0.0
 13
1.0
 23
0.0
 33
0.0
 40
0.0
 40
0.0
 40
0.0
 40
0.0
 40
1.0
 40
1.0
 40
1.0
 40
2.0
 40
2.0
 40
2.0
 40
3.0
 40
3.0
 40
3.0
 40
4.0
 40
4.0
 40
4.0
 40
4.0
 10
82.60683039252419
 20
-131.9278821892404
 30
0.0
 10
82.60683039252419
 20
-131.8727430225874
 30
0.0
 10
82.5620628936663
 20
-131.8279402448207
 30
0.0
 10
82.50692372840635
 20
-131.8279402448207
 30
0.0
 10
82.45181984092328
 20
-131.8279402448207
 30
0.0
 10
82.40701706428851
 20
-131.8727430225874
 30
0.0
 10
82.40701706428851
 20
-131.9278821892404
 30
0.0
 10
82.40701706428851
 20
-131.9833388558931
 30
0.0
 10
82.45181984092328
 20
-132.0277888558821
 30
0.0
 10
82.50692372840635
 20
-132.0277888558821
 30
0.0
 10
82.5620628936663
 20
-132.0277888558821
 30
0.0
 10
82.60683039252419
 20
-131.9833388558931
 30
0.0
 10
82.60683039252419
 20
-131.9278821892404
 30
0.0
  0
SPLINE
  5
6B
330
1F
100
AcDbEntity
  8
_U+30EC_U+30A4_U+30E4_U+30FC 1
 62
   179
420
  2234388
370
     9
100
AcDbSpline
210
0.0
220
0.0
230
1.0
 70
    11
 71
     3
 72
    17
 73
    13
 74
     0
 42
0.0000000001
 43
0.0000000001
 12
1.0
 22
0.0
 32
0.0
 13
1.0
 23
0.0
 33
0.0
 40
0.0
 40
0.0
 40
0.0
 40
0.0
 40
1.0
 40
1.0
 40
1.0
 40
2.0
 40
2.0
 40
2.0
 40
3.0
 40
3.0
 40
3.0
 40
4.0
 40
4.0
 40
4.0
 40
4.0
 10
81.60705819580828
 20
-119.9278991366846
 30
0.0
 10
81.60705819580828
 20
-119.8727952478097
 30
0.0
 10
81.56229069695038
 20
-119.827992470043
 30
0.0
 10
81.50648331295685
 20
-119.827992470043
 30
0.0
 10
81.4513420886698
 20
-119.827992470043
 30
0.0
 10
81.40657458981192
 20
-119.8727952478097
 30
0.0
 10
81.40657458981192
 20
-119.9278991366846
 30
0.0
 10
81.40657458981192
 20
-119.9830383033377
 30
0.0
 10
81.4513420886698
 20
-120.0278058033266
 30
0.0
 10
81.50648331295685
 20
-120.0278058033266
 30
0.0
 10
81.56229069695038
 20
-120.0278058033266
 30
0.0
 10
81.60705819580828
 20
-119.9830383033377
 30
0.0
 10
81.60705819580828
 20
-119.9278991366846
 30
0.0
  0
SPLINE
  5
6C
330
1F
100
AcDbEntity
  8
_U+30EC_U+30A4_U+30E4_U+30FC 1
 62
   179
420
  2234388
370
     9
100
AcDbSpline
210
0.0
220
0.0
230
1.0
 70
    11
 71
     3
 72
    17
 73
    13
 74
     0
 42
0.0000000001
 43
0.0000000001
 12
1.0
 22
0.0
 32
0.0
 13
1.0
 23
0.0
 33
0.0
 40
0.0
 40
0.0
 40
0.0
 40
0.0
 40
1.0
 40
1.0
 40
1.0
 40
2.0
 40
2.0
 40
2.0
 40
3.0
 40
3.0
 40
3.0
 40
4.0
 40
4.0
 40
4.0
 40
4.0
 10
89.60657632505689
 20
-119.9278991366846
 30
0.0
 10
89.60657632505689
 20
-119.8727952478097
 30
0.0
 10
89.56181108872073
 20
-119.827992470043
 30
0.0
 10
89.50666966093907
 20
-119.827992470043
 30
0.0
 10
89.45156577345598
 20
-119.827992470043
 30
0.0
 10
89.40676299682123
 20
-119.8727952478097
 30
0.0
 10
89.40676299682123
 20
-119.9278991366846
 30
0.0
 10
89.40676299682123
 20
-119.9830383033377
 30
0.0
 10
89.45156577345598
 20
-120.0278058033266
 30
0.0
 10
89.50666966093907
 20
-120.0278058033266
 30
0.0
 10
89.56181108872073
 20
-120.0278058033266
 30
0.0
 10
89.60657632505689
 20
-119.9830383033377
 30
0.0
 10
89.60657632505689
 20
-119.9278991366846
 30
0.0
  0
SPLINE
  5
6D
330
1F
100
AcDbEntity
  8
_U+30EC_U+30A4_U+30E4_U+30FC 1
 62
   179
420
  2234388
370
     9
100
AcDbSpline
210
0.0
220
0.0
230
1.0
 70
    11
 71
     3
 72
    17
 73
    13
 74
     0
 42
0.0000000001
 43
0.0000000001
 12
1.0
 22
0.0
 32
0.0
 13
1.0
 23
0.0
 33
0.0
 40
0.0
 40
0.0
 40
0.0
 40
0.0
 40
1.0
 40
1.0
 40
1.0
 40
2.0
 40
2.0
 40
2.0
 40
3.0
 40
3.0
 40
3.0
 40
4.0
 40
4.0
 40
4.0
 40
4.0
 10
103.6067737456599
 20
-124.9281360798792
 30
0.0
 10
103.6067737456599
 20
-124.8729969132261
 30
0.0
 10
103.5619709690251
 20
-124.8282294132373
 30
0.0
 10
103.506867081542
 20
-124.8282294132373
 30
0.0
 10
103.4517305296926
 20
-124.8282294132373
 30
0.0
 10
103.4069604174242
 20
-124.8729969132261
 30
0.0
 10
103.4069604174242
 20
-124.9281360798792
 30
0.0
 10
103.4069604174242
 20
-124.9832399687541
 30
0.0
 10
103.4517305296926
 20
-125.0280427465209
 30
0.0
 10
103.506867081542
 20
-125.0280427465209
 30
0.0
 10
103.5619709690251
 20
-125.0280427465209
 30
0.0
 10
103.6067737456599
 20
-124.9832399687541
 30
0.0
 10
103.6067737456599
 20
-124.9281360798792
 30
0.0
  0
SPLINE
  5
6E
330
1F
100
AcDbEntity
  8
_U+30EC_U+30A4_U+30E4_U+30FC 1
 62
   179
420
  2234388
370
     9
100
AcDbSpline
210
0.0
220
0.0
230
1.0
 70
    11
 71
     3
 72
    17
 73
    13
 74
     0
 42
0.0000000001
 43
0.0000000001
 12
1.0
 22
0.0
 32
0.0
 13
1.0
 23
0.0
 33
0.0
 40
0.0
 40
0.0
 40
0.0
 40
0.0
 40
1.0
 40
1.0
 40
1.0
 40
2.0
 40
2.0
 40
2.0
 40
3.0
 40
3.0
 40
3.0
 40
4.0
 40
4.0
 40
4.0
 40
4.0
 10
103.6067737456599
 20
-133.534326355505
 30
0.0
 10
103.6067737456599
 20
-133.4791871888526
 30
0.0
 10
103.5619709690251
 20
-133.4344196888634
 30
0.0
 10
103.506867081542
 20
-133.4344196888634
 30
0.0
 10
103.4517305296926
 20
-133.4344196888634
 30
0.0
 10
103.4069604174242
 20
-133.4791871888526
 30
0.0
 10
103.4069604174242
 20
-133.534326355505
 30
0.0
 10
103.4069604174242
 20
-133.5901357999361
 30
0.0
 10
103.4517305296926
 20
-133.6349032999246
 30
0.0
 10
103.506867081542
 20
-133.6349032999246
 30
0.0
 10
103.5619709690251
 20
-133.6349032999246
 30
0.0
 10
103.6067737456599
 20
-133.5901357999361
 30
0.0
 10
103.6067737456599
 20
-133.534326355505
 30
0.0
  0
SPLINE
  5
6F
330
1F
100
AcDbEntity
  8
_U+30EC_U+30A4_U+30E4_U+30FC 1
 62
   179
420
  2234388
370
     9
100
AcDbSpline
210
0.0
220
0.0
230
1.0
 70
    11
 71
     3
 72
    17
 73
    13
 74
     0
 42
0.0000000001
 43
0.0000000001
 12
1.0
 22
0.0
 32
0.0
 13
1.0
 23
0.0
 33
0.0
 40
0.0
 40
0.0
 40
0.0
 40
0.0
 40
1.0
 40
1.0
 40
1.0
 40
2.0
 40
2.0
 40
2.0
 40
3.0
 40
3.0
 40
3.0
 40
4.0
 40
4.0
 40
4.0
 40
4.0
 10
103.6067737456599
 20
-133.8347166332079
 30
0.0
 10
103.6067737456599
 20
-133.779612744333
 30
0.0
 10
103.5619709690251
 20
-133.7348099665663
 30
0.0
 10
103.506867081542
 20
-133.7348099665663
 30
0.0
 10
103.4517305296926
 20
-133.7348099665663
 30
0.0
 10
103.4069604174242
 20
-133.779612744333
 30
0.0
 10
103.4069604174242
 20
-133.8347166332079
 30
0.0
 10
103.4069604174242
 20
-133.889855799861
 30
0.0
 10
103.4517305296926
 20
-133.9346232998496
 30
0.0
 10
103.506867081542
 20
-133.9346232998496
 30
0.0
 10
103.5619709690251
 20
-133.9346232998496
 30
0.0
 10
103.6067737456599
 20
-133.889855799861
 30
0.0
 10
103.6067737456599
 20
-133.8347166332079
 30
0.0
  0
SPLINE
  5
70
330
1F
100
AcDbEntity
  8
_U+30EC_U+30A4_U+30E4_U+30FC 1
 62
   179
420
  2234388
370
     9
100
AcDbSpline
210
0.0
220
0.0
230
1.0
 70
    11
 71
     3
 72
    17
 73
    13
 74
     0
 42
0.0000000001
 43
0.0000000001
 12
1.0
 22
0.0
 32
0.0
 13
1.0
 23
0.0
 33
0.0
 40
0.0
 40
0.0
 40
0.0
 40
0.0
 40
1.0
 40
1.0
 40
1.0
 40
2.0
 40
2.0
 40
2.0
 40
3.0
 40
3.0
 40
3.0
 40
4.0
 40
4.0
 40
4.0
 40
4.0
 10
103.6067737456599
 20
-134.5347688552549
 30
0.0
 10
103.6067737456599
 20
-134.4796296886025
 30
0.0
 10
103.5619709690251
 20
-134.4348621886133
 30
0.0
 10
103.506867081542
 20
-134.4348621886133
 30
0.0
 10
103.4517305296926
 20
-134.4348621886133
 30
0.0
 10
103.4069604174242
 20
-134.4796296886025
 30
0.0
 10
103.4069604174242
 20
-134.5347688552549
 30
0.0
 10
103.4069604174242
 20
-134.5898727441305
 30
0.0
 10
103.4517305296926
 20
-134.6346755218972
 30
0.0
 10
103.506867081542
 20
-134.6346755218972
 30
0.0
 10
103.5619709690251
 20
-134.6346755218972
 30
0.0
 10
103.6067737456599
 20
-134.5898727441305
 30
0.0
 10
103.6067737456599
 20
-134.5347688552549
 30
0.0
  0
SPLINE
  5
71
330
1F
100
AcDbEntity
  8
_U+30EC_U+30A4_U+30E4_U+30FC 1
 62
   179
420
  2234388
370
     9
100
AcDbSpline
210
0.0
220
0.0
230
1.0
 70
    11
 71
     3
 72
    17
 73
    13
 74
     0
 42
0.0000000001
 43
0.0000000001
 12
1.0
 22
0.0
 32
0.0
 13
1.0
 23
0.0
 33
0.0
 40
0.0
 40
0.0
 40
0.0
 40
0.0
 40
1.0
 40
1.0
 40
1.0
 40
2.0
 40
2.0
 40
2.0
 40
3.0
 40
3.0
 40
3.0
 40
4.0
 40
4.0
 40
4.0
 40
4.0
 10
99.60701468103557
 20
-138.5348807986996
 30
0.0
 10
99.60701468103557
 20
-138.4797416320465
 30
0.0
 10
99.56221190440081
 20
-138.4349741320579
 30
0.0
 10
99.50710801691774
 20
-138.4349741320579
 30
0.0
 10
99.45196885165778
 20
-138.4349741320579
 30
0.0
 10
99.4072013527999
 20
-138.4797416320465
 30
0.0
 10
99.4072013527999
 20
-138.5348807986996
 30
0.0
 10
99.4072013527999
 20
-138.5899846875745
 30
0.0
 10
99.45196885165778
 20
-138.6347874653412
 30
0.0
 10
99.50710801691774
 20
-138.6347874653412
 30
0.0
 10
99.56221190440081
 20
-138.6347874653412
 30
0.0
 10
99.60701468103557
 20
-138.5899846875745
 30
0.0
 10
99.60701468103557
 20
-138.5348807986996
 30
0.0
  0
SPLINE
  5
72
330
1F
100
AcDbEntity
  8
_U+30EC_U+30A4_U+30E4_U+30FC 1
 62
   179
420
  2234388
370
     9
100
AcDbSpline
210
0.0
220
0.0
230
1.0
 70
    11
 71
     3
 72
    17
 73
    13
 74
     0
 42
0.0000000001
 43
0.0000000001
 12
1.0
 22
0.0
 32
0.0
 13
1.0
 23
0.0
 33
0.0
 40
0.0
 40
0.0
 40
0.0
 40
0.0
 40
1.0
 40
1.0
 40
1.0
 40
2.0
 40
2.0
 40
2.0
 40
3.0
 40
3.0
 40
3.0
 40
4.0
 40
4.0
 40
4.0
 40
4.0
 10
81.60705819580828
 20
-138.5348807986996
 30
0.0
 10
81.60705819580828
 20
-138.4797416320465
 30
0.0
 10
81.56229069695038
 20
-138.4349741320579
 30
0.0
 10
81.50648331295685
 20
-138.4349741320579
 30
0.0
 10
81.4513420886698
 20
-138.4349741320579
 30
0.0
 10
81.40657458981192
 20
-138.4797416320465
 30
0.0
 10
81.40657458981192
 20
-138.5348807986996
 30
0.0
 10
81.40657458981192
 20
-138.5899846875745
 30
0.0
 10
81.4513420886698
 20
-138.6347874653412
 30
0.0
 10
81.50648331295685
 20
-138.6347874653412
 30
0.0
 10
81.56229069695038
 20
-138.6347874653412
 30
0.0
 10
81.60705819580828
 20
-138.5899846875745
 30
0.0
 10
81.60705819580828
 20
-138.5348807986996
 30
0.0
  0
SPLINE
  5
73
330
1F
100
AcDbEntity
  8
_U+30EC_U+30A4_U+30E4_U+30FC 1
 62
   179
420
  2234388
370
     9
100
AcDbSpline
210
0.0
220
0.0
230
1.0
 70
    11
 71
     3
 72
    17
 73
    13
 74
     0
 42
0.0000000001
 43
0.0000000001
 12
1.0
 22
0.0
 32
0.0
 13
1.0
 23
0.0
 33
0.0
 40
0.0
 40
0.0
 40
0.0
 40
0.0
 40
1.0
 40
1.0
 40
1.0
 40
2.0
 40
2.0
 40
2.0
 40
3.0
 40
3.0
 40
3.0
 40
4.0
 40
4.0
 40
4.0
 40
4.0
 10
99.60701468103557
 20
-131.9278821892404
 30
0.0
 10
99.60701468103557
 20
-131.8727430225874
 30
0.0
 10
99.56221190440081
 20
-131.8279402448207
 30
0.0
 10
99.50710801691774
 20
-131.8279402448207
 30
0.0
 10
99.45196885165778
 20
-131.8279402448207
 30
0.0
 10
99.4072013527999
 20
-131.8727430225874
 30
0.0
 10
99.4072013527999
 20
-131.9278821892404
 30
0.0
 10
99.4072013527999
 20
-131.9833388558931
 30
0.0
 10
99.45196885165778
 20
-132.0277888558821
 30
0.0
 10
99.50710801691774
 20
-132.0277888558821
 30
0.0
 10
99.56221190440081
 20
-132.0277888558821
 30
0.0
 10
99.60701468103557
 20
-131.9833388558931
 30
0.0
 10
99.60701468103557
 20
-131.9278821892404
 30
0.0
  0
SPLINE
  5
74
330
1F
100
AcDbEntity
  8
_U+30EC_U+30A4_U+30E4_U+30FC 1
 62
   179
420
  2234388
370
     9
100
AcDbSpline
210
0.0
220
0.0
230
1.0
 70
    11
 71
     3
 72
    17
 73
    13
 74
     0
 42
0.0000000001
 43
0.0000000001
 12
1.0
 22
0.0
 32
0.0
 13
1.0
 23
0.0
 33
0.0
 40
0.0
 40
0.0
 40
0.0
 40
0.0
 40
1.0
 40
1.0
 40
1.0
 40
2.0
 40
2.0
 40
2.0
 40
3.0
 40
3.0
 40
3.0
 40
4.0
 40
4.0
 40
4.0
 40
4.0
 10
92.6065631929653
 20
-131.9278821892404
 30
0.0
 10
92.6065631929653
 20
-131.8727430225874
 30
0.0
 10
92.56179569410742
 20
-131.8279402448207
 30
0.0
 10
92.50665652884746
 20
-131.8279402448207
 30
0.0
 10
92.45155264136439
 20
-131.8279402448207
 30
0.0
 10
92.40674986472963
 20
-131.8727430225874
 30
0.0
 10
92.40674986472963
 20
-131.9278821892404
 30
0.0
 10
92.40674986472963
 20
-131.9833388558931
 30
0.0
 10
92.45155264136439
 20
-132.0277888558821
 30
0.0
 10
92.50665652884746
 20
-132.0277888558821
 30
0.0
 10
92.56179569410742
 20
-132.0277888558821
 30
0.0
 10
92.6065631929653
 20
-131.9833388558931
 30
0.0
 10
92.6065631929653
 20
-131.9278821892404
 30
0.0
  0
POLYLINE
  5
75
330
1F
100
AcDbEntity
  8
_U+30EC_U+30A4_U+30E4_U+30FC 1
 62
   179
420
  2234388
370
     9
100
AcDb2dPolyline
 66
     1
 10
0.0
 20
0.0
 30
0.0
  0
VERTEX
  5
76
330
75
100
AcDbEntity
  8
_U+30EC_U+30A4_U+30E4_U+30FC 1
 62
   179
420
  2234388
370
     9
100
AcDbVertex
100
AcDb2dVertex
 10
81.50648331295685
 20
-119.9278991366846
 30
0.0
  0
VERTEX
  5
77
330
75
100
AcDbEntity
  8
_U+30EC_U+30A4_U+30E4_U+30FC 1
 62
   179
420
  2234388
370
     9
100
AcDbVertex
100
AcDb2dVertex
 10
89.50666966093907
 20
-119.9278991366846
 30
0.0
  0
SEQEND
  5
78
330
75
100
AcDbEntity
  8
_U+30EC_U+30A4_U+30E4_U+30FC 1
 62
   179
420
  2234388
370
     9
  0
POLYLINE
  5
79
330
1F
100
AcDbEntity
  8
_U+30EC_U+30A4_U+30E4_U+30FC 1
 62
   179
420
  2234388
370
     9
100
AcDb2dPolyline
 66
     1
 10
0.0
 20
0.0
 30
0.0
  0
VERTEX
  5
7A
330
79
100
AcDbEntity
  8
_U+30EC_U+30A4_U+30E4_U+30FC 1
 62
   179
420
  2234388
370
     9
100
AcDbVertex
100
AcDb2dVertex
 10
81.50648331295685
 20
-121.3879405252086
 30
0.0
  0
VERTEX
  5
7B
330
79
100
AcDbEntity
  8
_U+30EC_U+30A4_U+30E4_U+30FC 1
 62
   179
420
  2234388
370
     9
100
AcDbVertex
100
AcDb2dVertex
 10
81.50648331295685
 20
-118.9281269147124
 30
0.0
  0
SEQEND
  5
7C
330
79
100
AcDbEntity
  8
_U+30EC_U+30A4_U+30E4_U+30FC 1
 62
   179
420
  2234388
370
     9
  0
POLYLINE
  5
7D
330
1F
100
AcDbEntity
  8
_U+30EC_U+30A4_U+30E4_U+30FC 1
 62
   179
420
  2234388
370
     9
100
AcDb2dPolyline
 66
     1
 10
0.0
 20
0.0
 30
0.0
  0
VERTEX
  5
7E
330
7D
100
AcDbEntity
  8
_U+30EC_U+30A4_U+30E4_U+30FC 1
 62
   179
420
  2234388
370
     9
100
AcDbVertex
100
AcDb2dVertex
 10
89.50666966093907
 20
-121.3879405252086
 30
0.0
  0
VERTEX
  5
7F
330
7D
100
AcDbEntity
  8
_U+30EC_U+30A4_U+30E4_U+30FC 1
 62
   179
420
  2234388
370
     9
100
AcDbVertex
100
AcDb2dVertex
 10
89.50666966093907
 20
-118.9281269147124
 30
0.0
  0
SEQEND
  5
80
330
7D
100
AcDbEntity
  8
_U+30EC_U+30A4_U+30E4_U+30FC 1
 62
   179
420
  2234388
370
     9
  0
INSERT
  5
82
330
1F
100
AcDbEntity
  8
_U+30EC_U+30A4_U+30E4_U+30FC 1
100
AcDbBlockReference
  2
block 2
 10
0.0
 20
0.0
 30
0.0
  0
POLYLINE
  5
89
330
1F
100
AcDbEntity
  8
_U+30EC_U+30A4_U+30E4_U+30FC 1
 62
   179
420
  2234388
370
     9
100
AcDb2dPolyline
 66
     1
 10
0.0
 20
0.0
 30
0.0
  0
VERTEX
  5
8A
330
89
100
AcDbEntity
  8
_U+30EC_U+30A4_U+30E4_U+30FC 1
 62
   179
420
  2234388
370
     9
100
AcDbVertex
100
AcDb2dVertex
 10
81.50648331295685
 20
-138.5348807986996
 30
0.0
  0
VERTEX
  5
8B
330
89
100
AcDbEntity
  8
_U+30EC_U+30A4_U+30E4_U+30FC 1
 62
   179
420
  2234388
370
     9
100
AcDbVertex
100
AcDb2dVertex
 10
99.50710801691774
 20
-138.5348807986996
 30
0.0
  0
SEQEND
  5
8C
330
89
100
AcDbEntity
  8
_U+30EC_U+30A4_U+30E4_U+30FC 1
 62
   179
420
  2234388
370
     9
  0
POLYLINE
  5
8D
330
1F
100
AcDbEntity
  8
_U+30EC_U+30A4_U+30E4_U+30FC 1
 62
   179
420
  2234388
370
     9
100
AcDb2dPolyline
 66
     1
 10
0.0
 20
0.0
 30
0.0
  0
VERTEX
  5
8E
330
8D
100
AcDbEntity
  8
_U+30EC_U+30A4_U+30E4_U+30FC 1
 62
   179
420
  2234388
370
     9
100
AcDbVertex
100
AcDb2dVertex
 10
81.50648331295685
 20
-137.0748394101759
 30
0.0
  0
VERTEX
  5
8F
330
8D
100
AcDbEntity
  8
_U+30EC_U+30A4_U+30E4_U+30FC 1
 62
   179
420
  2234388
370
     9
100
AcDbVertex
100
AcDb2dVertex
 10
81.50648331295685
 20
-139.5353232984495
 30
0.0
  0
SEQEND
  5
90
330
8D
100
AcDbEntity
  8
_U+30EC_U+30A4_U+30E4_U+30FC 1
 62
   179
420
  2234388
370
     9
  0
POLYLINE
  5
91
330
1F
100
AcDbEntity
  8
_U+30EC_U+30A4_U+30E4_U+30FC 1
 62
   179
420
  2234388
370
     9
100
AcDb2dPolyline
 66
     1
 10
0.0
 20
0.0
 30
0.0
  0
VERTEX
  5
92
330
91
100
AcDbEntity
  8
_U+30EC_U+30A4_U+30E4_U+30FC 1
 62
   179
420
  2234388
370
     9
100
AcDbVertex
100
AcDb2dVertex
 10
99.50710801691774
 20
-137.0748394101759
 30
0.0
  0
VERTEX
  5
93
330
91
100
AcDbEntity
  8
_U+30EC_U+30A4_U+30E4_U+30FC 1
 62
   179
420
  2234388
370
     9
100
AcDbVertex
100
AcDb2dVertex
 10
99.50710801691774
 20
-139.5353232984495
 30
0.0
  0
SEQEND
  5
94
330
91
100
AcDbEntity
  8
_U+30EC_U+30A4_U+30E4_U+30FC 1
 62
   179
420
  2234388
370
     9
  0
INSERT
  5
96
330
1F
100
AcDbEntity
  8
_U+30EC_U+30A4_U+30E4_U+30FC 1
100
AcDbBlockReference
  2
block 3
 10
0.0
 20
0.0
 30
0.0
  0
POLYLINE
  5
9F
330
1F
100
AcDbEntity
  8
_U+30EC_U+30A4_U+30E4_U+30FC 1
 62
   179
420
  2234388
370
     9
100
AcDb2dPolyline
 66
     1
 10
0.0
 20
0.0
 30
0.0
  0
VERTEX
  5
A0
330
9F
100
AcDbEntity
  8
_U+30EC_U+30A4_U+30E4_U+30FC 1
 62
   179
420
  2234388
370
     9
100
AcDbVertex
100
AcDb2dVertex
 10
103.506867081542
 20
-134.5347688552549
 30
0.0
  0
VERTEX
  5
A1
330
9F
100
AcDbEntity
  8
_U+30EC_U+30A4_U+30E4_U+30FC 1
 62
   179
420
  2234388
370
     9
100
AcDbVertex
100
AcDb2dVertex
 10
103.506867081542
 20
-139.7926746872738
 30
0.0
  0
SEQEND
  5
A2
330
9F
100
AcDbEntity
  8
_U+30EC_U+30A4_U+30E4_U+30FC 1
 62
   179
420
  2234388
370
     9
  0
POLYLINE
  5
A3
330
1F
100
AcDbEntity
  8
_U+30EC_U+30A4_U+30E4_U+30FC 1
 62
   179
420
  2234388
370
     9
100
AcDb2dPolyline
 66
     1
 10
0.0
 20
0.0
 30
0.0
  0
VERTEX
  5
A4
330
A3
100
AcDbEntity
  8
_U+30EC_U+30A4_U+30E4_U+30FC 1
 62
   179
420
  2234388
370
     9
100
AcDbVertex
100
AcDb2dVertex
 10
103.506867081542
 20
-134.5347688552549
 30
0.0
  0
VERTEX
  5
A5
330
A3
100
AcDbEntity
  8
_U+30EC_U+30A4_U+30E4_U+30FC 1
 62
   179
420
  2234388
370
     9
100
AcDbVertex
100
AcDb2dVertex
 10
103.506867081542
 20
-133.8347166332079
 30
0.0
  0
SEQEND
  5
A6
330
A3
100
AcDbEntity
  8
_U+30EC_U+30A4_U+30E4_U+30FC 1
 62
   179
420
  2234388
370
     9
  0
POLYLINE
  5
A7
330
1F
100
AcDbEntity
  8
_U+30EC_U+30A4_U+30E4_U+30FC 1
 62
   179
420
  2234388
370
     9
100
AcDb2dPolyline
 66
     1
 10
0.0
 20
0.0
 30
0.0
  0
VERTEX
  5
A8
330
A7
100
AcDbEntity
  8
_U+30EC_U+30A4_U+30E4_U+30FC 1
 62
   179
420
  2234388
370
     9
100
AcDbVertex
100
AcDb2dVertex
 10
102.0468257299019
 20
-134.5347688552549
 30
0.0
  0
VERTEX
  5
A9
330
A7
100
AcDbEntity
  8
_U+30EC_U+30A4_U+30E4_U+30FC 1
 62
   179
420
  2234388
370
     9
100
AcDbVertex
100
AcDb2dVertex
 10
104.5073095560186
 20
-134.5347688552549
 30
0.0
  0
SEQEND
  5
AA
330
A7
100
AcDbEntity
  8
_U+30EC_U+30A4_U+30E4_U+30FC 1
 62
   179
420
  2234388
370
     9
  0
POLYLINE
  5
AB
330
1F
100
AcDbEntity
  8
_U+30EC_U+30A4_U+30E4_U+30FC 1
 62
   179
420
  2234388
370
     9
100
AcDb2dPolyline
 66
     1
 10
0.0
 20
0.0
 30
0.0
  0
VERTEX
  5
AC
330
AB
100
AcDbEntity
  8
_U+30EC_U+30A4_U+30E4_U+30FC 1
 62
   179
420
  2234388
370
     9
100
AcDbVertex
100
AcDb2dVertex
 10
101.7918732364063
 20
-133.8347166332079
 30
0.0
  0
VERTEX
  5
AD
330
AB
100
AcDbEntity
  8
_U+30EC_U+30A4_U+30E4_U+30FC 1
 62
   179
420
  2234388
370
     9
100
AcDbVertex
100
AcDb2dVertex
 10
104.5073095560186
 20
-133.8347166332079
 30
0.0
  0
SEQEND
  5
AE
330
AB
100
AcDbEntity
  8
_U+30EC_U+30A4_U+30E4_U+30FC 1
 62
   179
420
  2234388
370
     9
  0
INSERT
  5
B0
330
1F
100
AcDbEntity
  8
_U+30EC_U+30A4_U+30E4_U+30FC 1
100
AcDbBlockReference
  2
block 4
 10
0.0
 20
0.0
 30
0.0
  0
POLYLINE
  5
C0
330
1F
100
AcDbEntity
  8
_U+30EC_U+30A4_U+30E4_U+30FC 1
 62
   179
420
  2234388
370
     9
100
AcDb2dPolyline
 66
     1
 10
0.0
 20
0.0
 30
0.0
  0
VERTEX
  5
C1
330
C0
100
AcDbEntity
  8
_U+30EC_U+30A4_U+30E4_U+30FC 1
 62
   179
420
  2234388
370
     9
100
AcDbVertex
100
AcDb2dVertex
 10
81.50648331295685
 20
-131.9278821892404
 30
0.0
  0
VERTEX
  5
C2
330
C0
100
AcDbEntity
  8
_U+30EC_U+30A4_U+30E4_U+30FC 1
 62
   179
420
  2234388
370
     9
100
AcDbVertex
100
AcDb2dVertex
 10
77.73616885011845
 20
-131.9278821892404
 30
0.0
  0
SEQEND
  5
C3
330
C0
100
AcDbEntity
  8
_U+30EC_U+30A4_U+30E4_U+30FC 1
 62
   179
420
  2234388
370
     9
  0
POLYLINE
  5
C4
330
1F
100
AcDbEntity
  8
_U+30EC_U+30A4_U+30E4_U+30FC 1
 62
   179
420
  2234388
370
     9
100
AcDb2dPolyline
 66
     1
 10
0.0
 20
0.0
 30
0.0
  0
VERTEX
  5
C5
330
C4
100
AcDbEntity
  8
_U+30EC_U+30A4_U+30E4_U+30FC 1
 62
   179
420
  2234388
370
     9
100
AcDbVertex
100
AcDb2dVertex
 10
81.50648331295685
 20
-131.9278821892404
 30
0.0
  0
VERTEX
  5
C6
330
C4
100
AcDbEntity
  8
_U+30EC_U+30A4_U+30E4_U+30FC 1
 62
   179
420
  2234388
370
     9
100
AcDbVertex
100
AcDb2dVertex
 10
83.50669592512226
 20
-131.9278821892404
 30
0.0
  0
SEQEND
  5
C7
330
C4
100
AcDbEntity
  8
_U+30EC_U+30A4_U+30E4_U+30FC 1
 62
   179
420
  2234388
370
     9
  0
INSERT
  5
C9
330
1F
100
AcDbEntity
  8
_U+30EC_U+30A4_U+30E4_U+30FC 1
100
AcDbBlockReference
  2
block 5
 10
0.0
 20
0.0
 30
0.0
  0
POLYLINE
  5
CE
330
1F
100
AcDbEntity
  8
_U+30EC_U+30A4_U+30E4_U+30FC 1
 62
   179
420
  2234388
370
     9
100
AcDb2dPolyline
 66
     1
 10
0.0
 20
0.0
 30
0.0
  0
VERTEX
  5
CF
330
CE
100
AcDbEntity
  8
_U+30EC_U+30A4_U+30E4_U+30FC 1
 62
   179
420
  2234388
370
     9
100
AcDbVertex
100
AcDb2dVertex
 10
92.50665652884746
 20
-131.9278821892404
 30
0.0
  0
VERTEX
  5
D0
330
CE
100
AcDbEntity
  8
_U+30EC_U+30A4_U+30E4_U+30FC 1
 62
   179
420
  2234388
370
     9
100
AcDbVertex
100
AcDb2dVertex
 10
99.50710801691774
 20
-131.9278821892404
 30
0.0
  0
SEQEND
  5
D1
330
CE
100
AcDbEntity
  8
_U+30EC_U+30A4_U+30E4_U+30FC 1
 62
   179
420
  2234388
370
     9
  0
POLYLINE
  5
D2
330
1F
100
AcDbEntity
  8
_U+30EC_U+30A4_U+30E4_U+30FC 1
 62
   179
420
  2234388
370
     9
100
AcDb2dPolyline
 66
     1
 10
0.0
 20
0.0
 30
0.0
  0
VERTEX
  5
D3
330
D2
100
AcDbEntity
  8
_U+30EC_U+30A4_U+30E4_U+30FC 1
 62
   179
420
  2234388
370
     9
100
AcDbVertex
100
AcDb2dVertex
 10
92.50665652884746
 20
-132.3881160780141
 30
0.0
  0
VERTEX
  5
D4
330
D2
100
AcDbEntity
  8
_U+30EC_U+30A4_U+30E4_U+30FC 1
 62
   179
420
  2234388
370
     9
100
AcDbVertex
100
AcDb2dVertex
 10
92.50665652884746
 20
-130.9281099672679
 30
0.0
  0
SEQEND
  5
D5
330
D2
100
AcDbEntity
  8
_U+30EC_U+30A4_U+30E4_U+30FC 1
 62
   179
420
  2234388
370
     9
  0
POLYLINE
  5
D6
330
1F
100
AcDbEntity
  8
_U+30EC_U+30A4_U+30E4_U+30FC 1
 62
   179
420
  2234388
370
     9
100
AcDb2dPolyline
 66
     1
 10
0.0
 20
0.0
 30
0.0
  0
VERTEX
  5
D7
330
D6
100
AcDbEntity
  8
_U+30EC_U+30A4_U+30E4_U+30FC 1
 62
   179
420
  2234388
370
     9
100
AcDbVertex
100
AcDb2dVertex
 10
99.50710801691774
 20
-133.3878882999867
 30
0.0
  0
VERTEX
  5
D8
330
D6
100
AcDbEntity
  8
_U+30EC_U+30A4_U+30E4_U+30FC 1
 62
   179
420
  2234388
370
     9
100
AcDbVertex
100
AcDb2dVertex
 10
99.50710801691774
 20
-130.9281099672679
 30
0.0
  0
SEQEND
  5
D9
330
D6
100
AcDbEntity
  8
_U+30EC_U+30A4_U+30E4_U+30FC 1
 62
   179
420
  2234388
370
     9
  0
INSERT
  5
DB
330
1F
100
AcDbEntity
  8
_U+30EC_U+30A4_U+30E4_U+30FC 1
100
AcDbBlockReference
  2
block 6
 10
0.0
 20
0.0
 30
0.0
  0
POLYLINE
  5
E0
330
1F
100
AcDbEntity
  8
_U+30EC_U+30A4_U+30E4_U+30FC 1
 62
   179
420
  2234388
370
     9
100
AcDb2dPolyline
 66
     1
 10
0.0
 20
0.0
 30
0.0
  0
VERTEX
  5
E1
330
E0
100
AcDbEntity
  8
_U+30EC_U+30A4_U+30E4_U+30FC 1
 62
   179
420
  2234388
370
     9
100
AcDbVertex
100
AcDb2dVertex
 10
103.506867081542
 20
-124.9281360798792
 30
0.0
  0
VERTEX
  5
E2
330
E0
100
AcDbEntity
  8
_U+30EC_U+30A4_U+30E4_U+30FC 1
 62
   179
420
  2234388
370
     9
100
AcDbVertex
100
AcDb2dVertex
 10
103.506867081542
 20
-133.4278580221985
 30
0.0
  0
SEQEND
  5
E3
330
E0
100
AcDbEntity
  8
_U+30EC_U+30A4_U+30E4_U+30FC 1
 62
   179
420
  2234388
370
     9
  0
POLYLINE
  5
E4
330
1F
100
AcDbEntity
  8
_U+30EC_U+30A4_U+30E4_U+30FC 1
 62
   179
420
  2234388
370
     9
100
AcDb2dPolyline
 66
     1
 10
0.0
 20
0.0
 30
0.0
  0
VERTEX
  5
E5
330
E4
100
AcDbEntity
  8
_U+30EC_U+30A4_U+30E4_U+30FC 1
 62
   179
420
  2234388
370
     9
100
AcDbVertex
100
AcDb2dVertex
 10
92.41087736462433
 20
-124.9281360798792
 30
0.0
  0
VERTEX
  5
E6
330
E4
100
AcDbEntity
  8
_U+30EC_U+30A4_U+30E4_U+30FC 1
 62
   179
420
  2234388
370
     9
100
AcDbVertex
100
AcDb2dVertex
 10
104.5073095560186
 20
-124.9281360798792
 30
0.0
  0
SEQEND
  5
E7
330
E4
100
AcDbEntity
  8
_U+30EC_U+30A4_U+30E4_U+30FC 1
 62
   179
420
  2234388
370
     9
  0
POLYLINE
  5
E8
330
1F
100
AcDbEntity
  8
_U+30EC_U+30A4_U+30E4_U+30FC 1
 62
   179
420
  2234388
370
     9
100
AcDb2dPolyline
 66
     1
 10
0.0
 20
0.0
 30
0.0
  0
VERTEX
  5
E9
330
E8
100
AcDbEntity
  8
_U+30EC_U+30A4_U+30E4_U+30FC 1
 62
   179
420
  2234388
370
     9
100
AcDbVertex
100
AcDb2dVertex
 10
95.04640951960852
 20
-133.534326355505
 30
0.0
  0
VERTEX
  5
EA
330
E8
100
AcDbEntity
  8
_U+30EC_U+30A4_U+30E4_U+30FC 1
 62
   179
420
  2234388
370
     9
100
AcDbVertex
100
AcDb2dVertex
 10
104.5073095560186
 20
-133.534326355505
 30
0.0
  0
SEQEND
  5
EB
330
E8
100
AcDbEntity
  8
_U+30EC_U+30A4_U+30E4_U+30FC 1
 62
   179
420
  2234388
370
     9
  0
INSERT
  5
ED
330
1F
100
AcDbEntity
  8
_U+30EC_U+30A4_U+30E4_U+30FC 1
100
AcDbBlockReference
  2
block 7
 10
0.0
 20
0.0
 30
0.0
  0
ENDSEC
  0
SECTION
  2
OBJECTS
  0
DICTIONARY
  5
C
330
0
100
AcDbDictionary
281
     1
  3
ACAD_GROUP
350
D
  3
ACAD_LAYOUT
350
1A
  3
ACAD_MATERIAL
350
3B
  3
ACAD_MLEADERSTYLE
350
FF
  3
ACAD_MLINESTYLE
350
17
  3
ACAD_PLOTSETTINGS
350
19
  3
ACAD_PLOTSTYLENAME
350
E
  3
ACAD_TABLESTYLE
350
FE
  3
ACAD_VISUALSTYLE
350
2A
  0
SUN
  5
3F
330
29
100
AcDbSun
 90
        1
290
     0
 63
     7
421
 16777215
 40
1.0
291
     1
 91
  2455826
 92
 54000000
292
     0
 70
     2
 71
   256
280
     1
  0
DICTIONARY
  5
D
102
{ACAD_REACTORS
330
C
102
}
330
C
100
AcDbDictionary
281
     1
  0
DICTIONARY
  5
1A
102
{ACAD_REACTORS
330
C
102
}
330
C
100
AcDbDictionary
281
     1
  3
Layout1
350
1E
  3
Layout2
350
26
  3
Model
350
22
  0
DICTIONARY
  5
3B
102
{ACAD_REACTORS
330
C
102
}
330
C
100
AcDbDictionary
281
     1
  3
ByBlock
350
3D
  3
ByLayer
350
3C
  3
Global
350
3E
  0
DICTIONARY
  5
FF
102
{ACAD_REACTORS
330
C
102
}
330
C
100
AcDbDictionary
281
     1
  0
DICTIONARY
  5
17
102
{ACAD_REACTORS
330
C
102
}
330
C
100
AcDbDictionary
281
     1
  3
Standard
350
18
  0
DICTIONARY
  5
19
102
{ACAD_REACTORS
330
C
102
}
330
C
100
AcDbDictionary
281
     1
  0
ACDBDICTIONARYWDFLT
  5
E
102
{ACAD_REACTORS
330
C
102
}
330
C
100
AcDbDictionary
281
     1
  3
Normal
350
F
100
AcDbDictionaryWithDefault
340
F
  0
DICTIONARY
  5
FE
102
{ACAD_REACTORS
330
C
102
}
330
C
100
AcDbDictionary
281
     1
  0
DICTIONARY
  5
2A
102
{ACAD_REACTORS
330
C
102
}
330
C
100
AcDbDictionary
281
     1
  3
2dWireframe
350
2F
  3
3D Hidden
350
31
  3
3dWireframe
350
30
  3
Basic
350
32
  3
Brighten
350
36
  3
ColorChange
350
3A
  3
Conceptual
350
34
  3
Dim
350
35
  3
Facepattern
350
39
  3
Flat
350
2B
  3
FlatWithEdges
350
2C
  3
Gouraud
350
2D
  3
GouraudWithEdges
350
2E
  3
Linepattern
350
38
  3
Realistic
350
33
  3
Thicken
350
37
  0
LAYOUT
  5
1E
102
{ACAD_REACTORS
330
1A
102
}
330
1A
100
AcDbPlotSettings
  1

  2
none_device
  4

  6

 40
0.0
 41
0.0
 42
0.0
 43
0.0
 44
0.0
 45
0.0
 46
0.0
 47
0.0
 48
0.0
 49
0.0
140
0.0
141
0.0
142
1.0
143
1.0
 70
   688
 72
     0
 73
     0
 74
     5
  7

 75
    16
 76
     0
 77
     2
 78
   300
147
1.0
148
0.0
149
0.0
100
AcDbLayout
  1
Layout1
 70
     1
 71
     1
 10
0.0
 20
0.0
 11
12.0
 21
9.0
 12
0.0
 22
0.0
 32
0.0
 14
1.000000000000000E+20
 24
1.000000000000000E+20
 34
1.000000000000000E+20
 15
-1.000000000000000E+20
 25
-1.000000000000000E+20
 35
-1.000000000000000E+20
146
0.0
 13
0.0
 23
0.0
 33
0.0
 16
1.0
 26
0.0
 36
0.0
 17
0.0
 27
1.0
 37
0.0
 76
     0
330
1B
  0
LAYOUT
  5
26
102
{ACAD_REACTORS
330
1A
102
}
330
1A
100
AcDbPlotSettings
  1

  2
none_device
  4

  6

 40
0.0
 41
0.0
 42
0.0
 43
0.0
 44
0.0
 45
0.0
 46
0.0
 47
0.0
 48
0.0
 49
0.0
140
0.0
141
0.0
142
1.0
143
1.0
 70
   688
 72
     0
 73
     0
 74
     5
  7

 75
    16
 76
     0
 77
     2
 78
   300
147
1.0
148
0.0
149
0.0
100
AcDbLayout
  1
Layout2
 70
     1
 71
     2
 10
0.0
 20
0.0
 11
0.0
 21
0.0
 12
0.0
 22
0.0
 32
0.0
 14
0.0
 24
0.0
 34
0.0
 15
0.0
 25
0.0
 35
0.0
146
0.0
 13
0.0
 23
0.0
 33
0.0
 16
1.0
 26
0.0
 36
0.0
 17
0.0
 27
1.0
 37
0.0
 76
     0
330
23
  0
LAYOUT
  5
22
102
{ACAD_REACTORS
330
1A
102
}
330
1A
100
AcDbPlotSettings
  1

  2
none_device
  4

  6

 40
0.0
 41
0.0
 42
0.0
 43
0.0
 44
0.0
 45
0.0
 46
0.0
 47
0.0
 48
0.0
 49
0.0
140
0.0
141
0.0
142
1.0
143
1.0
 70
  1712
 72
     0
 73
     0
 74
     0
  7

 75
     0
 76
     0
 77
     2
 78
   300
147
1.0
148
0.0
149
0.0
100
AcDbLayout
  1
Model
 70
     1
 71
     0
 10
0.0
 20
0.0
 11
12.0
 21
9.0
 12
0.0
 22
0.0
 32
0.0
 14
1.000000000000000E+20
 24
1.000000000000000E+20
 34
1.000000000000000E+20
 15
-1.000000000000000E+20
 25
-1.000000000000000E+20
 35
-1.000000000000000E+20
146
0.0
 13
0.0
 23
0.0
 33
0.0
 16
1.0
 26
0.0
 36
0.0
 17
0.0
 27
1.0
 37
0.0
 76
     0
330
1F
331
29
  0
MATERIAL
  5
3D
102
{ACAD_REACTORS
330
3B
102
}
330
3B
100
AcDbMaterial
  1
ByBlock
 72
     1
 94
      127
  0
MATERIAL
  5
3C
102
{ACAD_REACTORS
330
3B
102
}
330
3B
100
AcDbMaterial
  1
ByLayer
 72
     1
 94
      127
  0
MATERIAL
  5
3E
102
{ACAD_REACTORS
330
3B
102
}
330
3B
100
AcDbMaterial
  1
Global
 72
     1
 94
      127
  0
MLINESTYLE
  5
18
102
{ACAD_REACTORS
330
17
102
}
330
17
100
AcDbMlineStyle
  2
Standard
 70
     0
  3

 62
   256
 51
90.0
 52
90.0
 71
     2
 49
0.5
 62
   256
  6
BYLAYER
 49
-0.5
 62
   256
  6
BYLAYER
  0
ACDBPLACEHOLDER
  5
F
102
{ACAD_REACTORS
330
E
102
}
330
E
  0
VISUALSTYLE
  5
2F
102
{ACAD_REACTORS
330
2A
102
}
330
2A
100
AcDbVisualStyle
  2
2dWireframe
 70
     4
177
     2
291
     0
 71
     0
176
     1
 72
     2
176
     1
 73
     0
176
     1
 90
        0
176
     1
 40
-0.6
176
     1
 41
-30.0
176
     1
 62
     5
 63
     7
421
 16777215
176
     1
 74
     1
176
     1
 91
        4
176
     1
 64
     7
176
     1
 65
   257
176
     1
 75
     1
176
     1
175
     1
176
     1
 42
1.0
176
     1
 92
        0
176
     1
 66
   257
176
     1
 43
1.0
176
     1
 76
     1
176
     1
 77
     6
176
     1
 78
     2
176
     1
 67
     7
176
     1
 79
     5
176
     1
170
     0
176
     1
171
     0
176
     1
290
     0
176
     1
 93
        1
176
     1
 44
0.0
176
     1
173
     0
176
     1
  0
VISUALSTYLE
  5
31
102
{ACAD_REACTORS
330
2A
102
}
330
2A
100
AcDbVisualStyle
  2
3D Hidden
 70
     6
177
     2
291
     0
 71
     1
176
     1
 72
     2
176
     1
 73
     2
176
     1
 90
        0
176
     1
 40
-0.6
176
     1
 41
-30.0
176
     1
 62
     5
 63
     7
421
 16777215
176
     1
 74
     2
176
     1
 91
        2
176
     1
 64
     7
176
     1
 65
   257
176
     1
 75
     2
176
     1
175
     1
176
     1
 42
40.0
176
     1
 92
        0
176
     1
 66
   257
176
     1
 43
1.0
176
     1
 76
     1
176
     1
 77
     6
176
     1
 78
     2
176
     1
 67
     7
176
     1
 79
     3
176
     1
170
     0
176
     1
171
     0
176
     1
290
     0
176
     1
 93
        1
176
     1
 44
0.0
176
     1
173
     0
176
     1
  0
VISUALSTYLE
  5
30
102
{ACAD_REACTORS
330
2A
102
}
330
2A
100
AcDbVisualStyle
  2
3dWireframe
 70
     5
177
     2
291
     0
 71
     0
176
     1
 72
     2
176
     1
 73
     0
176
     1
 90
        0
176
     1
 40
-0.6
176
     1
 41
-30.0
176
     1
 62
     5
 63
     7
421
 16777215
176
     1
 74
     1
176
     1
 91
        4
176
     1
 64
     7
176
     1
 65
   257
176
     1
 75
     1
176
     1
175
     1
176
     1
 42
1.0
176
     1
 92
        0
176
     1
 66
   257
176
     1
 43
1.0
176
     1
 76
     1
176
     1
 77
     6
176
     1
 78
     2
176
     1
 67
     7
176
     1
 79
     5
176
     1
170
     0
176
     1
171
     0
176
     1
290
     0
176
     1
 93
        1
176
     1
 44
0.0
176
     1
173
     0
176
     1
  0
VISUALSTYLE
  5
32
102
{ACAD_REACTORS
330
2A
102
}
330
2A
100
AcDbVisualStyle
  2
Basic
 70
     7
177
     2
291
     1
 71
     1
176
     1
 72
     0
176
     1
 73
     1
176
     1
 90
        0
176
     1
 40
-0.6
176
     1
 41
-30.0
176
     1
 62
     5
 63
     7
421
 16777215
176
     1
 74
     0
176
     1
 91
        4
176
     1
 64
     7
176
     1
 65
   257
176
     1
 75
     1
176
     1
175
     1
176
     1
 42
1.0
176
     1
 92
        8
176
     1
 66
     7
176
     1
 43
1.0
176
     1
 76
     1
176
     1
 77
     6
176
     1
 78
     2
176
     1
 67
     7
176
     1
 79
     5
176
     1
170
     0
176
     1
171
     0
176
     1
290
     0
176
     1
 93
        1
176
     1
 44
0.0
176
     1
173
     0
176
     1
  0
VISUALSTYLE
  5
36
102
{ACAD_REACTORS
330
2A
102
}
330
2A
100
AcDbVisualStyle
  2
Brighten
 70
    12
177
     2
291
     1
 71
     2
176
     1
 72
     2
176
     1
 73
     0
176
     1
 90
        0
176
     1
 40
-0.6
176
     1
 41
-30.0
176
     1
 62
     5
 63
     7
421
 16777215
176
     1
 74
     1
176
     1
 91
        4
176
     1
 64
     7
176
     1
 65
   257
176
     1
 75
     1
176
     1
175
     1
176
     1
 42
1.0
176
     1
 92
        8
176
     1
 66
     7
176
     1
 43
1.0
176
     1
 76
     1
176
     1
 77
     6
176
     1
 78
     2
176
     1
 67
     7
176
     1
 79
     5
176
     1
170
     0
176
     1
171
     0
176
     1
290
     0
176
     1
 93
        1
176
     1
 44
50.0
176
     1
173
     0
176
     1
  0
VISUALSTYLE
  5
3A
102
{ACAD_REACTORS
330
2A
102
}
330
2A
100
AcDbVisualStyle
  2
ColorChange
 70
    16
177
     2
291
     1
 71
     2
176
     1
 72
     2
176
     1
 73
     3
176
     1
 90
        0
176
     1
 40
-0.6
176
     1
 41
-30.0
176
     1
 62
     5
 63
     8
421
  8421504
176
     1
 74
     1
176
     1
 91
        4
176
     1
 64
     7
176
     1
 65
   257
176
     1
 75
     1
176
     1
175
     1
176
     1
 42
1.0
176
     1
 92
        8
176
     1
 66
     8
424
  8421504
176
     1
 43
1.0
176
     1
 76
     1
176
     1
 77
     6
176
     1
 78
     2
176
     1
 67
     7
176
     1
 79
     5
176
     1
170
     0
176
     1
171
     0
176
     1
290
     0
176
     1
 93
        1
176
     1
 44
0.0
176
     1
173
     0
176
     1
  0
VISUALSTYLE
  5
34
102
{ACAD_REACTORS
330
2A
102
}
330
2A
100
AcDbVisualStyle
  2
Conceptual
 70
     9
177
     2
291
     0
 71
     3
176
     1
 72
     2
176
     1
 73
     0
176
     1
 90
        0
176
     1
 40
-0.6
176
     1
 41
-30.0
176
     1
 62
     5
 63
     7
421
 16777215
176
     1
 74
     2
176
     1
 91
        2
176
     1
 64
     7
176
     1
 65
   257
176
     1
 75
     1
176
     1
175
     1
176
     1
 42
40.0
176
     1
 92
        8
176
     1
 66
     7
176
     1
 43
1.0
176
     1
 76
     1
176
     1
 77
     6
176
     1
 78
     2
176
     1
 67
     7
176
     1
 79
     3
176
     1
170
     0
176
     1
171
     0
176
     1
290
     0
176
     1
 93
        1
176
     1
 44
0.0
176
     1
173
     0
176
     1
  0
VISUALSTYLE
  5
35
102
{ACAD_REACTORS
330
2A
102
}
330
2A
100
AcDbVisualStyle
  2
Dim
 70
    11
177
     2
291
     1
 71
     2
176
     1
 72
     2
176
     1
 73
     0
176
     1
 90
        0
176
     1
 40
-0.6
176
     1
 41
-30.0
176
     1
 62
     5
 63
     7
421
 16777215
176
     1
 74
     1
176
     1
 91
        4
176
     1
 64
     7
176
     1
 65
   257
176
     1
 75
     1
176
     1
175
     1
176
     1
 42
1.0
176
     1
 92
        8
176
     1
 66
     7
176
     1
 43
1.0
176
     1
 76
     1
176
     1
 77
     6
176
     1
 78
     2
176
     1
 67
     7
176
     1
 79
     5
176
     1
170
     0
176
     1
171
     0
176
     1
290
     0
176
     1
 93
        1
176
     1
 44
-50.0
176
     1
173
     0
176
     1
  0
VISUALSTYLE
  5
39
102
{ACAD_REACTORS
330
2A
102
}
330
2A
100
AcDbVisualStyle
  2
Facepattern
 70
    15
177
     2
291
     1
 71
     2
176
     1
 72
     2
176
     1
 73
     0
176
     1
 90
        0
176
     1
 40
-0.6
176
     1
 41
-30.0
176
     1
 62
     5
 63
     7
421
 16777215
176
     1
 74
     1
176
     1
 91
        4
176
     1
 64
     7
176
     1
 65
   257
176
     1
 75
     1
176
     1
175
     1
176
     1
 42
1.0
176
     1
 92
        8
176
     1
 66
     7
176
     1
 43
1.0
176
     1
 76
     1
176
     1
 77
     6
176
     1
 78
     2
176
     1
 67
     7
176
     1
 79
     5
176
     1
170
     0
176
     1
171
     0
176
     1
290
     0
176
     1
 93
        1
176
     1
 44
0.0
176
     1
173
     0
176
     1
  0
VISUALSTYLE
  5
2B
102
{ACAD_REACTORS
330
2A
102
}
330
2A
100
AcDbVisualStyle
  2
Flat
 70
     0
177
     2
291
     1
 71
     2
176
     1
 72
     1
176
     1
 73
     1
176
     1
 90
        2
176
     1
 40
-0.6
176
     1
 41
30.0
176
     1
 62
     5
 63
     7
421
 16777215
176
     1
 74
     0
176
     1
 91
        4
176
     1
 64
     7
176
     1
 65
   257
176
     1
 75
     1
176
     1
175
     1
176
     1
 42
1.0
176
     1
 92
        8
176
     1
 66
     7
176
     1
 43
1.0
176
     1
 76
     1
176
     1
 77
     6
176
     1
 78
     2
176
     1
 67
     7
176
     1
 79
     5
176
     1
170
     0
176
     1
171
     0
176
     1
290
     0
176
     1
 93
       13
176
     1
 44
0.0
176
     1
173
     0
176
     1
  0
VISUALSTYLE
  5
2C
102
{ACAD_REACTORS
330
2A
102
}
330
2A
100
AcDbVisualStyle
  2
FlatWithEdges
 70
     1
177
     2
291
     1
 71
     2
176
     1
 72
     1
176
     1
 73
     1
176
     1
 90
        2
176
     1
 40
-0.6
176
     1
 41
30.0
176
     1
 62
     5
 63
     7
421
 16777215
176
     1
 74
     1
176
     1
 91
        4
176
     1
 64
     7
176
     1
 65
   257
176
     1
 75
     1
176
     1
175
     1
176
     1
 42
1.0
176
     1
 92
        0
176
     1
 66
   257
176
     1
 43
1.0
176
     1
 76
     1
176
     1
 77
     6
176
     1
 78
     2
176
     1
 67
     7
176
     1
 79
     5
176
     1
170
     0
176
     1
171
     0
176
     1
290
     0
176
     1
 93
       13
176
     1
 44
0.0
176
     1
173
     0
176
     1
  0
VISUALSTYLE
  5
2D
102
{ACAD_REACTORS
330
2A
102
}
330
2A
100
AcDbVisualStyle
  2
Gouraud
 70
     2
177
     2
291
     1
 71
     2
176
     1
 72
     2
176
     1
 73
     1
176
     1
 90
        2
176
     1
 40
-0.6
176
     1
 41
30.0
176
     1
 62
     5
 63
     7
421
 16777215
176
     1
 74
     0
176
     1
 91
        4
176
     1
 64
     7
176
     1
 65
   257
176
     1
 75
     1
176
     1
175
     1
176
     1
 42
1.0
176
     1
 92
        0
176
     1
 66
     7
176
     1
 43
1.0
176
     1
 76
     1
176
     1
 77
     6
176
     1
 78
     2
176
     1
 67
     7
176
     1
 79
     5
176
     1
170
     0
176
     1
171
     0
176
     1
290
     0
176
     1
 93
       13
176
     1
 44
0.0
176
     1
173
     0
176
     1
  0
VISUALSTYLE
  5
2E
102
{ACAD_REACTORS
330
2A
102
}
330
2A
100
AcDbVisualStyle
  2
GouraudWithEdges
 70
     3
177
     2
291
     1
 71
     2
176
     1
 72
     2
176
     1
 73
     1
176
     1
 90
        2
176
     1
 40
-0.6
176
     1
 41
30.0
176
     1
 62
     5
 63
     7
421
 16777215
176
     1
 74
     1
176
     1
 91
        4
176
     1
 64
     7
176
     1
 65
   257
176
     1
 75
     1
176
     1
175
     1
176
     1
 42
1.0
176
     1
 92
        0
176
     1
 66
   257
176
     1
 43
1.0
176
     1
 76
     1
176
     1
 77
     6
176
     1
 78
     2
176
     1
 67
     7
176
     1
 79
     5
176
     1
170
     0
176
     1
171
     0
176
     1
290
     0
176
     1
 93
       13
176
     1
 44
0.0
176
     1
173
     0
176
     1
  0
VISUALSTYLE
  5
38
102
{ACAD_REACTORS
330
2A
102
}
330
2A
100
AcDbVisualStyle
  2
Linepattern
 70
    14
177
     2
291
     1
 71
     2
176
     1
 72
     2
176
     1
 73
     0
176
     1
 90
        0
176
     1
 40
-0.6
176
     1
 41
-30.0
176
     1
 62
     5
 63
     7
421
 16777215
176
     1
 74
     1
176
     1
 91
        4
176
     1
 64
     7
176
     1
 65
   257
176
     1
 75
     7
176
     1
175
     7
176
     1
 42
1.0
176
     1
 92
        8
176
     1
 66
     7
176
     1
 43
1.0
176
     1
 76
     1
176
     1
 77
     6
176
     1
 78
     2
176
     1
 67
     7
176
     1
 79
     5
176
     1
170
     0
176
     1
171
     0
176
     1
290
     0
176
     1
 93
        1
176
     1
 44
0.0
176
     1
173
     0
176
     1
  0
VISUALSTYLE
  5
33
102
{ACAD_REACTORS
330
2A
102
}
330
2A
100
AcDbVisualStyle
  2
Realistic
 70
     8
177
     2
291
     0
 71
     2
176
     1
 72
     2
176
     1
 73
     0
176
     1
 90
        0
176
     1
 40
-0.6
176
     1
 41
-30.0
176
     1
 62
     5
 63
     7
421
 16777215
176
     1
 74
     1
176
     1
 91
        0
176
     1
 64
     7
176
     1
 65
   257
176
     1
 75
     1
176
     1
175
     1
176
     1
 42
1.0
176
     1
 92
        8
176
     1
 66
     8
424
  7895160
176
     1
 43
1.0
176
     1
 76
     1
176
     1
 77
     6
176
     1
 78
     2
176
     1
 67
     7
176
     1
 79
     5
176
     1
170
     0
176
     1
171
     0
176
     1
290
     0
176
     1
 93
       13
176
     1
 44
0.0
176
     1
173
     0
176
     1
  0
VISUALSTYLE
  5
37
102
{ACAD_REACTORS
330
2A
102
}
330
2A
100
AcDbVisualStyle
  2
Thicken
 70
    13
177
     2
291
     1
 71
     2
176
     1
 72
     2
176
     1
 73
     0
176
     1
 90
        0
176
     1
 40
-0.6
176
     1
 41
-30.0
176
     1
 62
     5
 63
     7
421
 16777215
176
     1
 74
     1
176
     1
 91
        4
176
     1
 64
     7
176
     1
 65
   257
176
     1
 75
     1
176
     1
175
     1
176
     1
 42
1.0
176
     1
 92
       12
176
     1
 66
     7
176
     1
 43
1.0
176
     1
 76
     1
176
     1
 77
     6
176
     1
 78
     2
176
     1
 67
     7
176
     1
 79
     5
176
     1
170
     0
176
     1
171
     0
176
     1
290
     0
176
     1
 93
        1
176
     1
 44
0.0
176
     1
173
     0
176
     1
  0
ENDSEC
  0
EOF
