  0
SECTION
  2
HEADER
  9
$ACADVER
  1
AC1024
  9
$ACADMAINTVER
 70
     6
  9
$DWGCODEPAGE
  3
UNDEFINED
  9
$INSBASE
 10
0.0
 20
0.0
 30
0.0
  9
$EXTMIN
 10
1.000000000000000E+20
 20
1.000000000000000E+20
 30
1.000000000000000E+20
  9
$EXTMAX
 10
-1.000000000000000E+20
 20
-1.000000000000000E+20
 30
-1.000000000000000E+20
  9
$LIMMIN
 10
0.0
 20
0.0
  9
$LIMMAX
 10
12.0
 20
9.0
  9
$ORTHOMODE
 70
     0
  9
$REGENMODE
 70
     1
  9
$FILLMODE
 70
     1
  9
$QTEXTMODE
 70
     0
  9
$MIRRTEXT
 70
     1
  9
$LTSCALE
 40
1.0
  9
$ATTMODE
 70
     1
  9
$TEXTSIZE
 40
0.2
  9
$TRACEWID
 40
0.05
  9
$TEXTSTYLE
  7
Standard
  9
$CLAYER
  8
0
  9
$CELTYPE
  6
ByLayer
  9
$CECOLOR
 62
   256
  9
$CELTSCALE
 40
1.0
  9
$DISPSILH
 70
     0
  9
$DIMSCALE
 40
1.0
  9
$DIMASZ
 40
0.18
  9
$DIMEXO
 40
0.0625
  9
$DIMDLI
 40
0.38
  9
$DIMRND
 40
0.0
  9
$DIMDLE
 40
0.0
  9
$DIMEXE
 40
0.18
  9
$DIMTP
 40
0.0
  9
$DIMTM
 40
0.0
  9
$DIMTXT
 40
0.18
  9
$DIMCEN
 40
0.09
  9
$DIMTSZ
 40
0.0
  9
$DIMTOL
 70
     0
  9
$DIMLIM
 70
     0
  9
$DIMTIH
 70
     1
  9
$DIMTOH
 70
     1
  9
$DIMSE1
 70
     0
  9
$DIMSE2
 70
     0
  9
$DIMTAD
 70
     0
  9
$DIMZIN
 70
     0
  9
$DIMBLK
  1

  9
$DIMASO
 70
     1
  9
$DIMSHO
 70
     1
  9
$DIMPOST
  1

  9
$DIMAPOST
  1

  9
$DIMALT
 70
     0
  9
$DIMALTD
 70
     2
  9
$DIMALTF
 40
25.4
  9
$DIMLFAC
 40
1.0
  9
$DIMTOFL
 70
     0
  9
$DIMTVP
 40
0.0
  9
$DIMTIX
 70
     0
  9
$DIMSOXD
 70
     0
  9
$DIMSAH
 70
     0
  9
$DIMBLK1
  1

  9
$DIMBLK2
  1

  9
$DIMSTYLE
  2
Standard
  9
$DIMCLRD
 70
     0
  9
$DIMCLRE
 70
     0
  9
$DIMCLRT
 70
     0
  9
$DIMTFAC
 40
1.0
  9
$DIMGAP
 40
0.09
  9
$DIMJUST
 70
     0
  9
$DIMSD1
 70
     0
  9
$DIMSD2
 70
     0
  9
$DIMTOLJ
 70
     1
  9
$DIMTZIN
 70
     0
  9
$DIMALTZ
 70
     0
  9
$DIMALTTZ
 70
     0
  9
$DIMUPT
 70
     0
  9
$DIMDEC
 70
     4
  9
$DIMTDEC
 70
     4
  9
$DIMALTU
 70
     2
  9
$DIMALTTD
 70
     2
  9
$DIMTXSTY
  7
Standard
  9
$DIMAUNIT
 70
     0
  9
$DIMADEC
 70
     0
  9
$DIMALTRND
 40
0.0
  9
$DIMAZIN
 70
     0
  9
$DIMDSEP
 70
    46
  9
$DIMATFIT
 70
     3
  9
$DIMFRAC
 70
     0
  9
$DIMLDRBLK
  1

  9
$DIMLUNIT
 70
     2
  9
$DIMLWD
 70
    -2
  9
$DIMLWE
 70
    -2
  9
$DIMTMOVE
 70
     0
  9
$DIMFXL
 40
1.0
  9
$DIMFXLON
 70
     0
  9
$DIMJOGANG
 40
0.7853981633974483
  9
$DIMTFILL
 70
     0
  9
$DIMTFILLCLR
 70
     0
  9
$DIMARCSYM
 70
     0
  9
$DIMLTYPE
  6

  9
$DIMLTEX1
  6

  9
$DIMLTEX2
  6

  9
$DIMTXTDIRECTION
 70
     0
  9
$LUNITS
 70
     2
  9
$LUPREC
 70
     4
  9
$SKETCHINC
 40
0.1
  9
$FILLETRAD
 40
0.5
  9
$AUNITS
 70
     0
  9
$AUPREC
 70
     0
  9
$MENU
  1
.
  9
$ELEVATION
 40
0.0
  9
$PELEVATION
 40
0.0
  9
$THICKNESS
 40
0.0
  9
$LIMCHECK
 70
     0
  9
$CHAMFERA
 40
0.5
  9
$CHAMFERB
 40
0.5
  9
$CHAMFERC
 40
1.0
  9
$CHAMFERD
 40
0.0
  9
$SKPOLY
 70
     0
  9
$TDCREATE
 40
2457917.593877303
  9
$TDUCREATE
 40
2457917.218877315
  9
$TDUPDATE
 40
2457917.593877303
  9
$TDUUPDATE
 40
2457917.218877315
  9
$TDINDWG
 40
0.0000000116
  9
$TDUSRTIMER
 40
0.0000000116
  9
$USRTIMER
 70
     1
  9
$ANGBASE
 50
0.0
  9
$ANGDIR
 70
     0
  9
$PDMODE
 70
     0
  9
$PDSIZE
 40
0.0
  9
$PLINEWID
 40
0.0
  9
$SPLFRAME
 70
     0
  9
$SPLINETYPE
 70
     6
  9
$SPLINESEGS
 70
     8
  9
$HANDSEED
  5
B6
  9
$SURFTAB1
 70
     6
  9
$SURFTAB2
 70
     6
  9
$SURFTYPE
 70
     6
  9
$SURFU
 70
     6
  9
$SURFV
 70
     6
  9
$UCSBASE
  2

  9
$UCSNAME
  2

  9
$UCSORG
 10
0.0
 20
0.0
 30
0.0
  9
$UCSXDIR
 10
1.0
 20
0.0
 30
0.0
  9
$UCSYDIR
 10
0.0
 20
1.0
 30
0.0
  9
$UCSORTHOREF
  2

  9
$UCSORTHOVIEW
 70
     0
  9
$UCSORGTOP
 10
0.0
 20
0.0
 30
0.0
  9
$UCSORGBOTTOM
 10
0.0
 20
0.0
 30
0.0
  9
$UCSORGLEFT
 10
0.0
 20
0.0
 30
0.0
  9
$UCSORGRIGHT
 10
0.0
 20
0.0
 30
0.0
  9
$UCSORGFRONT
 10
0.0
 20
0.0
 30
0.0
  9
$UCSORGBACK
 10
0.0
 20
0.0
 30
0.0
  9
$PUCSBASE
  2

  9
$PUCSNAME
  2

  9
$PUCSORG
 10
0.0
 20
0.0
 30
0.0
  9
$PUCSXDIR
 10
1.0
 20
0.0
 30
0.0
  9
$PUCSYDIR
 10
0.0
 20
1.0
 30
0.0
  9
$PUCSORTHOREF
  2

  9
$PUCSORTHOVIEW
 70
     0
  9
$PUCSORGTOP
 10
0.0
 20
0.0
 30
0.0
  9
$PUCSORGBOTTOM
 10
0.0
 20
0.0
 30
0.0
  9
$PUCSORGLEFT
 10
0.0
 20
0.0
 30
0.0
  9
$PUCSORGRIGHT
 10
0.0
 20
0.0
 30
0.0
  9
$PUCSORGFRONT
 10
0.0
 20
0.0
 30
0.0
  9
$PUCSORGBACK
 10
0.0
 20
0.0
 30
0.0
  9
$USERI1
 70
     0
  9
$USERI2
 70
     0
  9
$USERI3
 70
     0
  9
$USERI4
 70
     0
  9
$USERI5
 70
     0
  9
$USERR1
 40
0.0
  9
$USERR2
 40
0.0
  9
$USERR3
 40
0.0
  9
$USERR4
 40
0.0
  9
$USERR5
 40
0.0
  9
$WORLDVIEW
 70
     1
  9
$SHADEDGE
 70
     3
  9
$SHADEDIF
 70
    70
  9
$TILEMODE
 70
     1
  9
$MAXACTVP
 70
    64
  9
$PINSBASE
 10
0.0
 20
0.0
 30
0.0
  9
$PLIMCHECK
 70
     0
  9
$PEXTMIN
 10
1.000000000000000E+20
 20
1.000000000000000E+20
 30
1.000000000000000E+20
  9
$PEXTMAX
 10
-1.000000000000000E+20
 20
-1.000000000000000E+20
 30
-1.000000000000000E+20
  9
$PLIMMIN
 10
0.0
 20
0.0
  9
$PLIMMAX
 10
12.0
 20
9.0
  9
$UNITMODE
 70
     0
  9
$VISRETAIN
 70
     1
  9
$PLINEGEN
 70
     0
  9
$PSLTSCALE
 70
     1
  9
$TREEDEPTH
 70
  3020
  9
$CMLSTYLE
  2
Standard
  9
$CMLJUST
 70
     0
  9
$CMLSCALE
 40
1.0
  9
$PROXYGRAPHICS
 70
     1
  9
$MEASUREMENT
 70
     0
  9
$CELWEIGHT
370
    -1
  9
$ENDCAPS
280
     0
  9
$JOINSTYLE
280
     0
  9
$LWDISPLAY
290
     1
  9
$INSUNITS
 70
     1
  9
$HYPERLINKBASE
  1

  9
$STYLESHEET
  1

  9
$XEDIT
290
     1
  9
$CEPSNTYPE
380
     0
  9
$PSTYLEMODE
290
     1
  9
$FINGERPRINTGUID
  2
{60E9D818-80BF-BFF0-26CA-1857D6F26BED}
  9
$VERSIONGUID
  2
{FAEB1C32-E019-11D5-929B-00C0DF256EC4}
  9
$EXTNAMES
290
     1
  9
$PSVPSCALE
 40
0.0
  9
$OLESTARTUP
290
     0
  9
$SORTENTS
280
   127
  9
$INDEXCTL
280
     0
  9
$HIDETEXT
280
     1
  9
$XCLIPFRAME
280
     2
  9
$HALOGAP
280
     0
  9
$OBSCOLOR
 70
   257
  9
$OBSLTYPE
280
     0
  9
$INTERSECTIONDISPLAY
280
     0
  9
$INTERSECTIONCOLOR
 70
   257
  9
$DIMASSOC
280
     2
  9
$PROJECTNAME
  1

  9
$CAMERADISPLAY
290
     0
  9
$LENSLENGTH
 40
50.0
  9
$CAMERAHEIGHT
 40
0.0
  9
$STEPSPERSEC
 40
2.0
  9
$STEPSIZE
 40
6.0
  9
$3DDWFPREC
 40
2.0
  9
$PSOLWIDTH
 40
0.25
  9
$PSOLHEIGHT
 40
4.0
  9
$LOFTANG1
 40
1.570796326794897
  9
$LOFTANG2
 40
1.570796326794897
  9
$LOFTMAG1
 40
0.0
  9
$LOFTMAG2
 40
0.0
  9
$LOFTPARAM
 70
     7
  9
$LOFTNORMALS
280
     1
  9
$LATITUDE
 40
37.795
  9
$LONGITUDE
 40
-122.394
  9
$NORTHDIRECTION
 40
0.0
  9
$TIMEZONE
 70
 -8000
  9
$LIGHTGLYPHDISPLAY
280
     1
  9
$TILEMODELIGHTSYNCH
280
     1
  9
$CMATERIAL
347
3C
  9
$SOLIDHIST
280
     1
  9
$SHOWHIST
280
     1
  9
$DWFFRAME
280
     2
  9
$DGNFRAME
280
     2
  9
$REALWORLDSCALE
290
     1
  9
$INTERFERECOLOR
 62
   256
  9
$CSHADOW
280
     0
  9
$SHADOWPLANELOCATION
 40
0.0
  0
ENDSEC
  0
SECTION
  2
CLASSES
  0
CLASS
  1
ACDBDICTIONARYWDFLT
  2
AcDbDictionaryWithDefault
  3
ObjectDBX Classes
 90
        0
 91
        4
280
     0
281
     0
  0
CLASS
  1
VISUALSTYLE
  2
AcDbVisualStyle
  3
ObjectDBX Classes
 90
     4095
 91
        4
280
     0
281
     0
  0
CLASS
  1
MATERIAL
  2
AcDbMaterial
  3
ObjectDBX Classes
 90
     1153
 91
        4
280
     0
281
     0
  0
CLASS
  1
SUN
  2
AcDbSun
  3
SCENEOE
 90
     1024
 91
        4
280
     0
281
     0
  0
ENDSEC
  0
SECTION
  2
TABLES
  0
TABLE
  2
VPORT
  5
8
330
0
100
AcDbSymbolTable
 70
     1
  0
VPORT
  5
29
330
8
100
AcDbSymbolTableRecord
100
AcDbViewportTableRecord
  2
*Active
 70
     0
 10
0.0
 20
0.0
 11
1.0
 21
1.0
 12
0.0
 22
0.0
 13
0.0
 23
0.0
 14
0.5
 24
0.5
 15
0.5
 25
0.5
 16
0.0
 26
0.0
 36
1.0
 17
91.00082462281999
 27
-128.4993055234307
 37
0.0
 40
256.9986110468615
 41
0.7081814508812795
 42
50.0
 43
0.0
 44
0.0
 50
0.0
 51
0.0
 71
     0
 72
   100
 73
     1
 74
     3
 75
     0
 76
     0
 77
     0
 78
     0
281
     0
 65
     1
110
0.0
120
0.0
130
0.0
111
1.0
121
0.0
131
0.0
112
0.0
122
1.0
132
0.0
 79
     0
146
0.0
 60
     3
 61
     5
292
     1
282
     1
141
0.0
142
0.0
 63
   250
361
3F
  0
ENDTAB
  0
TABLE
  2
LTYPE
  5
5
330
0
100
AcDbSymbolTable
 70
     1
  0
LTYPE
  5
14
330
5
100
AcDbSymbolTableRecord
100
AcDbLinetypeTableRecord
  2
ByBlock
 70
     0
  3

 72
    65
 73
     0
 40
0.0
  0
LTYPE
  5
15
330
5
100
AcDbSymbolTableRecord
100
AcDbLinetypeTableRecord
  2
ByLayer
 70
     0
  3

 72
    65
 73
     0
 40
0.0
  0
LTYPE
  5
16
330
5
100
AcDbSymbolTableRecord
100
AcDbLinetypeTableRecord
  2
Continuous
 70
     0
  3
Solid line
 72
    65
 73
     0
 40
0.0
  0
ENDTAB
  0
TABLE
  2
LAYER
  5
2
330
0
100
AcDbSymbolTable
 70
     2
  0
LAYER
  5
10
330
2
100
AcDbSymbolTableRecord
100
AcDbLayerTableRecord
  2
0
 70
     0
 62
     7
  6
Continuous
370
    -3
390
F
347
3E
  0
LAYER
  5
40
330
2
100
AcDbSymbolTableRecord
100
AcDbLayerTableRecord
  2
_U+30EC_U+30A4_U+30E4_U+30FC 1
 70
     0
 62
     7
  6
Continuous
370
    -3
390
F
347
3E
  0
ENDTAB
  0
TABLE
  2
STYLE
  5
3
330
0
100
AcDbSymbolTable
 70
     1
  0
STYLE
  5
11
330
3
100
AcDbSymbolTableRecord
100
AcDbTextStyleTableRecord
  2
Standard
 70
     0
 40
0.0
 41
1.0
 50
0.0
 71
     0
 42
0.2
  3
txt
  4

  0
ENDTAB
  0
TABLE
  2
VIEW
  5
6
330
0
100
AcDbSymbolTable
 70
     0
  0
ENDTAB
  0
TABLE
  2
UCS
  5
7
330
0
100
AcDbSymbolTable
 70
     0
  0
ENDTAB
  0
TABLE
  2
APPID
  5
9
330
0
100
AcDbSymbolTable
 70
     1
  0
APPID
  5
12
330
9
100
AcDbSymbolTableRecord
100
AcDbRegAppTableRecord
  2
ACAD
 70
     0
  0
ENDTAB
  0
TABLE
  2
DIMSTYLE
  5
A
330
0
100
AcDbSymbolTable
 70
     1
100
AcDbDimStyleTable
  0
DIMSTYLE
105
27
330
A
100
AcDbSymbolTableRecord
100
AcDbDimStyleTableRecord
  2
Standard
 70
     0
178
     0
340
11
  0
ENDTAB
  0
TABLE
  2
BLOCK_RECORD
  5
1
330
0
100
AcDbSymbolTable
 70
     5
  0
BLOCK_RECORD
  5
1F
330
1
100
AcDbSymbolTableRecord
100
AcDbBlockTableRecord
  2
*Model_Space
340
22
 70
     0
280
     1
281
     0
  0
BLOCK_RECORD
  5
1B
330
1
100
AcDbSymbolTableRecord
100
AcDbBlockTableRecord
  2
*Paper_Space
340
1E
 70
     0
280
     1
281
     0
  0
BLOCK_RECORD
  5
23
330
1
100
AcDbSymbolTableRecord
100
AcDbBlockTableRecord
  2
*Paper_Space0
340
26
 70
     0
280
     1
281
     0
  0
BLOCK_RECORD
  5
4D
330
1
100
AcDbSymbolTableRecord
100
AcDbBlockTableRecord
  2
block 2
340
0
102
{BLKREFS
331
4E
102
}
 70
     0
280
     1
281
     0
  0
BLOCK_RECORD
  5
56
330
1
100
AcDbSymbolTableRecord
100
AcDbBlockTableRecord
  2
block 3
340
0
102
{BLKREFS
331
57
102
}
 70
     0
280
     1
281
     0
  0
BLOCK_RECORD
  5
5F
330
1
100
AcDbSymbolTableRecord
100
AcDbBlockTableRecord
  2
block 4
340
0
102
{BLKREFS
331
60
102
}
 70
     0
280
     1
281
     0
  0
BLOCK_RECORD
  5
68
330
1
100
AcDbSymbolTableRecord
100
AcDbBlockTableRecord
  2
block 5
340
0
102
{BLKREFS
331
69
102
}
 70
     0
280
     1
281
     0
  0
ENDTAB
  0
ENDSEC
  0
SECTION
  2
BLOCKS
  0
BLOCK
  5
20
330
1F
100
AcDbEntity
  8
0
100
AcDbBlockBegin
  2
*Model_Space
 70
     0
 10
0.0
 20
0.0
 30
0.0
  3
*Model_Space
  1

  0
ENDBLK
  5
21
330
1F
100
AcDbEntity
  8
0
100
AcDbBlockEnd
  0
BLOCK
  5
1C
330
1B
100
AcDbEntity
 67
     1
  8
0
100
AcDbBlockBegin
  2
*Paper_Space
 70
     0
 10
0.0
 20
0.0
 30
0.0
  3
*Paper_Space
  1

  0
ENDBLK
  5
1D
330
1B
100
AcDbEntity
 67
     1
  8
0
100
AcDbBlockEnd
  0
BLOCK
  5
24
330
23
100
AcDbEntity
  8
0
100
AcDbBlockBegin
  2
*Paper_Space0
 70
     0
 10
0.0
 20
0.0
 30
0.0
  3
*Paper_Space0
  1

  0
ENDBLK
  5
25
330
23
100
AcDbEntity
  8
0
100
AcDbBlockEnd
  0
BLOCK
  5
4F
330
4D
100
AcDbEntity
  8
0
100
AcDbBlockBegin
  2
block 2
 70
     0
 10
0.0
 20
0.0
 30
0.0
  3
block 2
  1

  0
SPLINE
  5
51
330
4D
100
AcDbEntity
  8
_U+30EC_U+30A4_U+30E4_U+30FC 1
370
     0
100
AcDbSpline
210
0.0
220
0.0
230
1.0
 70
    11
 71
     3
 72
    44
 73
    40
 74
     0
 42
0.0000000001
 43
0.0000000001
 12
1.0
 22
0.0
 32
0.0
 13
1.0
 23
0.0
 33
0.0
 40
0.0
 40
0.0
 40
0.0
 40
0.0
 40
1.0
 40
1.0
 40
1.0
 40
2.0
 40
2.0
 40
2.0
 40
3.0
 40
3.0
 40
3.0
 40
4.0
 40
4.0
 40
4.0
 40
5.0
 40
5.0
 40
5.0
 40
6.0
 40
6.0
 40
6.0
 40
7.0
 40
7.0
 40
7.0
 40
8.0
 40
8.0
 40
8.0
 40
9.0
 40
9.0
 40
9.0
 40
10.0
 40
10.0
 40
10.0
 40
11.0
 40
11.0
 40
11.0
 40
12.0
 40
12.0
 40
12.0
 40
13.0
 40
13.0
 40
13.0
 40
13.0
 10
102.9666693535986
 20
-125.0800482543203
 30
0.0
 10
102.9432427042989
 20
-125.0356065225605
 30
0.0
 10
102.9222276218389
 20
-124.9828965616362
 30
0.0
 10
102.9198160549992
 20
-124.7520751641245
 30
0.0
 10
102.9156819404169
 20
-124.5088514228658
 30
0.0
 10
102.8564262980706
 20
-124.4389159845153
 30
0.0
 10
102.6786593710317
 20
-124.4389159845153
 30
0.0
 10
102.6786593710317
 20
-124.4389159845153
 30
0.0
 10
102.2704155560296
 20
-124.4389159845153
 30
0.0
 10
102.2704155560296
 20
-124.4389159845153
 30
0.0
 10
102.2704155560296
 20
-124.4389159845153
 30
0.0
 10
102.2704155560296
 20
-125.0800482543203
 30
0.0
 10
102.2704155560296
 20
-125.0800482543203
 30
0.0
 10
102.2704155560296
 20
-125.0800482543203
 30
0.0
 10
102.0358045534841
 20
-125.0800482543203
 30
0.0
 10
102.0358045534841
 20
-125.0800482543203
 30
0.0
 10
102.0358045534841
 20
-125.0800482543203
 30
0.0
 10
102.0358045534841
 20
-123.5356119482828
 30
0.0
 10
102.0358045534841
 20
-123.5356119482828
 30
0.0
 10
102.0358045534841
 20
-123.5356119482828
 30
0.0
 10
102.710354249496
 20
-123.5356119482828
 30
0.0
 10
102.710354249496
 20
-123.5356119482828
 30
0.0
 10
103.0173122572318
 20
-123.5356119482828
 30
0.0
 10
103.1843993882664
 20
-123.7071777034482
 30
0.0
 10
103.1843993882664
 20
-123.9631482980023
 30
0.0
 10
103.1843993882664
 20
-124.0137912016354
 30
0.0
 10
103.1757866495533
 20
-124.0964734932814
 30
0.0
 10
103.1313449177936
 20
-124.1767442180878
 30
0.0
 10
103.0724337849958
 20
-124.2804415921938
 30
0.0
 10
103.0066324612275
 20
-124.2993896173627
 30
0.0
 10
102.9453097615901
 20
-124.3162705852404
 30
0.0
 10
103.0827690714515
 20
-124.358645259709
 30
0.0
 10
103.150637452511
 20
-124.407221106051
 30
0.0
 10
103.1547715670933
 20
-124.7224473429513
 30
0.0
 10
103.1589056816756
 20
-124.993231848092
 30
0.0
 10
103.1950791842707
 20
-125.0249267265563
 30
0.0
 10
103.2626030557816
 20
-125.0800482543203
 30
0.0
 10
103.2626030557816
 20
-125.0800482543203
 30
0.0
 10
102.9666693535986
 20
-125.0800482543203
 30
0.0
 10
102.9666693535986
 20
-125.0800482543203
 30
0.0
  0
SPLINE
  5
52
330
4D
100
AcDbEntity
  8
_U+30EC_U+30A4_U+30E4_U+30FC 1
370
     0
100
AcDbSpline
210
0.0
220
0.0
230
1.0
 70
    11
 71
     3
 72
    20
 73
    16
 74
     0
 42
0.0000000001
 43
0.0000000001
 12
1.0
 22
0.0
 32
0.0
 13
1.0
 23
0.0
 33
0.0
 40
0.0
 40
0.0
 40
0.0
 40
0.0
 40
1.0
 40
1.0
 40
1.0
 40
2.0
 40
2.0
 40
2.0
 40
3.0
 40
3.0
 40
3.0
 40
4.0
 40
4.0
 40
4.0
 40
5.0
 40
5.0
 40
5.0
 40
5.0
 10
102.7148328736268
 20
-123.7471408110771
 30
0.0
 10
102.7148328736268
 20
-123.7471408110771
 30
0.0
 10
102.2704155560296
 20
-123.7471408110771
 30
0.0
 10
102.2704155560296
 20
-123.7471408110771
 30
0.0
 10
102.2704155560296
 20
-123.7471408110771
 30
0.0
 10
102.2704155560296
 20
-124.2273871217209
 30
0.0
 10
102.2704155560296
 20
-124.2273871217209
 30
0.0
 10
102.2704155560296
 20
-124.2273871217209
 30
0.0
 10
102.7127658163357
 20
-124.2273871217209
 30
0.0
 10
102.7127658163357
 20
-124.2273871217209
 30
0.0
 10
102.8119845663109
 20
-124.2273871217209
 30
0.0
 10
102.9473768188812
 20
-124.1512505114969
 30
0.0
 10
102.9473768188812
 20
-123.98002926588
 30
0.0
 10
102.9473768188812
 20
-123.9018255983648
 30
0.0
 10
102.9136148831258
 20
-123.7471408110771
 30
0.0
 10
102.7148328736268
 20
-123.7471408110771
 30
0.0
  0
HATCH
  5
53
330
4D
100
AcDbEntity
  8
_U+30EC_U+30A4_U+30E4_U+30FC 1
 62
   179
420
  2234388
100
AcDbHatch
 10
0.0
 20
0.0
 30
0.0
210
0.0
220
0.0
230
1.0
  2
SOLID
 70
     1
 71
     0
 91
        2
 92
        1
 93
        1
 72
     4
 94
        3
 73
     0
 74
     1
 95
       44
 96
       40
 40
0.0
 40
0.0
 40
0.0
 40
0.0
 40
1.0
 40
1.0
 40
1.0
 40
2.0
 40
2.0
 40
2.0
 40
3.0
 40
3.0
 40
3.0
 40
4.0
 40
4.0
 40
4.0
 40
5.0
 40
5.0
 40
5.0
 40
6.0
 40
6.0
 40
6.0
 40
7.0
 40
7.0
 40
7.0
 40
8.0
 40
8.0
 40
8.0
 40
9.0
 40
9.0
 40
9.0
 40
10.0
 40
10.0
 40
10.0
 40
11.0
 40
11.0
 40
11.0
 40
12.0
 40
12.0
 40
12.0
 40
13.0
 40
13.0
 40
13.0
 40
13.0
 10
102.9666693535986
 20
-125.0800482543203
 10
102.9432427042989
 20
-125.0356065225605
 10
102.9222276218389
 20
-124.9828965616362
 10
102.9198160549992
 20
-124.7520751641245
 10
102.9156819404169
 20
-124.5088514228658
 10
102.8564262980706
 20
-124.4389159845153
 10
102.6786593710317
 20
-124.4389159845153
 10
102.6786593710317
 20
-124.4389159845153
 10
102.2704155560296
 20
-124.4389159845153
 10
102.2704155560296
 20
-124.4389159845153
 10
102.2704155560296
 20
-124.4389159845153
 10
102.2704155560296
 20
-125.0800482543203
 10
102.2704155560296
 20
-125.0800482543203
 10
102.2704155560296
 20
-125.0800482543203
 10
102.0358045534841
 20
-125.0800482543203
 10
102.0358045534841
 20
-125.0800482543203
 10
102.0358045534841
 20
-125.0800482543203
 10
102.0358045534841
 20
-123.5356119482828
 10
102.0358045534841
 20
-123.5356119482828
 10
102.0358045534841
 20
-123.5356119482828
 10
102.710354249496
 20
-123.5356119482828
 10
102.710354249496
 20
-123.5356119482828
 10
103.0173122572318
 20
-123.5356119482828
 10
103.1843993882664
 20
-123.7071777034482
 10
103.1843993882664
 20
-123.9631482980023
 10
103.1843993882664
 20
-124.0137912016354
 10
103.1757866495533
 20
-124.0964734932814
 10
103.1313449177936
 20
-124.1767442180878
 10
103.0724337849958
 20
-124.2804415921938
 10
103.0066324612275
 20
-124.2993896173627
 10
102.9453097615901
 20
-124.3162705852404
 10
103.0827690714515
 20
-124.358645259709
 10
103.150637452511
 20
-124.407221106051
 10
103.1547715670933
 20
-124.7224473429513
 10
103.1589056816756
 20
-124.993231848092
 10
103.1950791842707
 20
-125.0249267265563
 10
103.2626030557816
 20
-125.0800482543203
 10
103.2626030557816
 20
-125.0800482543203
 10
102.9666693535986
 20
-125.0800482543203
 10
102.9666693535986
 20
-125.0800482543203
 97
        0
 97
        0
 92
        1
 93
        1
 72
     4
 94
        3
 73
     0
 74
     1
 95
       20
 96
       16
 40
0.0
 40
0.0
 40
0.0
 40
0.0
 40
1.0
 40
1.0
 40
1.0
 40
2.0
 40
2.0
 40
2.0
 40
3.0
 40
3.0
 40
3.0
 40
4.0
 40
4.0
 40
4.0
 40
5.0
 40
5.0
 40
5.0
 40
5.0
 10
102.7148328736268
 20
-123.7471408110771
 10
102.7148328736268
 20
-123.7471408110771
 10
102.2704155560296
 20
-123.7471408110771
 10
102.2704155560296
 20
-123.7471408110771
 10
102.2704155560296
 20
-123.7471408110771
 10
102.2704155560296
 20
-124.2273871217209
 10
102.2704155560296
 20
-124.2273871217209
 10
102.2704155560296
 20
-124.2273871217209
 10
102.7127658163357
 20
-124.2273871217209
 10
102.7127658163357
 20
-124.2273871217209
 10
102.8119845663109
 20
-124.2273871217209
 10
102.9473768188812
 20
-124.1512505114969
 10
102.9473768188812
 20
-123.98002926588
 10
102.9473768188812
 20
-123.9018255983648
 10
102.9136148831258
 20
-123.7471408110771
 10
102.7148328736268
 20
-123.7471408110771
 97
        0
 97
        0
 75
     2
 76
     1
 98
        0
  0
SPLINE
  5
54
330
4D
100
AcDbEntity
  8
_U+30EC_U+30A4_U+30E4_U+30FC 1
370
     0
100
AcDbSpline
210
0.0
220
0.0
230
1.0
 70
    11
 71
     3
 72
    62
 73
    58
 74
     0
 42
0.0000000001
 43
0.0000000001
 12
1.0
 22
0.0
 32
0.0
 13
1.0
 23
0.0
 33
0.0
 40
0.0
 40
0.0
 40
0.0
 40
0.0
 40
1.0
 40
1.0
 40
1.0
 40
2.0
 40
2.0
 40
2.0
 40
3.0
 40
3.0
 40
3.0
 40
4.0
 40
4.0
 40
4.0
 40
5.0
 40
5.0
 40
5.0
 40
6.0
 40
6.0
 40
6.0
 40
7.0
 40
7.0
 40
7.0
 40
8.0
 40
8.0
 40
8.0
 40
9.0
 40
9.0
 40
9.0
 40
10.0
 40
10.0
 40
10.0
 40
11.0
 40
11.0
 40
11.0
 40
12.0
 40
12.0
 40
12.0
 40
13.0
 40
13.0
 40
13.0
 40
14.0
 40
14.0
 40
14.0
 40
15.0
 40
15.0
 40
15.0
 40
16.0
 40
16.0
 40
16.0
 40
17.0
 40
17.0
 40
17.0
 40
18.0
 40
18.0
 40
18.0
 40
19.0
 40
19.0
 40
19.0
 40
19.0
 10
103.8937445486794
 20
-125.1306911579534
 30
0.0
 10
103.7986599132865
 20
-125.1306911579534
 30
0.0
 10
103.5805853690701
 20
-125.1096760754934
 30
0.0
 10
103.4558729125041
 20
-124.9236409192899
 30
0.0
 10
103.3818033595712
 20
-124.8113308064708
 30
0.0
 10
103.3776692449889
 20
-124.7121120564956
 30
0.0
 10
103.3735351304066
 20
-124.6273627075584
 30
0.0
 10
103.3735351304066
 20
-124.6273627075584
 30
0.0
 10
103.5933322223656
 20
-124.6273627075584
 30
0.0
 10
103.5933322223656
 20
-124.6273627075584
 30
0.0
 10
103.5953992796567
 20
-124.7014322604913
 30
0.0
 10
103.606079075661
 20
-124.9360432630368
 30
0.0
 10
103.8896104340971
 20
-124.9360432630368
 30
0.0
 10
104.0270697439585
 20
-124.9360432630368
 30
0.0
 10
104.1793429644066
 20
-124.8664523342348
 30
0.0
 10
104.1793429644066
 20
-124.6380425035627
 30
0.0
 10
104.1793429644066
 20
-124.5215982761613
 30
0.0
 10
104.1414469140688
 20
-124.4730224298193
 30
0.0
 10
104.1097520356045
 20
-124.4413275513549
 30
0.0
 10
104.0356824826716
 20
-124.3672579984221
 30
0.0
 10
103.9192382552702
 20
-124.3545111451267
 30
0.0
 10
103.8641167275062
 20
-124.3545111451267
 30
0.0
 10
103.8451687023373
 20
-124.3545111451267
 30
0.0
 10
103.8093397092907
 20
-124.3565782024178
 30
0.0
 10
103.7817789454087
 20
-124.3607123170001
 30
0.0
 10
103.7817789454087
 20
-124.3607123170001
 30
0.0
 10
103.7817789454087
 20
-124.1660644220835
 30
0.0
 10
103.7817789454087
 20
-124.1660644220835
 30
0.0
 10
103.8196749957465
 20
-124.1726101035055
 30
0.0
 10
103.862049670215
 20
-124.1746771607966
 30
0.0
 10
103.868595351637
 20
-124.1746771607966
 30
0.0
 10
103.9340521658568
 20
-124.1746771607966
 30
0.0
 10
104.1328341753557
 20
-124.1533175687881
 30
0.0
 10
104.1328341753557
 20
-123.9166395089514
 30
0.0
 10
104.1328341753557
 20
-123.7388725819125
 30
0.0
 10
104.0015760373677
 20
-123.6837510541485
 30
0.0
 10
103.8916774913882
 20
-123.6837510541485
 30
0.0
 10
103.6274386676695
 20
-123.6837510541485
 30
0.0
 10
103.6188259289564
 20
-123.9166395089514
 30
0.0
 10
103.6146918143741
 20
-123.9882974950446
 30
0.0
 10
103.6146918143741
 20
-123.9882974950446
 30
0.0
 10
103.4114311807444
 20
-123.9882974950446
 30
0.0
 10
103.4114311807444
 20
-123.9882974950446
 30
0.0
 10
103.4200439194575
 20
-123.8635850384785
 30
0.0
 10
103.4476046833395
 20
-123.4870361019407
 30
0.0
 10
103.9044243446836
 20
-123.4870361019407
 30
0.0
 10
104.1287000607734
 20
-123.4870361019407
 30
0.0
 10
104.3698567447409
 20
-123.6141601253465
 30
0.0
 10
104.3698567447409
 20
-123.9100938275294
 30
0.0
 10
104.3698567447409
 20
-124.0964734932814
 30
0.0
 10
104.274772109348
 20
-124.1788112753789
 30
0.0
 10
104.1752088498243
 20
-124.2401339750164
 30
0.0
 10
104.2365315494617
 20
-124.2676947388984
 30
0.0
 10
104.4184325910829
 20
-124.3479654637047
 30
0.0
 10
104.4184325910829
 20
-124.6252956502673
 30
0.0
 10
104.4184325910829
 20
-124.9636040269188
 30
0.0
 10
104.171074735242
 20
-125.1306911579534
 30
0.0
 10
103.8937445486794
 20
-125.1306911579534
 30
0.0
  0
HATCH
  5
55
330
4D
100
AcDbEntity
  8
_U+30EC_U+30A4_U+30E4_U+30FC 1
 62
   179
420
  2234388
100
AcDbHatch
 10
0.0
 20
0.0
 30
0.0
210
0.0
220
0.0
230
1.0
  2
SOLID
 70
     1
 71
     0
 91
        1
 92
        1
 93
        1
 72
     4
 94
        3
 73
     0
 74
     1
 95
       62
 96
       58
 40
0.0
 40
0.0
 40
0.0
 40
0.0
 40
1.0
 40
1.0
 40
1.0
 40
2.0
 40
2.0
 40
2.0
 40
3.0
 40
3.0
 40
3.0
 40
4.0
 40
4.0
 40
4.0
 40
5.0
 40
5.0
 40
5.0
 40
6.0
 40
6.0
 40
6.0
 40
7.0
 40
7.0
 40
7.0
 40
8.0
 40
8.0
 40
8.0
 40
9.0
 40
9.0
 40
9.0
 40
10.0
 40
10.0
 40
10.0
 40
11.0
 40
11.0
 40
11.0
 40
12.0
 40
12.0
 40
12.0
 40
13.0
 40
13.0
 40
13.0
 40
14.0
 40
14.0
 40
14.0
 40
15.0
 40
15.0
 40
15.0
 40
16.0
 40
16.0
 40
16.0
 40
17.0
 40
17.0
 40
17.0
 40
18.0
 40
18.0
 40
18.0
 40
19.0
 40
19.0
 40
19.0
 40
19.0
 10
103.8937445486794
 20
-125.1306911579534
 10
103.7986599132865
 20
-125.1306911579534
 10
103.5805853690701
 20
-125.1096760754934
 10
103.4558729125041
 20
-124.9236409192899
 10
103.3818033595712
 20
-124.8113308064708
 10
103.3776692449889
 20
-124.7121120564956
 10
103.3735351304066
 20
-124.6273627075584
 10
103.3735351304066
 20
-124.6273627075584
 10
103.5933322223656
 20
-124.6273627075584
 10
103.5933322223656
 20
-124.6273627075584
 10
103.5953992796567
 20
-124.7014322604913
 10
103.606079075661
 20
-124.9360432630368
 10
103.8896104340971
 20
-124.9360432630368
 10
104.0270697439585
 20
-124.9360432630368
 10
104.1793429644066
 20
-124.8664523342348
 10
104.1793429644066
 20
-124.6380425035627
 10
104.1793429644066
 20
-124.5215982761613
 10
104.1414469140688
 20
-124.4730224298193
 10
104.1097520356045
 20
-124.4413275513549
 10
104.0356824826716
 20
-124.3672579984221
 10
103.9192382552702
 20
-124.3545111451267
 10
103.8641167275062
 20
-124.3545111451267
 10
103.8451687023373
 20
-124.3545111451267
 10
103.8093397092907
 20
-124.3565782024178
 10
103.7817789454087
 20
-124.3607123170001
 10
103.7817789454087
 20
-124.3607123170001
 10
103.7817789454087
 20
-124.1660644220835
 10
103.7817789454087
 20
-124.1660644220835
 10
103.8196749957465
 20
-124.1726101035055
 10
103.862049670215
 20
-124.1746771607966
 10
103.868595351637
 20
-124.1746771607966
 10
103.9340521658568
 20
-124.1746771607966
 10
104.1328341753557
 20
-124.1533175687881
 10
104.1328341753557
 20
-123.9166395089514
 10
104.1328341753557
 20
-123.7388725819125
 10
104.0015760373677
 20
-123.6837510541485
 10
103.8916774913882
 20
-123.6837510541485
 10
103.6274386676695
 20
-123.6837510541485
 10
103.6188259289564
 20
-123.9166395089514
 10
103.6146918143741
 20
-123.9882974950446
 10
103.6146918143741
 20
-123.9882974950446
 10
103.4114311807444
 20
-123.9882974950446
 10
103.4114311807444
 20
-123.9882974950446
 10
103.4200439194575
 20
-123.8635850384785
 10
103.4476046833395
 20
-123.4870361019407
 10
103.9044243446836
 20
-123.4870361019407
 10
104.1287000607734
 20
-123.4870361019407
 10
104.3698567447409
 20
-123.6141601253465
 10
104.3698567447409
 20
-123.9100938275294
 10
104.3698567447409
 20
-124.0964734932814
 10
104.274772109348
 20
-124.1788112753789
 10
104.1752088498243
 20
-124.2401339750164
 10
104.2365315494617
 20
-124.2676947388984
 10
104.4184325910829
 20
-124.3479654637047
 10
104.4184325910829
 20
-124.6252956502673
 10
104.4184325910829
 20
-124.9636040269188
 10
104.171074735242
 20
-125.1306911579534
 10
103.8937445486794
 20
-125.1306911579534
 97
        0
 97
        0
 75
     2
 76
     1
 98
        0
  0
ENDBLK
  5
50
330
4D
100
AcDbEntity
  8
0
100
AcDbBlockEnd
  0
BLOCK
  5
58
330
56
100
AcDbEntity
  8
0
100
AcDbBlockBegin
  2
block 3
 70
     0
 10
0.0
 20
0.0
 30
0.0
  3
block 3
  1

  0
SPLINE
  5
5A
330
56
100
AcDbEntity
  8
_U+30EC_U+30A4_U+30E4_U+30FC 1
370
     0
100
AcDbSpline
210
0.0
220
0.0
230
1.0
 70
    11
 71
     3
 72
    62
 73
    58
 74
     0
 42
0.0000000001
 43
0.0000000001
 12
1.0
 22
0.0
 32
0.0
 13
1.0
 23
0.0
 33
0.0
 40
0.0
 40
0.0
 40
0.0
 40
0.0
 40
1.0
 40
1.0
 40
1.0
 40
2.0
 40
2.0
 40
2.0
 40
3.0
 40
3.0
 40
3.0
 40
4.0
 40
4.0
 40
4.0
 40
5.0
 40
5.0
 40
5.0
 40
6.0
 40
6.0
 40
6.0
 40
7.0
 40
7.0
 40
7.0
 40
8.0
 40
8.0
 40
8.0
 40
9.0
 40
9.0
 40
9.0
 40
10.0
 40
10.0
 40
10.0
 40
11.0
 40
11.0
 40
11.0
 40
12.0
 40
12.0
 40
12.0
 40
13.0
 40
13.0
 40
13.0
 40
14.0
 40
14.0
 40
14.0
 40
15.0
 40
15.0
 40
15.0
 40
16.0
 40
16.0
 40
16.0
 40
17.0
 40
17.0
 40
17.0
 40
18.0
 40
18.0
 40
18.0
 40
19.0
 40
19.0
 40
19.0
 40
19.0
 10
91.40010577142081
 20
-119.4607530083293
 30
0.0
 10
91.30467662647939
 20
-119.4607530083293
 30
0.0
 10
91.0869465918116
 20
-119.4397379258692
 30
0.0
 10
90.96188962569703
 20
-119.2537027696658
 30
0.0
 10
90.88816458231268
 20
-119.1413926568466
 30
0.0
 10
90.88368595818186
 20
-119.0421739068714
 30
0.0
 10
90.87955184359956
 20
-118.9574245579343
 30
0.0
 10
90.87955184359956
 20
-118.9574245579343
 30
0.0
 10
91.09969344510702
 20
-118.9574245579343
 30
0.0
 10
91.09969344510702
 20
-118.9574245579343
 30
0.0
 10
91.10176050239818
 20
-119.0314941108671
 30
0.0
 10
91.11209578885392
 20
-119.2661051134126
 30
0.0
 10
91.39562714728999
 20
-119.2661051134126
 30
0.0
 10
91.53308645715146
 20
-119.2661051134126
 30
0.0
 10
91.68570418714802
 20
-119.1965141846106
 30
0.0
 10
91.68570418714802
 20
-118.9681043539385
 30
0.0
 10
91.68570418714802
 20
-118.8516601265371
 30
0.0
 10
91.64746362726174
 20
-118.8030842801951
 30
0.0
 10
91.61576874879745
 20
-118.7713894017308
 30
0.0
 10
91.54169919586458
 20
-118.6973198487979
 30
0.0
 10
91.42525496846314
 20
-118.6845729955025
 30
0.0
 10
91.37047795024766
 20
-118.6845729955025
 30
0.0
 10
91.35118541553027
 20
-118.6845729955025
 30
0.0
 10
91.31535642248366
 20
-118.6866400527936
 30
0.0
 10
91.28779565860167
 20
-118.6907741673759
 30
0.0
 10
91.28779565860167
 20
-118.6907741673759
 30
0.0
 10
91.28779565860167
 20
-118.4961262724593
 30
0.0
 10
91.28779565860167
 20
-118.4961262724593
 30
0.0
 10
91.32603621848794
 20
-118.5026719538813
 30
0.0
 10
91.36806638340799
 20
-118.5047390111724
 30
0.0
 10
91.37461206482996
 20
-118.5047390111724
 30
0.0
 10
91.4400688790497
 20
-118.5047390111724
 30
0.0
 10
91.63885088854863
 20
-118.4833794191639
 30
0.0
 10
91.63885088854863
 20
-118.2467013593272
 30
0.0
 10
91.63885088854863
 20
-118.0689344322883
 30
0.0
 10
91.50793726010913
 20
-118.0138129045243
 30
0.0
 10
91.39769420458114
 20
-118.0138129045243
 30
0.0
 10
91.13345538086247
 20
-118.0138129045243
 30
0.0
 10
91.12484264214935
 20
-118.2467013593272
 30
0.0
 10
91.12070852756705
 20
-118.3183593454204
 30
0.0
 10
91.12070852756705
 20
-118.3183593454204
 30
0.0
 10
90.91744789393731
 20
-118.3183593454204
 30
0.0
 10
90.91744789393731
 20
-118.3183593454204
 30
0.0
 10
90.92606063265043
 20
-118.1936468888544
 30
0.0
 10
90.95362139653243
 20
-117.8170979523166
 30
0.0
 10
91.41044105787655
 20
-117.8170979523166
 30
0.0
 10
91.63471677396633
 20
-117.8170979523166
 30
0.0
 10
91.8758734579338
 20
-117.9442219757223
 30
0.0
 10
91.8758734579338
 20
-118.2401556779052
 30
0.0
 10
91.8758734579338
 20
-118.4265353436573
 30
0.0
 10
91.78078882254091
 20
-118.5088731257547
 30
0.0
 10
91.6812255630172
 20
-118.5701958253922
 30
0.0
 10
91.74254826265465
 20
-118.5977565892742
 30
0.0
 10
91.92444930427584
 20
-118.6780273140805
 30
0.0
 10
91.92444930427584
 20
-118.9553575006431
 30
0.0
 10
91.92444930427584
 20
-119.2936658772946
 30
0.0
 10
91.6770914484349
 20
-119.4607530083293
 30
0.0
 10
91.40010577142081
 20
-119.4607530083293
 30
0.0
  0
HATCH
  5
5B
330
56
100
AcDbEntity
  8
_U+30EC_U+30A4_U+30E4_U+30FC 1
 62
   179
420
  2234388
100
AcDbHatch
 10
0.0
 20
0.0
 30
0.0
210
0.0
220
0.0
230
1.0
  2
SOLID
 70
     1
 71
     0
 91
        1
 92
        1
 93
        1
 72
     4
 94
        3
 73
     0
 74
     1
 95
       62
 96
       58
 40
0.0
 40
0.0
 40
0.0
 40
0.0
 40
1.0
 40
1.0
 40
1.0
 40
2.0
 40
2.0
 40
2.0
 40
3.0
 40
3.0
 40
3.0
 40
4.0
 40
4.0
 40
4.0
 40
5.0
 40
5.0
 40
5.0
 40
6.0
 40
6.0
 40
6.0
 40
7.0
 40
7.0
 40
7.0
 40
8.0
 40
8.0
 40
8.0
 40
9.0
 40
9.0
 40
9.0
 40
10.0
 40
10.0
 40
10.0
 40
11.0
 40
11.0
 40
11.0
 40
12.0
 40
12.0
 40
12.0
 40
13.0
 40
13.0
 40
13.0
 40
14.0
 40
14.0
 40
14.0
 40
15.0
 40
15.0
 40
15.0
 40
16.0
 40
16.0
 40
16.0
 40
17.0
 40
17.0
 40
17.0
 40
18.0
 40
18.0
 40
18.0
 40
19.0
 40
19.0
 40
19.0
 40
19.0
 10
91.40010577142081
 20
-119.4607530083293
 10
91.30467662647939
 20
-119.4607530083293
 10
91.0869465918116
 20
-119.4397379258692
 10
90.96188962569703
 20
-119.2537027696658
 10
90.88816458231268
 20
-119.1413926568466
 10
90.88368595818186
 20
-119.0421739068714
 10
90.87955184359956
 20
-118.9574245579343
 10
90.87955184359956
 20
-118.9574245579343
 10
91.09969344510702
 20
-118.9574245579343
 10
91.09969344510702
 20
-118.9574245579343
 10
91.10176050239818
 20
-119.0314941108671
 10
91.11209578885392
 20
-119.2661051134126
 10
91.39562714728999
 20
-119.2661051134126
 10
91.53308645715146
 20
-119.2661051134126
 10
91.68570418714802
 20
-119.1965141846106
 10
91.68570418714802
 20
-118.9681043539385
 10
91.68570418714802
 20
-118.8516601265371
 10
91.64746362726174
 20
-118.8030842801951
 10
91.61576874879745
 20
-118.7713894017308
 10
91.54169919586458
 20
-118.6973198487979
 10
91.42525496846314
 20
-118.6845729955025
 10
91.37047795024766
 20
-118.6845729955025
 10
91.35118541553027
 20
-118.6845729955025
 10
91.31535642248366
 20
-118.6866400527936
 10
91.28779565860167
 20
-118.6907741673759
 10
91.28779565860167
 20
-118.6907741673759
 10
91.28779565860167
 20
-118.4961262724593
 10
91.28779565860167
 20
-118.4961262724593
 10
91.32603621848794
 20
-118.5026719538813
 10
91.36806638340799
 20
-118.5047390111724
 10
91.37461206482996
 20
-118.5047390111724
 10
91.4400688790497
 20
-118.5047390111724
 10
91.63885088854863
 20
-118.4833794191639
 10
91.63885088854863
 20
-118.2467013593272
 10
91.63885088854863
 20
-118.0689344322883
 10
91.50793726010913
 20
-118.0138129045243
 10
91.39769420458114
 20
-118.0138129045243
 10
91.13345538086247
 20
-118.0138129045243
 10
91.12484264214935
 20
-118.2467013593272
 10
91.12070852756705
 20
-118.3183593454204
 10
91.12070852756705
 20
-118.3183593454204
 10
90.91744789393731
 20
-118.3183593454204
 10
90.91744789393731
 20
-118.3183593454204
 10
90.92606063265043
 20
-118.1936468888544
 10
90.95362139653243
 20
-117.8170979523166
 10
91.41044105787655
 20
-117.8170979523166
 10
91.63471677396633
 20
-117.8170979523166
 10
91.8758734579338
 20
-117.9442219757223
 10
91.8758734579338
 20
-118.2401556779052
 10
91.8758734579338
 20
-118.4265353436573
 10
91.78078882254091
 20
-118.5088731257547
 10
91.6812255630172
 20
-118.5701958253922
 10
91.74254826265465
 20
-118.5977565892742
 10
91.92444930427584
 20
-118.6780273140805
 10
91.92444930427584
 20
-118.9553575006431
 10
91.92444930427584
 20
-119.2936658772946
 10
91.6770914484349
 20
-119.4607530083293
 10
91.40010577142081
 20
-119.4607530083293
 97
        0
 97
        0
 75
     2
 76
     1
 98
        0
  0
SPLINE
  5
5C
330
56
100
AcDbEntity
  8
_U+30EC_U+30A4_U+30E4_U+30FC 1
370
     0
100
AcDbSpline
210
0.0
220
0.0
230
1.0
 70
    11
 71
     3
 72
    29
 73
    25
 74
     0
 42
0.0000000001
 43
0.0000000001
 12
1.0
 22
0.0
 32
0.0
 13
1.0
 23
0.0
 33
0.0
 40
0.0
 40
0.0
 40
0.0
 40
0.0
 40
1.0
 40
1.0
 40
1.0
 40
2.0
 40
2.0
 40
2.0
 40
3.0
 40
3.0
 40
3.0
 40
4.0
 40
4.0
 40
4.0
 40
5.0
 40
5.0
 40
5.0
 40
6.0
 40
6.0
 40
6.0
 40
7.0
 40
7.0
 40
7.0
 40
8.0
 40
8.0
 40
8.0
 40
8.0
 10
92.98312714689311
 20
-119.2323431776572
 30
0.0
 10
92.87495114865627
 20
-119.4418049831604
 30
0.0
 10
92.7016628457482
 20
-119.4607530083293
 30
0.0
 10
92.58521861834676
 20
-119.4607530083293
 30
0.0
 10
92.4243326591856
 20
-119.4607530083293
 30
0.0
 10
92.28273923474183
 20
-119.4142442192784
 30
0.0
 10
92.18765459934892
 20
-119.2323431776572
 30
0.0
 10
92.0839572252429
 20
-119.0376952827406
 30
0.0
 10
92.06500920007403
 20
-118.8006727133554
 30
0.0
 10
92.06500920007403
 20
-118.6380642064516
 30
0.0
 10
92.06500920007403
 20
-118.4940592151682
 30
0.0
 10
92.08189016795176
 20
-118.2422227351964
 30
0.0
 10
92.18765459934892
 20
-118.0434407256975
 30
0.0
 10
92.29548608803725
 20
-117.8405246016163
 30
0.0
 10
92.45637204719841
 20
-117.8170979523166
 30
0.0
 10
92.58521861834676
 20
-117.8170979523166
 30
0.0
 10
92.74403752021678
 20
-117.8170979523166
 30
0.0
 10
92.88769800195169
 20
-117.8615396840763
 30
0.0
 10
92.98312714689311
 20
-118.0434407256975
 30
0.0
 10
93.0823458968683
 20
-118.236021563323
 30
0.0
 10
93.10577254616801
 20
-118.464431393995
 30
0.0
 10
93.10577254616801
 20
-118.6380642064516
 30
0.0
 10
93.10577254616801
 20
-118.8092854520685
 30
0.0
 10
93.08441295415946
 20
-119.0397623400317
 30
0.0
 10
92.98312714689311
 20
-119.2323431776572
 30
0.0
  0
SPLINE
  5
5D
330
56
100
AcDbEntity
  8
_U+30EC_U+30A4_U+30E4_U+30FC 1
370
     0
100
AcDbSpline
210
0.0
220
0.0
230
1.0
 70
    11
 71
     3
 72
    17
 73
    13
 74
     0
 42
0.0000000001
 43
0.0000000001
 12
1.0
 22
0.0
 32
0.0
 13
1.0
 23
0.0
 33
0.0
 40
0.0
 40
0.0
 40
0.0
 40
0.0
 40
1.0
 40
1.0
 40
1.0
 40
2.0
 40
2.0
 40
2.0
 40
3.0
 40
3.0
 40
3.0
 40
4.0
 40
4.0
 40
4.0
 40
4.0
 10
92.58521861834676
 20
-118.009678789942
 30
0.0
 10
92.33579370521467
 20
-118.009678789942
 30
0.0
 10
92.28894040661527
 20
-118.2932101483781
 30
0.0
 10
92.28894040661527
 20
-118.6380642064516
 30
0.0
 10
92.28894040661527
 20
-118.9574245579343
 30
0.0
 10
92.32511390921039
 20
-119.2661051134126
 30
0.0
 10
92.58521861834676
 20
-119.2661051134126
 30
0.0
 10
92.83292098373622
 20
-119.2661051134126
 30
0.0
 10
92.88149683007825
 20
-118.9849853218163
 30
0.0
 10
92.88149683007825
 20
-118.6380642064516
 30
0.0
 10
92.88149683007825
 20
-118.3183593454204
 30
0.0
 10
92.84325627019197
 20
-118.009678789942
 30
0.0
 10
92.58521861834676
 20
-118.009678789942
 30
0.0
  0
HATCH
  5
5E
330
56
100
AcDbEntity
  8
_U+30EC_U+30A4_U+30E4_U+30FC 1
 62
   179
420
  2234388
100
AcDbHatch
 10
0.0
 20
0.0
 30
0.0
210
0.0
220
0.0
230
1.0
  2
SOLID
 70
     1
 71
     0
 91
        2
 92
        1
 93
        1
 72
     4
 94
        3
 73
     0
 74
     1
 95
       29
 96
       25
 40
0.0
 40
0.0
 40
0.0
 40
0.0
 40
1.0
 40
1.0
 40
1.0
 40
2.0
 40
2.0
 40
2.0
 40
3.0
 40
3.0
 40
3.0
 40
4.0
 40
4.0
 40
4.0
 40
5.0
 40
5.0
 40
5.0
 40
6.0
 40
6.0
 40
6.0
 40
7.0
 40
7.0
 40
7.0
 40
8.0
 40
8.0
 40
8.0
 40
8.0
 10
92.98312714689311
 20
-119.2323431776572
 10
92.87495114865627
 20
-119.4418049831604
 10
92.7016628457482
 20
-119.4607530083293
 10
92.58521861834676
 20
-119.4607530083293
 10
92.4243326591856
 20
-119.4607530083293
 10
92.28273923474183
 20
-119.4142442192784
 10
92.18765459934892
 20
-119.2323431776572
 10
92.0839572252429
 20
-119.0376952827406
 10
92.06500920007403
 20
-118.8006727133554
 10
92.06500920007403
 20
-118.6380642064516
 10
92.06500920007403
 20
-118.4940592151682
 10
92.08189016795176
 20
-118.2422227351964
 10
92.18765459934892
 20
-118.0434407256975
 10
92.29548608803725
 20
-117.8405246016163
 10
92.45637204719841
 20
-117.8170979523166
 10
92.58521861834676
 20
-117.8170979523166
 10
92.74403752021678
 20
-117.8170979523166
 10
92.88769800195169
 20
-117.8615396840763
 10
92.98312714689311
 20
-118.0434407256975
 10
93.0823458968683
 20
-118.236021563323
 10
93.10577254616801
 20
-118.464431393995
 10
93.10577254616801
 20
-118.6380642064516
 10
93.10577254616801
 20
-118.8092854520685
 10
93.08441295415946
 20
-119.0397623400317
 10
92.98312714689311
 20
-119.2323431776572
 97
        0
 97
        0
 92
        1
 93
        1
 72
     4
 94
        3
 73
     0
 74
     1
 95
       17
 96
       13
 40
0.0
 40
0.0
 40
0.0
 40
0.0
 40
1.0
 40
1.0
 40
1.0
 40
2.0
 40
2.0
 40
2.0
 40
3.0
 40
3.0
 40
3.0
 40
4.0
 40
4.0
 40
4.0
 40
4.0
 10
92.58521861834676
 20
-118.009678789942
 10
92.33579370521467
 20
-118.009678789942
 10
92.28894040661527
 20
-118.2932101483781
 10
92.28894040661527
 20
-118.6380642064516
 10
92.28894040661527
 20
-118.9574245579343
 10
92.32511390921039
 20
-119.2661051134126
 10
92.58521861834676
 20
-119.2661051134126
 10
92.83292098373622
 20
-119.2661051134126
 10
92.88149683007825
 20
-118.9849853218163
 10
92.88149683007825
 20
-118.6380642064516
 10
92.88149683007825
 20
-118.3183593454204
 10
92.84325627019197
 20
-118.009678789942
 10
92.58521861834676
 20
-118.009678789942
 97
        0
 97
        0
 75
     2
 76
     1
 98
        0
  0
ENDBLK
  5
59
330
56
100
AcDbEntity
  8
0
100
AcDbBlockEnd
  0
BLOCK
  5
61
330
5F
100
AcDbEntity
  8
0
100
AcDbBlockBegin
  2
block 4
 70
     0
 10
0.0
 20
0.0
 30
0.0
  3
block 4
  1

  0
SPLINE
  5
63
330
5F
100
AcDbEntity
  8
_U+30EC_U+30A4_U+30E4_U+30FC 1
370
     0
100
AcDbSpline
210
0.0
220
0.0
230
1.0
 70
    11
 71
     3
 72
    62
 73
    58
 74
     0
 42
0.0000000001
 43
0.0000000001
 12
1.0
 22
0.0
 32
0.0
 13
1.0
 23
0.0
 33
0.0
 40
0.0
 40
0.0
 40
0.0
 40
0.0
 40
1.0
 40
1.0
 40
1.0
 40
2.0
 40
2.0
 40
2.0
 40
3.0
 40
3.0
 40
3.0
 40
4.0
 40
4.0
 40
4.0
 40
5.0
 40
5.0
 40
5.0
 40
6.0
 40
6.0
 40
6.0
 40
7.0
 40
7.0
 40
7.0
 40
8.0
 40
8.0
 40
8.0
 40
9.0
 40
9.0
 40
9.0
 40
10.0
 40
10.0
 40
10.0
 40
11.0
 40
11.0
 40
11.0
 40
12.0
 40
12.0
 40
12.0
 40
13.0
 40
13.0
 40
13.0
 40
14.0
 40
14.0
 40
14.0
 40
15.0
 40
15.0
 40
15.0
 40
16.0
 40
16.0
 40
16.0
 40
17.0
 40
17.0
 40
17.0
 40
18.0
 40
18.0
 40
18.0
 40
19.0
 40
19.0
 40
19.0
 40
19.0
 10
96.95635577003175
 20
-135.7767252264725
 30
0.0
 10
96.86092662509033
 20
-135.7767252264725
 30
0.0
 10
96.64319659042253
 20
-135.7557101440125
 30
0.0
 10
96.51813962430796
 20
-135.569674987809
 30
0.0
 10
96.44441458092362
 20
-135.4573648749898
 30
0.0
 10
96.4399359567928
 20
-135.3581461250146
 30
0.0
 10
96.4358018422105
 20
-135.2733967760775
 30
0.0
 10
96.4358018422105
 20
-135.2733967760775
 30
0.0
 10
96.65594344371796
 20
-135.2733967760775
 30
0.0
 10
96.65594344371796
 20
-135.2733967760775
 30
0.0
 10
96.65801050100912
 20
-135.3474663290104
 30
0.0
 10
96.66834578746486
 20
-135.5820773315559
 30
0.0
 10
96.95187714590092
 20
-135.5820773315559
 30
0.0
 10
97.08933645576239
 20
-135.5820773315559
 30
0.0
 10
97.24195418575896
 20
-135.5124864027538
 30
0.0
 10
97.24195418575896
 20
-135.2840765720818
 30
0.0
 10
97.24195418575896
 20
-135.1676323446803
 30
0.0
 10
97.20371362587268
 20
-135.1190564983383
 30
0.0
 10
97.17201874740839
 20
-135.087361619874
 30
0.0
 10
97.09794919447552
 20
-135.0132920669411
 30
0.0
 10
96.98150496707407
 20
-135.0005452136457
 30
0.0
 10
96.9267279488586
 20
-135.0005452136457
 30
0.0
 10
96.9074354141412
 20
-135.0005452136457
 30
0.0
 10
96.8716064210946
 20
-135.0026122709369
 30
0.0
 10
96.8440456572126
 20
-135.0067463855192
 30
0.0
 10
96.8440456572126
 20
-135.0067463855192
 30
0.0
 10
96.8440456572126
 20
-134.8120984906026
 30
0.0
 10
96.8440456572126
 20
-134.8120984906026
 30
0.0
 10
96.88228621709888
 20
-134.8186441720245
 30
0.0
 10
96.92431638201893
 20
-134.8207112293157
 30
0.0
 10
96.9308620634409
 20
-134.8207112293157
 30
0.0
 10
96.99631887766064
 20
-134.8207112293157
 30
0.0
 10
97.19510088715957
 20
-134.7993516373071
 30
0.0
 10
97.19510088715957
 20
-134.5626735774705
 30
0.0
 10
97.19510088715957
 20
-134.3849066504316
 30
0.0
 10
97.06418725872007
 20
-134.3297851226676
 30
0.0
 10
96.95394420319208
 20
-134.3297851226676
 30
0.0
 10
96.68970537947341
 20
-134.3297851226676
 30
0.0
 10
96.68109264076028
 20
-134.5626735774705
 30
0.0
 10
96.67695852617798
 20
-134.6343315635636
 30
0.0
 10
96.67695852617798
 20
-134.6343315635636
 30
0.0
 10
96.47369789254824
 20
-134.6343315635636
 30
0.0
 10
96.47369789254824
 20
-134.6343315635636
 30
0.0
 10
96.48231063126137
 20
-134.5096191069976
 30
0.0
 10
96.50987139514336
 20
-134.1330701704598
 30
0.0
 10
96.9666910564875
 20
-134.1330701704598
 30
0.0
 10
97.19096677257727
 20
-134.1330701704598
 30
0.0
 10
97.43212345654476
 20
-134.2601941938655
 30
0.0
 10
97.43212345654476
 20
-134.5561278960485
 30
0.0
 10
97.43212345654476
 20
-134.7425075618005
 30
0.0
 10
97.33703882115185
 20
-134.8248453438979
 30
0.0
 10
97.23747556162813
 20
-134.8861680435354
 30
0.0
 10
97.29879826126559
 20
-134.9137288074174
 30
0.0
 10
97.48069930288678
 20
-134.9939995322237
 30
0.0
 10
97.48069930288678
 20
-135.2713297187863
 30
0.0
 10
97.48069930288678
 20
-135.6096380954379
 30
0.0
 10
97.23334144704583
 20
-135.7767252264725
 30
0.0
 10
96.95635577003175
 20
-135.7767252264725
 30
0.0
  0
HATCH
  5
64
330
5F
100
AcDbEntity
  8
_U+30EC_U+30A4_U+30E4_U+30FC 1
 62
   179
420
  2234388
100
AcDbHatch
 10
0.0
 20
0.0
 30
0.0
210
0.0
220
0.0
230
1.0
  2
SOLID
 70
     1
 71
     0
 91
        1
 92
        1
 93
        1
 72
     4
 94
        3
 73
     0
 74
     1
 95
       62
 96
       58
 40
0.0
 40
0.0
 40
0.0
 40
0.0
 40
1.0
 40
1.0
 40
1.0
 40
2.0
 40
2.0
 40
2.0
 40
3.0
 40
3.0
 40
3.0
 40
4.0
 40
4.0
 40
4.0
 40
5.0
 40
5.0
 40
5.0
 40
6.0
 40
6.0
 40
6.0
 40
7.0
 40
7.0
 40
7.0
 40
8.0
 40
8.0
 40
8.0
 40
9.0
 40
9.0
 40
9.0
 40
10.0
 40
10.0
 40
10.0
 40
11.0
 40
11.0
 40
11.0
 40
12.0
 40
12.0
 40
12.0
 40
13.0
 40
13.0
 40
13.0
 40
14.0
 40
14.0
 40
14.0
 40
15.0
 40
15.0
 40
15.0
 40
16.0
 40
16.0
 40
16.0
 40
17.0
 40
17.0
 40
17.0
 40
18.0
 40
18.0
 40
18.0
 40
19.0
 40
19.0
 40
19.0
 40
19.0
 10
96.95635577003175
 20
-135.7767252264725
 10
96.86092662509033
 20
-135.7767252264725
 10
96.64319659042253
 20
-135.7557101440125
 10
96.51813962430796
 20
-135.569674987809
 10
96.44441458092362
 20
-135.4573648749898
 10
96.4399359567928
 20
-135.3581461250146
 10
96.4358018422105
 20
-135.2733967760775
 10
96.4358018422105
 20
-135.2733967760775
 10
96.65594344371796
 20
-135.2733967760775
 10
96.65594344371796
 20
-135.2733967760775
 10
96.65801050100912
 20
-135.3474663290104
 10
96.66834578746486
 20
-135.5820773315559
 10
96.95187714590092
 20
-135.5820773315559
 10
97.08933645576239
 20
-135.5820773315559
 10
97.24195418575896
 20
-135.5124864027538
 10
97.24195418575896
 20
-135.2840765720818
 10
97.24195418575896
 20
-135.1676323446803
 10
97.20371362587268
 20
-135.1190564983383
 10
97.17201874740839
 20
-135.087361619874
 10
97.09794919447552
 20
-135.0132920669411
 10
96.98150496707407
 20
-135.0005452136457
 10
96.9267279488586
 20
-135.0005452136457
 10
96.9074354141412
 20
-135.0005452136457
 10
96.8716064210946
 20
-135.0026122709369
 10
96.8440456572126
 20
-135.0067463855192
 10
96.8440456572126
 20
-135.0067463855192
 10
96.8440456572126
 20
-134.8120984906026
 10
96.8440456572126
 20
-134.8120984906026
 10
96.88228621709888
 20
-134.8186441720245
 10
96.92431638201893
 20
-134.8207112293157
 10
96.9308620634409
 20
-134.8207112293157
 10
96.99631887766064
 20
-134.8207112293157
 10
97.19510088715957
 20
-134.7993516373071
 10
97.19510088715957
 20
-134.5626735774705
 10
97.19510088715957
 20
-134.3849066504316
 10
97.06418725872007
 20
-134.3297851226676
 10
96.95394420319208
 20
-134.3297851226676
 10
96.68970537947341
 20
-134.3297851226676
 10
96.68109264076028
 20
-134.5626735774705
 10
96.67695852617798
 20
-134.6343315635636
 10
96.67695852617798
 20
-134.6343315635636
 10
96.47369789254824
 20
-134.6343315635636
 10
96.47369789254824
 20
-134.6343315635636
 10
96.48231063126137
 20
-134.5096191069976
 10
96.50987139514336
 20
-134.1330701704598
 10
96.9666910564875
 20
-134.1330701704598
 10
97.19096677257727
 20
-134.1330701704598
 10
97.43212345654476
 20
-134.2601941938655
 10
97.43212345654476
 20
-134.5561278960485
 10
97.43212345654476
 20
-134.7425075618005
 10
97.33703882115185
 20
-134.8248453438979
 10
97.23747556162813
 20
-134.8861680435354
 10
97.29879826126559
 20
-134.9137288074174
 10
97.48069930288678
 20
-134.9939995322237
 10
97.48069930288678
 20
-135.2713297187863
 10
97.48069930288678
 20
-135.6096380954379
 10
97.23334144704583
 20
-135.7767252264725
 10
96.95635577003175
 20
-135.7767252264725
 97
        0
 97
        0
 75
     2
 76
     1
 98
        0
  0
SPLINE
  5
65
330
5F
100
AcDbEntity
  8
_U+30EC_U+30A4_U+30E4_U+30FC 1
370
     0
100
AcDbSpline
210
0.0
220
0.0
230
1.0
 70
    11
 71
     3
 72
    29
 73
    25
 74
     0
 42
0.0000000001
 43
0.0000000001
 12
1.0
 22
0.0
 32
0.0
 13
1.0
 23
0.0
 33
0.0
 40
0.0
 40
0.0
 40
0.0
 40
0.0
 40
1.0
 40
1.0
 40
1.0
 40
2.0
 40
2.0
 40
2.0
 40
3.0
 40
3.0
 40
3.0
 40
4.0
 40
4.0
 40
4.0
 40
5.0
 40
5.0
 40
5.0
 40
6.0
 40
6.0
 40
6.0
 40
7.0
 40
7.0
 40
7.0
 40
8.0
 40
8.0
 40
8.0
 40
8.0
 10
98.53937714550405
 20
-135.5483153958004
 30
0.0
 10
98.4312011472672
 20
-135.7577772013036
 30
0.0
 10
98.25791284435914
 20
-135.7767252264725
 30
0.0
 10
98.1414686169577
 20
-135.7767252264725
 30
0.0
 10
97.98058265779653
 20
-135.7767252264725
 30
0.0
 10
97.83898923335276
 20
-135.7302164374216
 30
0.0
 10
97.74390459795985
 20
-135.5483153958004
 30
0.0
 10
97.64020722385384
 20
-135.3536675008838
 30
0.0
 10
97.62125919868497
 20
-135.1166449314986
 30
0.0
 10
97.62125919868497
 20
-134.9540364245948
 30
0.0
 10
97.62125919868497
 20
-134.8100314333114
 30
0.0
 10
97.63814016656269
 20
-134.5581949533396
 30
0.0
 10
97.74390459795985
 20
-134.3594129438407
 30
0.0
 10
97.85173608664819
 20
-134.1564968197595
 30
0.0
 10
98.01262204580935
 20
-134.1330701704598
 30
0.0
 10
98.1414686169577
 20
-134.1330701704598
 30
0.0
 10
98.30028751882772
 20
-134.1330701704598
 30
0.0
 10
98.44394800056263
 20
-134.1775119022195
 30
0.0
 10
98.53937714550405
 20
-134.3594129438407
 30
0.0
 10
98.63859589547924
 20
-134.5519937814662
 30
0.0
 10
98.66202254477895
 20
-134.7804036121382
 30
0.0
 10
98.66202254477895
 20
-134.9540364245948
 30
0.0
 10
98.66202254477895
 20
-135.1252576702117
 30
0.0
 10
98.6406629527704
 20
-135.355734558175
 30
0.0
 10
98.53937714550405
 20
-135.5483153958004
 30
0.0
  0
SPLINE
  5
66
330
5F
100
AcDbEntity
  8
_U+30EC_U+30A4_U+30E4_U+30FC 1
370
     0
100
AcDbSpline
210
0.0
220
0.0
230
1.0
 70
    11
 71
     3
 72
    17
 73
    13
 74
     0
 42
0.0000000001
 43
0.0000000001
 12
1.0
 22
0.0
 32
0.0
 13
1.0
 23
0.0
 33
0.0
 40
0.0
 40
0.0
 40
0.0
 40
0.0
 40
1.0
 40
1.0
 40
1.0
 40
2.0
 40
2.0
 40
2.0
 40
3.0
 40
3.0
 40
3.0
 40
4.0
 40
4.0
 40
4.0
 40
4.0
 10
98.1414686169577
 20
-134.3256510080853
 30
0.0
 10
97.8920437038256
 20
-134.3256510080853
 30
0.0
 10
97.8451904052262
 20
-134.6091823665213
 30
0.0
 10
97.8451904052262
 20
-134.9540364245948
 30
0.0
 10
97.8451904052262
 20
-135.2733967760775
 30
0.0
 10
97.88136390782132
 20
-135.5820773315559
 30
0.0
 10
98.1414686169577
 20
-135.5820773315559
 30
0.0
 10
98.38917098234715
 20
-135.5820773315559
 30
0.0
 10
98.43774682868919
 20
-135.3009575399595
 30
0.0
 10
98.43774682868919
 20
-134.9540364245948
 30
0.0
 10
98.43774682868919
 20
-134.6343315635636
 30
0.0
 10
98.39950626880291
 20
-134.3256510080853
 30
0.0
 10
98.1414686169577
 20
-134.3256510080853
 30
0.0
  0
HATCH
  5
67
330
5F
100
AcDbEntity
  8
_U+30EC_U+30A4_U+30E4_U+30FC 1
 62
   179
420
  2234388
100
AcDbHatch
 10
0.0
 20
0.0
 30
0.0
210
0.0
220
0.0
230
1.0
  2
SOLID
 70
     1
 71
     0
 91
        2
 92
        1
 93
        1
 72
     4
 94
        3
 73
     0
 74
     1
 95
       29
 96
       25
 40
0.0
 40
0.0
 40
0.0
 40
0.0
 40
1.0
 40
1.0
 40
1.0
 40
2.0
 40
2.0
 40
2.0
 40
3.0
 40
3.0
 40
3.0
 40
4.0
 40
4.0
 40
4.0
 40
5.0
 40
5.0
 40
5.0
 40
6.0
 40
6.0
 40
6.0
 40
7.0
 40
7.0
 40
7.0
 40
8.0
 40
8.0
 40
8.0
 40
8.0
 10
98.53937714550405
 20
-135.5483153958004
 10
98.4312011472672
 20
-135.7577772013036
 10
98.25791284435914
 20
-135.7767252264725
 10
98.1414686169577
 20
-135.7767252264725
 10
97.98058265779653
 20
-135.7767252264725
 10
97.83898923335276
 20
-135.7302164374216
 10
97.74390459795985
 20
-135.5483153958004
 10
97.64020722385384
 20
-135.3536675008838
 10
97.62125919868497
 20
-135.1166449314986
 10
97.62125919868497
 20
-134.9540364245948
 10
97.62125919868497
 20
-134.8100314333114
 10
97.63814016656269
 20
-134.5581949533396
 10
97.74390459795985
 20
-134.3594129438407
 10
97.85173608664819
 20
-134.1564968197595
 10
98.01262204580935
 20
-134.1330701704598
 10
98.1414686169577
 20
-134.1330701704598
 10
98.30028751882772
 20
-134.1330701704598
 10
98.44394800056263
 20
-134.1775119022195
 10
98.53937714550405
 20
-134.3594129438407
 10
98.63859589547924
 20
-134.5519937814662
 10
98.66202254477895
 20
-134.7804036121382
 10
98.66202254477895
 20
-134.9540364245948
 10
98.66202254477895
 20
-135.1252576702117
 10
98.6406629527704
 20
-135.355734558175
 10
98.53937714550405
 20
-135.5483153958004
 97
        0
 97
        0
 92
        1
 93
        1
 72
     4
 94
        3
 73
     0
 74
     1
 95
       17
 96
       13
 40
0.0
 40
0.0
 40
0.0
 40
0.0
 40
1.0
 40
1.0
 40
1.0
 40
2.0
 40
2.0
 40
2.0
 40
3.0
 40
3.0
 40
3.0
 40
4.0
 40
4.0
 40
4.0
 40
4.0
 10
98.1414686169577
 20
-134.3256510080853
 10
97.8920437038256
 20
-134.3256510080853
 10
97.8451904052262
 20
-134.6091823665213
 10
97.8451904052262
 20
-134.9540364245948
 10
97.8451904052262
 20
-135.2733967760775
 10
97.88136390782132
 20
-135.5820773315559
 10
98.1414686169577
 20
-135.5820773315559
 10
98.38917098234715
 20
-135.5820773315559
 10
98.43774682868919
 20
-135.3009575399595
 10
98.43774682868919
 20
-134.9540364245948
 10
98.43774682868919
 20
-134.6343315635636
 10
98.39950626880291
 20
-134.3256510080853
 10
98.1414686169577
 20
-134.3256510080853
 97
        0
 97
        0
 75
     2
 76
     1
 98
        0
  0
ENDBLK
  5
62
330
5F
100
AcDbEntity
  8
0
100
AcDbBlockEnd
  0
BLOCK
  5
6A
330
68
100
AcDbEntity
  8
0
100
AcDbBlockBegin
  2
block 5
 70
     0
 10
0.0
 20
0.0
 30
0.0
  3
block 5
  1

  0
POLYLINE
  5
6C
330
68
100
AcDbEntity
  8
_U+30EC_U+30A4_U+30E4_U+30FC 1
 62
   179
420
  2234388
370
    25
100
AcDb2dPolyline
 66
     1
 10
0.0
 20
0.0
 30
0.0
  0
VERTEX
  5
6D
330
6C
100
AcDbEntity
  8
_U+30EC_U+30A4_U+30E4_U+30FC 1
 62
   179
420
  2234388
370
    25
100
AcDbVertex
100
AcDb2dVertex
 10
76.6416777586175
 20
-134.5723044108013
 30
0.0
  0
VERTEX
  5
6E
330
6C
100
AcDbEntity
  8
_U+30EC_U+30A4_U+30E4_U+30FC 1
 62
   179
420
  2234388
370
    25
100
AcDbVertex
100
AcDb2dVertex
 10
79.82253185244645
 20
-135.8184213549345
 30
0.0
  0
VERTEX
  5
6F
330
6C
100
AcDbEntity
  8
_U+30EC_U+30A4_U+30E4_U+30FC 1
 62
   179
420
  2234388
370
    25
100
AcDbVertex
100
AcDb2dVertex
 10
79.75190574313716
 20
-140.5571441315276
 30
0.0
  0
VERTEX
  5
70
330
6C
100
AcDbEntity
  8
_U+30EC_U+30A4_U+30E4_U+30FC 1
 62
   179
420
  2234388
370
    25
100
AcDbVertex
100
AcDb2dVertex
 10
79.58754658066364
 20
-140.7046052426017
 30
0.0
  0
SEQEND
  5
71
330
6C
100
AcDbEntity
  8
_U+30EC_U+30A4_U+30E4_U+30FC 1
 62
   179
420
  2234388
370
    25
  0
POLYLINE
  5
72
330
68
100
AcDbEntity
  8
_U+30EC_U+30A4_U+30E4_U+30FC 1
 62
   179
420
  2234388
370
    25
100
AcDb2dPolyline
 66
     1
 10
0.0
 20
0.0
 30
0.0
  0
VERTEX
  5
73
330
72
100
AcDbEntity
  8
_U+30EC_U+30A4_U+30E4_U+30FC 1
 62
   179
420
  2234388
370
    25
100
AcDbVertex
100
AcDb2dVertex
 10
77.82591551449548
 20
-135.3047416328402
 30
0.0
  0
VERTEX
  5
74
330
72
100
AcDbEntity
  8
_U+30EC_U+30A4_U+30E4_U+30FC 1
 62
   179
420
  2234388
370
    25
100
AcDbVertex
100
AcDb2dVertex
 10
79.48146630559219
 20
-135.9544877437889
 30
0.0
  0
VERTEX
  5
75
330
72
100
AcDbEntity
  8
_U+30EC_U+30A4_U+30E4_U+30FC 1
 62
   179
420
  2234388
370
    25
100
AcDbVertex
100
AcDb2dVertex
 10
79.48146630559219
 20
-140.5454319093083
 30
0.0
  0
VERTEX
  5
76
330
72
100
AcDbEntity
  8
_U+30EC_U+30A4_U+30E4_U+30FC 1
 62
   179
420
  2234388
370
    25
100
AcDbVertex
100
AcDb2dVertex
 10
79.08180437134398
 20
-140.7573102425886
 30
0.0
  0
SEQEND
  5
77
330
72
100
AcDbEntity
  8
_U+30EC_U+30A4_U+30E4_U+30FC 1
 62
   179
420
  2234388
370
    25
  0
POLYLINE
  5
78
330
68
100
AcDbEntity
  8
_U+30EC_U+30A4_U+30E4_U+30FC 1
 62
   179
420
  2234388
370
    25
100
AcDb2dPolyline
 66
     1
 10
0.0
 20
0.0
 30
0.0
  0
VERTEX
  5
79
330
78
100
AcDbEntity
  8
_U+30EC_U+30A4_U+30E4_U+30FC 1
 62
   179
420
  2234388
370
    25
100
AcDbVertex
100
AcDb2dVertex
 10
75.07174419587136
 20
-120.2786308032636
 30
0.0
  0
VERTEX
  5
7A
330
78
100
AcDbEntity
  8
_U+30EC_U+30A4_U+30E4_U+30FC 1
 62
   179
420
  2234388
370
    25
100
AcDbVertex
100
AcDb2dVertex
 10
91.07624850978466
 20
-125.5764710797169
 30
0.0
  0
VERTEX
  5
7B
330
78
100
AcDbEntity
  8
_U+30EC_U+30A4_U+30E4_U+30FC 1
 62
   179
420
  2234388
370
    25
100
AcDbVertex
100
AcDb2dVertex
 10
76.58879443494595
 20
-134.5130730219271
 30
0.0
  0
VERTEX
  5
7C
330
78
100
AcDbEntity
  8
_U+30EC_U+30A4_U+30E4_U+30FC 1
 62
   179
420
  2234388
370
    25
100
AcDbVertex
100
AcDb2dVertex
 10
76.58879443494595
 20
-134.8190019107397
 30
0.0
  0
VERTEX
  5
7D
330
78
100
AcDbEntity
  8
_U+30EC_U+30A4_U+30E4_U+30FC 1
 62
   179
420
  2234388
370
    25
100
AcDbVertex
100
AcDb2dVertex
 10
77.82591551449548
 20
-135.3047416328402
 30
0.0
  0
SEQEND
  5
7E
330
78
100
AcDbEntity
  8
_U+30EC_U+30A4_U+30E4_U+30FC 1
 62
   179
420
  2234388
370
    25
  0
POLYLINE
  5
7F
330
68
100
AcDbEntity
  8
_U+30EC_U+30A4_U+30E4_U+30FC 1
 62
   179
420
  2234388
370
    25
100
AcDb2dPolyline
 66
     1
 10
0.0
 20
0.0
 30
0.0
  0
VERTEX
  5
80
330
7F
100
AcDbEntity
  8
_U+30EC_U+30A4_U+30E4_U+30FC 1
 62
   179
420
  2234388
370
    25
100
AcDbVertex
100
AcDb2dVertex
 10
81.308714036753
 20
-119.9065560811345
 30
0.0
  0
VERTEX
  5
81
330
7F
100
AcDbEntity
  8
_U+30EC_U+30A4_U+30E4_U+30FC 1
 62
   179
420
  2234388
370
    25
100
AcDbVertex
100
AcDb2dVertex
 10
77.71757746170385
 20
-118.7555480258666
 30
0.0
  0
VERTEX
  5
82
330
7F
100
AcDbEntity
  8
_U+30EC_U+30A4_U+30E4_U+30FC 1
 62
   179
420
  2234388
370
    25
100
AcDbVertex
100
AcDb2dVertex
 10
75.01314780847738
 20
-120.2610624699348
 30
0.0
  0
VERTEX
  5
83
330
7F
100
AcDbEntity
  8
_U+30EC_U+30A4_U+30E4_U+30FC 1
 62
   179
420
  2234388
370
    25
100
AcDbVertex
100
AcDb2dVertex
 10
75.01314780847738
 20
-120.7078908031563
 30
0.0
  0
VERTEX
  5
84
330
7F
100
AcDbEntity
  8
_U+30EC_U+30A4_U+30E4_U+30FC 1
 62
   179
420
  2234388
370
    25
100
AcDbVertex
100
AcDb2dVertex
 10
90.13542775524407
 20
-126.1346008017998
 30
0.0
  0
SEQEND
  5
85
330
7F
100
AcDbEntity
  8
_U+30EC_U+30A4_U+30E4_U+30FC 1
 62
   179
420
  2234388
370
    25
  0
POLYLINE
  5
86
330
68
100
AcDbEntity
  8
_U+30EC_U+30A4_U+30E4_U+30FC 1
 62
   179
420
  2234388
370
    25
100
AcDb2dPolyline
 66
     1
 10
0.0
 20
0.0
 30
0.0
  0
VERTEX
  5
87
330
86
100
AcDbEntity
  8
_U+30EC_U+30A4_U+30E4_U+30FC 1
 62
   179
420
  2234388
370
    25
100
AcDbVertex
100
AcDb2dVertex
 10
97.68497556340421
 20
-128.9320227455448
 30
0.0
  0
VERTEX
  5
88
330
86
100
AcDbEntity
  8
_U+30EC_U+30A4_U+30E4_U+30FC 1
 62
   179
420
  2234388
370
    25
100
AcDbVertex
100
AcDb2dVertex
 10
97.68497556340421
 20
-125.2236933020273
 30
0.0
  0
VERTEX
  5
89
330
86
100
AcDbEntity
  8
_U+30EC_U+30A4_U+30E4_U+30FC 1
 62
   179
420
  2234388
370
    25
100
AcDbVertex
100
AcDb2dVertex
 10
81.308714036753
 20
-119.9065560811345
 30
0.0
  0
SEQEND
  5
8A
330
86
100
AcDbEntity
  8
_U+30EC_U+30A4_U+30E4_U+30FC 1
 62
   179
420
  2234388
370
    25
  0
POLYLINE
  5
8B
330
68
100
AcDbEntity
  8
_U+30EC_U+30A4_U+30E4_U+30FC 1
 62
   179
420
  2234388
370
    25
100
AcDb2dPolyline
 66
     1
 10
0.0
 20
0.0
 30
0.0
  0
VERTEX
  5
8C
330
8B
100
AcDbEntity
  8
_U+30EC_U+30A4_U+30E4_U+30FC 1
 62
   179
420
  2234388
370
    25
100
AcDbVertex
100
AcDb2dVertex
 10
79.08180437134398
 20
-140.7573102425886
 30
0.0
  0
VERTEX
  5
8D
330
8B
100
AcDbEntity
  8
_U+30EC_U+30A4_U+30E4_U+30FC 1
 62
   179
420
  2234388
370
    25
100
AcDbVertex
100
AcDb2dVertex
 10
79.83424407436986
 20
-140.6818510759406
 30
0.0
  0
VERTEX
  5
8E
330
8B
100
AcDbEntity
  8
_U+30EC_U+30A4_U+30E4_U+30FC 1
 62
   179
420
  2234388
370
    25
100
AcDbVertex
100
AcDb2dVertex
 10
97.66740723051907
 20
-131.0197263561341
 30
0.0
  0
VERTEX
  5
8F
330
8B
100
AcDbEntity
  8
_U+30EC_U+30A4_U+30E4_U+30FC 1
 62
   179
420
  2234388
370
    25
100
AcDbVertex
100
AcDb2dVertex
 10
97.68497556340421
 20
-128.9320227455448
 30
0.0
  0
SEQEND
  5
90
330
8B
100
AcDbEntity
  8
_U+30EC_U+30A4_U+30E4_U+30FC 1
 62
   179
420
  2234388
370
    25
  0
POLYLINE
  5
91
330
68
100
AcDbEntity
  8
_U+30EC_U+30A4_U+30E4_U+30FC 1
 62
   179
420
  2234388
370
    25
100
AcDb2dPolyline
 66
     1
 10
0.0
 20
0.0
 30
0.0
  0
VERTEX
  5
92
330
91
100
AcDbEntity
  8
_U+30EC_U+30A4_U+30E4_U+30FC 1
 62
   179
420
  2234388
370
    25
100
AcDbVertex
100
AcDb2dVertex
 10
77.5942110759623
 20
-121.6718208029153
 30
0.0
  0
VERTEX
  5
93
330
91
100
AcDbEntity
  8
_U+30EC_U+30A4_U+30E4_U+30FC 1
 62
   179
420
  2234388
370
    25
100
AcDbVertex
100
AcDb2dVertex
 10
77.5942110759623
 20
-124.1061285800847
 30
0.0
  0
VERTEX
  5
94
330
91
100
AcDbEntity
  8
_U+30EC_U+30A4_U+30E4_U+30FC 1
 62
   179
420
  2234388
370
    25
100
AcDbVertex
100
AcDb2dVertex
 10
77.38254441469572
 20
-124.600158579961
 30
0.0
  0
VERTEX
  5
95
330
91
100
AcDbEntity
  8
_U+30EC_U+30A4_U+30E4_U+30FC 1
 62
   179
420
  2234388
370
    25
100
AcDbVertex
100
AcDb2dVertex
 10
86.90754417169272
 20
-128.0927996901991
 30
0.0
  0
SEQEND
  5
96
330
91
100
AcDbEntity
  8
_U+30EC_U+30A4_U+30E4_U+30FC 1
 62
   179
420
  2234388
370
    25
  0
POLYLINE
  5
97
330
68
100
AcDbEntity
  8
_U+30EC_U+30A4_U+30E4_U+30FC 1
 62
   179
420
  2234388
370
    25
100
AcDb2dPolyline
 66
     1
 10
0.0
 20
0.0
 30
0.0
  0
VERTEX
  5
98
330
97
100
AcDbEntity
  8
_U+30EC_U+30A4_U+30E4_U+30FC 1
 62
   179
420
  2234388
370
    25
100
AcDbVertex
100
AcDb2dVertex
 10
77.5942110759623
 20
-124.1061285800847
 30
0.0
  0
VERTEX
  5
99
330
97
100
AcDbEntity
  8
_U+30EC_U+30A4_U+30E4_U+30FC 1
 62
   179
420
  2234388
370
    25
100
AcDbVertex
100
AcDb2dVertex
 10
87.59535498747854
 20
-127.7045324680737
 30
0.0
  0
SEQEND
  5
9A
330
97
100
AcDbEntity
  8
_U+30EC_U+30A4_U+30E4_U+30FC 1
 62
   179
420
  2234388
370
    25
  0
SPLINE
  5
9B
330
68
100
AcDbEntity
  8
_U+30EC_U+30A4_U+30E4_U+30FC 1
 62
   179
420
  2234388
370
    25
100
AcDbSpline
210
0.0
220
0.0
230
1.0
 70
     8
 71
     3
 72
    11
 73
     7
 74
     0
 42
0.0000000001
 43
0.0000000001
 12
1.0
 22
0.0
 32
0.0
 13
1.0
 23
0.0
 33
0.0
 40
0.0
 40
0.0
 40
0.0
 40
0.0
 40
1.0
 40
1.0
 40
1.0
 40
2.0
 40
2.0
 40
2.0
 40
2.0
 10
80.22233489780217
 20
-135.5714063549958
 30
0.0
 10
80.22233489780217
 20
-135.5714063549958
 30
0.0
 10
91.54653886600241
 20
-129.1862696899256
 30
0.0
 10
92.35785486597705
 20
-128.7628658011428
 30
0.0
 10
93.16917317861193
 20
-128.3394619123597
 30
0.0
 10
96.80303114146004
 20
-126.0464063573774
 30
0.0
 10
96.80303114146004
 20
-126.0464063573774
 30
0.0
  0
ENDBLK
  5
6B
330
68
100
AcDbEntity
  8
0
100
AcDbBlockEnd
  0
ENDSEC
  0
SECTION
  2
ENTITIES
  0
POLYLINE
  5
41
330
1F
100
AcDbEntity
  8
_U+30EC_U+30A4_U+30E4_U+30FC 1
 62
   179
420
  2234388
370
     9
100
AcDb2dPolyline
 66
     1
 10
0.0
 20
0.0
 30
0.0
  0
VERTEX
  5
42
330
41
100
AcDbEntity
  8
_U+30EC_U+30A4_U+30E4_U+30FC 1
 62
   179
420
  2234388
370
     9
100
AcDbVertex
100
AcDb2dVertex
 10
101.5345571318599
 20
-124.2111858022804
 30
0.0
  0
VERTEX
  5
43
330
41
100
AcDbEntity
  8
_U+30EC_U+30A4_U+30E4_U+30FC 1
 62
   179
420
  2234388
370
     9
100
AcDbVertex
100
AcDb2dVertex
 10
97.50481195688945
 20
-125.6953571907984
 30
0.0
  0
SEQEND
  5
44
330
41
100
AcDbEntity
  8
_U+30EC_U+30A4_U+30E4_U+30FC 1
 62
   179
420
  2234388
370
     9
  0
POLYLINE
  5
45
330
1F
100
AcDbEntity
  8
_U+30EC_U+30A4_U+30E4_U+30FC 1
 62
   179
420
  2234388
370
     9
100
AcDb2dPolyline
 66
     1
 10
0.0
 20
0.0
 30
0.0
  0
VERTEX
  5
46
330
45
100
AcDbEntity
  8
_U+30EC_U+30A4_U+30E4_U+30FC 1
 62
   179
420
  2234388
370
     9
100
AcDbVertex
100
AcDb2dVertex
 10
98.69956442640877
 20
-125.5851141352705
 30
0.0
  0
VERTEX
  5
47
330
45
100
AcDbEntity
  8
_U+30EC_U+30A4_U+30E4_U+30FC 1
 62
   179
420
  2234388
370
     9
100
AcDbVertex
100
AcDb2dVertex
 10
97.50481195688945
 20
-125.6953571907984
 30
0.0
  0
SEQEND
  5
48
330
45
100
AcDbEntity
  8
_U+30EC_U+30A4_U+30E4_U+30FC 1
 62
   179
420
  2234388
370
     9
  0
POLYLINE
  5
49
330
1F
100
AcDbEntity
  8
_U+30EC_U+30A4_U+30E4_U+30FC 1
 62
   179
420
  2234388
370
     9
100
AcDb2dPolyline
 66
     1
 10
0.0
 20
0.0
 30
0.0
  0
VERTEX
  5
4A
330
49
100
AcDbEntity
  8
_U+30EC_U+30A4_U+30E4_U+30FC 1
 62
   179
420
  2234388
370
     9
100
AcDbVertex
100
AcDb2dVertex
 10
98.48458165411567
 20
-125.0028896909714
 30
0.0
  0
VERTEX
  5
4B
330
49
100
AcDbEntity
  8
_U+30EC_U+30A4_U+30E4_U+30FC 1
 62
   179
420
  2234388
370
     9
100
AcDbVertex
100
AcDb2dVertex
 10
97.50481195688945
 20
-125.6953571907984
 30
0.0
  0
SEQEND
  5
4C
330
49
100
AcDbEntity
  8
_U+30EC_U+30A4_U+30E4_U+30FC 1
 62
   179
420
  2234388
370
     9
  0
INSERT
  5
4E
330
1F
100
AcDbEntity
  8
_U+30EC_U+30A4_U+30E4_U+30FC 1
100
AcDbBlockReference
  2
block 2
 10
0.0
 20
0.0
 30
0.0
  0
INSERT
  5
57
330
1F
100
AcDbEntity
  8
_U+30EC_U+30A4_U+30E4_U+30FC 1
100
AcDbBlockReference
  2
block 3
 10
0.0
 20
0.0
 30
0.0
  0
INSERT
  5
60
330
1F
100
AcDbEntity
  8
_U+30EC_U+30A4_U+30E4_U+30FC 1
100
AcDbBlockReference
  2
block 4
 10
0.0
 20
0.0
 30
0.0
  0
INSERT
  5
69
330
1F
100
AcDbEntity
  8
_U+30EC_U+30A4_U+30E4_U+30FC 1
100
AcDbBlockReference
  2
block 5
 10
0.0
 20
0.0
 30
0.0
  0
POLYLINE
  5
9C
330
1F
100
AcDbEntity
  8
_U+30EC_U+30A4_U+30E4_U+30FC 1
 62
   179
420
  2234388
370
     9
100
AcDb2dPolyline
 66
     1
 10
0.0
 20
0.0
 30
0.0
  0
VERTEX
  5
9D
330
9C
100
AcDbEntity
  8
_U+30EC_U+30A4_U+30E4_U+30FC 1
 62
   179
420
  2234388
370
     9
100
AcDbVertex
100
AcDb2dVertex
 10
80.89257738070286
 20
-136.1357096881886
 30
0.0
  0
VERTEX
  5
9E
330
9C
100
AcDbEntity
  8
_U+30EC_U+30A4_U+30E4_U+30FC 1
 62
   179
420
  2234388
370
     9
100
AcDbVertex
100
AcDb2dVertex
 10
89.35924383136687
 20
-139.1698102429855
 30
0.0
  0
SEQEND
  5
9F
330
9C
100
AcDbEntity
  8
_U+30EC_U+30A4_U+30E4_U+30FC 1
 62
   179
420
  2234388
370
     9
  0
POLYLINE
  5
A0
330
1F
100
AcDbEntity
  8
_U+30EC_U+30A4_U+30E4_U+30FC 1
 62
   179
420
  2234388
370
     9
100
AcDb2dPolyline
 66
     1
 10
0.0
 20
0.0
 30
0.0
  0
VERTEX
  5
A1
330
A0
100
AcDbEntity
  8
_U+30EC_U+30A4_U+30E4_U+30FC 1
 62
   179
420
  2234388
370
     9
100
AcDbVertex
100
AcDb2dVertex
 10
99.00411747419453
 20
-125.6953571907984
 30
0.0
  0
VERTEX
  5
A2
330
A0
100
AcDbEntity
  8
_U+30EC_U+30A4_U+30E4_U+30FC 1
 62
   179
420
  2234388
370
     9
100
AcDbVertex
100
AcDb2dVertex
 10
107.0687610843441
 20
-128.586476912298
 30
0.0
  0
SEQEND
  5
A3
330
A0
100
AcDbEntity
  8
_U+30EC_U+30A4_U+30E4_U+30FC 1
 62
   179
420
  2234388
370
     9
  0
POLYLINE
  5
A4
330
1F
100
AcDbEntity
  8
_U+30EC_U+30A4_U+30E4_U+30FC 1
 62
   179
420
  2234388
370
     9
100
AcDb2dPolyline
 66
     1
 10
0.0
 20
0.0
 30
0.0
  0
VERTEX
  5
A5
330
A4
100
AcDbEntity
  8
_U+30EC_U+30A4_U+30E4_U+30FC 1
 62
   179
420
  2234388
370
     9
100
AcDbVertex
100
AcDb2dVertex
 10
78.14098331379823
 20
-118.4261946926155
 30
0.0
  0
VERTEX
  5
A6
330
A4
100
AcDbEntity
  8
_U+30EC_U+30A4_U+30E4_U+30FC 1
 62
   179
420
  2234388
370
     9
100
AcDbVertex
100
AcDb2dVertex
 10
82.30368845581353
 20
-116.0277291376597
 30
0.0
  0
SEQEND
  5
A7
330
A4
100
AcDbEntity
  8
_U+30EC_U+30A4_U+30E4_U+30FC 1
 62
   179
420
  2234388
370
     9
  0
POLYLINE
  5
A8
330
1F
100
AcDbEntity
  8
_U+30EC_U+30A4_U+30E4_U+30FC 1
 62
   179
420
  2234388
370
     9
100
AcDb2dPolyline
 66
     1
 10
0.0
 20
0.0
 30
0.0
  0
VERTEX
  5
A9
330
A8
100
AcDbEntity
  8
_U+30EC_U+30A4_U+30E4_U+30FC 1
 62
   179
420
  2234388
370
     9
100
AcDbVertex
100
AcDb2dVertex
 10
98.60724248431966
 20
-124.6811210799409
 30
0.0
  0
VERTEX
  5
AA
330
A8
100
AcDbEntity
  8
_U+30EC_U+30A4_U+30E4_U+30FC 1
 62
   179
420
  2234388
370
     9
100
AcDbVertex
100
AcDb2dVertex
 10
102.2710865575139
 20
-122.5892546915748
 30
0.0
  0
SEQEND
  5
AB
330
A8
100
AcDbEntity
  8
_U+30EC_U+30A4_U+30E4_U+30FC 1
 62
   179
420
  2234388
370
     9
  0
POLYLINE
  5
AC
330
1F
100
AcDbEntity
  8
_U+30EC_U+30A4_U+30E4_U+30FC 1
 62
   179
420
  2234388
370
     9
100
AcDb2dPolyline
 66
     1
 10
0.0
 20
0.0
 30
0.0
  0
VERTEX
  5
AD
330
AC
100
AcDbEntity
  8
_U+30EC_U+30A4_U+30E4_U+30FC 1
 62
   179
420
  2234388
370
     9
100
AcDbVertex
100
AcDb2dVertex
 10
80.82212766027796
 20
-116.8741841374482
 30
0.0
  0
VERTEX
  5
AE
330
AC
100
AcDbEntity
  8
_U+30EC_U+30A4_U+30E4_U+30FC 1
 62
   179
420
  2234388
370
     9
100
AcDbVertex
100
AcDb2dVertex
 10
100.9068596478738
 20
-123.3654363580475
 30
0.0
  0
SEQEND
  5
AF
330
AC
100
AcDbEntity
  8
_U+30EC_U+30A4_U+30E4_U+30FC 1
 62
   179
420
  2234388
370
     9
  0
POLYLINE
  5
B0
330
1F
100
AcDbEntity
  8
_U+30EC_U+30A4_U+30E4_U+30FC 1
 62
   179
420
  2234388
370
     9
100
AcDb2dPolyline
 66
     1
 10
0.0
 20
0.0
 30
0.0
  0
VERTEX
  5
B1
330
B0
100
AcDbEntity
  8
_U+30EC_U+30A4_U+30E4_U+30FC 1
 62
   179
420
  2234388
370
     9
100
AcDbVertex
100
AcDb2dVertex
 10
87.73657192832025
 20
-138.5348807986996
 30
0.0
  0
VERTEX
  5
B2
330
B0
100
AcDbEntity
  8
_U+30EC_U+30A4_U+30E4_U+30FC 1
 62
   179
420
  2234388
370
     9
100
AcDbVertex
100
AcDb2dVertex
 10
105.7282381359813
 20
-128.1630730235149
 30
0.0
  0
SEQEND
  5
B3
330
B0
100
AcDbEntity
  8
_U+30EC_U+30A4_U+30E4_U+30FC 1
 62
   179
420
  2234388
370
     9
  0
ENDSEC
  0
SECTION
  2
OBJECTS
  0
DICTIONARY
  5
C
330
0
100
AcDbDictionary
281
     1
  3
ACAD_GROUP
350
D
  3
ACAD_LAYOUT
350
1A
  3
ACAD_MATERIAL
350
3B
  3
ACAD_MLEADERSTYLE
350
B5
  3
ACAD_MLINESTYLE
350
17
  3
ACAD_PLOTSETTINGS
350
19
  3
ACAD_PLOTSTYLENAME
350
E
  3
ACAD_TABLESTYLE
350
B4
  3
ACAD_VISUALSTYLE
350
2A
  0
SUN
  5
3F
330
29
100
AcDbSun
 90
        1
290
     0
 63
     7
421
 16777215
 40
1.0
291
     1
 91
  2455826
 92
 54000000
292
     0
 70
     2
 71
   256
280
     1
  0
DICTIONARY
  5
D
102
{ACAD_REACTORS
330
C
102
}
330
C
100
AcDbDictionary
281
     1
  0
DICTIONARY
  5
1A
102
{ACAD_REACTORS
330
C
102
}
330
C
100
AcDbDictionary
281
     1
  3
Layout1
350
1E
  3
Layout2
350
26
  3
Model
350
22
  0
DICTIONARY
  5
3B
102
{ACAD_REACTORS
330
C
102
}
330
C
100
AcDbDictionary
281
     1
  3
ByBlock
350
3D
  3
ByLayer
350
3C
  3
Global
350
3E
  0
DICTIONARY
  5
B5
102
{ACAD_REACTORS
330
C
102
}
330
C
100
AcDbDictionary
281
     1
  0
DICTIONARY
  5
17
102
{ACAD_REACTORS
330
C
102
}
330
C
100
AcDbDictionary
281
     1
  3
Standard
350
18
  0
DICTIONARY
  5
19
102
{ACAD_REACTORS
330
C
102
}
330
C
100
AcDbDictionary
281
     1
  0
ACDBDICTIONARYWDFLT
  5
E
102
{ACAD_REACTORS
330
C
102
}
330
C
100
AcDbDictionary
281
     1
  3
Normal
350
F
100
AcDbDictionaryWithDefault
340
F
  0
DICTIONARY
  5
B4
102
{ACAD_REACTORS
330
C
102
}
330
C
100
AcDbDictionary
281
     1
  0
DICTIONARY
  5
2A
102
{ACAD_REACTORS
330
C
102
}
330
C
100
AcDbDictionary
281
     1
  3
2dWireframe
350
2F
  3
3D Hidden
350
31
  3
3dWireframe
350
30
  3
Basic
350
32
  3
Brighten
350
36
  3
ColorChange
350
3A
  3
Conceptual
350
34
  3
Dim
350
35
  3
Facepattern
350
39
  3
Flat
350
2B
  3
FlatWithEdges
350
2C
  3
Gouraud
350
2D
  3
GouraudWithEdges
350
2E
  3
Linepattern
350
38
  3
Realistic
350
33
  3
Thicken
350
37
  0
LAYOUT
  5
1E
102
{ACAD_REACTORS
330
1A
102
}
330
1A
100
AcDbPlotSettings
  1

  2
none_device
  4

  6

 40
0.0
 41
0.0
 42
0.0
 43
0.0
 44
0.0
 45
0.0
 46
0.0
 47
0.0
 48
0.0
 49
0.0
140
0.0
141
0.0
142
1.0
143
1.0
 70
   688
 72
     0
 73
     0
 74
     5
  7

 75
    16
 76
     0
 77
     2
 78
   300
147
1.0
148
0.0
149
0.0
100
AcDbLayout
  1
Layout1
 70
     1
 71
     1
 10
0.0
 20
0.0
 11
12.0
 21
9.0
 12
0.0
 22
0.0
 32
0.0
 14
1.000000000000000E+20
 24
1.000000000000000E+20
 34
1.000000000000000E+20
 15
-1.000000000000000E+20
 25
-1.000000000000000E+20
 35
-1.000000000000000E+20
146
0.0
 13
0.0
 23
0.0
 33
0.0
 16
1.0
 26
0.0
 36
0.0
 17
0.0
 27
1.0
 37
0.0
 76
     0
330
1B
  0
LAYOUT
  5
26
102
{ACAD_REACTORS
330
1A
102
}
330
1A
100
AcDbPlotSettings
  1

  2
none_device
  4

  6

 40
0.0
 41
0.0
 42
0.0
 43
0.0
 44
0.0
 45
0.0
 46
0.0
 47
0.0
 48
0.0
 49
0.0
140
0.0
141
0.0
142
1.0
143
1.0
 70
   688
 72
     0
 73
     0
 74
     5
  7

 75
    16
 76
     0
 77
     2
 78
   300
147
1.0
148
0.0
149
0.0
100
AcDbLayout
  1
Layout2
 70
     1
 71
     2
 10
0.0
 20
0.0
 11
0.0
 21
0.0
 12
0.0
 22
0.0
 32
0.0
 14
0.0
 24
0.0
 34
0.0
 15
0.0
 25
0.0
 35
0.0
146
0.0
 13
0.0
 23
0.0
 33
0.0
 16
1.0
 26
0.0
 36
0.0
 17
0.0
 27
1.0
 37
0.0
 76
     0
330
23
  0
LAYOUT
  5
22
102
{ACAD_REACTORS
330
1A
102
}
330
1A
100
AcDbPlotSettings
  1

  2
none_device
  4

  6

 40
0.0
 41
0.0
 42
0.0
 43
0.0
 44
0.0
 45
0.0
 46
0.0
 47
0.0
 48
0.0
 49
0.0
140
0.0
141
0.0
142
1.0
143
1.0
 70
  1712
 72
     0
 73
     0
 74
     0
  7

 75
     0
 76
     0
 77
     2
 78
   300
147
1.0
148
0.0
149
0.0
100
AcDbLayout
  1
Model
 70
     1
 71
     0
 10
0.0
 20
0.0
 11
12.0
 21
9.0
 12
0.0
 22
0.0
 32
0.0
 14
1.000000000000000E+20
 24
1.000000000000000E+20
 34
1.000000000000000E+20
 15
-1.000000000000000E+20
 25
-1.000000000000000E+20
 35
-1.000000000000000E+20
146
0.0
 13
0.0
 23
0.0
 33
0.0
 16
1.0
 26
0.0
 36
0.0
 17
0.0
 27
1.0
 37
0.0
 76
     0
330
1F
331
29
  0
MATERIAL
  5
3D
102
{ACAD_REACTORS
330
3B
102
}
330
3B
100
AcDbMaterial
  1
ByBlock
 72
     1
 94
      127
  0
MATERIAL
  5
3C
102
{ACAD_REACTORS
330
3B
102
}
330
3B
100
AcDbMaterial
  1
ByLayer
 72
     1
 94
      127
  0
MATERIAL
  5
3E
102
{ACAD_REACTORS
330
3B
102
}
330
3B
100
AcDbMaterial
  1
Global
 72
     1
 94
      127
  0
MLINESTYLE
  5
18
102
{ACAD_REACTORS
330
17
102
}
330
17
100
AcDbMlineStyle
  2
Standard
 70
     0
  3

 62
   256
 51
90.0
 52
90.0
 71
     2
 49
0.5
 62
   256
  6
BYLAYER
 49
-0.5
 62
   256
  6
BYLAYER
  0
ACDBPLACEHOLDER
  5
F
102
{ACAD_REACTORS
330
E
102
}
330
E
  0
VISUALSTYLE
  5
2F
102
{ACAD_REACTORS
330
2A
102
}
330
2A
100
AcDbVisualStyle
  2
2dWireframe
 70
     4
177
     2
291
     0
 71
     0
176
     1
 72
     2
176
     1
 73
     0
176
     1
 90
        0
176
     1
 40
-0.6
176
     1
 41
-30.0
176
     1
 62
     5
 63
     7
421
 16777215
176
     1
 74
     1
176
     1
 91
        4
176
     1
 64
     7
176
     1
 65
   257
176
     1
 75
     1
176
     1
175
     1
176
     1
 42
1.0
176
     1
 92
        0
176
     1
 66
   257
176
     1
 43
1.0
176
     1
 76
     1
176
     1
 77
     6
176
     1
 78
     2
176
     1
 67
     7
176
     1
 79
     5
176
     1
170
     0
176
     1
171
     0
176
     1
290
     0
176
     1
 93
        1
176
     1
 44
0.0
176
     1
173
     0
176
     1
  0
VISUALSTYLE
  5
31
102
{ACAD_REACTORS
330
2A
102
}
330
2A
100
AcDbVisualStyle
  2
3D Hidden
 70
     6
177
     2
291
     0
 71
     1
176
     1
 72
     2
176
     1
 73
     2
176
     1
 90
        0
176
     1
 40
-0.6
176
     1
 41
-30.0
176
     1
 62
     5
 63
     7
421
 16777215
176
     1
 74
     2
176
     1
 91
        2
176
     1
 64
     7
176
     1
 65
   257
176
     1
 75
     2
176
     1
175
     1
176
     1
 42
40.0
176
     1
 92
        0
176
     1
 66
   257
176
     1
 43
1.0
176
     1
 76
     1
176
     1
 77
     6
176
     1
 78
     2
176
     1
 67
     7
176
     1
 79
     3
176
     1
170
     0
176
     1
171
     0
176
     1
290
     0
176
     1
 93
        1
176
     1
 44
0.0
176
     1
173
     0
176
     1
  0
VISUALSTYLE
  5
30
102
{ACAD_REACTORS
330
2A
102
}
330
2A
100
AcDbVisualStyle
  2
3dWireframe
 70
     5
177
     2
291
     0
 71
     0
176
     1
 72
     2
176
     1
 73
     0
176
     1
 90
        0
176
     1
 40
-0.6
176
     1
 41
-30.0
176
     1
 62
     5
 63
     7
421
 16777215
176
     1
 74
     1
176
     1
 91
        4
176
     1
 64
     7
176
     1
 65
   257
176
     1
 75
     1
176
     1
175
     1
176
     1
 42
1.0
176
     1
 92
        0
176
     1
 66
   257
176
     1
 43
1.0
176
     1
 76
     1
176
     1
 77
     6
176
     1
 78
     2
176
     1
 67
     7
176
     1
 79
     5
176
     1
170
     0
176
     1
171
     0
176
     1
290
     0
176
     1
 93
        1
176
     1
 44
0.0
176
     1
173
     0
176
     1
  0
VISUALSTYLE
  5
32
102
{ACAD_REACTORS
330
2A
102
}
330
2A
100
AcDbVisualStyle
  2
Basic
 70
     7
177
     2
291
     1
 71
     1
176
     1
 72
     0
176
     1
 73
     1
176
     1
 90
        0
176
     1
 40
-0.6
176
     1
 41
-30.0
176
     1
 62
     5
 63
     7
421
 16777215
176
     1
 74
     0
176
     1
 91
        4
176
     1
 64
     7
176
     1
 65
   257
176
     1
 75
     1
176
     1
175
     1
176
     1
 42
1.0
176
     1
 92
        8
176
     1
 66
     7
176
     1
 43
1.0
176
     1
 76
     1
176
     1
 77
     6
176
     1
 78
     2
176
     1
 67
     7
176
     1
 79
     5
176
     1
170
     0
176
     1
171
     0
176
     1
290
     0
176
     1
 93
        1
176
     1
 44
0.0
176
     1
173
     0
176
     1
  0
VISUALSTYLE
  5
36
102
{ACAD_REACTORS
330
2A
102
}
330
2A
100
AcDbVisualStyle
  2
Brighten
 70
    12
177
     2
291
     1
 71
     2
176
     1
 72
     2
176
     1
 73
     0
176
     1
 90
        0
176
     1
 40
-0.6
176
     1
 41
-30.0
176
     1
 62
     5
 63
     7
421
 16777215
176
     1
 74
     1
176
     1
 91
        4
176
     1
 64
     7
176
     1
 65
   257
176
     1
 75
     1
176
     1
175
     1
176
     1
 42
1.0
176
     1
 92
        8
176
     1
 66
     7
176
     1
 43
1.0
176
     1
 76
     1
176
     1
 77
     6
176
     1
 78
     2
176
     1
 67
     7
176
     1
 79
     5
176
     1
170
     0
176
     1
171
     0
176
     1
290
     0
176
     1
 93
        1
176
     1
 44
50.0
176
     1
173
     0
176
     1
  0
VISUALSTYLE
  5
3A
102
{ACAD_REACTORS
330
2A
102
}
330
2A
100
AcDbVisualStyle
  2
ColorChange
 70
    16
177
     2
291
     1
 71
     2
176
     1
 72
     2
176
     1
 73
     3
176
     1
 90
        0
176
     1
 40
-0.6
176
     1
 41
-30.0
176
     1
 62
     5
 63
     8
421
  8421504
176
     1
 74
     1
176
     1
 91
        4
176
     1
 64
     7
176
     1
 65
   257
176
     1
 75
     1
176
     1
175
     1
176
     1
 42
1.0
176
     1
 92
        8
176
     1
 66
     8
424
  8421504
176
     1
 43
1.0
176
     1
 76
     1
176
     1
 77
     6
176
     1
 78
     2
176
     1
 67
     7
176
     1
 79
     5
176
     1
170
     0
176
     1
171
     0
176
     1
290
     0
176
     1
 93
        1
176
     1
 44
0.0
176
     1
173
     0
176
     1
  0
VISUALSTYLE
  5
34
102
{ACAD_REACTORS
330
2A
102
}
330
2A
100
AcDbVisualStyle
  2
Conceptual
 70
     9
177
     2
291
     0
 71
     3
176
     1
 72
     2
176
     1
 73
     0
176
     1
 90
        0
176
     1
 40
-0.6
176
     1
 41
-30.0
176
     1
 62
     5
 63
     7
421
 16777215
176
     1
 74
     2
176
     1
 91
        2
176
     1
 64
     7
176
     1
 65
   257
176
     1
 75
     1
176
     1
175
     1
176
     1
 42
40.0
176
     1
 92
        8
176
     1
 66
     7
176
     1
 43
1.0
176
     1
 76
     1
176
     1
 77
     6
176
     1
 78
     2
176
     1
 67
     7
176
     1
 79
     3
176
     1
170
     0
176
     1
171
     0
176
     1
290
     0
176
     1
 93
        1
176
     1
 44
0.0
176
     1
173
     0
176
     1
  0
VISUALSTYLE
  5
35
102
{ACAD_REACTORS
330
2A
102
}
330
2A
100
AcDbVisualStyle
  2
Dim
 70
    11
177
     2
291
     1
 71
     2
176
     1
 72
     2
176
     1
 73
     0
176
     1
 90
        0
176
     1
 40
-0.6
176
     1
 41
-30.0
176
     1
 62
     5
 63
     7
421
 16777215
176
     1
 74
     1
176
     1
 91
        4
176
     1
 64
     7
176
     1
 65
   257
176
     1
 75
     1
176
     1
175
     1
176
     1
 42
1.0
176
     1
 92
        8
176
     1
 66
     7
176
     1
 43
1.0
176
     1
 76
     1
176
     1
 77
     6
176
     1
 78
     2
176
     1
 67
     7
176
     1
 79
     5
176
     1
170
     0
176
     1
171
     0
176
     1
290
     0
176
     1
 93
        1
176
     1
 44
-50.0
176
     1
173
     0
176
     1
  0
VISUALSTYLE
  5
39
102
{ACAD_REACTORS
330
2A
102
}
330
2A
100
AcDbVisualStyle
  2
Facepattern
 70
    15
177
     2
291
     1
 71
     2
176
     1
 72
     2
176
     1
 73
     0
176
     1
 90
        0
176
     1
 40
-0.6
176
     1
 41
-30.0
176
     1
 62
     5
 63
     7
421
 16777215
176
     1
 74
     1
176
     1
 91
        4
176
     1
 64
     7
176
     1
 65
   257
176
     1
 75
     1
176
     1
175
     1
176
     1
 42
1.0
176
     1
 92
        8
176
     1
 66
     7
176
     1
 43
1.0
176
     1
 76
     1
176
     1
 77
     6
176
     1
 78
     2
176
     1
 67
     7
176
     1
 79
     5
176
     1
170
     0
176
     1
171
     0
176
     1
290
     0
176
     1
 93
        1
176
     1
 44
0.0
176
     1
173
     0
176
     1
  0
VISUALSTYLE
  5
2B
102
{ACAD_REACTORS
330
2A
102
}
330
2A
100
AcDbVisualStyle
  2
Flat
 70
     0
177
     2
291
     1
 71
     2
176
     1
 72
     1
176
     1
 73
     1
176
     1
 90
        2
176
     1
 40
-0.6
176
     1
 41
30.0
176
     1
 62
     5
 63
     7
421
 16777215
176
     1
 74
     0
176
     1
 91
        4
176
     1
 64
     7
176
     1
 65
   257
176
     1
 75
     1
176
     1
175
     1
176
     1
 42
1.0
176
     1
 92
        8
176
     1
 66
     7
176
     1
 43
1.0
176
     1
 76
     1
176
     1
 77
     6
176
     1
 78
     2
176
     1
 67
     7
176
     1
 79
     5
176
     1
170
     0
176
     1
171
     0
176
     1
290
     0
176
     1
 93
       13
176
     1
 44
0.0
176
     1
173
     0
176
     1
  0
VISUALSTYLE
  5
2C
102
{ACAD_REACTORS
330
2A
102
}
330
2A
100
AcDbVisualStyle
  2
FlatWithEdges
 70
     1
177
     2
291
     1
 71
     2
176
     1
 72
     1
176
     1
 73
     1
176
     1
 90
        2
176
     1
 40
-0.6
176
     1
 41
30.0
176
     1
 62
     5
 63
     7
421
 16777215
176
     1
 74
     1
176
     1
 91
        4
176
     1
 64
     7
176
     1
 65
   257
176
     1
 75
     1
176
     1
175
     1
176
     1
 42
1.0
176
     1
 92
        0
176
     1
 66
   257
176
     1
 43
1.0
176
     1
 76
     1
176
     1
 77
     6
176
     1
 78
     2
176
     1
 67
     7
176
     1
 79
     5
176
     1
170
     0
176
     1
171
     0
176
     1
290
     0
176
     1
 93
       13
176
     1
 44
0.0
176
     1
173
     0
176
     1
  0
VISUALSTYLE
  5
2D
102
{ACAD_REACTORS
330
2A
102
}
330
2A
100
AcDbVisualStyle
  2
Gouraud
 70
     2
177
     2
291
     1
 71
     2
176
     1
 72
     2
176
     1
 73
     1
176
     1
 90
        2
176
     1
 40
-0.6
176
     1
 41
30.0
176
     1
 62
     5
 63
     7
421
 16777215
176
     1
 74
     0
176
     1
 91
        4
176
     1
 64
     7
176
     1
 65
   257
176
     1
 75
     1
176
     1
175
     1
176
     1
 42
1.0
176
     1
 92
        0
176
     1
 66
     7
176
     1
 43
1.0
176
     1
 76
     1
176
     1
 77
     6
176
     1
 78
     2
176
     1
 67
     7
176
     1
 79
     5
176
     1
170
     0
176
     1
171
     0
176
     1
290
     0
176
     1
 93
       13
176
     1
 44
0.0
176
     1
173
     0
176
     1
  0
VISUALSTYLE
  5
2E
102
{ACAD_REACTORS
330
2A
102
}
330
2A
100
AcDbVisualStyle
  2
GouraudWithEdges
 70
     3
177
     2
291
     1
 71
     2
176
     1
 72
     2
176
     1
 73
     1
176
     1
 90
        2
176
     1
 40
-0.6
176
     1
 41
30.0
176
     1
 62
     5
 63
     7
421
 16777215
176
     1
 74
     1
176
     1
 91
        4
176
     1
 64
     7
176
     1
 65
   257
176
     1
 75
     1
176
     1
175
     1
176
     1
 42
1.0
176
     1
 92
        0
176
     1
 66
   257
176
     1
 43
1.0
176
     1
 76
     1
176
     1
 77
     6
176
     1
 78
     2
176
     1
 67
     7
176
     1
 79
     5
176
     1
170
     0
176
     1
171
     0
176
     1
290
     0
176
     1
 93
       13
176
     1
 44
0.0
176
     1
173
     0
176
     1
  0
VISUALSTYLE
  5
38
102
{ACAD_REACTORS
330
2A
102
}
330
2A
100
AcDbVisualStyle
  2
Linepattern
 70
    14
177
     2
291
     1
 71
     2
176
     1
 72
     2
176
     1
 73
     0
176
     1
 90
        0
176
     1
 40
-0.6
176
     1
 41
-30.0
176
     1
 62
     5
 63
     7
421
 16777215
176
     1
 74
     1
176
     1
 91
        4
176
     1
 64
     7
176
     1
 65
   257
176
     1
 75
     7
176
     1
175
     7
176
     1
 42
1.0
176
     1
 92
        8
176
     1
 66
     7
176
     1
 43
1.0
176
     1
 76
     1
176
     1
 77
     6
176
     1
 78
     2
176
     1
 67
     7
176
     1
 79
     5
176
     1
170
     0
176
     1
171
     0
176
     1
290
     0
176
     1
 93
        1
176
     1
 44
0.0
176
     1
173
     0
176
     1
  0
VISUALSTYLE
  5
33
102
{ACAD_REACTORS
330
2A
102
}
330
2A
100
AcDbVisualStyle
  2
Realistic
 70
     8
177
     2
291
     0
 71
     2
176
     1
 72
     2
176
     1
 73
     0
176
     1
 90
        0
176
     1
 40
-0.6
176
     1
 41
-30.0
176
     1
 62
     5
 63
     7
421
 16777215
176
     1
 74
     1
176
     1
 91
        0
176
     1
 64
     7
176
     1
 65
   257
176
     1
 75
     1
176
     1
175
     1
176
     1
 42
1.0
176
     1
 92
        8
176
     1
 66
     8
424
  7895160
176
     1
 43
1.0
176
     1
 76
     1
176
     1
 77
     6
176
     1
 78
     2
176
     1
 67
     7
176
     1
 79
     5
176
     1
170
     0
176
     1
171
     0
176
     1
290
     0
176
     1
 93
       13
176
     1
 44
0.0
176
     1
173
     0
176
     1
  0
VISUALSTYLE
  5
37
102
{ACAD_REACTORS
330
2A
102
}
330
2A
100
AcDbVisualStyle
  2
Thicken
 70
    13
177
     2
291
     1
 71
     2
176
     1
 72
     2
176
     1
 73
     0
176
     1
 90
        0
176
     1
 40
-0.6
176
     1
 41
-30.0
176
     1
 62
     5
 63
     7
421
 16777215
176
     1
 74
     1
176
     1
 91
        4
176
     1
 64
     7
176
     1
 65
   257
176
     1
 75
     1
176
     1
175
     1
176
     1
 42
1.0
176
     1
 92
       12
176
     1
 66
     7
176
     1
 43
1.0
176
     1
 76
     1
176
     1
 77
     6
176
     1
 78
     2
176
     1
 67
     7
176
     1
 79
     5
176
     1
170
     0
176
     1
171
     0
176
     1
290
     0
176
     1
 93
        1
176
     1
 44
0.0
176
     1
173
     0
176
     1
  0
ENDSEC
  0
EOF
