  0
SECTION
  2
HEADER
  9
$ACADVER
  1
AC1024
  9
$ACADMAINTVER
 70
     6
  9
$DWGCODEPAGE
  3
UNDEFINED
  9
$INSBASE
 10
0.0
 20
0.0
 30
0.0
  9
$EXTMIN
 10
1.000000000000000E+20
 20
1.000000000000000E+20
 30
1.000000000000000E+20
  9
$EXTMAX
 10
-1.000000000000000E+20
 20
-1.000000000000000E+20
 30
-1.000000000000000E+20
  9
$LIMMIN
 10
0.0
 20
0.0
  9
$LIMMAX
 10
12.0
 20
9.0
  9
$ORTHOMODE
 70
     0
  9
$REGENMODE
 70
     1
  9
$FILLMODE
 70
     1
  9
$QTEXTMODE
 70
     0
  9
$MIRRTEXT
 70
     1
  9
$LTSCALE
 40
1.0
  9
$ATTMODE
 70
     1
  9
$TEXTSIZE
 40
0.2
  9
$TRACEWID
 40
0.05
  9
$TEXTSTYLE
  7
Standard
  9
$CLAYER
  8
0
  9
$CELTYPE
  6
ByLayer
  9
$CECOLOR
 62
   256
  9
$CELTSCALE
 40
1.0
  9
$DISPSILH
 70
     0
  9
$DIMSCALE
 40
1.0
  9
$DIMASZ
 40
0.18
  9
$DIMEXO
 40
0.0625
  9
$DIMDLI
 40
0.38
  9
$DIMRND
 40
0.0
  9
$DIMDLE
 40
0.0
  9
$DIMEXE
 40
0.18
  9
$DIMTP
 40
0.0
  9
$DIMTM
 40
0.0
  9
$DIMTXT
 40
0.18
  9
$DIMCEN
 40
0.09
  9
$DIMTSZ
 40
0.0
  9
$DIMTOL
 70
     0
  9
$DIMLIM
 70
     0
  9
$DIMTIH
 70
     1
  9
$DIMTOH
 70
     1
  9
$DIMSE1
 70
     0
  9
$DIMSE2
 70
     0
  9
$DIMTAD
 70
     0
  9
$DIMZIN
 70
     0
  9
$DIMBLK
  1

  9
$DIMASO
 70
     1
  9
$DIMSHO
 70
     1
  9
$DIMPOST
  1

  9
$DIMAPOST
  1

  9
$DIMALT
 70
     0
  9
$DIMALTD
 70
     2
  9
$DIMALTF
 40
25.4
  9
$DIMLFAC
 40
1.0
  9
$DIMTOFL
 70
     0
  9
$DIMTVP
 40
0.0
  9
$DIMTIX
 70
     0
  9
$DIMSOXD
 70
     0
  9
$DIMSAH
 70
     0
  9
$DIMBLK1
  1

  9
$DIMBLK2
  1

  9
$DIMSTYLE
  2
Standard
  9
$DIMCLRD
 70
     0
  9
$DIMCLRE
 70
     0
  9
$DIMCLRT
 70
     0
  9
$DIMTFAC
 40
1.0
  9
$DIMGAP
 40
0.09
  9
$DIMJUST
 70
     0
  9
$DIMSD1
 70
     0
  9
$DIMSD2
 70
     0
  9
$DIMTOLJ
 70
     1
  9
$DIMTZIN
 70
     0
  9
$DIMALTZ
 70
     0
  9
$DIMALTTZ
 70
     0
  9
$DIMUPT
 70
     0
  9
$DIMDEC
 70
     4
  9
$DIMTDEC
 70
     4
  9
$DIMALTU
 70
     2
  9
$DIMALTTD
 70
     2
  9
$DIMTXSTY
  7
Standard
  9
$DIMAUNIT
 70
     0
  9
$DIMADEC
 70
     0
  9
$DIMALTRND
 40
0.0
  9
$DIMAZIN
 70
     0
  9
$DIMDSEP
 70
    46
  9
$DIMATFIT
 70
     3
  9
$DIMFRAC
 70
     0
  9
$DIMLDRBLK
  1

  9
$DIMLUNIT
 70
     2
  9
$DIMLWD
 70
    -2
  9
$DIMLWE
 70
    -2
  9
$DIMTMOVE
 70
     0
  9
$DIMFXL
 40
1.0
  9
$DIMFXLON
 70
     0
  9
$DIMJOGANG
 40
0.7853981633974483
  9
$DIMTFILL
 70
     0
  9
$DIMTFILLCLR
 70
     0
  9
$DIMARCSYM
 70
     0
  9
$DIMLTYPE
  6

  9
$DIMLTEX1
  6

  9
$DIMLTEX2
  6

  9
$DIMTXTDIRECTION
 70
     0
  9
$LUNITS
 70
     2
  9
$LUPREC
 70
     4
  9
$SKETCHINC
 40
0.1
  9
$FILLETRAD
 40
0.5
  9
$AUNITS
 70
     0
  9
$AUPREC
 70
     0
  9
$MENU
  1
.
  9
$ELEVATION
 40
0.0
  9
$PELEVATION
 40
0.0
  9
$THICKNESS
 40
0.0
  9
$LIMCHECK
 70
     0
  9
$CHAMFERA
 40
0.5
  9
$CHAMFERB
 40
0.5
  9
$CHAMFERC
 40
1.0
  9
$CHAMFERD
 40
0.0
  9
$SKPOLY
 70
     0
  9
$TDCREATE
 40
2457917.593819445
  9
$TDUCREATE
 40
2457917.218819445
  9
$TDUPDATE
 40
2457917.593819445
  9
$TDUUPDATE
 40
2457917.218819445
  9
$TDINDWG
 40
0.0000000116
  9
$TDUSRTIMER
 40
0.0000000116
  9
$USRTIMER
 70
     1
  9
$ANGBASE
 50
0.0
  9
$ANGDIR
 70
     0
  9
$PDMODE
 70
     0
  9
$PDSIZE
 40
0.0
  9
$PLINEWID
 40
0.0
  9
$SPLFRAME
 70
     0
  9
$SPLINETYPE
 70
     6
  9
$SPLINESEGS
 70
     8
  9
$HANDSEED
  5
117
  9
$SURFTAB1
 70
     6
  9
$SURFTAB2
 70
     6
  9
$SURFTYPE
 70
     6
  9
$SURFU
 70
     6
  9
$SURFV
 70
     6
  9
$UCSBASE
  2

  9
$UCSNAME
  2

  9
$UCSORG
 10
0.0
 20
0.0
 30
0.0
  9
$UCSXDIR
 10
1.0
 20
0.0
 30
0.0
  9
$UCSYDIR
 10
0.0
 20
1.0
 30
0.0
  9
$UCSORTHOREF
  2

  9
$UCSORTHOVIEW
 70
     0
  9
$UCSORGTOP
 10
0.0
 20
0.0
 30
0.0
  9
$UCSORGBOTTOM
 10
0.0
 20
0.0
 30
0.0
  9
$UCSORGLEFT
 10
0.0
 20
0.0
 30
0.0
  9
$UCSORGRIGHT
 10
0.0
 20
0.0
 30
0.0
  9
$UCSORGFRONT
 10
0.0
 20
0.0
 30
0.0
  9
$UCSORGBACK
 10
0.0
 20
0.0
 30
0.0
  9
$PUCSBASE
  2

  9
$PUCSNAME
  2

  9
$PUCSORG
 10
0.0
 20
0.0
 30
0.0
  9
$PUCSXDIR
 10
1.0
 20
0.0
 30
0.0
  9
$PUCSYDIR
 10
0.0
 20
1.0
 30
0.0
  9
$PUCSORTHOREF
  2

  9
$PUCSORTHOVIEW
 70
     0
  9
$PUCSORGTOP
 10
0.0
 20
0.0
 30
0.0
  9
$PUCSORGBOTTOM
 10
0.0
 20
0.0
 30
0.0
  9
$PUCSORGLEFT
 10
0.0
 20
0.0
 30
0.0
  9
$PUCSORGRIGHT
 10
0.0
 20
0.0
 30
0.0
  9
$PUCSORGFRONT
 10
0.0
 20
0.0
 30
0.0
  9
$PUCSORGBACK
 10
0.0
 20
0.0
 30
0.0
  9
$USERI1
 70
     0
  9
$USERI2
 70
     0
  9
$USERI3
 70
     0
  9
$USERI4
 70
     0
  9
$USERI5
 70
     0
  9
$USERR1
 40
0.0
  9
$USERR2
 40
0.0
  9
$USERR3
 40
0.0
  9
$USERR4
 40
0.0
  9
$USERR5
 40
0.0
  9
$WORLDVIEW
 70
     1
  9
$SHADEDGE
 70
     3
  9
$SHADEDIF
 70
    70
  9
$TILEMODE
 70
     1
  9
$MAXACTVP
 70
    64
  9
$PINSBASE
 10
0.0
 20
0.0
 30
0.0
  9
$PLIMCHECK
 70
     0
  9
$PEXTMIN
 10
1.000000000000000E+20
 20
1.000000000000000E+20
 30
1.000000000000000E+20
  9
$PEXTMAX
 10
-1.000000000000000E+20
 20
-1.000000000000000E+20
 30
-1.000000000000000E+20
  9
$PLIMMIN
 10
0.0
 20
0.0
  9
$PLIMMAX
 10
12.0
 20
9.0
  9
$UNITMODE
 70
     0
  9
$VISRETAIN
 70
     1
  9
$PLINEGEN
 70
     0
  9
$PSLTSCALE
 70
     1
  9
$TREEDEPTH
 70
  3020
  9
$CMLSTYLE
  2
Standard
  9
$CMLJUST
 70
     0
  9
$CMLSCALE
 40
1.0
  9
$PROXYGRAPHICS
 70
     1
  9
$MEASUREMENT
 70
     0
  9
$CELWEIGHT
370
    -1
  9
$ENDCAPS
280
     0
  9
$JOINSTYLE
280
     0
  9
$LWDISPLAY
290
     1
  9
$INSUNITS
 70
     1
  9
$HYPERLINKBASE
  1

  9
$STYLESHEET
  1

  9
$XEDIT
290
     1
  9
$CEPSNTYPE
380
     0
  9
$PSTYLEMODE
290
     1
  9
$FINGERPRINTGUID
  2
{9368632E-6867-F8D0-53B2-55977018562B}
  9
$VERSIONGUID
  2
{FAEB1C32-E019-11D5-929B-00C0DF256EC4}
  9
$EXTNAMES
290
     1
  9
$PSVPSCALE
 40
0.0
  9
$OLESTARTUP
290
     0
  9
$SORTENTS
280
   127
  9
$INDEXCTL
280
     0
  9
$HIDETEXT
280
     1
  9
$XCLIPFRAME
280
     2
  9
$HALOGAP
280
     0
  9
$OBSCOLOR
 70
   257
  9
$OBSLTYPE
280
     0
  9
$INTERSECTIONDISPLAY
280
     0
  9
$INTERSECTIONCOLOR
 70
   257
  9
$DIMASSOC
280
     2
  9
$PROJECTNAME
  1

  9
$CAMERADISPLAY
290
     0
  9
$LENSLENGTH
 40
50.0
  9
$CAMERAHEIGHT
 40
0.0
  9
$STEPSPERSEC
 40
2.0
  9
$STEPSIZE
 40
6.0
  9
$3DDWFPREC
 40
2.0
  9
$PSOLWIDTH
 40
0.25
  9
$PSOLHEIGHT
 40
4.0
  9
$LOFTANG1
 40
1.570796326794897
  9
$LOFTANG2
 40
1.570796326794897
  9
$LOFTMAG1
 40
0.0
  9
$LOFTMAG2
 40
0.0
  9
$LOFTPARAM
 70
     7
  9
$LOFTNORMALS
280
     1
  9
$LATITUDE
 40
37.795
  9
$LONGITUDE
 40
-122.394
  9
$NORTHDIRECTION
 40
0.0
  9
$TIMEZONE
 70
 -8000
  9
$LIGHTGLYPHDISPLAY
280
     1
  9
$TILEMODELIGHTSYNCH
280
     1
  9
$CMATERIAL
347
3C
  9
$SOLIDHIST
280
     1
  9
$SHOWHIST
280
     1
  9
$DWFFRAME
280
     2
  9
$DGNFRAME
280
     2
  9
$REALWORLDSCALE
290
     1
  9
$INTERFERECOLOR
 62
   256
  9
$CSHADOW
280
     0
  9
$SHADOWPLANELOCATION
 40
0.0
  0
ENDSEC
  0
SECTION
  2
CLASSES
  0
CLASS
  1
ACDBDICTIONARYWDFLT
  2
AcDbDictionaryWithDefault
  3
ObjectDBX Classes
 90
        0
 91
        4
280
     0
281
     0
  0
CLASS
  1
VISUALSTYLE
  2
AcDbVisualStyle
  3
ObjectDBX Classes
 90
     4095
 91
        4
280
     0
281
     0
  0
CLASS
  1
MATERIAL
  2
AcDbMaterial
  3
ObjectDBX Classes
 90
     1153
 91
        4
280
     0
281
     0
  0
CLASS
  1
SUN
  2
AcDbSun
  3
SCENEOE
 90
     1024
 91
        4
280
     0
281
     0
  0
ENDSEC
  0
SECTION
  2
TABLES
  0
TABLE
  2
VPORT
  5
8
330
0
100
AcDbSymbolTable
 70
     1
  0
VPORT
  5
29
330
8
100
AcDbSymbolTableRecord
100
AcDbViewportTableRecord
  2
*Active
 70
     0
 10
0.0
 20
0.0
 11
1.0
 21
1.0
 12
0.0
 22
0.0
 13
0.0
 23
0.0
 14
0.5
 24
0.5
 15
0.5
 25
0.5
 16
0.0
 26
0.0
 36
1.0
 17
91.00082462281999
 27
-128.4993055234307
 37
0.0
 40
256.9986110468615
 41
0.7081814508812795
 42
50.0
 43
0.0
 44
0.0
 50
0.0
 51
0.0
 71
     0
 72
   100
 73
     1
 74
     3
 75
     0
 76
     0
 77
     0
 78
     0
281
     0
 65
     1
110
0.0
120
0.0
130
0.0
111
1.0
121
0.0
131
0.0
112
0.0
122
1.0
132
0.0
 79
     0
146
0.0
 60
     3
 61
     5
292
     1
282
     1
141
0.0
142
0.0
 63
   250
361
3F
  0
ENDTAB
  0
TABLE
  2
LTYPE
  5
5
330
0
100
AcDbSymbolTable
 70
     4
  0
LTYPE
  5
14
330
5
100
AcDbSymbolTableRecord
100
AcDbLinetypeTableRecord
  2
ByBlock
 70
     0
  3

 72
    65
 73
     0
 40
0.0
  0
LTYPE
  5
15
330
5
100
AcDbSymbolTableRecord
100
AcDbLinetypeTableRecord
  2
ByLayer
 70
     0
  3

 72
    65
 73
     0
 40
0.0
  0
LTYPE
  5
16
330
5
100
AcDbSymbolTableRecord
100
AcDbLinetypeTableRecord
  2
Continuous
 70
     0
  3
Solid line
 72
    65
 73
     0
 40
0.0
  0
LTYPE
  5
54
330
5
100
AcDbSymbolTableRecord
100
AcDbLinetypeTableRecord
  2
AI-Linetype-1
 70
     0
  3
Adobe Illustrator Linetype No. 1
 72
    65
 73
     2
 40
1.411111110758333
 49
0.7055555553791667
 74
     0
 49
-0.7055555553791667
 74
     0
  0
LTYPE
  5
59
330
5
100
AcDbSymbolTableRecord
100
AcDbLinetypeTableRecord
  2
AI-Linetype-2
 70
     0
  3
Adobe Illustrator Linetype No. 2
 72
    65
 73
     2
 40
1.411111110758333
 49
0.7055555553791667
 74
     0
 49
-0.7055555553791667
 74
     0
  0
LTYPE
  5
5E
330
5
100
AcDbSymbolTableRecord
100
AcDbLinetypeTableRecord
  2
AI-Linetype-3
 70
     0
  3
Adobe Illustrator Linetype No. 3
 72
    65
 73
     2
 40
1.411111110758333
 49
0.7055555553791667
 74
     0
 49
-0.7055555553791667
 74
     0
  0
ENDTAB
  0
TABLE
  2
LAYER
  5
2
330
0
100
AcDbSymbolTable
 70
     2
  0
LAYER
  5
10
330
2
100
AcDbSymbolTableRecord
100
AcDbLayerTableRecord
  2
0
 70
     0
 62
     7
  6
Continuous
370
    -3
390
F
347
3E
  0
LAYER
  5
40
330
2
100
AcDbSymbolTableRecord
100
AcDbLayerTableRecord
  2
_U+30EC_U+30A4_U+30E4_U+30FC 1
 70
     0
 62
     7
  6
Continuous
370
    -3
390
F
347
3E
  0
ENDTAB
  0
TABLE
  2
STYLE
  5
3
330
0
100
AcDbSymbolTable
 70
     1
  0
STYLE
  5
11
330
3
100
AcDbSymbolTableRecord
100
AcDbTextStyleTableRecord
  2
Standard
 70
     0
 40
0.0
 41
1.0
 50
0.0
 71
     0
 42
0.2
  3
txt
  4

  0
ENDTAB
  0
TABLE
  2
VIEW
  5
6
330
0
100
AcDbSymbolTable
 70
     0
  0
ENDTAB
  0
TABLE
  2
UCS
  5
7
330
0
100
AcDbSymbolTable
 70
     0
  0
ENDTAB
  0
TABLE
  2
APPID
  5
9
330
0
100
AcDbSymbolTable
 70
     1
  0
APPID
  5
12
330
9
100
AcDbSymbolTableRecord
100
AcDbRegAppTableRecord
  2
ACAD
 70
     0
  0
ENDTAB
  0
TABLE
  2
DIMSTYLE
  5
A
330
0
100
AcDbSymbolTable
 70
     1
100
AcDbDimStyleTable
  0
DIMSTYLE
105
27
330
A
100
AcDbSymbolTableRecord
100
AcDbDimStyleTableRecord
  2
Standard
 70
     0
178
     0
340
11
  0
ENDTAB
  0
TABLE
  2
BLOCK_RECORD
  5
1
330
0
100
AcDbSymbolTable
 70
     5
  0
BLOCK_RECORD
  5
1F
330
1
100
AcDbSymbolTableRecord
100
AcDbBlockTableRecord
  2
*Model_Space
340
22
 70
     0
280
     1
281
     0
  0
BLOCK_RECORD
  5
1B
330
1
100
AcDbSymbolTableRecord
100
AcDbBlockTableRecord
  2
*Paper_Space
340
1E
 70
     0
280
     1
281
     0
  0
BLOCK_RECORD
  5
23
330
1
100
AcDbSymbolTableRecord
100
AcDbBlockTableRecord
  2
*Paper_Space0
340
26
 70
     0
280
     1
281
     0
  0
BLOCK_RECORD
  5
65
330
1
100
AcDbSymbolTableRecord
100
AcDbBlockTableRecord
  2
block 2
340
0
102
{BLKREFS
331
66
102
}
 70
     0
280
     1
281
     0
  0
BLOCK_RECORD
  5
84
330
1
100
AcDbSymbolTableRecord
100
AcDbBlockTableRecord
  2
block 3
340
0
102
{BLKREFS
331
85
102
}
 70
     0
280
     1
281
     0
  0
BLOCK_RECORD
  5
E7
330
1
100
AcDbSymbolTableRecord
100
AcDbBlockTableRecord
  2
block 4
340
0
102
{BLKREFS
331
E8
102
}
 70
     0
280
     1
281
     0
  0
BLOCK_RECORD
  5
105
330
1
100
AcDbSymbolTableRecord
100
AcDbBlockTableRecord
  2
block 5
340
0
102
{BLKREFS
331
106
102
}
 70
     0
280
     1
281
     0
  0
ENDTAB
  0
ENDSEC
  0
SECTION
  2
BLOCKS
  0
BLOCK
  5
20
330
1F
100
AcDbEntity
  8
0
100
AcDbBlockBegin
  2
*Model_Space
 70
     0
 10
0.0
 20
0.0
 30
0.0
  3
*Model_Space
  1

  0
ENDBLK
  5
21
330
1F
100
AcDbEntity
  8
0
100
AcDbBlockEnd
  0
BLOCK
  5
1C
330
1B
100
AcDbEntity
 67
     1
  8
0
100
AcDbBlockBegin
  2
*Paper_Space
 70
     0
 10
0.0
 20
0.0
 30
0.0
  3
*Paper_Space
  1

  0
ENDBLK
  5
1D
330
1B
100
AcDbEntity
 67
     1
  8
0
100
AcDbBlockEnd
  0
BLOCK
  5
24
330
23
100
AcDbEntity
  8
0
100
AcDbBlockBegin
  2
*Paper_Space0
 70
     0
 10
0.0
 20
0.0
 30
0.0
  3
*Paper_Space0
  1

  0
ENDBLK
  5
25
330
23
100
AcDbEntity
  8
0
100
AcDbBlockEnd
  0
BLOCK
  5
67
330
65
100
AcDbEntity
  8
0
100
AcDbBlockBegin
  2
block 2
 70
     0
 10
0.0
 20
0.0
 30
0.0
  3
block 2
  1

  0
SPLINE
  5
69
330
65
100
AcDbEntity
  8
_U+30EC_U+30A4_U+30E4_U+30FC 1
370
     0
100
AcDbSpline
210
0.0
220
0.0
230
1.0
 70
    11
 71
     3
 72
    29
 73
    25
 74
     0
 42
0.0000000001
 43
0.0000000001
 12
1.0
 22
0.0
 32
0.0
 13
1.0
 23
0.0
 33
0.0
 40
0.0
 40
0.0
 40
0.0
 40
0.0
 40
1.0
 40
1.0
 40
1.0
 40
2.0
 40
2.0
 40
2.0
 40
3.0
 40
3.0
 40
3.0
 40
4.0
 40
4.0
 40
4.0
 40
5.0
 40
5.0
 40
5.0
 40
6.0
 40
6.0
 40
6.0
 40
7.0
 40
7.0
 40
7.0
 40
8.0
 40
8.0
 40
8.0
 40
8.0
 10
70.27340221767471
 20
-135.5576171536106
 30
0.0
 10
70.10424802934894
 20
-136.018570929537
 30
0.0
 10
69.9836696873652
 20
-136.2642062376353
 30
0.0
 10
69.65569659716941
 20
-136.5411919146494
 30
0.0
 10
69.47810192490478
 20
-136.6913980778063
 30
0.0
 10
69.28121471792275
 20
-136.8205891585032
 30
0.0
 10
69.06555174054611
 20
-136.907061055183
 30
0.0
 10
69.06555174054611
 20
-136.907061055183
 30
0.0
 10
68.89415824015494
 20
-136.7189588416883
 30
0.0
 10
68.89415824015494
 20
-136.7189588416883
 30
0.0
 10
69.24951983945846
 20
-136.6173285248734
 30
0.0
 10
69.54579805118995
 20
-136.3654920449017
 30
0.0
 10
69.66844345046484
 20
-136.2280327350402
 30
0.0
 10
69.87790525596803
 20
-135.9934217324947
 30
0.0
 10
70.00261771253408
 20
-135.6950764634721
 30
0.0
 10
70.0492987563592
 20
-135.383984341154
 30
0.0
 10
70.0492987563592
 20
-135.383984341154
 30
0.0
 10
70.31147052278672
 20
-135.4708007473823
 30
0.0
 10
70.31147052278672
 20
-135.4708007473823
 30
0.0
 10
70.34109834395987
 20
-135.4814805433866
 30
0.0
 10
70.34747177060758
 20
-135.4918158298423
 30
0.0
 10
70.34747177060758
 20
-135.5024956258466
 30
0.0
 10
70.34747177060758
 20
-135.5321234470198
 30
0.0
 10
70.30733640820442
 20
-135.5448703003152
 30
0.0
 10
70.27340221767471
 20
-135.5576171536106
 30
0.0
  0
HATCH
  5
6A
330
65
100
AcDbEntity
  8
_U+30EC_U+30A4_U+30E4_U+30FC 1
 62
   179
420
  2234388
100
AcDbHatch
 10
0.0
 20
0.0
 30
0.0
210
0.0
220
0.0
230
1.0
  2
SOLID
 70
     1
 71
     0
 91
        1
 92
        1
 93
        1
 72
     4
 94
        3
 73
     0
 74
     1
 95
       29
 96
       25
 40
0.0
 40
0.0
 40
0.0
 40
0.0
 40
1.0
 40
1.0
 40
1.0
 40
2.0
 40
2.0
 40
2.0
 40
3.0
 40
3.0
 40
3.0
 40
4.0
 40
4.0
 40
4.0
 40
5.0
 40
5.0
 40
5.0
 40
6.0
 40
6.0
 40
6.0
 40
7.0
 40
7.0
 40
7.0
 40
8.0
 40
8.0
 40
8.0
 40
8.0
 10
70.27340221767471
 20
-135.5576171536106
 10
70.10424802934894
 20
-136.018570929537
 10
69.9836696873652
 20
-136.2642062376353
 10
69.65569659716941
 20
-136.5411919146494
 10
69.47810192490478
 20
-136.6913980778063
 10
69.28121471792275
 20
-136.8205891585032
 10
69.06555174054611
 20
-136.907061055183
 10
69.06555174054611
 20
-136.907061055183
 10
68.89415824015494
 20
-136.7189588416883
 10
68.89415824015494
 20
-136.7189588416883
 10
69.24951983945846
 20
-136.6173285248734
 10
69.54579805118995
 20
-136.3654920449017
 10
69.66844345046484
 20
-136.2280327350402
 10
69.87790525596803
 20
-135.9934217324947
 10
70.00261771253408
 20
-135.6950764634721
 10
70.0492987563592
 20
-135.383984341154
 10
70.0492987563592
 20
-135.383984341154
 10
70.31147052278672
 20
-135.4708007473823
 10
70.31147052278672
 20
-135.4708007473823
 10
70.34109834395987
 20
-135.4814805433866
 10
70.34747177060758
 20
-135.4918158298423
 10
70.34747177060758
 20
-135.5024956258466
 10
70.34747177060758
 20
-135.5321234470198
 10
70.30733640820442
 20
-135.5448703003152
 10
70.27340221767471
 20
-135.5576171536106
 97
        0
 97
        0
 75
     2
 76
     1
 98
        0
  0
SPLINE
  5
6B
330
65
100
AcDbEntity
  8
_U+30EC_U+30A4_U+30E4_U+30FC 1
370
     0
100
AcDbSpline
210
0.0
220
0.0
230
1.0
 70
    11
 71
     3
 72
    17
 73
    13
 74
     0
 42
0.0000000001
 43
0.0000000001
 12
1.0
 22
0.0
 32
0.0
 13
1.0
 23
0.0
 33
0.0
 40
0.0
 40
0.0
 40
0.0
 40
0.0
 40
1.0
 40
1.0
 40
1.0
 40
2.0
 40
2.0
 40
2.0
 40
3.0
 40
3.0
 40
3.0
 40
4.0
 40
4.0
 40
4.0
 40
4.0
 10
70.75037568760754
 20
-136.3000352306819
 30
0.0
 10
70.71644149707784
 20
-136.2197645058756
 30
0.0
 10
70.66355928137925
 20
-136.0947075397611
 30
0.0
 10
70.5641682766298
 20
-135.9658609686127
 30
0.0
 10
70.5641682766298
 20
-135.9658609686127
 30
0.0
 10
70.72281492372555
 20
-135.9128064981399
 30
0.0
 10
70.72281492372555
 20
-135.9128064981399
 30
0.0
 10
70.80101859124072
 20
-136.0206379868282
 30
0.0
 10
70.85390080693931
 20
-136.1140000744784
 30
0.0
 10
70.90902233470331
 20
-136.2407795883356
 30
0.0
 10
70.90902233470331
 20
-136.2407795883356
 30
0.0
 10
70.75037568760754
 20
-136.3000352306819
 30
0.0
 10
70.75037568760754
 20
-136.3000352306819
 30
0.0
  0
SPLINE
  5
6C
330
65
100
AcDbEntity
  8
_U+30EC_U+30A4_U+30E4_U+30FC 1
370
     0
100
AcDbSpline
210
0.0
220
0.0
230
1.0
 70
    11
 71
     3
 72
    32
 73
    28
 74
     0
 42
0.0000000001
 43
0.0000000001
 12
1.0
 22
0.0
 32
0.0
 13
1.0
 23
0.0
 33
0.0
 40
0.0
 40
0.0
 40
0.0
 40
0.0
 40
1.0
 40
1.0
 40
1.0
 40
2.0
 40
2.0
 40
2.0
 40
3.0
 40
3.0
 40
3.0
 40
4.0
 40
4.0
 40
4.0
 40
5.0
 40
5.0
 40
5.0
 40
6.0
 40
6.0
 40
6.0
 40
7.0
 40
7.0
 40
7.0
 40
8.0
 40
8.0
 40
8.0
 40
9.0
 40
9.0
 40
9.0
 40
9.0
 10
71.86727564392555
 20
-135.9551811726084
 30
0.0
 10
71.84608830669126
 20
-135.9617268540304
 30
0.0
 10
71.83558076546124
 20
-135.969995083195
 30
0.0
 10
71.82714028152239
 20
-135.9806748791993
 30
0.0
 10
71.82076685487468
 20
-135.991010165655
 30
0.0
 10
71.75944415523722
 20
-136.1963378565759
 30
0.0
 10
71.74463024465065
 20
-136.2366454737534
 30
0.0
 10
71.5308620697909
 20
-136.7844156559081
 30
0.0
 10
71.21356877559938
 20
-136.9580484683647
 30
0.0
 10
70.97878551827961
 20
-137.0741481862176
 30
0.0
 10
70.97878551827961
 20
-137.0741481862176
 30
0.0
 10
70.83908689635273
 20
-136.9453016150692
 30
0.0
 10
70.83908689635273
 20
-136.9453016150692
 30
0.0
 10
70.98515894492732
 20
-136.8839789154318
 30
0.0
 10
71.22200925953825
 20
-136.7844156559081
 30
0.0
 10
71.41665715445487
 20
-136.507429978894
 30
0.0
 10
71.59855819607606
 20
-136.2473252697576
 30
0.0
 10
71.63662650118808
 20
-135.9806748791993
 30
0.0
 10
71.66212020777891
 20
-135.8218559773293
 30
0.0
 10
71.66212020777891
 20
-135.8218559773293
 30
0.0
 10
71.82714028152239
 20
-135.8831786769667
 30
0.0
 10
71.82714028152239
 20
-135.8831786769667
 30
0.0
 10
71.8693427012167
 20
-135.8979925875533
 30
0.0
 10
71.89276935051639
 20
-135.9128064981399
 30
0.0
 10
71.89276935051639
 20
-135.9296874660176
 30
0.0
 10
71.89276935051639
 20
-135.9445013766042
 30
0.0
 10
71.88208955451212
 20
-135.9510470580261
 30
0.0
 10
71.86727564392555
 20
-135.9551811726084
 30
0.0
  0
SPLINE
  5
6D
330
65
100
AcDbEntity
  8
_U+30EC_U+30A4_U+30E4_U+30FC 1
370
     0
100
AcDbSpline
210
0.0
220
0.0
230
1.0
 70
    11
 71
     3
 72
    17
 73
    13
 74
     0
 42
0.0000000001
 43
0.0000000001
 12
1.0
 22
0.0
 32
0.0
 13
1.0
 23
0.0
 33
0.0
 40
0.0
 40
0.0
 40
0.0
 40
0.0
 40
1.0
 40
1.0
 40
1.0
 40
2.0
 40
2.0
 40
2.0
 40
3.0
 40
3.0
 40
3.0
 40
4.0
 40
4.0
 40
4.0
 40
4.0
 10
71.16499292925737
 20
-136.2090847098713
 30
0.0
 10
71.13536510808422
 20
-136.1264024182254
 30
0.0
 10
71.08885631903334
 20
-136.0016899616593
 30
0.0
 10
70.98515894492732
 20
-135.8704318236713
 30
0.0
 10
70.98515894492732
 20
-135.8704318236713
 30
0.0
 10
71.14380559202309
 20
-135.8156548054558
 30
0.0
 10
71.14380559202309
 20
-135.8156548054558
 30
0.0
 10
71.23682317012482
 20
-135.9469129434438
 30
0.0
 10
71.2833319591757
 20
-136.052677374841
 30
0.0
 10
71.32363957635312
 20
-136.1584418062382
 30
0.0
 10
71.32363957635312
 20
-136.1584418062382
 30
0.0
 10
71.16499292925737
 20
-136.2090847098713
 30
0.0
 10
71.16499292925737
 20
-136.2090847098713
 30
0.0
  0
HATCH
  5
6E
330
65
100
AcDbEntity
  8
_U+30EC_U+30A4_U+30E4_U+30FC 1
 62
   179
420
  2234388
100
AcDbHatch
 10
0.0
 20
0.0
 30
0.0
210
0.0
220
0.0
230
1.0
  2
SOLID
 70
     1
 71
     0
 91
        3
 92
        1
 93
        1
 72
     4
 94
        3
 73
     0
 74
     1
 95
       17
 96
       13
 40
0.0
 40
0.0
 40
0.0
 40
0.0
 40
1.0
 40
1.0
 40
1.0
 40
2.0
 40
2.0
 40
2.0
 40
3.0
 40
3.0
 40
3.0
 40
4.0
 40
4.0
 40
4.0
 40
4.0
 10
70.75037568760754
 20
-136.3000352306819
 10
70.71644149707784
 20
-136.2197645058756
 10
70.66355928137925
 20
-136.0947075397611
 10
70.5641682766298
 20
-135.9658609686127
 10
70.5641682766298
 20
-135.9658609686127
 10
70.72281492372555
 20
-135.9128064981399
 10
70.72281492372555
 20
-135.9128064981399
 10
70.80101859124072
 20
-136.0206379868282
 10
70.85390080693931
 20
-136.1140000744784
 10
70.90902233470331
 20
-136.2407795883356
 10
70.90902233470331
 20
-136.2407795883356
 10
70.75037568760754
 20
-136.3000352306819
 10
70.75037568760754
 20
-136.3000352306819
 97
        0
 97
        0
 92
        1
 93
        1
 72
     4
 94
        3
 73
     0
 74
     1
 95
       32
 96
       28
 40
0.0
 40
0.0
 40
0.0
 40
0.0
 40
1.0
 40
1.0
 40
1.0
 40
2.0
 40
2.0
 40
2.0
 40
3.0
 40
3.0
 40
3.0
 40
4.0
 40
4.0
 40
4.0
 40
5.0
 40
5.0
 40
5.0
 40
6.0
 40
6.0
 40
6.0
 40
7.0
 40
7.0
 40
7.0
 40
8.0
 40
8.0
 40
8.0
 40
9.0
 40
9.0
 40
9.0
 40
9.0
 10
71.86727564392555
 20
-135.9551811726084
 10
71.84608830669126
 20
-135.9617268540304
 10
71.83558076546124
 20
-135.969995083195
 10
71.82714028152239
 20
-135.9806748791993
 10
71.82076685487468
 20
-135.991010165655
 10
71.75944415523722
 20
-136.1963378565759
 10
71.74463024465065
 20
-136.2366454737534
 10
71.5308620697909
 20
-136.7844156559081
 10
71.21356877559938
 20
-136.9580484683647
 10
70.97878551827961
 20
-137.0741481862176
 10
70.97878551827961
 20
-137.0741481862176
 10
70.83908689635273
 20
-136.9453016150692
 10
70.83908689635273
 20
-136.9453016150692
 10
70.98515894492732
 20
-136.8839789154318
 10
71.22200925953825
 20
-136.7844156559081
 10
71.41665715445487
 20
-136.507429978894
 10
71.59855819607606
 20
-136.2473252697576
 10
71.63662650118808
 20
-135.9806748791993
 10
71.66212020777891
 20
-135.8218559773293
 10
71.66212020777891
 20
-135.8218559773293
 10
71.82714028152239
 20
-135.8831786769667
 10
71.82714028152239
 20
-135.8831786769667
 10
71.8693427012167
 20
-135.8979925875533
 10
71.89276935051639
 20
-135.9128064981399
 10
71.89276935051639
 20
-135.9296874660176
 10
71.89276935051639
 20
-135.9445013766042
 10
71.88208955451212
 20
-135.9510470580261
 10
71.86727564392555
 20
-135.9551811726084
 97
        0
 97
        0
 92
        1
 93
        1
 72
     4
 94
        3
 73
     0
 74
     1
 95
       17
 96
       13
 40
0.0
 40
0.0
 40
0.0
 40
0.0
 40
1.0
 40
1.0
 40
1.0
 40
2.0
 40
2.0
 40
2.0
 40
3.0
 40
3.0
 40
3.0
 40
4.0
 40
4.0
 40
4.0
 40
4.0
 10
71.16499292925737
 20
-136.2090847098713
 10
71.13536510808422
 20
-136.1264024182254
 10
71.08885631903334
 20
-136.0016899616593
 10
70.98515894492732
 20
-135.8704318236713
 10
70.98515894492732
 20
-135.8704318236713
 10
71.14380559202309
 20
-135.8156548054558
 10
71.14380559202309
 20
-135.8156548054558
 10
71.23682317012482
 20
-135.9469129434438
 10
71.2833319591757
 20
-136.052677374841
 10
71.32363957635312
 20
-136.1584418062382
 10
71.32363957635312
 20
-136.1584418062382
 10
71.16499292925737
 20
-136.2090847098713
 10
71.16499292925737
 20
-136.2090847098713
 97
        0
 97
        0
 75
     2
 76
     1
 98
        0
  0
SPLINE
  5
6F
330
65
100
AcDbEntity
  8
_U+30EC_U+30A4_U+30E4_U+30FC 1
370
     0
100
AcDbSpline
210
0.0
220
0.0
230
1.0
 70
    11
 71
     3
 72
    83
 73
    79
 74
     0
 42
0.0000000001
 43
0.0000000001
 12
1.0
 22
0.0
 32
0.0
 13
1.0
 23
0.0
 33
0.0
 40
0.0
 40
0.0
 40
0.0
 40
0.0
 40
1.0
 40
1.0
 40
1.0
 40
2.0
 40
2.0
 40
2.0
 40
3.0
 40
3.0
 40
3.0
 40
4.0
 40
4.0
 40
4.0
 40
5.0
 40
5.0
 40
5.0
 40
6.0
 40
6.0
 40
6.0
 40
7.0
 40
7.0
 40
7.0
 40
8.0
 40
8.0
 40
8.0
 40
9.0
 40
9.0
 40
9.0
 40
10.0
 40
10.0
 40
10.0
 40
11.0
 40
11.0
 40
11.0
 40
12.0
 40
12.0
 40
12.0
 40
13.0
 40
13.0
 40
13.0
 40
14.0
 40
14.0
 40
14.0
 40
15.0
 40
15.0
 40
15.0
 40
16.0
 40
16.0
 40
16.0
 40
17.0
 40
17.0
 40
17.0
 40
18.0
 40
18.0
 40
18.0
 40
19.0
 40
19.0
 40
19.0
 40
20.0
 40
20.0
 40
20.0
 40
21.0
 40
21.0
 40
21.0
 40
22.0
 40
22.0
 40
22.0
 40
23.0
 40
23.0
 40
23.0
 40
24.0
 40
24.0
 40
24.0
 40
25.0
 40
25.0
 40
25.0
 40
26.0
 40
26.0
 40
26.0
 40
26.0
 10
73.25409883151286
 20
-136.1901366847025
 30
0.0
 10
73.25409883151286
 20
-136.1901366847025
 30
0.0
 10
73.17365585193228
 20
-136.1901366847025
 30
0.0
 10
73.17365585193228
 20
-136.1901366847025
 30
0.0
 10
73.16934948257573
 20
-136.2938340588085
 30
0.0
 10
73.16090899863686
 20
-136.4840033295943
 30
0.0
 10
73.00019529424995
 20
-136.7124131602664
 30
0.0
 10
72.83086885114993
 20
-136.9494357296515
 30
0.0
 10
72.63001978435986
 20
-137.0403862504621
 30
0.0
 10
72.53269583690155
 20
-137.0848279822219
 30
0.0
 10
72.53269583690155
 20
-137.0848279822219
 30
0.0
 10
72.31048717810293
 20
-136.9284206471915
 30
0.0
 10
72.31048717810293
 20
-136.9284206471915
 30
0.0
 10
72.40781112556124
 20
-136.9049939978918
 30
0.0
 10
72.64052732558987
 20
-136.8478054128367
 30
0.0
 10
72.81829425262876
 20
-136.6152614675823
 30
0.0
 10
72.95144719313367
 20
-136.4374945405434
 30
0.0
 10
72.9600599318468
 20
-136.2810872055131
 30
0.0
 10
72.9641940464291
 20
-136.1901366847025
 30
0.0
 10
72.9641940464291
 20
-136.1901366847025
 30
0.0
 10
72.69340954128846
 20
-136.1901366847025
 30
0.0
 10
72.69340954128846
 20
-136.1901366847025
 30
0.0
 10
72.5030680157284
 20
-136.1901366847025
 30
0.0
 10
72.3147935474595
 20
-136.1942707992848
 30
0.0
 10
72.12427976712519
 20
-136.2090847098713
 30
0.0
 10
72.12427976712519
 20
-136.2090847098713
 30
0.0
 10
72.12427976712519
 20
-135.9996229043682
 30
0.0
 10
72.12427976712519
 20
-135.9996229043682
 30
0.0
 10
72.32116697410721
 20
-136.0144368149547
 30
0.0
 10
72.60676538983442
 20
-136.018570929537
 30
0.0
 10
72.69340954128846
 20
-136.018570929537
 30
0.0
 10
72.69340954128846
 20
-136.018570929537
 30
0.0
 10
72.96850041578566
 20
-136.018570929537
 30
0.0
 10
72.96850041578566
 20
-136.018570929537
 30
0.0
 10
72.96850041578566
 20
-135.9066053262664
 30
0.0
 10
72.96626110372024
 20
-135.7753471882784
 30
0.0
 10
72.95575356249023
 20
-135.6633815850078
 30
0.0
 10
72.73354490369162
 20
-135.7288383992275
 30
0.0
 10
72.61089950441672
 20
-135.7543321058184
 30
0.0
 10
72.42262503614782
 20
-135.7774142455695
 30
0.0
 10
72.42262503614782
 20
-135.7774142455695
 30
0.0
 10
72.2872327835775
 20
-135.5848334079441
 30
0.0
 10
72.2872327835775
 20
-135.5848334079441
 30
0.0
 10
72.43106552008668
 20
-135.5827663506529
 30
0.0
 10
72.60039196318671
 20
-135.5786322360706
 30
0.0
 10
72.9008042895005
 20
-135.4856146579689
 30
0.0
 10
73.0615179938874
 20
-135.4370388116268
 30
0.0
 10
73.2222316982743
 20
-135.3819172838629
 30
0.0
 10
73.36399737749234
 20
-135.2930338203434
 30
0.0
 10
73.36399737749234
 20
-135.2930338203434
 30
0.0
 10
73.5248833366535
 20
-135.4284260729137
 30
0.0
 10
73.5248833366535
 20
-135.4284260729137
 30
0.0
 10
73.53539087788351
 20
-135.439105868918
 30
0.0
 10
73.54813773117894
 20
-135.4518527222134
 30
0.0
 10
73.54813773117894
 20
-135.4687336900912
 30
0.0
 10
73.54813773117894
 20
-135.4918158298423
 30
0.0
 10
73.52695039394466
 20
-135.4918158298423
 30
0.0
 10
73.52057696729695
 20
-135.4918158298423
 30
0.0
 10
73.51006942606693
 20
-135.4918158298423
 30
0.0
 10
73.50576305671036
 20
-135.4897487725512
 30
0.0
 10
73.4697618088895
 20
-135.4835476006777
 30
0.0
 10
73.42118596254748
 20
-135.5004285685555
 30
0.0
 10
73.21379121433544
 20
-135.5786322360706
 30
0.0
 10
73.17158879464114
 20
-135.5934461466572
 30
0.0
 10
73.17572290922344
 20
-135.872843390511
 30
0.0
 10
73.17778996651458
 20
-135.9024712116841
 30
0.0
 10
73.17778996651458
 20
-136.018570929537
 30
0.0
 10
73.17778996651458
 20
-136.018570929537
 30
0.0
 10
73.25409883151286
 20
-136.018570929537
 30
0.0
 10
73.25409883151286
 20
-136.018570929537
 30
0.0
 10
73.44444035707292
 20
-136.018570929537
 30
0.0
 10
73.63702119469839
 20
-136.0144368149547
 30
0.0
 10
73.82736272025844
 20
-136.0016899616593
 30
0.0
 10
73.82736272025844
 20
-136.0016899616593
 30
0.0
 10
73.82736272025844
 20
-136.2090847098713
 30
0.0
 10
73.82736272025844
 20
-136.2090847098713
 30
0.0
 10
73.57983260964323
 20
-136.1901366847025
 30
0.0
 10
73.27511391397289
 20
-136.1901366847025
 30
0.0
 10
73.25409883151286
 20
-136.1901366847025
 30
0.0
  0
HATCH
  5
70
330
65
100
AcDbEntity
  8
_U+30EC_U+30A4_U+30E4_U+30FC 1
 62
   179
420
  2234388
100
AcDbHatch
 10
0.0
 20
0.0
 30
0.0
210
0.0
220
0.0
230
1.0
  2
SOLID
 70
     1
 71
     0
 91
        1
 92
        1
 93
        1
 72
     4
 94
        3
 73
     0
 74
     1
 95
       83
 96
       79
 40
0.0
 40
0.0
 40
0.0
 40
0.0
 40
1.0
 40
1.0
 40
1.0
 40
2.0
 40
2.0
 40
2.0
 40
3.0
 40
3.0
 40
3.0
 40
4.0
 40
4.0
 40
4.0
 40
5.0
 40
5.0
 40
5.0
 40
6.0
 40
6.0
 40
6.0
 40
7.0
 40
7.0
 40
7.0
 40
8.0
 40
8.0
 40
8.0
 40
9.0
 40
9.0
 40
9.0
 40
10.0
 40
10.0
 40
10.0
 40
11.0
 40
11.0
 40
11.0
 40
12.0
 40
12.0
 40
12.0
 40
13.0
 40
13.0
 40
13.0
 40
14.0
 40
14.0
 40
14.0
 40
15.0
 40
15.0
 40
15.0
 40
16.0
 40
16.0
 40
16.0
 40
17.0
 40
17.0
 40
17.0
 40
18.0
 40
18.0
 40
18.0
 40
19.0
 40
19.0
 40
19.0
 40
20.0
 40
20.0
 40
20.0
 40
21.0
 40
21.0
 40
21.0
 40
22.0
 40
22.0
 40
22.0
 40
23.0
 40
23.0
 40
23.0
 40
24.0
 40
24.0
 40
24.0
 40
25.0
 40
25.0
 40
25.0
 40
26.0
 40
26.0
 40
26.0
 40
26.0
 10
73.25409883151286
 20
-136.1901366847025
 10
73.25409883151286
 20
-136.1901366847025
 10
73.17365585193228
 20
-136.1901366847025
 10
73.17365585193228
 20
-136.1901366847025
 10
73.16934948257573
 20
-136.2938340588085
 10
73.16090899863686
 20
-136.4840033295943
 10
73.00019529424995
 20
-136.7124131602664
 10
72.83086885114993
 20
-136.9494357296515
 10
72.63001978435986
 20
-137.0403862504621
 10
72.53269583690155
 20
-137.0848279822219
 10
72.53269583690155
 20
-137.0848279822219
 10
72.31048717810293
 20
-136.9284206471915
 10
72.31048717810293
 20
-136.9284206471915
 10
72.40781112556124
 20
-136.9049939978918
 10
72.64052732558987
 20
-136.8478054128367
 10
72.81829425262876
 20
-136.6152614675823
 10
72.95144719313367
 20
-136.4374945405434
 10
72.9600599318468
 20
-136.2810872055131
 10
72.9641940464291
 20
-136.1901366847025
 10
72.9641940464291
 20
-136.1901366847025
 10
72.69340954128846
 20
-136.1901366847025
 10
72.69340954128846
 20
-136.1901366847025
 10
72.5030680157284
 20
-136.1901366847025
 10
72.3147935474595
 20
-136.1942707992848
 10
72.12427976712519
 20
-136.2090847098713
 10
72.12427976712519
 20
-136.2090847098713
 10
72.12427976712519
 20
-135.9996229043682
 10
72.12427976712519
 20
-135.9996229043682
 10
72.32116697410721
 20
-136.0144368149547
 10
72.60676538983442
 20
-136.018570929537
 10
72.69340954128846
 20
-136.018570929537
 10
72.69340954128846
 20
-136.018570929537
 10
72.96850041578566
 20
-136.018570929537
 10
72.96850041578566
 20
-136.018570929537
 10
72.96850041578566
 20
-135.9066053262664
 10
72.96626110372024
 20
-135.7753471882784
 10
72.95575356249023
 20
-135.6633815850078
 10
72.73354490369162
 20
-135.7288383992275
 10
72.61089950441672
 20
-135.7543321058184
 10
72.42262503614782
 20
-135.7774142455695
 10
72.42262503614782
 20
-135.7774142455695
 10
72.2872327835775
 20
-135.5848334079441
 10
72.2872327835775
 20
-135.5848334079441
 10
72.43106552008668
 20
-135.5827663506529
 10
72.60039196318671
 20
-135.5786322360706
 10
72.9008042895005
 20
-135.4856146579689
 10
73.0615179938874
 20
-135.4370388116268
 10
73.2222316982743
 20
-135.3819172838629
 10
73.36399737749234
 20
-135.2930338203434
 10
73.36399737749234
 20
-135.2930338203434
 10
73.5248833366535
 20
-135.4284260729137
 10
73.5248833366535
 20
-135.4284260729137
 10
73.53539087788351
 20
-135.439105868918
 10
73.54813773117894
 20
-135.4518527222134
 10
73.54813773117894
 20
-135.4687336900912
 10
73.54813773117894
 20
-135.4918158298423
 10
73.52695039394466
 20
-135.4918158298423
 10
73.52057696729695
 20
-135.4918158298423
 10
73.51006942606693
 20
-135.4918158298423
 10
73.50576305671036
 20
-135.4897487725512
 10
73.4697618088895
 20
-135.4835476006777
 10
73.42118596254748
 20
-135.5004285685555
 10
73.21379121433544
 20
-135.5786322360706
 10
73.17158879464114
 20
-135.5934461466572
 10
73.17572290922344
 20
-135.872843390511
 10
73.17778996651458
 20
-135.9024712116841
 10
73.17778996651458
 20
-136.018570929537
 10
73.17778996651458
 20
-136.018570929537
 10
73.25409883151286
 20
-136.018570929537
 10
73.25409883151286
 20
-136.018570929537
 10
73.44444035707292
 20
-136.018570929537
 10
73.63702119469839
 20
-136.0144368149547
 10
73.82736272025844
 20
-136.0016899616593
 10
73.82736272025844
 20
-136.0016899616593
 10
73.82736272025844
 20
-136.2090847098713
 10
73.82736272025844
 20
-136.2090847098713
 10
73.57983260964323
 20
-136.1901366847025
 10
73.27511391397289
 20
-136.1901366847025
 10
73.25409883151286
 20
-136.1901366847025
 97
        0
 97
        0
 75
     2
 76
     1
 98
        0
  0
SPLINE
  5
71
330
65
100
AcDbEntity
  8
_U+30EC_U+30A4_U+30E4_U+30FC 1
370
     0
100
AcDbSpline
210
0.0
220
0.0
230
1.0
 70
    11
 71
     3
 72
    26
 73
    22
 74
     0
 42
0.0000000001
 43
0.0000000001
 12
1.0
 22
0.0
 32
0.0
 13
1.0
 23
0.0
 33
0.0
 40
0.0
 40
0.0
 40
0.0
 40
0.0
 40
1.0
 40
1.0
 40
1.0
 40
2.0
 40
2.0
 40
2.0
 40
3.0
 40
3.0
 40
3.0
 40
4.0
 40
4.0
 40
4.0
 40
5.0
 40
5.0
 40
5.0
 40
6.0
 40
6.0
 40
6.0
 40
7.0
 40
7.0
 40
7.0
 40
7.0
 10
74.30020207560898
 20
-136.934621819065
 30
0.0
 10
74.29589570625242
 20
-136.9432345577781
 30
0.0
 10
74.28538816502241
 20
-136.9769964935335
 30
0.0
 10
74.28108179566584
 20
-136.983197665407
 30
0.0
 10
74.27677542630929
 20
-136.9918104041201
 30
0.0
 10
74.26833494237042
 20
-136.9959445187024
 30
0.0
 10
74.2578274011404
 20
-136.9959445187024
 30
0.0
 10
74.24301349055384
 20
-136.9959445187024
 30
0.0
 10
74.23664006390612
 20
-136.9876762895378
 30
0.0
 10
74.21338566938068
 20
-136.9453016150692
 30
0.0
 10
74.21338566938068
 20
-136.9453016150692
 30
0.0
 10
74.09918075404465
 20
-136.7251600135618
 30
0.0
 10
74.09918075404465
 20
-136.7251600135618
 30
0.0
 10
74.42491453217502
 20
-136.6807182818021
 30
0.0
 10
75.1864528891895
 20
-136.348611077024
 30
0.0
 10
75.58849553231816
 20
-135.8304687160424
 30
0.0
 10
75.58849553231816
 20
-135.8304687160424
 30
0.0
 10
75.67307262648104
 20
-136.0354518974148
 30
0.0
 10
75.67307262648104
 20
-136.0354518974148
 30
0.0
 10
75.25845538483122
 20
-136.5243109467717
 30
0.0
 10
74.59200166320964
 20
-136.8099093624989
 30
0.0
 10
74.30020207560898
 20
-136.934621819065
 30
0.0
  0
SPLINE
  5
72
330
65
100
AcDbEntity
  8
_U+30EC_U+30A4_U+30E4_U+30FC 1
370
     0
100
AcDbSpline
210
0.0
220
0.0
230
1.0
 70
    11
 71
     3
 72
    17
 73
    13
 74
     0
 42
0.0000000001
 43
0.0000000001
 12
1.0
 22
0.0
 32
0.0
 13
1.0
 23
0.0
 33
0.0
 40
0.0
 40
0.0
 40
0.0
 40
0.0
 40
1.0
 40
1.0
 40
1.0
 40
2.0
 40
2.0
 40
2.0
 40
3.0
 40
3.0
 40
3.0
 40
4.0
 40
4.0
 40
4.0
 40
4.0
 10
74.59424097527506
 20
-135.8432155693378
 30
0.0
 10
74.45454235334817
 20
-135.7098903740586
 30
0.0
 10
74.23664006390612
 20
-135.5955132039483
 30
0.0
 10
74.1329426898001
 20
-135.5510714721886
 30
0.0
 10
74.1329426898001
 20
-135.5510714721886
 30
0.0
 10
74.24938691720155
 20
-135.3609022014028
 30
0.0
 10
74.24938691720155
 20
-135.3609022014028
 30
0.0
 10
74.5646131541019
 20
-135.5111083645597
 30
0.0
 10
74.6596977894948
 20
-135.6020588853703
 30
0.0
 10
74.7148193172588
 20
-135.6547688462946
 30
0.0
 10
74.7148193172588
 20
-135.6547688462946
 30
0.0
 10
74.59424097527506
 20
-135.8432155693378
 30
0.0
 10
74.59424097527506
 20
-135.8432155693378
 30
0.0
  0
HATCH
  5
73
330
65
100
AcDbEntity
  8
_U+30EC_U+30A4_U+30E4_U+30FC 1
 62
   179
420
  2234388
100
AcDbHatch
 10
0.0
 20
0.0
 30
0.0
210
0.0
220
0.0
230
1.0
  2
SOLID
 70
     1
 71
     0
 91
        2
 92
        1
 93
        1
 72
     4
 94
        3
 73
     0
 74
     1
 95
       26
 96
       22
 40
0.0
 40
0.0
 40
0.0
 40
0.0
 40
1.0
 40
1.0
 40
1.0
 40
2.0
 40
2.0
 40
2.0
 40
3.0
 40
3.0
 40
3.0
 40
4.0
 40
4.0
 40
4.0
 40
5.0
 40
5.0
 40
5.0
 40
6.0
 40
6.0
 40
6.0
 40
7.0
 40
7.0
 40
7.0
 40
7.0
 10
74.30020207560898
 20
-136.934621819065
 10
74.29589570625242
 20
-136.9432345577781
 10
74.28538816502241
 20
-136.9769964935335
 10
74.28108179566584
 20
-136.983197665407
 10
74.27677542630929
 20
-136.9918104041201
 10
74.26833494237042
 20
-136.9959445187024
 10
74.2578274011404
 20
-136.9959445187024
 10
74.24301349055384
 20
-136.9959445187024
 10
74.23664006390612
 20
-136.9876762895378
 10
74.21338566938068
 20
-136.9453016150692
 10
74.21338566938068
 20
-136.9453016150692
 10
74.09918075404465
 20
-136.7251600135618
 10
74.09918075404465
 20
-136.7251600135618
 10
74.42491453217502
 20
-136.6807182818021
 10
75.1864528891895
 20
-136.348611077024
 10
75.58849553231816
 20
-135.8304687160424
 10
75.58849553231816
 20
-135.8304687160424
 10
75.67307262648104
 20
-136.0354518974148
 10
75.67307262648104
 20
-136.0354518974148
 10
75.25845538483122
 20
-136.5243109467717
 10
74.59200166320964
 20
-136.8099093624989
 10
74.30020207560898
 20
-136.934621819065
 97
        0
 97
        0
 92
        1
 93
        1
 72
     4
 94
        3
 73
     0
 74
     1
 95
       17
 96
       13
 40
0.0
 40
0.0
 40
0.0
 40
0.0
 40
1.0
 40
1.0
 40
1.0
 40
2.0
 40
2.0
 40
2.0
 40
3.0
 40
3.0
 40
3.0
 40
4.0
 40
4.0
 40
4.0
 40
4.0
 10
74.59424097527506
 20
-135.8432155693378
 10
74.45454235334817
 20
-135.7098903740586
 10
74.23664006390612
 20
-135.5955132039483
 10
74.1329426898001
 20
-135.5510714721886
 10
74.1329426898001
 20
-135.5510714721886
 10
74.24938691720155
 20
-135.3609022014028
 10
74.24938691720155
 20
-135.3609022014028
 10
74.5646131541019
 20
-135.5111083645597
 10
74.6596977894948
 20
-135.6020588853703
 10
74.7148193172588
 20
-135.6547688462946
 10
74.7148193172588
 20
-135.6547688462946
 10
74.59424097527506
 20
-135.8432155693378
 10
74.59424097527506
 20
-135.8432155693378
 97
        0
 97
        0
 75
     2
 76
     1
 98
        0
  0
SPLINE
  5
74
330
65
100
AcDbEntity
  8
_U+30EC_U+30A4_U+30E4_U+30FC 1
370
     0
100
AcDbSpline
210
0.0
220
0.0
230
1.0
 70
    11
 71
     3
 72
    59
 73
    55
 74
     0
 42
0.0000000001
 43
0.0000000001
 12
1.0
 22
0.0
 32
0.0
 13
1.0
 23
0.0
 33
0.0
 40
0.0
 40
0.0
 40
0.0
 40
0.0
 40
1.0
 40
1.0
 40
1.0
 40
2.0
 40
2.0
 40
2.0
 40
3.0
 40
3.0
 40
3.0
 40
4.0
 40
4.0
 40
4.0
 40
5.0
 40
5.0
 40
5.0
 40
6.0
 40
6.0
 40
6.0
 40
7.0
 40
7.0
 40
7.0
 40
8.0
 40
8.0
 40
8.0
 40
9.0
 40
9.0
 40
9.0
 40
10.0
 40
10.0
 40
10.0
 40
11.0
 40
11.0
 40
11.0
 40
12.0
 40
12.0
 40
12.0
 40
13.0
 40
13.0
 40
13.0
 40
14.0
 40
14.0
 40
14.0
 40
15.0
 40
15.0
 40
15.0
 40
16.0
 40
16.0
 40
16.0
 40
17.0
 40
17.0
 40
17.0
 40
18.0
 40
18.0
 40
18.0
 40
18.0
 10
77.23749048633299
 20
-135.9296874660176
 30
0.0
 10
77.1506740801047
 20
-136.1901366847025
 30
0.0
 10
77.00477428630437
 20
-136.528445061354
 30
0.0
 10
76.68110756546514
 20
-136.8205891585032
 30
0.0
 10
76.51608749172168
 20
-136.9663166975293
 30
0.0
 10
76.35744084462593
 20
-137.038319193171
 30
0.0
 10
76.26011689716762
 20
-137.0848279822219
 30
0.0
 10
76.26011689716762
 20
-137.0848279822219
 30
0.0
 10
76.06977537160756
 20
-136.9411675004869
 30
0.0
 10
76.06977537160756
 20
-136.9411675004869
 30
0.0
 10
76.33418645010049
 20
-136.8436712982544
 30
0.0
 10
76.56690265012911
 20
-136.6745171099286
 30
0.0
 10
76.74036320781144
 20
-136.45230845113
 30
0.0
 10
76.83768715526975
 20
-136.3275959945639
 30
0.0
 10
76.9963338023655
 20
-136.0650797185879
 30
0.0
 10
77.07040335529838
 20
-135.7395181952318
 30
0.0
 10
77.07040335529838
 20
-135.7395181952318
 30
0.0
 10
76.43357745484994
 20
-135.7395181952318
 30
0.0
 10
76.43357745484994
 20
-135.7395181952318
 30
0.0
 10
76.36381427127364
 20
-135.8366698879158
 30
0.0
 10
76.18191322965244
 20
-136.0947075397611
 30
0.0
 10
76.00414630261355
 20
-136.2176974485845
 30
0.0
 10
76.00414630261355
 20
-136.2176974485845
 30
0.0
 10
75.83705917157893
 20
-136.0905734251787
 30
0.0
 10
75.83705917157893
 20
-136.0905734251787
 30
0.0
 10
76.14591198183157
 20
-135.8704318236713
 30
0.0
 10
76.36381427127364
 20
-135.4938828871335
 30
0.0
 10
76.4315103975588
 20
-135.2823540243391
 30
0.0
 10
76.4315103975588
 20
-135.2823540243391
 30
0.0
 10
76.65147974429199
 20
-135.3819172838629
 30
0.0
 10
76.65147974429199
 20
-135.3819172838629
 30
0.0
 10
76.65578611364856
 20
-135.383984341154
 30
0.0
 10
76.69592147605172
 20
-135.4008653090317
 30
0.0
 10
76.69592147605172
 20
-135.4242919583314
 30
0.0
 10
76.69592147605172
 20
-135.439105868918
 30
0.0
 10
76.69592147605172
 20
-135.4494411553738
 30
0.0
 10
76.60290389794997
 20
-135.4749348619646
 30
0.0
 10
76.56259628077255
 20
-135.542803243024
 30
0.0
 10
76.55846216619025
 20
-135.5490044148975
 30
0.0
 10
76.54158119831253
 20
-135.5744981214883
 30
0.0
 10
76.54158119831253
 20
-135.5744981214883
 30
0.0
 10
76.86524791915174
 20
-135.5744981214883
 30
0.0
 10
76.86524791915174
 20
-135.5744981214883
 30
0.0
 10
77.05128307535524
 20
-135.5744981214883
 30
0.0
 10
77.07453746988068
 20
-135.5724310641972
 30
0.0
 10
77.10209823376267
 20
-135.5700194973575
 30
0.0
 10
77.17186141733899
 20
-135.5658853827752
 30
0.0
 10
77.18667532792556
 20
-135.5576171536106
 30
0.0
 10
77.20786266515984
 20
-135.542803243024
 30
0.0
 10
77.20786266515984
 20
-135.542803243024
 30
0.0
 10
77.37081568161216
 20
-135.7098903740586
 30
0.0
 10
77.37081568161216
 20
-135.7098903740586
 30
0.0
 10
77.29243975932273
 20
-135.7818928697004
 30
0.0
 10
77.28399927538386
 20
-135.7922281561561
 30
0.0
 10
77.23749048633299
 20
-135.9296874660176
 30
0.0
  0
SPLINE
  5
75
330
65
100
AcDbEntity
  8
_U+30EC_U+30A4_U+30E4_U+30FC 1
370
     0
100
AcDbSpline
210
0.0
220
0.0
230
1.0
 70
    11
 71
     3
 72
    17
 73
    13
 74
     0
 42
0.0000000001
 43
0.0000000001
 12
1.0
 22
0.0
 32
0.0
 13
1.0
 23
0.0
 33
0.0
 40
0.0
 40
0.0
 40
0.0
 40
0.0
 40
1.0
 40
1.0
 40
1.0
 40
2.0
 40
2.0
 40
2.0
 40
3.0
 40
3.0
 40
3.0
 40
4.0
 40
4.0
 40
4.0
 40
4.0
 10
77.14860702281355
 20
-135.4642550659603
 30
0.0
 10
77.04284259141637
 20
-135.3712374878586
 30
0.0
 10
77.03009573812095
 20
-135.3609022014028
 30
0.0
 10
76.92863767608034
 20
-135.2823540243391
 30
0.0
 10
76.92863767608034
 20
-135.2823540243391
 30
0.0
 10
77.04077553412523
 20
-135.1852023316551
 30
0.0
 10
77.04077553412523
 20
-135.1852023316551
 30
0.0
 10
77.1506740801047
 20
-135.2613389418791
 30
0.0
 10
77.18254121334326
 20
-135.2930338203434
 30
0.0
 10
77.265051250215
 20
-135.3777831692805
 30
0.0
 10
77.265051250215
 20
-135.3777831692805
 30
0.0
 10
77.14860702281355
 20
-135.4642550659603
 30
0.0
 10
77.14860702281355
 20
-135.4642550659603
 30
0.0
  0
SPLINE
  5
76
330
65
100
AcDbEntity
  8
_U+30EC_U+30A4_U+30E4_U+30FC 1
370
     0
100
AcDbSpline
210
0.0
220
0.0
230
1.0
 70
    11
 71
     3
 72
    17
 73
    13
 74
     0
 42
0.0000000001
 43
0.0000000001
 12
1.0
 22
0.0
 32
0.0
 13
1.0
 23
0.0
 33
0.0
 40
0.0
 40
0.0
 40
0.0
 40
0.0
 40
1.0
 40
1.0
 40
1.0
 40
2.0
 40
2.0
 40
2.0
 40
3.0
 40
3.0
 40
3.0
 40
4.0
 40
4.0
 40
4.0
 40
4.0
 10
77.48295353965705
 20
-135.4728678046735
 30
0.0
 10
77.42145858524533
 20
-135.3967311944494
 30
0.0
 10
77.35600177102559
 20
-135.3247286988077
 30
0.0
 10
77.27555879144501
 20
-135.2654730564614
 30
0.0
 10
77.27555879144501
 20
-135.2654730564614
 30
0.0
 10
77.39613713342875
 20
-135.1724554783597
 30
0.0
 10
77.39613713342875
 20
-135.1724554783597
 30
0.0
 10
77.48502059694819
 20
-135.2296440634148
 30
0.0
 10
77.53790281264678
 20
-135.2823540243391
 30
0.0
 10
77.60353188164079
 20
-135.3712374878586
 30
0.0
 10
77.60353188164079
 20
-135.3712374878586
 30
0.0
 10
77.48295353965705
 20
-135.4728678046735
 30
0.0
 10
77.48295353965705
 20
-135.4728678046735
 30
0.0
  0
HATCH
  5
77
330
65
100
AcDbEntity
  8
_U+30EC_U+30A4_U+30E4_U+30FC 1
 62
   179
420
  2234388
100
AcDbHatch
 10
0.0
 20
0.0
 30
0.0
210
0.0
220
0.0
230
1.0
  2
SOLID
 70
     1
 71
     0
 91
        3
 92
        1
 93
        1
 72
     4
 94
        3
 73
     0
 74
     1
 95
       59
 96
       55
 40
0.0
 40
0.0
 40
0.0
 40
0.0
 40
1.0
 40
1.0
 40
1.0
 40
2.0
 40
2.0
 40
2.0
 40
3.0
 40
3.0
 40
3.0
 40
4.0
 40
4.0
 40
4.0
 40
5.0
 40
5.0
 40
5.0
 40
6.0
 40
6.0
 40
6.0
 40
7.0
 40
7.0
 40
7.0
 40
8.0
 40
8.0
 40
8.0
 40
9.0
 40
9.0
 40
9.0
 40
10.0
 40
10.0
 40
10.0
 40
11.0
 40
11.0
 40
11.0
 40
12.0
 40
12.0
 40
12.0
 40
13.0
 40
13.0
 40
13.0
 40
14.0
 40
14.0
 40
14.0
 40
15.0
 40
15.0
 40
15.0
 40
16.0
 40
16.0
 40
16.0
 40
17.0
 40
17.0
 40
17.0
 40
18.0
 40
18.0
 40
18.0
 40
18.0
 10
77.23749048633299
 20
-135.9296874660176
 10
77.1506740801047
 20
-136.1901366847025
 10
77.00477428630437
 20
-136.528445061354
 10
76.68110756546514
 20
-136.8205891585032
 10
76.51608749172168
 20
-136.9663166975293
 10
76.35744084462593
 20
-137.038319193171
 10
76.26011689716762
 20
-137.0848279822219
 10
76.26011689716762
 20
-137.0848279822219
 10
76.06977537160756
 20
-136.9411675004869
 10
76.06977537160756
 20
-136.9411675004869
 10
76.33418645010049
 20
-136.8436712982544
 10
76.56690265012911
 20
-136.6745171099286
 10
76.74036320781144
 20
-136.45230845113
 10
76.83768715526975
 20
-136.3275959945639
 10
76.9963338023655
 20
-136.0650797185879
 10
77.07040335529838
 20
-135.7395181952318
 10
77.07040335529838
 20
-135.7395181952318
 10
76.43357745484994
 20
-135.7395181952318
 10
76.43357745484994
 20
-135.7395181952318
 10
76.36381427127364
 20
-135.8366698879158
 10
76.18191322965244
 20
-136.0947075397611
 10
76.00414630261355
 20
-136.2176974485845
 10
76.00414630261355
 20
-136.2176974485845
 10
75.83705917157893
 20
-136.0905734251787
 10
75.83705917157893
 20
-136.0905734251787
 10
76.14591198183157
 20
-135.8704318236713
 10
76.36381427127364
 20
-135.4938828871335
 10
76.4315103975588
 20
-135.2823540243391
 10
76.4315103975588
 20
-135.2823540243391
 10
76.65147974429199
 20
-135.3819172838629
 10
76.65147974429199
 20
-135.3819172838629
 10
76.65578611364856
 20
-135.383984341154
 10
76.69592147605172
 20
-135.4008653090317
 10
76.69592147605172
 20
-135.4242919583314
 10
76.69592147605172
 20
-135.439105868918
 10
76.69592147605172
 20
-135.4494411553738
 10
76.60290389794997
 20
-135.4749348619646
 10
76.56259628077255
 20
-135.542803243024
 10
76.55846216619025
 20
-135.5490044148975
 10
76.54158119831253
 20
-135.5744981214883
 10
76.54158119831253
 20
-135.5744981214883
 10
76.86524791915174
 20
-135.5744981214883
 10
76.86524791915174
 20
-135.5744981214883
 10
77.05128307535524
 20
-135.5744981214883
 10
77.07453746988068
 20
-135.5724310641972
 10
77.10209823376267
 20
-135.5700194973575
 10
77.17186141733899
 20
-135.5658853827752
 10
77.18667532792556
 20
-135.5576171536106
 10
77.20786266515984
 20
-135.542803243024
 10
77.20786266515984
 20
-135.542803243024
 10
77.37081568161216
 20
-135.7098903740586
 10
77.37081568161216
 20
-135.7098903740586
 10
77.29243975932273
 20
-135.7818928697004
 10
77.28399927538386
 20
-135.7922281561561
 10
77.23749048633299
 20
-135.9296874660176
 97
        0
 97
        0
 92
        1
 93
        1
 72
     4
 94
        3
 73
     0
 74
     1
 95
       17
 96
       13
 40
0.0
 40
0.0
 40
0.0
 40
0.0
 40
1.0
 40
1.0
 40
1.0
 40
2.0
 40
2.0
 40
2.0
 40
3.0
 40
3.0
 40
3.0
 40
4.0
 40
4.0
 40
4.0
 40
4.0
 10
77.14860702281355
 20
-135.4642550659603
 10
77.04284259141637
 20
-135.3712374878586
 10
77.03009573812095
 20
-135.3609022014028
 10
76.92863767608034
 20
-135.2823540243391
 10
76.92863767608034
 20
-135.2823540243391
 10
77.04077553412523
 20
-135.1852023316551
 10
77.04077553412523
 20
-135.1852023316551
 10
77.1506740801047
 20
-135.2613389418791
 10
77.18254121334326
 20
-135.2930338203434
 10
77.265051250215
 20
-135.3777831692805
 10
77.265051250215
 20
-135.3777831692805
 10
77.14860702281355
 20
-135.4642550659603
 10
77.14860702281355
 20
-135.4642550659603
 97
        0
 97
        0
 92
        1
 93
        1
 72
     4
 94
        3
 73
     0
 74
     1
 95
       17
 96
       13
 40
0.0
 40
0.0
 40
0.0
 40
0.0
 40
1.0
 40
1.0
 40
1.0
 40
2.0
 40
2.0
 40
2.0
 40
3.0
 40
3.0
 40
3.0
 40
4.0
 40
4.0
 40
4.0
 40
4.0
 10
77.48295353965705
 20
-135.4728678046735
 10
77.42145858524533
 20
-135.3967311944494
 10
77.35600177102559
 20
-135.3247286988077
 10
77.27555879144501
 20
-135.2654730564614
 10
77.27555879144501
 20
-135.2654730564614
 10
77.39613713342875
 20
-135.1724554783597
 10
77.39613713342875
 20
-135.1724554783597
 10
77.48502059694819
 20
-135.2296440634148
 10
77.53790281264678
 20
-135.2823540243391
 10
77.60353188164079
 20
-135.3712374878586
 10
77.60353188164079
 20
-135.3712374878586
 10
77.48295353965705
 20
-135.4728678046735
 10
77.48295353965705
 20
-135.4728678046735
 97
        0
 97
        0
 75
     2
 76
     1
 98
        0
  0
ENDBLK
  5
68
330
65
100
AcDbEntity
  8
0
100
AcDbBlockEnd
  0
BLOCK
  5
86
330
84
100
AcDbEntity
  8
0
100
AcDbBlockBegin
  2
block 3
 70
     0
 10
0.0
 20
0.0
 30
0.0
  3
block 3
  1

  0
POLYLINE
  5
88
330
84
100
AcDbEntity
  8
_U+30EC_U+30A4_U+30E4_U+30FC 1
370
     0
100
AcDb2dPolyline
 66
     1
 10
0.0
 20
0.0
 30
0.0
  0
VERTEX
  5
89
330
88
100
AcDbEntity
  8
_U+30EC_U+30A4_U+30E4_U+30FC 1
370
     0
100
AcDbVertex
100
AcDb2dVertex
 10
87.74106985653695
 20
-145.9473361180271
 30
0.0
  0
VERTEX
  5
8A
330
88
100
AcDbEntity
  8
_U+30EC_U+30A4_U+30E4_U+30FC 1
370
     0
100
AcDbVertex
100
AcDb2dVertex
 10
87.74106985653695
 20
-146.2942572333917
 30
0.0
  0
VERTEX
  5
8B
330
88
100
AcDbEntity
  8
_U+30EC_U+30A4_U+30E4_U+30FC 1
370
     0
100
AcDbVertex
100
AcDb2dVertex
 10
87.5231675670949
 20
-146.2942572333917
 30
0.0
  0
VERTEX
  5
8C
330
88
100
AcDbEntity
  8
_U+30EC_U+30A4_U+30E4_U+30FC 1
370
     0
100
AcDbVertex
100
AcDb2dVertex
 10
87.5231675670949
 20
-145.9473361180271
 30
0.0
  0
VERTEX
  5
8D
330
88
100
AcDbEntity
  8
_U+30EC_U+30A4_U+30E4_U+30FC 1
370
     0
100
AcDbVertex
100
AcDb2dVertex
 10
86.8673936414776
 20
-145.9473361180271
 30
0.0
  0
VERTEX
  5
8E
330
88
100
AcDbEntity
  8
_U+30EC_U+30A4_U+30E4_U+30FC 1
370
     0
100
AcDbVertex
100
AcDb2dVertex
 10
86.8673936414776
 20
-145.7230604019373
 30
0.0
  0
VERTEX
  5
8F
330
88
100
AcDbEntity
  8
_U+30EC_U+30A4_U+30E4_U+30FC 1
370
     0
100
AcDbVertex
100
AcDb2dVertex
 10
87.54642196162034
 20
-144.7498209273542
 30
0.0
  0
VERTEX
  5
90
330
88
100
AcDbEntity
  8
_U+30EC_U+30A4_U+30E4_U+30FC 1
370
     0
100
AcDbVertex
100
AcDb2dVertex
 10
87.74106985653695
 20
-144.7498209273542
 30
0.0
  0
VERTEX
  5
91
330
88
100
AcDbEntity
  8
_U+30EC_U+30A4_U+30E4_U+30FC 1
370
     0
100
AcDbVertex
100
AcDb2dVertex
 10
87.74106985653695
 20
-145.7485541085281
 30
0.0
  0
VERTEX
  5
92
330
88
100
AcDbEntity
  8
_U+30EC_U+30A4_U+30E4_U+30FC 1
370
     0
100
AcDbVertex
100
AcDb2dVertex
 10
87.948464604749
 20
-145.7485541085281
 30
0.0
  0
VERTEX
  5
93
330
88
100
AcDbEntity
  8
_U+30EC_U+30A4_U+30E4_U+30FC 1
370
     0
100
AcDbVertex
100
AcDb2dVertex
 10
87.948464604749
 20
-145.9473361180271
 30
0.0
  0
VERTEX
  5
94
330
88
100
AcDbEntity
  8
_U+30EC_U+30A4_U+30E4_U+30FC 1
370
     0
100
AcDbVertex
100
AcDb2dVertex
 10
87.74106985653695
 20
-145.9473361180271
 30
0.0
  0
SEQEND
  5
95
330
88
100
AcDbEntity
  8
_U+30EC_U+30A4_U+30E4_U+30FC 1
370
     0
  0
POLYLINE
  5
96
330
84
100
AcDbEntity
  8
_U+30EC_U+30A4_U+30E4_U+30FC 1
370
     0
100
AcDb2dPolyline
 66
     1
 10
0.0
 20
0.0
 30
0.0
  0
VERTEX
  5
97
330
96
100
AcDbEntity
  8
_U+30EC_U+30A4_U+30E4_U+30FC 1
370
     0
100
AcDbVertex
100
AcDb2dVertex
 10
87.5231675670949
 20
-145.0926079281366
 30
0.0
  0
VERTEX
  5
98
330
96
100
AcDbEntity
  8
_U+30EC_U+30A4_U+30E4_U+30FC 1
370
     0
100
AcDbVertex
100
AcDb2dVertex
 10
87.06634790575077
 20
-145.7485541085281
 30
0.0
  0
VERTEX
  5
99
330
96
100
AcDbEntity
  8
_U+30EC_U+30A4_U+30E4_U+30FC 1
370
     0
100
AcDbVertex
100
AcDb2dVertex
 10
87.5231675670949
 20
-145.7485541085281
 30
0.0
  0
VERTEX
  5
9A
330
96
100
AcDbEntity
  8
_U+30EC_U+30A4_U+30E4_U+30FC 1
370
     0
100
AcDbVertex
100
AcDb2dVertex
 10
87.5231675670949
 20
-145.0926079281366
 30
0.0
  0
SEQEND
  5
9B
330
96
100
AcDbEntity
  8
_U+30EC_U+30A4_U+30E4_U+30FC 1
370
     0
  0
HATCH
  5
9C
330
84
100
AcDbEntity
  8
_U+30EC_U+30A4_U+30E4_U+30FC 1
 62
   179
420
  2234388
100
AcDbHatch
 10
0.0
 20
0.0
 30
0.0
210
0.0
220
0.0
230
1.0
  2
SOLID
 70
     1
 71
     0
 91
        2
 92
        1
 93
       11
 72
     1
 10
87.74106985653695
 20
-145.9473361180271
 11
87.74106985653695
 21
-146.2942572333917
 72
     1
 10
87.74106985653695
 20
-146.2942572333917
 11
87.5231675670949
 21
-146.2942572333917
 72
     1
 10
87.5231675670949
 20
-146.2942572333917
 11
87.5231675670949
 21
-145.9473361180271
 72
     1
 10
87.5231675670949
 20
-145.9473361180271
 11
86.8673936414776
 21
-145.9473361180271
 72
     1
 10
86.8673936414776
 20
-145.9473361180271
 11
86.8673936414776
 21
-145.7230604019373
 72
     1
 10
86.8673936414776
 20
-145.7230604019373
 11
87.54642196162034
 21
-144.7498209273542
 72
     1
 10
87.54642196162034
 20
-144.7498209273542
 11
87.74106985653695
 21
-144.7498209273542
 72
     1
 10
87.74106985653695
 20
-144.7498209273542
 11
87.74106985653695
 21
-145.7485541085281
 72
     1
 10
87.74106985653695
 20
-145.7485541085281
 11
87.948464604749
 21
-145.7485541085281
 72
     1
 10
87.948464604749
 20
-145.7485541085281
 11
87.948464604749
 21
-145.9473361180271
 72
     1
 10
87.948464604749
 20
-145.9473361180271
 11
87.74106985653695
 21
-145.9473361180271
 97
        0
 92
        1
 93
        3
 72
     1
 10
87.5231675670949
 20
-145.0926079281366
 11
87.06634790575077
 21
-145.7485541085281
 72
     1
 10
87.06634790575077
 20
-145.7485541085281
 11
87.5231675670949
 21
-145.7485541085281
 72
     1
 10
87.5231675670949
 20
-145.7485541085281
 11
87.5231675670949
 21
-145.0926079281366
 97
        0
 75
     2
 76
     1
 98
        0
  0
SPLINE
  5
9D
330
84
100
AcDbEntity
  8
_U+30EC_U+30A4_U+30E4_U+30FC 1
370
     0
100
AcDbSpline
210
0.0
220
0.0
230
1.0
 70
    11
 71
     3
 72
    53
 73
    49
 74
     0
 42
0.0000000001
 43
0.0000000001
 12
1.0
 22
0.0
 32
0.0
 13
1.0
 23
0.0
 33
0.0
 40
0.0
 40
0.0
 40
0.0
 40
0.0
 40
1.0
 40
1.0
 40
1.0
 40
2.0
 40
2.0
 40
2.0
 40
3.0
 40
3.0
 40
3.0
 40
4.0
 40
4.0
 40
4.0
 40
5.0
 40
5.0
 40
5.0
 40
6.0
 40
6.0
 40
6.0
 40
7.0
 40
7.0
 40
7.0
 40
8.0
 40
8.0
 40
8.0
 40
9.0
 40
9.0
 40
9.0
 40
10.0
 40
10.0
 40
10.0
 40
11.0
 40
11.0
 40
11.0
 40
12.0
 40
12.0
 40
12.0
 40
13.0
 40
13.0
 40
13.0
 40
14.0
 40
14.0
 40
14.0
 40
15.0
 40
15.0
 40
15.0
 40
16.0
 40
16.0
 40
16.0
 40
16.0
 10
88.56668698957708
 20
-146.3449001370249
 30
0.0
 10
88.48848332206191
 20
-146.3449001370249
 30
0.0
 10
88.3870252600213
 20
-146.3280191691472
 30
0.0
 10
88.28539494320643
 20
-146.2646294122186
 30
0.0
 10
88.11193438552411
 20
-146.1547308662391
 30
0.0
 10
88.09074704828981
 20
-146.0234727282511
 30
0.0
 10
88.07179902312095
 20
-145.9156412395628
 30
0.0
 10
88.07179902312095
 20
-145.9156412395628
 30
0.0
 10
88.2938354271453
 20
-145.9156412395628
 30
0.0
 10
88.2938354271453
 20
-145.9156412395628
 30
0.0
 10
88.3489569549093
 20
-146.1144232490617
 30
0.0
 10
88.47590872354075
 20
-146.1440510702348
 30
0.0
 10
88.56875404686824
 20
-146.1440510702348
 30
0.0
 10
88.70862492356937
 20
-146.1440510702348
 30
0.0
 10
88.86089814401741
 20
-146.0444878107111
 30
0.0
 10
88.86089814401741
 20
-145.8119438654568
 30
0.0
 10
88.86089814401741
 20
-145.5559732709027
 30
0.0
 10
88.68106415968738
 20
-145.4860378325521
 30
0.0
 10
88.56048581770364
 20
-145.4860378325521
 30
0.0
 10
88.52879093923933
 20
-145.4860378325521
 30
0.0
 10
88.3870252600213
 20
-145.4860378325521
 30
0.0
 10
88.29814179650185
 20
-145.615228913249
 30
0.0
 10
88.29814179650185
 20
-145.615228913249
 30
0.0
 10
88.12261418152838
 20
-145.5962808880801
 30
0.0
 10
88.12261418152838
 20
-145.5962808880801
 30
0.0
 10
88.12261418152838
 20
-145.5962808880801
 30
0.0
 10
88.24319252351212
 20
-144.7498209273542
 30
0.0
 10
88.24319252351212
 20
-144.7498209273542
 30
0.0
 10
88.24319252351212
 20
-144.7498209273542
 30
0.0
 10
89.02178410317859
 20
-144.7498209273542
 30
0.0
 10
89.02178410317859
 20
-144.7498209273542
 30
0.0
 10
89.02178410317859
 20
-144.7498209273542
 30
0.0
 10
89.02178410317859
 20
-144.9444688222708
 30
0.0
 10
89.02178410317859
 20
-144.9444688222708
 30
0.0
 10
89.02178410317859
 20
-144.9444688222708
 30
0.0
 10
88.40597328519017
 20
-144.9444688222708
 30
0.0
 10
88.40597328519017
 20
-144.9444688222708
 30
0.0
 10
88.40597328519017
 20
-144.9444688222708
 30
0.0
 10
88.34051647097043
 20
-145.3675265478595
 30
0.0
 10
88.34051647097043
 20
-145.3675265478595
 30
0.0
 10
88.40183917060787
 20
-145.3337646121041
 30
0.0
 10
88.48434920747961
 20
-145.2934569949266
 30
0.0
 10
88.60286049217221
 20
-145.2934569949266
 30
0.0
 10
88.85676402943511
 20
-145.2934569949266
 30
0.0
 10
89.09344208927179
 20
-145.4798366606787
 30
0.0
 10
89.09344208927179
 20
-145.7929958402879
 30
0.0
 10
89.09344208927179
 20
-146.1102891344794
 30
0.0
 10
88.86916637318201
 20
-146.3449001370249
 30
0.0
 10
88.56668698957708
 20
-146.3449001370249
 30
0.0
  0
HATCH
  5
9E
330
84
100
AcDbEntity
  8
_U+30EC_U+30A4_U+30E4_U+30FC 1
 62
   179
420
  2234388
100
AcDbHatch
 10
0.0
 20
0.0
 30
0.0
210
0.0
220
0.0
230
1.0
  2
SOLID
 70
     1
 71
     0
 91
        1
 92
        1
 93
        1
 72
     4
 94
        3
 73
     0
 74
     1
 95
       53
 96
       49
 40
0.0
 40
0.0
 40
0.0
 40
0.0
 40
1.0
 40
1.0
 40
1.0
 40
2.0
 40
2.0
 40
2.0
 40
3.0
 40
3.0
 40
3.0
 40
4.0
 40
4.0
 40
4.0
 40
5.0
 40
5.0
 40
5.0
 40
6.0
 40
6.0
 40
6.0
 40
7.0
 40
7.0
 40
7.0
 40
8.0
 40
8.0
 40
8.0
 40
9.0
 40
9.0
 40
9.0
 40
10.0
 40
10.0
 40
10.0
 40
11.0
 40
11.0
 40
11.0
 40
12.0
 40
12.0
 40
12.0
 40
13.0
 40
13.0
 40
13.0
 40
14.0
 40
14.0
 40
14.0
 40
15.0
 40
15.0
 40
15.0
 40
16.0
 40
16.0
 40
16.0
 40
16.0
 10
88.56668698957708
 20
-146.3449001370249
 10
88.48848332206191
 20
-146.3449001370249
 10
88.3870252600213
 20
-146.3280191691472
 10
88.28539494320643
 20
-146.2646294122186
 10
88.11193438552411
 20
-146.1547308662391
 10
88.09074704828981
 20
-146.0234727282511
 10
88.07179902312095
 20
-145.9156412395628
 10
88.07179902312095
 20
-145.9156412395628
 10
88.2938354271453
 20
-145.9156412395628
 10
88.2938354271453
 20
-145.9156412395628
 10
88.3489569549093
 20
-146.1144232490617
 10
88.47590872354075
 20
-146.1440510702348
 10
88.56875404686824
 20
-146.1440510702348
 10
88.70862492356937
 20
-146.1440510702348
 10
88.86089814401741
 20
-146.0444878107111
 10
88.86089814401741
 20
-145.8119438654568
 10
88.86089814401741
 20
-145.5559732709027
 10
88.68106415968738
 20
-145.4860378325521
 10
88.56048581770364
 20
-145.4860378325521
 10
88.52879093923933
 20
-145.4860378325521
 10
88.3870252600213
 20
-145.4860378325521
 10
88.29814179650185
 20
-145.615228913249
 10
88.29814179650185
 20
-145.615228913249
 10
88.12261418152838
 20
-145.5962808880801
 10
88.12261418152838
 20
-145.5962808880801
 10
88.12261418152838
 20
-145.5962808880801
 10
88.24319252351212
 20
-144.7498209273542
 10
88.24319252351212
 20
-144.7498209273542
 10
88.24319252351212
 20
-144.7498209273542
 10
89.02178410317859
 20
-144.7498209273542
 10
89.02178410317859
 20
-144.7498209273542
 10
89.02178410317859
 20
-144.7498209273542
 10
89.02178410317859
 20
-144.9444688222708
 10
89.02178410317859
 20
-144.9444688222708
 10
89.02178410317859
 20
-144.9444688222708
 10
88.40597328519017
 20
-144.9444688222708
 10
88.40597328519017
 20
-144.9444688222708
 10
88.40597328519017
 20
-144.9444688222708
 10
88.34051647097043
 20
-145.3675265478595
 10
88.34051647097043
 20
-145.3675265478595
 10
88.40183917060787
 20
-145.3337646121041
 10
88.48434920747961
 20
-145.2934569949266
 10
88.60286049217221
 20
-145.2934569949266
 10
88.85676402943511
 20
-145.2934569949266
 10
89.09344208927179
 20
-145.4798366606787
 10
89.09344208927179
 20
-145.7929958402879
 10
89.09344208927179
 20
-146.1102891344794
 10
88.86916637318201
 20
-146.3449001370249
 10
88.56668698957708
 20
-146.3449001370249
 97
        0
 97
        0
 75
     2
 76
     1
 98
        0
  0
ENDBLK
  5
87
330
84
100
AcDbEntity
  8
0
100
AcDbBlockEnd
  0
BLOCK
  5
E9
330
E7
100
AcDbEntity
  8
0
100
AcDbBlockBegin
  2
block 4
 70
     0
 10
0.0
 20
0.0
 30
0.0
  3
block 4
  1

  0
SPLINE
  5
EB
330
E7
100
AcDbEntity
  8
_U+30EC_U+30A4_U+30E4_U+30FC 1
370
     0
100
AcDbSpline
210
0.0
220
0.0
230
1.0
 70
    11
 71
     3
 72
    44
 73
    40
 74
     0
 42
0.0000000001
 43
0.0000000001
 12
1.0
 22
0.0
 32
0.0
 13
1.0
 23
0.0
 33
0.0
 40
0.0
 40
0.0
 40
0.0
 40
0.0
 40
1.0
 40
1.0
 40
1.0
 40
2.0
 40
2.0
 40
2.0
 40
3.0
 40
3.0
 40
3.0
 40
4.0
 40
4.0
 40
4.0
 40
5.0
 40
5.0
 40
5.0
 40
6.0
 40
6.0
 40
6.0
 40
7.0
 40
7.0
 40
7.0
 40
8.0
 40
8.0
 40
8.0
 40
9.0
 40
9.0
 40
9.0
 40
10.0
 40
10.0
 40
10.0
 40
11.0
 40
11.0
 40
11.0
 40
12.0
 40
12.0
 40
12.0
 40
13.0
 40
13.0
 40
13.0
 40
13.0
 10
113.2430446765504
 20
-130.1150553060129
 30
0.0
 10
113.4018635784204
 20
-130.3327853406807
 30
0.0
 10
113.4759331313532
 20
-130.426147428331
 30
0.0
 10
113.6195936130882
 20
-130.474723274673
 30
0.0
 10
113.6195936130882
 20
-130.474723274673
 30
0.0
 10
113.6195936130882
 20
-129.6961316950065
 30
0.0
 10
113.6195936130882
 20
-129.6961316950065
 30
0.0
 10
113.6195936130882
 20
-129.6961316950065
 30
0.0
 10
113.8249213040091
 20
-129.6961316950065
 30
0.0
 10
113.8249213040091
 20
-129.6961316950065
 30
0.0
 10
113.8249213040091
 20
-129.6961316950065
 30
0.0
 10
113.8249213040091
 20
-130.7241481878051
 30
0.0
 10
113.8249213040091
 20
-130.7241481878051
 30
0.0
 10
113.4673203926401
 20
-130.6924533093408
 30
0.0
 10
113.3891167251249
 20
-130.626996495121
 30
0.0
 10
113.0907714561023
 20
-130.2418348198701
 30
0.0
 10
112.8919894466034
 20
-129.985864225316
 30
0.0
 10
112.824121065544
 20
-129.9204074110963
 30
0.0
 10
112.6866617556825
 20
-129.9204074110963
 30
0.0
 10
112.5681504709899
 20
-129.9204074110963
 30
0.0
 10
112.4372368425504
 20
-129.992409906738
 30
0.0
 10
112.4372368425504
 20
-130.1891248589458
 30
0.0
 10
112.4372368425504
 20
-130.4492295680821
 30
0.0
 10
112.6677137305136
 20
-130.4578423067953
 30
0.0
 10
112.7841579579151
 20
-130.4619764213776
 30
0.0
 10
112.7841579579151
 20
-130.4619764213776
 30
0.0
 10
112.7841579579151
 20
-130.6862521374673
 30
0.0
 10
112.7841579579151
 20
-130.6862521374673
 30
0.0
 10
112.6570339345094
 20
-130.6776393987542
 30
0.0
 10
112.5450683312387
 20
-130.6673041122985
 30
0.0
 10
112.4265570465461
 20
-130.5866888779436
 30
0.0
 10
112.265671087385
 20
-130.4767903319641
 30
0.0
 10
112.2319091516295
 20
-130.2907551757606
 30
0.0
 10
112.2319091516295
 20
-130.1743109483592
 30
0.0
 10
112.2319091516295
 20
-129.8969807617966
 30
0.0
 10
112.4158772505419
 20
-129.6899305231331
 30
0.0
 10
112.6887288129737
 20
-129.6899305231331
 30
0.0
 10
112.9174831531942
 20
-129.6899305231331
 30
0.0
 10
113.0167019031694
 20
-129.806030240986
 30
0.0
 10
113.2430446765504
 20
-130.1150553060129
 30
0.0
  0
HATCH
  5
EC
330
E7
100
AcDbEntity
  8
_U+30EC_U+30A4_U+30E4_U+30FC 1
 62
   179
420
  2234388
100
AcDbHatch
 10
0.0
 20
0.0
 30
0.0
210
0.0
220
0.0
230
1.0
  2
SOLID
 70
     1
 71
     0
 91
        1
 92
        1
 93
        1
 72
     4
 94
        3
 73
     0
 74
     1
 95
       44
 96
       40
 40
0.0
 40
0.0
 40
0.0
 40
0.0
 40
1.0
 40
1.0
 40
1.0
 40
2.0
 40
2.0
 40
2.0
 40
3.0
 40
3.0
 40
3.0
 40
4.0
 40
4.0
 40
4.0
 40
5.0
 40
5.0
 40
5.0
 40
6.0
 40
6.0
 40
6.0
 40
7.0
 40
7.0
 40
7.0
 40
8.0
 40
8.0
 40
8.0
 40
9.0
 40
9.0
 40
9.0
 40
10.0
 40
10.0
 40
10.0
 40
11.0
 40
11.0
 40
11.0
 40
12.0
 40
12.0
 40
12.0
 40
13.0
 40
13.0
 40
13.0
 40
13.0
 10
113.2430446765504
 20
-130.1150553060129
 10
113.4018635784204
 20
-130.3327853406807
 10
113.4759331313532
 20
-130.426147428331
 10
113.6195936130882
 20
-130.474723274673
 10
113.6195936130882
 20
-130.474723274673
 10
113.6195936130882
 20
-129.6961316950065
 10
113.6195936130882
 20
-129.6961316950065
 10
113.6195936130882
 20
-129.6961316950065
 10
113.8249213040091
 20
-129.6961316950065
 10
113.8249213040091
 20
-129.6961316950065
 10
113.8249213040091
 20
-129.6961316950065
 10
113.8249213040091
 20
-130.7241481878051
 10
113.8249213040091
 20
-130.7241481878051
 10
113.4673203926401
 20
-130.6924533093408
 10
113.3891167251249
 20
-130.626996495121
 10
113.0907714561023
 20
-130.2418348198701
 10
112.8919894466034
 20
-129.985864225316
 10
112.824121065544
 20
-129.9204074110963
 10
112.6866617556825
 20
-129.9204074110963
 10
112.5681504709899
 20
-129.9204074110963
 10
112.4372368425504
 20
-129.992409906738
 10
112.4372368425504
 20
-130.1891248589458
 10
112.4372368425504
 20
-130.4492295680821
 10
112.6677137305136
 20
-130.4578423067953
 10
112.7841579579151
 20
-130.4619764213776
 10
112.7841579579151
 20
-130.4619764213776
 10
112.7841579579151
 20
-130.6862521374673
 10
112.7841579579151
 20
-130.6862521374673
 10
112.6570339345094
 20
-130.6776393987542
 10
112.5450683312387
 20
-130.6673041122985
 10
112.4265570465461
 20
-130.5866888779436
 10
112.265671087385
 20
-130.4767903319641
 10
112.2319091516295
 20
-130.2907551757606
 10
112.2319091516295
 20
-130.1743109483592
 10
112.2319091516295
 20
-129.8969807617966
 10
112.4158772505419
 20
-129.6899305231331
 10
112.6887288129737
 20
-129.6899305231331
 10
112.9174831531942
 20
-129.6899305231331
 10
113.0167019031694
 20
-129.806030240986
 10
113.2430446765504
 20
-130.1150553060129
 97
        0
 97
        0
 75
     2
 76
     1
 98
        0
  0
SPLINE
  5
ED
330
E7
100
AcDbEntity
  8
_U+30EC_U+30A4_U+30E4_U+30FC 1
370
     0
100
AcDbSpline
210
0.0
220
0.0
230
1.0
 70
    11
 71
     3
 72
    53
 73
    49
 74
     0
 42
0.0000000001
 43
0.0000000001
 12
1.0
 22
0.0
 32
0.0
 13
1.0
 23
0.0
 33
0.0
 40
0.0
 40
0.0
 40
0.0
 40
0.0
 40
1.0
 40
1.0
 40
1.0
 40
2.0
 40
2.0
 40
2.0
 40
3.0
 40
3.0
 40
3.0
 40
4.0
 40
4.0
 40
4.0
 40
5.0
 40
5.0
 40
5.0
 40
6.0
 40
6.0
 40
6.0
 40
7.0
 40
7.0
 40
7.0
 40
8.0
 40
8.0
 40
8.0
 40
9.0
 40
9.0
 40
9.0
 40
10.0
 40
10.0
 40
10.0
 40
11.0
 40
11.0
 40
11.0
 40
12.0
 40
12.0
 40
12.0
 40
13.0
 40
13.0
 40
13.0
 40
14.0
 40
14.0
 40
14.0
 40
15.0
 40
15.0
 40
15.0
 40
16.0
 40
16.0
 40
16.0
 40
16.0
 10
113.8755642076422
 20
-129.0501762915222
 30
0.0
 10
113.8755642076422
 20
-129.1287244685859
 30
0.0
 10
113.8586832397645
 20
-129.2300102758522
 30
0.0
 10
113.7952934828359
 20
-129.3316405926671
 30
0.0
 10
113.6853949368564
 20
-129.5052734051237
 30
0.0
 10
113.5541367988684
 20
-129.5262884875837
 30
0.0
 10
113.4463053101801
 20
-129.5452365127526
 30
0.0
 10
113.4463053101801
 20
-129.5452365127526
 30
0.0
 10
113.4463053101801
 20
-129.3233723635025
 30
0.0
 10
113.4463053101801
 20
-129.3233723635025
 30
0.0
 10
113.645087319679
 20
-129.2682508357385
 30
0.0
 10
113.6747151408522
 20
-129.1411268123328
 30
0.0
 10
113.6747151408522
 20
-129.048109234231
 30
0.0
 10
113.6747151408522
 20
-128.9085828670784
 30
0.0
 10
113.5751518813284
 20
-128.7561373918561
 30
0.0
 10
113.3426079360741
 20
-128.7561373918561
 30
0.0
 10
113.08663734152
 20
-128.7561373918561
 30
0.0
 10
113.0167019031694
 20
-128.9361436309604
 30
0.0
 10
113.0167019031694
 20
-129.0567219729442
 30
0.0
 10
113.0167019031694
 20
-129.0884168514085
 30
0.0
 10
113.0167019031694
 20
-129.2300102758522
 30
0.0
 10
113.1458929838663
 20
-129.3188937393717
 30
0.0
 10
113.1458929838663
 20
-129.3188937393717
 30
0.0
 10
113.1269449586974
 20
-129.4945936091194
 30
0.0
 10
113.1269449586974
 20
-129.4945936091194
 30
0.0
 10
113.1269449586974
 20
-129.4945936091194
 30
0.0
 10
112.2804849979716
 20
-129.3740152671357
 30
0.0
 10
112.2804849979716
 20
-129.3740152671357
 30
0.0
 10
112.2804849979716
 20
-129.3740152671357
 30
0.0
 10
112.2804849979716
 20
-128.5954236874692
 30
0.0
 10
112.2804849979716
 20
-128.5954236874692
 30
0.0
 10
112.2804849979716
 20
-128.5954236874692
 30
0.0
 10
112.4751328928882
 20
-128.5954236874692
 30
0.0
 10
112.4751328928882
 20
-128.5954236874692
 30
0.0
 10
112.4751328928882
 20
-128.5954236874692
 30
0.0
 10
112.4751328928882
 20
-129.2110622506833
 30
0.0
 10
112.4751328928882
 20
-129.2110622506833
 30
0.0
 10
112.4751328928882
 20
-129.2110622506833
 30
0.0
 10
112.8981906184768
 20
-129.2765190649031
 30
0.0
 10
112.8981906184768
 20
-129.2765190649031
 30
0.0
 10
112.8644286827214
 20
-129.2151963652657
 30
0.0
 10
112.824121065544
 20
-129.1328585831682
 30
0.0
 10
112.824121065544
 20
-129.0143472984756
 30
0.0
 10
112.824121065544
 20
-128.7604437612127
 30
0.0
 10
113.010500731296
 20
-128.5234211918275
 30
0.0
 10
113.3236599109052
 20
-128.5234211918275
 30
0.0
 10
113.6409532050967
 20
-128.5234211918275
 30
0.0
 10
113.8755642076422
 20
-128.7476969079173
 30
0.0
 10
113.8755642076422
 20
-129.0501762915222
 30
0.0
  0
HATCH
  5
EE
330
E7
100
AcDbEntity
  8
_U+30EC_U+30A4_U+30E4_U+30FC 1
 62
   179
420
  2234388
100
AcDbHatch
 10
0.0
 20
0.0
 30
0.0
210
0.0
220
0.0
230
1.0
  2
SOLID
 70
     1
 71
     0
 91
        1
 92
        1
 93
        1
 72
     4
 94
        3
 73
     0
 74
     1
 95
       53
 96
       49
 40
0.0
 40
0.0
 40
0.0
 40
0.0
 40
1.0
 40
1.0
 40
1.0
 40
2.0
 40
2.0
 40
2.0
 40
3.0
 40
3.0
 40
3.0
 40
4.0
 40
4.0
 40
4.0
 40
5.0
 40
5.0
 40
5.0
 40
6.0
 40
6.0
 40
6.0
 40
7.0
 40
7.0
 40
7.0
 40
8.0
 40
8.0
 40
8.0
 40
9.0
 40
9.0
 40
9.0
 40
10.0
 40
10.0
 40
10.0
 40
11.0
 40
11.0
 40
11.0
 40
12.0
 40
12.0
 40
12.0
 40
13.0
 40
13.0
 40
13.0
 40
14.0
 40
14.0
 40
14.0
 40
15.0
 40
15.0
 40
15.0
 40
16.0
 40
16.0
 40
16.0
 40
16.0
 10
113.8755642076422
 20
-129.0501762915222
 10
113.8755642076422
 20
-129.1287244685859
 10
113.8586832397645
 20
-129.2300102758522
 10
113.7952934828359
 20
-129.3316405926671
 10
113.6853949368564
 20
-129.5052734051237
 10
113.5541367988684
 20
-129.5262884875837
 10
113.4463053101801
 20
-129.5452365127526
 10
113.4463053101801
 20
-129.5452365127526
 10
113.4463053101801
 20
-129.3233723635025
 10
113.4463053101801
 20
-129.3233723635025
 10
113.645087319679
 20
-129.2682508357385
 10
113.6747151408522
 20
-129.1411268123328
 10
113.6747151408522
 20
-129.048109234231
 10
113.6747151408522
 20
-128.9085828670784
 10
113.5751518813284
 20
-128.7561373918561
 10
113.3426079360741
 20
-128.7561373918561
 10
113.08663734152
 20
-128.7561373918561
 10
113.0167019031694
 20
-128.9361436309604
 10
113.0167019031694
 20
-129.0567219729442
 10
113.0167019031694
 20
-129.0884168514085
 10
113.0167019031694
 20
-129.2300102758522
 10
113.1458929838663
 20
-129.3188937393717
 10
113.1458929838663
 20
-129.3188937393717
 10
113.1269449586974
 20
-129.4945936091194
 10
113.1269449586974
 20
-129.4945936091194
 10
113.1269449586974
 20
-129.4945936091194
 10
112.2804849979716
 20
-129.3740152671357
 10
112.2804849979716
 20
-129.3740152671357
 10
112.2804849979716
 20
-129.3740152671357
 10
112.2804849979716
 20
-128.5954236874692
 10
112.2804849979716
 20
-128.5954236874692
 10
112.2804849979716
 20
-128.5954236874692
 10
112.4751328928882
 20
-128.5954236874692
 10
112.4751328928882
 20
-128.5954236874692
 10
112.4751328928882
 20
-128.5954236874692
 10
112.4751328928882
 20
-129.2110622506833
 10
112.4751328928882
 20
-129.2110622506833
 10
112.4751328928882
 20
-129.2110622506833
 10
112.8981906184768
 20
-129.2765190649031
 10
112.8981906184768
 20
-129.2765190649031
 10
112.8644286827214
 20
-129.2151963652657
 10
112.824121065544
 20
-129.1328585831682
 10
112.824121065544
 20
-129.0143472984756
 10
112.824121065544
 20
-128.7604437612127
 10
113.010500731296
 20
-128.5234211918275
 10
113.3236599109052
 20
-128.5234211918275
 10
113.6409532050967
 20
-128.5234211918275
 10
113.8755642076422
 20
-128.7476969079173
 10
113.8755642076422
 20
-129.0501762915222
 97
        0
 97
        0
 75
     2
 76
     1
 98
        0
  0
POLYLINE
  5
EF
330
E7
100
AcDbEntity
  8
_U+30EC_U+30A4_U+30E4_U+30FC 1
370
     0
100
AcDb2dPolyline
 66
     1
 10
0.0
 20
0.0
 30
0.0
  0
VERTEX
  5
F0
330
EF
100
AcDbEntity
  8
_U+30EC_U+30A4_U+30E4_U+30FC 1
370
     0
100
AcDbVertex
100
AcDb2dVertex
 10
113.8249213040091
 20
-128.2943223420584
 30
0.0
  0
VERTEX
  5
F1
330
EF
100
AcDbEntity
  8
_U+30EC_U+30A4_U+30E4_U+30FC 1
370
     0
100
AcDbVertex
100
AcDb2dVertex
 10
113.5730848240373
 20
-128.2943223420584
 30
0.0
  0
VERTEX
  5
F2
330
EF
100
AcDbEntity
  8
_U+30EC_U+30A4_U+30E4_U+30FC 1
370
     0
100
AcDbVertex
100
AcDb2dVertex
 10
113.5730848240373
 20
-128.0426581168609
 30
0.0
  0
VERTEX
  5
F3
330
EF
100
AcDbEntity
  8
_U+30EC_U+30A4_U+30E4_U+30FC 1
370
     0
100
AcDbVertex
100
AcDb2dVertex
 10
113.8249213040091
 20
-128.0426581168609
 30
0.0
  0
VERTEX
  5
F4
330
EF
100
AcDbEntity
  8
_U+30EC_U+30A4_U+30E4_U+30FC 1
370
     0
100
AcDbVertex
100
AcDb2dVertex
 10
113.8249213040091
 20
-128.2943223420584
 30
0.0
  0
SEQEND
  5
F5
330
EF
100
AcDbEntity
  8
_U+30EC_U+30A4_U+30E4_U+30FC 1
370
     0
  0
HATCH
  5
F6
330
E7
100
AcDbEntity
  8
_U+30EC_U+30A4_U+30E4_U+30FC 1
 62
   179
420
  2234388
100
AcDbHatch
 10
0.0
 20
0.0
 30
0.0
210
0.0
220
0.0
230
1.0
  2
SOLID
 70
     1
 71
     0
 91
        1
 92
        1
 93
        4
 72
     1
 10
113.8249213040091
 20
-128.2943223420584
 11
113.5730848240373
 21
-128.2943223420584
 72
     1
 10
113.5730848240373
 20
-128.2943223420584
 11
113.5730848240373
 21
-128.0426581168609
 72
     1
 10
113.5730848240373
 20
-128.0426581168609
 11
113.8249213040091
 21
-128.0426581168609
 72
     1
 10
113.8249213040091
 20
-128.0426581168609
 11
113.8249213040091
 21
-128.2943223420584
 97
        0
 75
     2
 76
     1
 98
        0
  0
SPLINE
  5
F7
330
E7
100
AcDbEntity
  8
_U+30EC_U+30A4_U+30E4_U+30FC 1
370
     0
100
AcDbSpline
210
0.0
220
0.0
230
1.0
 70
    11
 71
     3
 72
    53
 73
    49
 74
     0
 42
0.0000000001
 43
0.0000000001
 12
1.0
 22
0.0
 32
0.0
 13
1.0
 23
0.0
 33
0.0
 40
0.0
 40
0.0
 40
0.0
 40
0.0
 40
1.0
 40
1.0
 40
1.0
 40
2.0
 40
2.0
 40
2.0
 40
3.0
 40
3.0
 40
3.0
 40
4.0
 40
4.0
 40
4.0
 40
5.0
 40
5.0
 40
5.0
 40
6.0
 40
6.0
 40
6.0
 40
7.0
 40
7.0
 40
7.0
 40
8.0
 40
8.0
 40
8.0
 40
9.0
 40
9.0
 40
9.0
 40
10.0
 40
10.0
 40
10.0
 40
11.0
 40
11.0
 40
11.0
 40
12.0
 40
12.0
 40
12.0
 40
13.0
 40
13.0
 40
13.0
 40
14.0
 40
14.0
 40
14.0
 40
15.0
 40
15.0
 40
15.0
 40
16.0
 40
16.0
 40
16.0
 40
16.0
 10
113.8755642076422
 20
-127.3252169820576
 30
0.0
 10
113.8755642076422
 20
-127.403592904347
 30
0.0
 10
113.8586832397645
 20
-127.5050509663876
 30
0.0
 10
113.7952934828359
 20
-127.6066812832025
 30
0.0
 10
113.6853949368564
 20
-127.7801418408848
 30
0.0
 10
113.5541367988684
 20
-127.8013291781191
 30
0.0
 10
113.4463053101801
 20
-127.820277203288
 30
0.0
 10
113.4463053101801
 20
-127.820277203288
 30
0.0
 10
113.4463053101801
 20
-127.5982407992636
 30
0.0
 10
113.4463053101801
 20
-127.5982407992636
 30
0.0
 10
113.645087319679
 20
-127.5431192714996
 30
0.0
 10
113.6747151408522
 20
-127.4161675028682
 30
0.0
 10
113.6747151408522
 20
-127.3231499247664
 30
0.0
 10
113.6747151408522
 20
-127.1834513028396
 30
0.0
 10
113.5751518813284
 20
-127.0311780823915
 30
0.0
 10
113.3426079360741
 20
-127.0311780823915
 30
0.0
 10
113.08663734152
 20
-127.0311780823915
 30
0.0
 10
113.0167019031694
 20
-127.2110120667216
 30
0.0
 10
113.0167019031694
 20
-127.3315904087053
 30
0.0
 10
113.0167019031694
 20
-127.3632852871696
 30
0.0
 10
113.0167019031694
 20
-127.5050509663876
 30
0.0
 10
113.1458929838663
 20
-127.5939344299071
 30
0.0
 10
113.1458929838663
 20
-127.5939344299071
 30
0.0
 10
113.1269449586974
 20
-127.7694620448806
 30
0.0
 10
113.1269449586974
 20
-127.7694620448806
 30
0.0
 10
113.1269449586974
 20
-127.7694620448806
 30
0.0
 10
112.2804849979716
 20
-127.6488837028968
 30
0.0
 10
112.2804849979716
 20
-127.6488837028968
 30
0.0
 10
112.2804849979716
 20
-127.6488837028968
 30
0.0
 10
112.2804849979716
 20
-126.8704643780046
 30
0.0
 10
112.2804849979716
 20
-126.8704643780046
 30
0.0
 10
112.2804849979716
 20
-126.8704643780046
 30
0.0
 10
112.4751328928882
 20
-126.8704643780046
 30
0.0
 10
112.4751328928882
 20
-126.8704643780046
 30
0.0
 10
112.4751328928882
 20
-126.8704643780046
 30
0.0
 10
112.4751328928882
 20
-127.4861029412188
 30
0.0
 10
112.4751328928882
 20
-127.4861029412188
 30
0.0
 10
112.4751328928882
 20
-127.4861029412188
 30
0.0
 10
112.8981906184768
 20
-127.5515597554385
 30
0.0
 10
112.8981906184768
 20
-127.5515597554385
 30
0.0
 10
112.8644286827214
 20
-127.4902370558011
 30
0.0
 10
112.824121065544
 20
-127.4077270189293
 30
0.0
 10
112.824121065544
 20
-127.289387989011
 30
0.0
 10
112.824121065544
 20
-127.0354844517481
 30
0.0
 10
113.010500731296
 20
-126.7984618823629
 30
0.0
 10
113.3236599109052
 20
-126.7984618823629
 30
0.0
 10
113.6409532050967
 20
-126.7984618823629
 30
0.0
 10
113.8755642076422
 20
-127.0227375984527
 30
0.0
 10
113.8755642076422
 20
-127.3252169820576
 30
0.0
  0
HATCH
  5
F8
330
E7
100
AcDbEntity
  8
_U+30EC_U+30A4_U+30E4_U+30FC 1
 62
   179
420
  2234388
100
AcDbHatch
 10
0.0
 20
0.0
 30
0.0
210
0.0
220
0.0
230
1.0
  2
SOLID
 70
     1
 71
     0
 91
        1
 92
        1
 93
        1
 72
     4
 94
        3
 73
     0
 74
     1
 95
       53
 96
       49
 40
0.0
 40
0.0
 40
0.0
 40
0.0
 40
1.0
 40
1.0
 40
1.0
 40
2.0
 40
2.0
 40
2.0
 40
3.0
 40
3.0
 40
3.0
 40
4.0
 40
4.0
 40
4.0
 40
5.0
 40
5.0
 40
5.0
 40
6.0
 40
6.0
 40
6.0
 40
7.0
 40
7.0
 40
7.0
 40
8.0
 40
8.0
 40
8.0
 40
9.0
 40
9.0
 40
9.0
 40
10.0
 40
10.0
 40
10.0
 40
11.0
 40
11.0
 40
11.0
 40
12.0
 40
12.0
 40
12.0
 40
13.0
 40
13.0
 40
13.0
 40
14.0
 40
14.0
 40
14.0
 40
15.0
 40
15.0
 40
15.0
 40
16.0
 40
16.0
 40
16.0
 40
16.0
 10
113.8755642076422
 20
-127.3252169820576
 10
113.8755642076422
 20
-127.403592904347
 10
113.8586832397645
 20
-127.5050509663876
 10
113.7952934828359
 20
-127.6066812832025
 10
113.6853949368564
 20
-127.7801418408848
 10
113.5541367988684
 20
-127.8013291781191
 10
113.4463053101801
 20
-127.820277203288
 10
113.4463053101801
 20
-127.820277203288
 10
113.4463053101801
 20
-127.5982407992636
 10
113.4463053101801
 20
-127.5982407992636
 10
113.645087319679
 20
-127.5431192714996
 10
113.6747151408522
 20
-127.4161675028682
 10
113.6747151408522
 20
-127.3231499247664
 10
113.6747151408522
 20
-127.1834513028396
 10
113.5751518813284
 20
-127.0311780823915
 10
113.3426079360741
 20
-127.0311780823915
 10
113.08663734152
 20
-127.0311780823915
 10
113.0167019031694
 20
-127.2110120667216
 10
113.0167019031694
 20
-127.3315904087053
 10
113.0167019031694
 20
-127.3632852871696
 10
113.0167019031694
 20
-127.5050509663876
 10
113.1458929838663
 20
-127.5939344299071
 10
113.1458929838663
 20
-127.5939344299071
 10
113.1269449586974
 20
-127.7694620448806
 10
113.1269449586974
 20
-127.7694620448806
 10
113.1269449586974
 20
-127.7694620448806
 10
112.2804849979716
 20
-127.6488837028968
 10
112.2804849979716
 20
-127.6488837028968
 10
112.2804849979716
 20
-127.6488837028968
 10
112.2804849979716
 20
-126.8704643780046
 10
112.2804849979716
 20
-126.8704643780046
 10
112.2804849979716
 20
-126.8704643780046
 10
112.4751328928882
 20
-126.8704643780046
 10
112.4751328928882
 20
-126.8704643780046
 10
112.4751328928882
 20
-126.8704643780046
 10
112.4751328928882
 20
-127.4861029412188
 10
112.4751328928882
 20
-127.4861029412188
 10
112.4751328928882
 20
-127.4861029412188
 10
112.8981906184768
 20
-127.5515597554385
 10
112.8981906184768
 20
-127.5515597554385
 10
112.8644286827214
 20
-127.4902370558011
 10
112.824121065544
 20
-127.4077270189293
 10
112.824121065544
 20
-127.289387989011
 10
112.824121065544
 20
-127.0354844517481
 10
113.010500731296
 20
-126.7984618823629
 10
113.3236599109052
 20
-126.7984618823629
 10
113.6409532050967
 20
-126.7984618823629
 10
113.8755642076422
 20
-127.0227375984527
 10
113.8755642076422
 20
-127.3252169820576
 97
        0
 97
        0
 75
     2
 76
     1
 98
        0
  0
ENDBLK
  5
EA
330
E7
100
AcDbEntity
  8
0
100
AcDbBlockEnd
  0
BLOCK
  5
107
330
105
100
AcDbEntity
  8
0
100
AcDbBlockBegin
  2
block 5
 70
     0
 10
0.0
 20
0.0
 30
0.0
  3
block 5
  1

  0
SPLINE
  5
109
330
105
100
AcDbEntity
  8
_U+30EC_U+30A4_U+30E4_U+30FC 1
370
     0
100
AcDbSpline
210
0.0
220
0.0
230
1.0
 70
    11
 71
     3
 72
    26
 73
    22
 74
     0
 42
0.0000000001
 43
0.0000000001
 12
1.0
 22
0.0
 32
0.0
 13
1.0
 23
0.0
 33
0.0
 40
0.0
 40
0.0
 40
0.0
 40
0.0
 40
1.0
 40
1.0
 40
1.0
 40
2.0
 40
2.0
 40
2.0
 40
3.0
 40
3.0
 40
3.0
 40
4.0
 40
4.0
 40
4.0
 40
5.0
 40
5.0
 40
5.0
 40
6.0
 40
6.0
 40
6.0
 40
7.0
 40
7.0
 40
7.0
 40
7.0
 10
113.8249213040091
 20
-113.8497259915029
 30
0.0
 10
113.8249213040091
 20
-113.8497259915029
 30
0.0
 10
112.7207682009865
 20
-113.8497259915029
 30
0.0
 10
112.7207682009865
 20
-113.8497259915029
 30
0.0
 10
112.7207682009865
 20
-113.8497259915029
 30
0.0
 10
112.7207682009865
 20
-114.1797661389898
 30
0.0
 10
112.7207682009865
 20
-114.1797661389898
 30
0.0
 10
112.7207682009865
 20
-114.1797661389898
 30
0.0
 10
112.5726290951207
 20
-114.1797661389898
 30
0.0
 10
112.5726290951207
 20
-114.1797661389898
 30
0.0
 10
112.5578151845342
 20
-113.8476589342117
 30
0.0
 10
112.3948621680818
 20
-113.8011501451608
 30
0.0
 10
112.2804849979716
 20
-113.7715223239877
 30
0.0
 10
112.2804849979716
 20
-113.7715223239877
 30
0.0
 10
112.2804849979716
 20
-113.6254502754131
 30
0.0
 10
112.2804849979716
 20
-113.6254502754131
 30
0.0
 10
112.2804849979716
 20
-113.6254502754131
 30
0.0
 10
113.8249213040091
 20
-113.6254502754131
 30
0.0
 10
113.8249213040091
 20
-113.6254502754131
 30
0.0
 10
113.8249213040091
 20
-113.6254502754131
 30
0.0
 10
113.8249213040091
 20
-113.8497259915029
 30
0.0
 10
113.8249213040091
 20
-113.8497259915029
 30
0.0
  0
HATCH
  5
10A
330
105
100
AcDbEntity
  8
_U+30EC_U+30A4_U+30E4_U+30FC 1
 62
   179
420
  2234388
100
AcDbHatch
 10
0.0
 20
0.0
 30
0.0
210
0.0
220
0.0
230
1.0
  2
SOLID
 70
     1
 71
     0
 91
        1
 92
        1
 93
        1
 72
     4
 94
        3
 73
     0
 74
     1
 95
       26
 96
       22
 40
0.0
 40
0.0
 40
0.0
 40
0.0
 40
1.0
 40
1.0
 40
1.0
 40
2.0
 40
2.0
 40
2.0
 40
3.0
 40
3.0
 40
3.0
 40
4.0
 40
4.0
 40
4.0
 40
5.0
 40
5.0
 40
5.0
 40
6.0
 40
6.0
 40
6.0
 40
7.0
 40
7.0
 40
7.0
 40
7.0
 10
113.8249213040091
 20
-113.8497259915029
 10
113.8249213040091
 20
-113.8497259915029
 10
112.7207682009865
 20
-113.8497259915029
 10
112.7207682009865
 20
-113.8497259915029
 10
112.7207682009865
 20
-113.8497259915029
 10
112.7207682009865
 20
-114.1797661389898
 10
112.7207682009865
 20
-114.1797661389898
 10
112.7207682009865
 20
-114.1797661389898
 10
112.5726290951207
 20
-114.1797661389898
 10
112.5726290951207
 20
-114.1797661389898
 10
112.5578151845342
 20
-113.8476589342117
 10
112.3948621680818
 20
-113.8011501451608
 10
112.2804849979716
 20
-113.7715223239877
 10
112.2804849979716
 20
-113.7715223239877
 10
112.2804849979716
 20
-113.6254502754131
 10
112.2804849979716
 20
-113.6254502754131
 10
112.2804849979716
 20
-113.6254502754131
 10
113.8249213040091
 20
-113.6254502754131
 10
113.8249213040091
 20
-113.6254502754131
 10
113.8249213040091
 20
-113.6254502754131
 10
113.8249213040091
 20
-113.8497259915029
 10
113.8249213040091
 20
-113.8497259915029
 97
        0
 97
        0
 75
     2
 76
     1
 98
        0
  0
POLYLINE
  5
10B
330
105
100
AcDbEntity
  8
_U+30EC_U+30A4_U+30E4_U+30FC 1
370
     0
100
AcDb2dPolyline
 66
     1
 10
0.0
 20
0.0
 30
0.0
  0
VERTEX
  5
10C
330
10B
100
AcDbEntity
  8
_U+30EC_U+30A4_U+30E4_U+30FC 1
370
     0
100
AcDbVertex
100
AcDb2dVertex
 10
113.8249213040091
 20
-113.0642442208659
 30
0.0
  0
VERTEX
  5
10D
330
10B
100
AcDbEntity
  8
_U+30EC_U+30A4_U+30E4_U+30FC 1
370
     0
100
AcDbVertex
100
AcDb2dVertex
 10
113.5730848240373
 20
-113.0642442208659
 30
0.0
  0
VERTEX
  5
10E
330
10B
100
AcDbEntity
  8
_U+30EC_U+30A4_U+30E4_U+30FC 1
370
     0
100
AcDbVertex
100
AcDb2dVertex
 10
113.5730848240373
 20
-112.8125799956684
 30
0.0
  0
VERTEX
  5
10F
330
10B
100
AcDbEntity
  8
_U+30EC_U+30A4_U+30E4_U+30FC 1
370
     0
100
AcDbVertex
100
AcDb2dVertex
 10
113.8249213040091
 20
-112.8125799956684
 30
0.0
  0
VERTEX
  5
110
330
10B
100
AcDbEntity
  8
_U+30EC_U+30A4_U+30E4_U+30FC 1
370
     0
100
AcDbVertex
100
AcDb2dVertex
 10
113.8249213040091
 20
-113.0642442208659
 30
0.0
  0
SEQEND
  5
111
330
10B
100
AcDbEntity
  8
_U+30EC_U+30A4_U+30E4_U+30FC 1
370
     0
  0
HATCH
  5
112
330
105
100
AcDbEntity
  8
_U+30EC_U+30A4_U+30E4_U+30FC 1
 62
   179
420
  2234388
100
AcDbHatch
 10
0.0
 20
0.0
 30
0.0
210
0.0
220
0.0
230
1.0
  2
SOLID
 70
     1
 71
     0
 91
        1
 92
        1
 93
        4
 72
     1
 10
113.8249213040091
 20
-113.0642442208659
 11
113.5730848240373
 21
-113.0642442208659
 72
     1
 10
113.5730848240373
 20
-113.0642442208659
 11
113.5730848240373
 21
-112.8125799956684
 72
     1
 10
113.5730848240373
 20
-112.8125799956684
 11
113.8249213040091
 21
-112.8125799956684
 72
     1
 10
113.8249213040091
 20
-112.8125799956684
 11
113.8249213040091
 21
-113.0642442208659
 97
        0
 75
     2
 76
     1
 98
        0
  0
SPLINE
  5
113
330
105
100
AcDbEntity
  8
_U+30EC_U+30A4_U+30E4_U+30FC 1
370
     0
100
AcDbSpline
210
0.0
220
0.0
230
1.0
 70
    11
 71
     3
 72
    53
 73
    49
 74
     0
 42
0.0000000001
 43
0.0000000001
 12
1.0
 22
0.0
 32
0.0
 13
1.0
 23
0.0
 33
0.0
 40
0.0
 40
0.0
 40
0.0
 40
0.0
 40
1.0
 40
1.0
 40
1.0
 40
2.0
 40
2.0
 40
2.0
 40
3.0
 40
3.0
 40
3.0
 40
4.0
 40
4.0
 40
4.0
 40
5.0
 40
5.0
 40
5.0
 40
6.0
 40
6.0
 40
6.0
 40
7.0
 40
7.0
 40
7.0
 40
8.0
 40
8.0
 40
8.0
 40
9.0
 40
9.0
 40
9.0
 40
10.0
 40
10.0
 40
10.0
 40
11.0
 40
11.0
 40
11.0
 40
12.0
 40
12.0
 40
12.0
 40
13.0
 40
13.0
 40
13.0
 40
14.0
 40
14.0
 40
14.0
 40
15.0
 40
15.0
 40
15.0
 40
16.0
 40
16.0
 40
16.0
 40
16.0
 10
113.8755642076422
 20
-112.0951388608651
 30
0.0
 10
113.8755642076422
 20
-112.1735147831545
 30
0.0
 10
113.8586832397645
 20
-112.2749728451952
 30
0.0
 10
113.7952934828359
 20
-112.37660316201
 30
0.0
 10
113.6853949368564
 20
-112.5500637196923
 30
0.0
 10
113.5541367988684
 20
-112.5712510569266
 30
0.0
 10
113.4463053101801
 20
-112.5901990820955
 30
0.0
 10
113.4463053101801
 20
-112.5901990820955
 30
0.0
 10
113.4463053101801
 20
-112.3681626780712
 30
0.0
 10
113.4463053101801
 20
-112.3681626780712
 30
0.0
 10
113.645087319679
 20
-112.3130411503072
 30
0.0
 10
113.6747151408522
 20
-112.1860893816757
 30
0.0
 10
113.6747151408522
 20
-112.093071803574
 30
0.0
 10
113.6747151408522
 20
-111.9535454364213
 30
0.0
 10
113.5751518813284
 20
-111.801099961199
 30
0.0
 10
113.3426079360741
 20
-111.801099961199
 30
0.0
 10
113.08663734152
 20
-111.801099961199
 30
0.0
 10
113.0167019031694
 20
-111.9809339455291
 30
0.0
 10
113.0167019031694
 20
-112.1015122875128
 30
0.0
 10
113.0167019031694
 20
-112.1332071659771
 30
0.0
 10
113.0167019031694
 20
-112.2749728451952
 30
0.0
 10
113.1458929838663
 20
-112.3638563087146
 30
0.0
 10
113.1458929838663
 20
-112.3638563087146
 30
0.0
 10
113.1269449586974
 20
-112.5393839236881
 30
0.0
 10
113.1269449586974
 20
-112.5393839236881
 30
0.0
 10
113.1269449586974
 20
-112.5393839236881
 30
0.0
 10
112.2804849979716
 20
-112.4188055817043
 30
0.0
 10
112.2804849979716
 20
-112.4188055817043
 30
0.0
 10
112.2804849979716
 20
-112.4188055817043
 30
0.0
 10
112.2804849979716
 20
-111.6403862568121
 30
0.0
 10
112.2804849979716
 20
-111.6403862568121
 30
0.0
 10
112.2804849979716
 20
-111.6403862568121
 30
0.0
 10
112.4751328928882
 20
-111.6403862568121
 30
0.0
 10
112.4751328928882
 20
-111.6403862568121
 30
0.0
 10
112.4751328928882
 20
-111.6403862568121
 30
0.0
 10
112.4751328928882
 20
-112.2560248200263
 30
0.0
 10
112.4751328928882
 20
-112.2560248200263
 30
0.0
 10
112.4751328928882
 20
-112.2560248200263
 30
0.0
 10
112.8981906184768
 20
-112.321481634246
 30
0.0
 10
112.8981906184768
 20
-112.321481634246
 30
0.0
 10
112.8644286827214
 20
-112.2601589346086
 30
0.0
 10
112.824121065544
 20
-112.1776488977368
 30
0.0
 10
112.824121065544
 20
-112.0593098678185
 30
0.0
 10
112.824121065544
 20
-111.8054063305556
 30
0.0
 10
113.010500731296
 20
-111.5683837611704
 30
0.0
 10
113.3236599109052
 20
-111.5683837611704
 30
0.0
 10
113.6409532050967
 20
-111.5683837611704
 30
0.0
 10
113.8755642076422
 20
-111.7926594772602
 30
0.0
 10
113.8755642076422
 20
-112.0951388608651
 30
0.0
  0
HATCH
  5
114
330
105
100
AcDbEntity
  8
_U+30EC_U+30A4_U+30E4_U+30FC 1
 62
   179
420
  2234388
100
AcDbHatch
 10
0.0
 20
0.0
 30
0.0
210
0.0
220
0.0
230
1.0
  2
SOLID
 70
     1
 71
     0
 91
        1
 92
        1
 93
        1
 72
     4
 94
        3
 73
     0
 74
     1
 95
       53
 96
       49
 40
0.0
 40
0.0
 40
0.0
 40
0.0
 40
1.0
 40
1.0
 40
1.0
 40
2.0
 40
2.0
 40
2.0
 40
3.0
 40
3.0
 40
3.0
 40
4.0
 40
4.0
 40
4.0
 40
5.0
 40
5.0
 40
5.0
 40
6.0
 40
6.0
 40
6.0
 40
7.0
 40
7.0
 40
7.0
 40
8.0
 40
8.0
 40
8.0
 40
9.0
 40
9.0
 40
9.0
 40
10.0
 40
10.0
 40
10.0
 40
11.0
 40
11.0
 40
11.0
 40
12.0
 40
12.0
 40
12.0
 40
13.0
 40
13.0
 40
13.0
 40
14.0
 40
14.0
 40
14.0
 40
15.0
 40
15.0
 40
15.0
 40
16.0
 40
16.0
 40
16.0
 40
16.0
 10
113.8755642076422
 20
-112.0951388608651
 10
113.8755642076422
 20
-112.1735147831545
 10
113.8586832397645
 20
-112.2749728451952
 10
113.7952934828359
 20
-112.37660316201
 10
113.6853949368564
 20
-112.5500637196923
 10
113.5541367988684
 20
-112.5712510569266
 10
113.4463053101801
 20
-112.5901990820955
 10
113.4463053101801
 20
-112.5901990820955
 10
113.4463053101801
 20
-112.3681626780712
 10
113.4463053101801
 20
-112.3681626780712
 10
113.645087319679
 20
-112.3130411503072
 10
113.6747151408522
 20
-112.1860893816757
 10
113.6747151408522
 20
-112.093071803574
 10
113.6747151408522
 20
-111.9535454364213
 10
113.5751518813284
 20
-111.801099961199
 10
113.3426079360741
 20
-111.801099961199
 10
113.08663734152
 20
-111.801099961199
 10
113.0167019031694
 20
-111.9809339455291
 10
113.0167019031694
 20
-112.1015122875128
 10
113.0167019031694
 20
-112.1332071659771
 10
113.0167019031694
 20
-112.2749728451952
 10
113.1458929838663
 20
-112.3638563087146
 10
113.1458929838663
 20
-112.3638563087146
 10
113.1269449586974
 20
-112.5393839236881
 10
113.1269449586974
 20
-112.5393839236881
 10
113.1269449586974
 20
-112.5393839236881
 10
112.2804849979716
 20
-112.4188055817043
 10
112.2804849979716
 20
-112.4188055817043
 10
112.2804849979716
 20
-112.4188055817043
 10
112.2804849979716
 20
-111.6403862568121
 10
112.2804849979716
 20
-111.6403862568121
 10
112.2804849979716
 20
-111.6403862568121
 10
112.4751328928882
 20
-111.6403862568121
 10
112.4751328928882
 20
-111.6403862568121
 10
112.4751328928882
 20
-111.6403862568121
 10
112.4751328928882
 20
-112.2560248200263
 10
112.4751328928882
 20
-112.2560248200263
 10
112.4751328928882
 20
-112.2560248200263
 10
112.8981906184768
 20
-112.321481634246
 10
112.8981906184768
 20
-112.321481634246
 10
112.8644286827214
 20
-112.2601589346086
 10
112.824121065544
 20
-112.1776488977368
 10
112.824121065544
 20
-112.0593098678185
 10
112.824121065544
 20
-111.8054063305556
 10
113.010500731296
 20
-111.5683837611704
 10
113.3236599109052
 20
-111.5683837611704
 10
113.6409532050967
 20
-111.5683837611704
 10
113.8755642076422
 20
-111.7926594772602
 10
113.8755642076422
 20
-112.0951388608651
 97
        0
 97
        0
 75
     2
 76
     1
 98
        0
  0
ENDBLK
  5
108
330
105
100
AcDbEntity
  8
0
100
AcDbBlockEnd
  0
ENDSEC
  0
SECTION
  2
ENTITIES
  0
POLYLINE
  5
41
330
1F
100
AcDbEntity
  8
_U+30EC_U+30A4_U+30E4_U+30FC 1
 62
   179
420
  2234388
370
     9
100
AcDb2dPolyline
 66
     1
 10
0.0
 20
0.0
 30
0.0
  0
VERTEX
  5
42
330
41
100
AcDbEntity
  8
_U+30EC_U+30A4_U+30E4_U+30FC 1
 62
   179
420
  2234388
370
     9
100
AcDbVertex
100
AcDb2dVertex
 10
68.76876963445142
 20
-137.6026302433773
 30
0.0
  0
VERTEX
  5
43
330
41
100
AcDbEntity
  8
_U+30EC_U+30A4_U+30E4_U+30FC 1
 62
   179
420
  2234388
370
     9
100
AcDbVertex
100
AcDb2dVertex
 10
77.8879338462466
 20
-137.6026302433773
 30
0.0
  0
SEQEND
  5
44
330
41
100
AcDbEntity
  8
_U+30EC_U+30A4_U+30E4_U+30FC 1
 62
   179
420
  2234388
370
     9
  0
POLYLINE
  5
45
330
1F
100
AcDbEntity
  8
_U+30EC_U+30A4_U+30E4_U+30FC 1
 62
   179
420
  2234388
370
     9
100
AcDb2dPolyline
 66
     1
 10
0.0
 20
0.0
 30
0.0
  0
VERTEX
  5
46
330
45
100
AcDbEntity
  8
_U+30EC_U+30A4_U+30E4_U+30FC 1
 62
   179
420
  2234388
370
     9
100
AcDbVertex
100
AcDb2dVertex
 10
77.8879338462466
 20
-137.6026302433773
 30
0.0
  0
VERTEX
  5
47
330
45
100
AcDbEntity
  8
_U+30EC_U+30A4_U+30E4_U+30FC 1
 62
   179
420
  2234388
370
     9
100
AcDbVertex
100
AcDb2dVertex
 10
79.48506664679537
 20
-140.3683374649081
 30
0.0
  0
SEQEND
  5
48
330
45
100
AcDbEntity
  8
_U+30EC_U+30A4_U+30E4_U+30FC 1
 62
   179
420
  2234388
370
     9
  0
POLYLINE
  5
49
330
1F
100
AcDbEntity
  8
_U+30EC_U+30A4_U+30E4_U+30FC 1
 62
   179
420
  2234388
370
     9
100
AcDb2dPolyline
 66
     1
 10
0.0
 20
0.0
 30
0.0
  0
VERTEX
  5
4A
330
49
100
AcDbEntity
  8
_U+30EC_U+30A4_U+30E4_U+30FC 1
 62
   179
420
  2234388
370
     9
100
AcDbVertex
100
AcDb2dVertex
 10
78.77883882351772
 20
-139.6621116317509
 30
0.0
  0
VERTEX
  5
4B
330
49
100
AcDbEntity
  8
_U+30EC_U+30A4_U+30E4_U+30FC 1
 62
   179
420
  2234388
370
     9
100
AcDbVertex
100
AcDb2dVertex
 10
79.48506664679537
 20
-140.3683374649081
 30
0.0
  0
SEQEND
  5
4C
330
49
100
AcDbEntity
  8
_U+30EC_U+30A4_U+30E4_U+30FC 1
 62
   179
420
  2234388
370
     9
  0
POLYLINE
  5
4D
330
1F
100
AcDbEntity
  8
_U+30EC_U+30A4_U+30E4_U+30FC 1
 62
   179
420
  2234388
370
     9
100
AcDb2dPolyline
 66
     1
 10
0.0
 20
0.0
 30
0.0
  0
VERTEX
  5
4E
330
4D
100
AcDbEntity
  8
_U+30EC_U+30A4_U+30E4_U+30FC 1
 62
   179
420
  2234388
370
     9
100
AcDbVertex
100
AcDb2dVertex
 10
79.22669020098097
 20
-139.4037371873714
 30
0.0
  0
VERTEX
  5
4F
330
4D
100
AcDbEntity
  8
_U+30EC_U+30A4_U+30E4_U+30FC 1
 62
   179
420
  2234388
370
     9
100
AcDbVertex
100
AcDb2dVertex
 10
79.48506664679537
 20
-140.3683374649081
 30
0.0
  0
SEQEND
  5
50
330
4D
100
AcDbEntity
  8
_U+30EC_U+30A4_U+30E4_U+30FC 1
 62
   179
420
  2234388
370
     9
  0
POLYLINE
  5
51
330
1F
100
AcDbEntity
  8
_U+30EC_U+30A4_U+30E4_U+30FC 1
  6
AI-Linetype-1
 62
   154
420
    23468
370
    25
100
AcDb2dPolyline
 66
     1
 10
0.0
 20
0.0
 30
0.0
  0
VERTEX
  5
52
330
51
100
AcDbEntity
  8
_U+30EC_U+30A4_U+30E4_U+30FC 1
  6
AI-Linetype-1
 62
   154
420
    23468
370
    25
100
AcDbVertex
100
AcDb2dVertex
 10
65.52483693943326
 20
-142.9397699642652
 30
0.0
  0
VERTEX
  5
53
330
51
100
AcDbEntity
  8
_U+30EC_U+30A4_U+30E4_U+30FC 1
  6
AI-Linetype-1
 62
   154
420
    23468
370
    25
100
AcDbVertex
100
AcDb2dVertex
 10
110.4711235705357
 20
-142.9397699642652
 30
0.0
  0
SEQEND
  5
55
330
51
100
AcDbEntity
  8
_U+30EC_U+30A4_U+30E4_U+30FC 1
  6
AI-Linetype-1
 62
   154
420
    23468
370
    25
  0
POLYLINE
  5
56
330
1F
100
AcDbEntity
  8
_U+30EC_U+30A4_U+30E4_U+30FC 1
  6
AI-Linetype-2
 62
   154
420
    23468
370
    25
100
AcDb2dPolyline
 66
     1
 10
0.0
 20
0.0
 30
0.0
  0
VERTEX
  5
57
330
56
100
AcDbEntity
  8
_U+30EC_U+30A4_U+30E4_U+30FC 1
  6
AI-Linetype-2
 62
   154
420
    23468
370
    25
100
AcDbVertex
100
AcDb2dVertex
 10
86.97538333662867
 20
-140.077578020536
 30
0.0
  0
VERTEX
  5
58
330
56
100
AcDbEntity
  8
_U+30EC_U+30A4_U+30E4_U+30FC 1
  6
AI-Linetype-2
 62
   154
420
    23468
370
    25
100
AcDbVertex
100
AcDb2dVertex
 10
65.50141249558642
 20
-140.7927996870241
 30
0.0
  0
SEQEND
  5
5A
330
56
100
AcDbEntity
  8
_U+30EC_U+30A4_U+30E4_U+30FC 1
  6
AI-Linetype-2
 62
   154
420
    23468
370
    25
  0
POLYLINE
  5
5B
330
1F
100
AcDbEntity
  8
_U+30EC_U+30A4_U+30E4_U+30FC 1
  6
AI-Linetype-3
 62
   154
420
    23468
370
    25
100
AcDb2dPolyline
 66
     1
 10
0.0
 20
0.0
 30
0.0
  0
VERTEX
  5
5C
330
5B
100
AcDbEntity
  8
_U+30EC_U+30A4_U+30E4_U+30FC 1
  6
AI-Linetype-3
 62
   154
420
    23468
370
    25
100
AcDbVertex
100
AcDb2dVertex
 10
89.01973050669525
 20
-140.077578020536
 30
0.0
  0
VERTEX
  5
5D
330
5B
100
AcDbEntity
  8
_U+30EC_U+30A4_U+30E4_U+30FC 1
  6
AI-Linetype-3
 62
   154
420
    23468
370
    25
100
AcDbVertex
100
AcDb2dVertex
 10
110.4945480143826
 20
-140.7927996870241
 30
0.0
  0
SEQEND
  5
5F
330
5B
100
AcDbEntity
  8
_U+30EC_U+30A4_U+30E4_U+30FC 1
  6
AI-Linetype-3
 62
   154
420
    23468
370
    25
  0
SPLINE
  5
60
330
1F
100
AcDbEntity
  8
_U+30EC_U+30A4_U+30E4_U+30FC 1
 62
   179
420
  2234388
370
     9
100
AcDbSpline
210
0.0
220
0.0
230
1.0
 70
    11
 71
     3
 72
    17
 73
    13
 74
     0
 42
0.0000000001
 43
0.0000000001
 12
1.0
 22
0.0
 32
0.0
 13
1.0
 23
0.0
 33
0.0
 40
0.0
 40
0.0
 40
0.0
 40
0.0
 40
1.0
 40
1.0
 40
1.0
 40
2.0
 40
2.0
 40
2.0
 40
3.0
 40
3.0
 40
3.0
 40
4.0
 40
4.0
 40
4.0
 40
4.0
 10
110.5710302346536
 20
-146.9354016299328
 30
0.0
 10
110.5710302346536
 20
-146.8802624632797
 30
0.0
 10
110.5262274580188
 20
-146.8354949632911
 30
0.0
 10
110.4711235705357
 20
-146.8354949632911
 30
0.0
 10
110.4159844052758
 20
-146.8354949632911
 30
0.0
 10
110.3712169064179
 20
-146.8802624632797
 30
0.0
 10
110.3712169064179
 20
-146.9354016299328
 30
0.0
 10
110.3712169064179
 20
-146.9905055188077
 30
0.0
 10
110.4159844052758
 20
-147.0353082965744
 30
0.0
 10
110.4711235705357
 20
-147.0353082965744
 30
0.0
 10
110.5262274580188
 20
-147.0353082965744
 30
0.0
 10
110.5710302346536
 20
-146.9905055188077
 30
0.0
 10
110.5710302346536
 20
-146.9354016299328
 30
0.0
  0
SPLINE
  5
61
330
1F
100
AcDbEntity
  8
_U+30EC_U+30A4_U+30E4_U+30FC 1
 62
   179
420
  2234388
370
     9
100
AcDbSpline
210
0.0
220
0.0
230
1.0
 70
    11
 71
     3
 72
    17
 73
    13
 74
     0
 42
0.0000000001
 43
0.0000000001
 12
1.0
 22
0.0
 32
0.0
 13
1.0
 23
0.0
 33
0.0
 40
0.0
 40
0.0
 40
0.0
 40
0.0
 40
1.0
 40
1.0
 40
1.0
 40
2.0
 40
2.0
 40
2.0
 40
3.0
 40
3.0
 40
3.0
 40
4.0
 40
4.0
 40
4.0
 40
4.0
 10
65.62407498359389
 20
-146.9354016299328
 30
0.0
 10
65.62407498359389
 20
-146.8802624632797
 30
0.0
 10
65.5792722058275
 20
-146.8354949632911
 30
0.0
 10
65.52483693943326
 20
-146.8354949632911
 30
0.0
 10
65.46902749641262
 20
-146.8354949632911
 30
0.0
 10
65.42425999755474
 20
-146.8802624632797
 30
0.0
 10
65.42425999755474
 20
-146.9354016299328
 30
0.0
 10
65.42425999755474
 20
-146.9905055188077
 30
0.0
 10
65.46902749641262
 20
-147.0353082965744
 30
0.0
 10
65.52483693943326
 20
-147.0353082965744
 30
0.0
 10
65.5792722058275
 20
-147.0353082965744
 30
0.0
 10
65.62407498359389
 20
-146.9905055188077
 30
0.0
 10
65.62407498359389
 20
-146.9354016299328
 30
0.0
  0
SPLINE
  5
62
330
1F
100
AcDbEntity
  8
_U+30EC_U+30A4_U+30E4_U+30FC 1
 62
   179
420
  2234388
370
     9
100
AcDbSpline
210
0.0
220
0.0
230
1.0
 70
    11
 71
     3
 72
    17
 73
    13
 74
     0
 42
0.0000000001
 43
0.0000000001
 12
1.0
 22
0.0
 32
0.0
 13
1.0
 23
0.0
 33
0.0
 40
0.0
 40
0.0
 40
0.0
 40
0.0
 40
1.0
 40
1.0
 40
1.0
 40
2.0
 40
2.0
 40
2.0
 40
3.0
 40
3.0
 40
3.0
 40
4.0
 40
4.0
 40
4.0
 40
4.0
 10
114.5659562438456
 20
-114.5237669158134
 30
0.0
 10
114.5659562438456
 20
-114.4686277491606
 30
0.0
 10
114.5211916380365
 20
-114.4238602491718
 30
0.0
 10
114.4667551352653
 20
-114.4238602491718
 30
0.0
 10
114.4116159700054
 20
-114.4238602491718
 30
0.0
 10
114.3668484711475
 20
-114.4686277491606
 30
0.0
 10
114.3668484711475
 20
-114.5237669158134
 30
0.0
 10
114.3668484711475
 20
-114.5788708046886
 30
0.0
 10
114.4116159700054
 20
-114.623673582455
 30
0.0
 10
114.4667551352653
 20
-114.623673582455
 30
0.0
 10
114.5211916380365
 20
-114.623673582455
 30
0.0
 10
114.5659562438456
 20
-114.5788708046886
 30
0.0
 10
114.5659562438456
 20
-114.5237669158134
 30
0.0
  0
SPLINE
  5
63
330
1F
100
AcDbEntity
  8
_U+30EC_U+30A4_U+30E4_U+30FC 1
 62
   179
420
  2234388
370
     9
100
AcDbSpline
210
0.0
220
0.0
230
1.0
 70
    11
 71
     3
 72
    17
 73
    13
 74
     0
 42
0.0000000001
 43
0.0000000001
 12
1.0
 22
0.0
 32
0.0
 13
1.0
 23
0.0
 33
0.0
 40
0.0
 40
0.0
 40
0.0
 40
0.0
 40
1.0
 40
1.0
 40
1.0
 40
2.0
 40
2.0
 40
2.0
 40
3.0
 40
3.0
 40
3.0
 40
4.0
 40
4.0
 40
4.0
 40
4.0
 10
114.5659562438456
 20
-116.0220141376612
 30
0.0
 10
114.5659562438456
 20
-115.9669102487859
 30
0.0
 10
114.5211916380365
 20
-115.9221074710195
 30
0.0
 10
114.4667551352653
 20
-115.9221074710195
 30
0.0
 10
114.4116159700054
 20
-115.9221074710195
 30
0.0
 10
114.3668484711475
 20
-115.9669102487859
 30
0.0
 10
114.3668484711475
 20
-116.0220141376612
 30
0.0
 10
114.3668484711475
 20
-116.0771533043139
 30
0.0
 10
114.4116159700054
 20
-116.1219560820806
 30
0.0
 10
114.4667551352653
 20
-116.1219560820806
 30
0.0
 10
114.5211916380365
 20
-116.1219560820806
 30
0.0
 10
114.5659562438456
 20
-116.0771533043139
 30
0.0
 10
114.5659562438456
 20
-116.0220141376612
 30
0.0
  0
SPLINE
  5
64
330
1F
100
AcDbEntity
  8
_U+30EC_U+30A4_U+30E4_U+30FC 1
 62
   179
420
  2234388
370
     9
100
AcDbSpline
210
0.0
220
0.0
230
1.0
 70
    11
 71
     3
 72
    17
 73
    13
 74
     0
 42
0.0000000001
 43
0.0000000001
 12
1.0
 22
0.0
 32
0.0
 13
1.0
 23
0.0
 33
0.0
 40
0.0
 40
0.0
 40
0.0
 40
0.0
 40
1.0
 40
1.0
 40
1.0
 40
2.0
 40
2.0
 40
2.0
 40
3.0
 40
3.0
 40
3.0
 40
4.0
 40
4.0
 40
4.0
 40
4.0
 10
114.5659562438456
 20
-141.4921463535156
 30
0.0
 10
114.5659562438456
 20
-141.4363369090852
 30
0.0
 10
114.5211916380365
 20
-141.3915341313191
 30
0.0
 10
114.4667551352653
 20
-141.3915341313191
 30
0.0
 10
114.4116159700054
 20
-141.3915341313191
 30
0.0
 10
114.3668484711475
 20
-141.4363369090852
 30
0.0
 10
114.3668484711475
 20
-141.4921463535156
 30
0.0
 10
114.3668484711475
 20
-141.5472502423911
 30
0.0
 10
114.4116159700054
 20
-141.5913474646023
 30
0.0
 10
114.4667551352653
 20
-141.5913474646023
 30
0.0
 10
114.5211916380365
 20
-141.5913474646023
 30
0.0
 10
114.5659562438456
 20
-141.5472502423911
 30
0.0
 10
114.5659562438456
 20
-141.4921463535156
 30
0.0
  0
INSERT
  5
66
330
1F
100
AcDbEntity
  8
_U+30EC_U+30A4_U+30E4_U+30FC 1
100
AcDbBlockReference
  2
block 2
 10
0.0
 20
0.0
 30
0.0
  0
POLYLINE
  5
78
330
1F
100
AcDbEntity
  8
_U+30EC_U+30A4_U+30E4_U+30FC 1
 62
   179
420
  2234388
370
     9
100
AcDb2dPolyline
 66
     1
 10
0.0
 20
0.0
 30
0.0
  0
VERTEX
  5
79
330
78
100
AcDbEntity
  8
_U+30EC_U+30A4_U+30E4_U+30FC 1
 62
   179
420
  2234388
370
     9
100
AcDbVertex
100
AcDb2dVertex
 10
65.52483693943326
 20
-146.9354016299328
 30
0.0
  0
VERTEX
  5
7A
330
78
100
AcDbEntity
  8
_U+30EC_U+30A4_U+30E4_U+30FC 1
 62
   179
420
  2234388
370
     9
100
AcDbVertex
100
AcDb2dVertex
 10
110.4711235705357
 20
-146.9354016299328
 30
0.0
  0
SEQEND
  5
7B
330
78
100
AcDbEntity
  8
_U+30EC_U+30A4_U+30E4_U+30FC 1
 62
   179
420
  2234388
370
     9
  0
POLYLINE
  5
7C
330
1F
100
AcDbEntity
  8
_U+30EC_U+30A4_U+30E4_U+30FC 1
 62
   179
420
  2234388
370
     9
100
AcDb2dPolyline
 66
     1
 10
0.0
 20
0.0
 30
0.0
  0
VERTEX
  5
7D
330
7C
100
AcDbEntity
  8
_U+30EC_U+30A4_U+30E4_U+30FC 1
 62
   179
420
  2234388
370
     9
100
AcDbVertex
100
AcDb2dVertex
 10
65.52483693943326
 20
-144.7773894082498
 30
0.0
  0
VERTEX
  5
7E
330
7C
100
AcDbEntity
  8
_U+30EC_U+30A4_U+30E4_U+30FC 1
 62
   179
420
  2234388
370
     9
100
AcDbVertex
100
AcDb2dVertex
 10
65.52483693943326
 20
-147.9344682963498
 30
0.0
  0
SEQEND
  5
7F
330
7C
100
AcDbEntity
  8
_U+30EC_U+30A4_U+30E4_U+30FC 1
 62
   179
420
  2234388
370
     9
  0
POLYLINE
  5
80
330
1F
100
AcDbEntity
  8
_U+30EC_U+30A4_U+30E4_U+30FC 1
 62
   179
420
  2234388
370
     9
100
AcDb2dPolyline
 66
     1
 10
0.0
 20
0.0
 30
0.0
  0
VERTEX
  5
81
330
80
100
AcDbEntity
  8
_U+30EC_U+30A4_U+30E4_U+30FC 1
 62
   179
420
  2234388
370
     9
100
AcDbVertex
100
AcDb2dVertex
 10
110.4711235705357
 20
-144.7773894082498
 30
0.0
  0
VERTEX
  5
82
330
80
100
AcDbEntity
  8
_U+30EC_U+30A4_U+30E4_U+30FC 1
 62
   179
420
  2234388
370
     9
100
AcDbVertex
100
AcDb2dVertex
 10
110.4711235705357
 20
-147.9344682963498
 30
0.0
  0
SEQEND
  5
83
330
80
100
AcDbEntity
  8
_U+30EC_U+30A4_U+30E4_U+30FC 1
 62
   179
420
  2234388
370
     9
  0
INSERT
  5
85
330
1F
100
AcDbEntity
  8
_U+30EC_U+30A4_U+30E4_U+30FC 1
100
AcDbBlockReference
  2
block 3
 10
0.0
 20
0.0
 30
0.0
  0
POLYLINE
  5
9F
330
1F
100
AcDbEntity
  8
_U+30EC_U+30A4_U+30E4_U+30FC 1
 62
   179
420
  2234388
370
     9
100
AcDb2dPolyline
 66
     1
 10
0.0
 20
0.0
 30
0.0
  0
VERTEX
  5
A0
330
9F
100
AcDbEntity
  8
_U+30EC_U+30A4_U+30E4_U+30FC 1
 62
   179
420
  2234388
370
     9
100
AcDbVertex
100
AcDb2dVertex
 10
75.51285751795095
 20
-112.7361008051492
 30
0.0
  0
VERTEX
  5
A1
330
9F
100
AcDbEntity
  8
_U+30EC_U+30A4_U+30E4_U+30FC 1
 62
   179
420
  2234388
370
     9
100
AcDbVertex
100
AcDb2dVertex
 10
75.51285751795095
 20
-109.5297388615065
 30
0.0
  0
SEQEND
  5
A2
330
9F
100
AcDbEntity
  8
_U+30EC_U+30A4_U+30E4_U+30FC 1
 62
   179
420
  2234388
370
     9
  0
POLYLINE
  5
A3
330
1F
100
AcDbEntity
  8
_U+30EC_U+30A4_U+30E4_U+30FC 1
 62
   179
420
  2234388
370
     9
100
AcDb2dPolyline
 66
     1
 10
0.0
 20
0.0
 30
0.0
  0
VERTEX
  5
A4
330
A3
100
AcDbEntity
  8
_U+30EC_U+30A4_U+30E4_U+30FC 1
 62
   179
420
  2234388
370
     9
100
AcDbVertex
100
AcDb2dVertex
 10
100.483105530435
 20
-112.7361008051492
 30
0.0
  0
VERTEX
  5
A5
330
A3
100
AcDbEntity
  8
_U+30EC_U+30A4_U+30E4_U+30FC 1
 62
   179
420
  2234388
370
     9
100
AcDbVertex
100
AcDb2dVertex
 10
100.483105530435
 20
-109.5297388615065
 30
0.0
  0
SEQEND
  5
A6
330
A3
100
AcDbEntity
  8
_U+30EC_U+30A4_U+30E4_U+30FC 1
 62
   179
420
  2234388
370
     9
  0
POLYLINE
  5
A7
330
1F
100
AcDbEntity
  8
_U+30EC_U+30A4_U+30E4_U+30FC 1
 62
   179
420
  2234388
370
     9
100
AcDb2dPolyline
 66
     1
 10
0.0
 20
0.0
 30
0.0
  0
VERTEX
  5
A8
330
A7
100
AcDbEntity
  8
_U+30EC_U+30A4_U+30E4_U+30FC 1
 62
   179
420
  2234388
370
     9
100
AcDbVertex
100
AcDb2dVertex
 10
114.4667551352653
 20
-141.4921463535156
 30
0.0
  0
VERTEX
  5
A9
330
A7
100
AcDbEntity
  8
_U+30EC_U+30A4_U+30E4_U+30FC 1
 62
   179
420
  2234388
370
     9
100
AcDbVertex
100
AcDb2dVertex
 10
114.4667551352653
 20
-116.0220141376612
 30
0.0
  0
SEQEND
  5
AA
330
A7
100
AcDbEntity
  8
_U+30EC_U+30A4_U+30E4_U+30FC 1
 62
   179
420
  2234388
370
     9
  0
POLYLINE
  5
AB
330
1F
100
AcDbEntity
  8
_U+30EC_U+30A4_U+30E4_U+30FC 1
 62
   179
420
  2234388
370
     9
100
AcDb2dPolyline
 66
     1
 10
0.0
 20
0.0
 30
0.0
  0
VERTEX
  5
AC
330
AB
100
AcDbEntity
  8
_U+30EC_U+30A4_U+30E4_U+30FC 1
 62
   179
420
  2234388
370
     9
100
AcDbVertex
100
AcDb2dVertex
 10
113.0080896169234
 20
-141.4921463535156
 30
0.0
  0
VERTEX
  5
AD
330
AB
100
AcDbEntity
  8
_U+30EC_U+30A4_U+30E4_U+30FC 1
 62
   179
420
  2234388
370
     9
100
AcDbVertex
100
AcDb2dVertex
 10
115.4651162209061
 20
-141.4921463535156
 30
0.0
  0
SEQEND
  5
AE
330
AB
100
AcDbEntity
  8
_U+30EC_U+30A4_U+30E4_U+30FC 1
 62
   179
420
  2234388
370
     9
  0
POLYLINE
  5
AF
330
1F
100
AcDbEntity
  8
_U+30EC_U+30A4_U+30E4_U+30FC 1
 62
   179
420
  2234388
370
    25
100
AcDb2dPolyline
 66
     1
 10
0.0
 20
0.0
 30
0.0
  0
VERTEX
  5
B0
330
AF
100
AcDbEntity
  8
_U+30EC_U+30A4_U+30E4_U+30FC 1
 62
   179
420
  2234388
370
    25
100
AcDbVertex
100
AcDb2dVertex
 10
75.51285751795095
 20
-116.0220141376612
 30
0.0
  0
VERTEX
  5
B1
330
AF
100
AcDbEntity
  8
_U+30EC_U+30A4_U+30E4_U+30FC 1
 62
   179
420
  2234388
370
    25
100
AcDbVertex
100
AcDb2dVertex
 10
86.9988077804755
 20
-116.0220141376612
 30
0.0
  0
SEQEND
  5
B2
330
AF
100
AcDbEntity
  8
_U+30EC_U+30A4_U+30E4_U+30FC 1
 62
   179
420
  2234388
370
    25
  0
POLYLINE
  5
B3
330
1F
100
AcDbEntity
  8
_U+30EC_U+30A4_U+30E4_U+30FC 1
 62
   179
420
  2234388
370
    25
100
AcDb2dPolyline
 66
     1
 10
0.0
 20
0.0
 30
0.0
  0
VERTEX
  5
B4
330
B3
100
AcDbEntity
  8
_U+30EC_U+30A4_U+30E4_U+30FC 1
 62
   179
420
  2234388
370
    25
100
AcDbVertex
100
AcDb2dVertex
 10
88.99697634060908
 20
-116.0220141376612
 30
0.0
  0
VERTEX
  5
B5
330
B3
100
AcDbEntity
  8
_U+30EC_U+30A4_U+30E4_U+30FC 1
 62
   179
420
  2234388
370
    25
100
AcDbVertex
100
AcDb2dVertex
 10
88.99697634060908
 20
-140.7755488536952
 30
0.0
  0
SEQEND
  5
B6
330
B3
100
AcDbEntity
  8
_U+30EC_U+30A4_U+30E4_U+30FC 1
 62
   179
420
  2234388
370
    25
  0
POLYLINE
  5
B7
330
1F
100
AcDbEntity
  8
_U+30EC_U+30A4_U+30E4_U+30FC 1
 62
   179
420
  2234388
370
    25
100
AcDb2dPolyline
 66
     1
 10
0.0
 20
0.0
 30
0.0
  0
VERTEX
  5
B8
330
B7
100
AcDbEntity
  8
_U+30EC_U+30A4_U+30E4_U+30FC 1
 62
   179
420
  2234388
370
    25
100
AcDbVertex
100
AcDb2dVertex
 10
86.9988077804755
 20
-116.0220141376612
 30
0.0
  0
VERTEX
  5
B9
330
B7
100
AcDbEntity
  8
_U+30EC_U+30A4_U+30E4_U+30FC 1
 62
   179
420
  2234388
370
    25
100
AcDbVertex
100
AcDb2dVertex
 10
86.9988077804755
 20
-140.7755488536952
 30
0.0
  0
SEQEND
  5
BA
330
B7
100
AcDbEntity
  8
_U+30EC_U+30A4_U+30E4_U+30FC 1
 62
   179
420
  2234388
370
    25
  0
POLYLINE
  5
BB
330
1F
100
AcDbEntity
  8
_U+30EC_U+30A4_U+30E4_U+30FC 1
 62
   179
420
  2234388
370
    25
100
AcDb2dPolyline
 66
     1
 10
0.0
 20
0.0
 30
0.0
  0
VERTEX
  5
BC
330
BB
100
AcDbEntity
  8
_U+30EC_U+30A4_U+30E4_U+30FC 1
 62
   179
420
  2234388
370
    25
100
AcDbVertex
100
AcDb2dVertex
 10
88.99697634060908
 20
-116.0220141376612
 30
0.0
  0
VERTEX
  5
BD
330
BB
100
AcDbEntity
  8
_U+30EC_U+30A4_U+30E4_U+30FC 1
 62
   179
420
  2234388
370
    25
100
AcDbVertex
100
AcDb2dVertex
 10
100.483105530435
 20
-116.0220141376612
 30
0.0
  0
SEQEND
  5
BE
330
BB
100
AcDbEntity
  8
_U+30EC_U+30A4_U+30E4_U+30FC 1
 62
   179
420
  2234388
370
    25
  0
POLYLINE
  5
BF
330
1F
100
AcDbEntity
  8
_U+30EC_U+30A4_U+30E4_U+30FC 1
 62
   179
420
  2234388
370
    25
100
AcDb2dPolyline
 66
     1
 10
0.0
 20
0.0
 30
0.0
  0
VERTEX
  5
C0
330
BF
100
AcDbEntity
  8
_U+30EC_U+30A4_U+30E4_U+30FC 1
 62
   179
420
  2234388
370
    25
100
AcDbVertex
100
AcDb2dVertex
 10
65.52483693943326
 20
-142.2410935755511
 30
0.0
  0
VERTEX
  5
C1
330
BF
100
AcDbEntity
  8
_U+30EC_U+30A4_U+30E4_U+30FC 1
 62
   179
420
  2234388
370
    25
100
AcDbVertex
100
AcDb2dVertex
 10
110.4711235705357
 20
-142.2410935755511
 30
0.0
  0
SEQEND
  5
C2
330
BF
100
AcDbEntity
  8
_U+30EC_U+30A4_U+30E4_U+30FC 1
 62
   179
420
  2234388
370
    25
  0
POLYLINE
  5
C3
330
1F
100
AcDbEntity
  8
_U+30EC_U+30A4_U+30E4_U+30FC 1
 62
   179
420
  2234388
370
    25
100
AcDb2dPolyline
 66
     1
 10
0.0
 20
0.0
 30
0.0
  0
VERTEX
  5
C4
330
C3
100
AcDbEntity
  8
_U+30EC_U+30A4_U+30E4_U+30FC 1
 62
   179
420
  2234388
370
    25
100
AcDbVertex
100
AcDb2dVertex
 10
100.483105530435
 20
-115.2727141378486
 30
0.0
  0
VERTEX
  5
C5
330
C3
100
AcDbEntity
  8
_U+30EC_U+30A4_U+30E4_U+30FC 1
 62
   179
420
  2234388
370
    25
100
AcDbVertex
100
AcDb2dVertex
 10
100.483105530435
 20
-116.0220141376612
 30
0.0
  0
SEQEND
  5
C6
330
C3
100
AcDbEntity
  8
_U+30EC_U+30A4_U+30E4_U+30FC 1
 62
   179
420
  2234388
370
    25
  0
POLYLINE
  5
C7
330
1F
100
AcDbEntity
  8
_U+30EC_U+30A4_U+30E4_U+30FC 1
 62
   179
420
  2234388
370
    25
100
AcDb2dPolyline
 66
     1
 10
0.0
 20
0.0
 30
0.0
  0
VERTEX
  5
C8
330
C7
100
AcDbEntity
  8
_U+30EC_U+30A4_U+30E4_U+30FC 1
 62
   179
420
  2234388
370
    25
100
AcDbVertex
100
AcDb2dVertex
 10
75.51285751795095
 20
-115.2727141378486
 30
0.0
  0
VERTEX
  5
C9
330
C7
100
AcDbEntity
  8
_U+30EC_U+30A4_U+30E4_U+30FC 1
 62
   179
420
  2234388
370
    25
100
AcDbVertex
100
AcDb2dVertex
 10
75.51285751795095
 20
-116.0220141376612
 30
0.0
  0
SEQEND
  5
CA
330
C7
100
AcDbEntity
  8
_U+30EC_U+30A4_U+30E4_U+30FC 1
 62
   179
420
  2234388
370
    25
  0
POLYLINE
  5
CB
330
1F
100
AcDbEntity
  8
_U+30EC_U+30A4_U+30E4_U+30FC 1
 62
   179
420
  2234388
370
    25
100
AcDb2dPolyline
 66
     1
 10
0.0
 20
0.0
 30
0.0
  0
VERTEX
  5
CC
330
CB
100
AcDbEntity
  8
_U+30EC_U+30A4_U+30E4_U+30FC 1
 62
   179
420
  2234388
370
    25
100
AcDbVertex
100
AcDb2dVertex
 10
87.99790969943074
 20
-114.5237669158134
 30
0.0
  0
VERTEX
  5
CD
330
CB
100
AcDbEntity
  8
_U+30EC_U+30A4_U+30E4_U+30FC 1
 62
   179
420
  2234388
370
    25
100
AcDbVertex
100
AcDb2dVertex
 10
75.51285751795095
 20
-115.2727141378486
 30
0.0
  0
SEQEND
  5
CE
330
CB
100
AcDbEntity
  8
_U+30EC_U+30A4_U+30E4_U+30FC 1
 62
   179
420
  2234388
370
    25
  0
POLYLINE
  5
CF
330
1F
100
AcDbEntity
  8
_U+30EC_U+30A4_U+30E4_U+30FC 1
 62
   179
420
  2234388
370
    25
100
AcDb2dPolyline
 66
     1
 10
0.0
 20
0.0
 30
0.0
  0
VERTEX
  5
D0
330
CF
100
AcDbEntity
  8
_U+30EC_U+30A4_U+30E4_U+30FC 1
 62
   179
420
  2234388
370
    25
100
AcDbVertex
100
AcDb2dVertex
 10
87.99790969943074
 20
-114.5237669158134
 30
0.0
  0
VERTEX
  5
D1
330
CF
100
AcDbEntity
  8
_U+30EC_U+30A4_U+30E4_U+30FC 1
 62
   179
420
  2234388
370
    25
100
AcDbVertex
100
AcDb2dVertex
 10
100.483105530435
 20
-115.2727141378486
 30
0.0
  0
SEQEND
  5
D2
330
CF
100
AcDbEntity
  8
_U+30EC_U+30A4_U+30E4_U+30FC 1
 62
   179
420
  2234388
370
    25
  0
POLYLINE
  5
D3
330
1F
100
AcDbEntity
  8
_U+30EC_U+30A4_U+30E4_U+30FC 1
 62
   179
420
  2234388
370
    25
100
AcDb2dPolyline
 66
     1
 10
0.0
 20
0.0
 30
0.0
  0
VERTEX
  5
D4
330
D3
100
AcDbEntity
  8
_U+30EC_U+30A4_U+30E4_U+30FC 1
 62
   179
420
  2234388
370
    25
100
AcDbVertex
100
AcDb2dVertex
 10
110.4711235705357
 20
-141.4921463535156
 30
0.0
  0
VERTEX
  5
D5
330
D3
100
AcDbEntity
  8
_U+30EC_U+30A4_U+30E4_U+30FC 1
 62
   179
420
  2234388
370
    25
100
AcDbVertex
100
AcDb2dVertex
 10
110.4711235705357
 20
-142.2410935755511
 30
0.0
  0
SEQEND
  5
D6
330
D3
100
AcDbEntity
  8
_U+30EC_U+30A4_U+30E4_U+30FC 1
 62
   179
420
  2234388
370
    25
  0
POLYLINE
  5
D7
330
1F
100
AcDbEntity
  8
_U+30EC_U+30A4_U+30E4_U+30FC 1
 62
   179
420
  2234388
370
    25
100
AcDb2dPolyline
 66
     1
 10
0.0
 20
0.0
 30
0.0
  0
VERTEX
  5
D8
330
D7
100
AcDbEntity
  8
_U+30EC_U+30A4_U+30E4_U+30FC 1
 62
   179
420
  2234388
370
    25
100
AcDbVertex
100
AcDb2dVertex
 10
65.52483693943326
 20
-141.4921463535156
 30
0.0
  0
VERTEX
  5
D9
330
D7
100
AcDbEntity
  8
_U+30EC_U+30A4_U+30E4_U+30FC 1
 62
   179
420
  2234388
370
    25
100
AcDbVertex
100
AcDb2dVertex
 10
65.52483693943326
 20
-142.2410935755511
 30
0.0
  0
SEQEND
  5
DA
330
D7
100
AcDbEntity
  8
_U+30EC_U+30A4_U+30E4_U+30FC 1
 62
   179
420
  2234388
370
    25
  0
POLYLINE
  5
DB
330
1F
100
AcDbEntity
  8
_U+30EC_U+30A4_U+30E4_U+30FC 1
 62
   179
420
  2234388
370
    25
100
AcDb2dPolyline
 66
     1
 10
0.0
 20
0.0
 30
0.0
  0
VERTEX
  5
DC
330
DB
100
AcDbEntity
  8
_U+30EC_U+30A4_U+30E4_U+30FC 1
 62
   179
420
  2234388
370
    25
100
AcDbVertex
100
AcDb2dVertex
 10
86.9988077804755
 20
-140.7755488536952
 30
0.0
  0
VERTEX
  5
DD
330
DB
100
AcDbEntity
  8
_U+30EC_U+30A4_U+30E4_U+30FC 1
 62
   179
420
  2234388
370
    25
100
AcDbVertex
100
AcDb2dVertex
 10
65.52483693943326
 20
-141.4921463535156
 30
0.0
  0
SEQEND
  5
DE
330
DB
100
AcDbEntity
  8
_U+30EC_U+30A4_U+30E4_U+30FC 1
 62
   179
420
  2234388
370
    25
  0
POLYLINE
  5
DF
330
1F
100
AcDbEntity
  8
_U+30EC_U+30A4_U+30E4_U+30FC 1
 62
   179
420
  2234388
370
    25
100
AcDb2dPolyline
 66
     1
 10
0.0
 20
0.0
 30
0.0
  0
VERTEX
  5
E0
330
DF
100
AcDbEntity
  8
_U+30EC_U+30A4_U+30E4_U+30FC 1
 62
   179
420
  2234388
370
    25
100
AcDbVertex
100
AcDb2dVertex
 10
88.99697634060908
 20
-140.7755488536952
 30
0.0
  0
VERTEX
  5
E1
330
DF
100
AcDbEntity
  8
_U+30EC_U+30A4_U+30E4_U+30FC 1
 62
   179
420
  2234388
370
    25
100
AcDbVertex
100
AcDb2dVertex
 10
110.4711235705357
 20
-141.4921463535156
 30
0.0
  0
SEQEND
  5
E2
330
DF
100
AcDbEntity
  8
_U+30EC_U+30A4_U+30E4_U+30FC 1
 62
   179
420
  2234388
370
    25
  0
POLYLINE
  5
E3
330
1F
100
AcDbEntity
  8
_U+30EC_U+30A4_U+30E4_U+30FC 1
 62
   179
420
  2234388
370
     9
100
AcDb2dPolyline
 66
     1
 10
0.0
 20
0.0
 30
0.0
  0
VERTEX
  5
E4
330
E3
100
AcDbEntity
  8
_U+30EC_U+30A4_U+30E4_U+30FC 1
 62
   179
420
  2234388
370
     9
100
AcDbVertex
100
AcDb2dVertex
 10
103.0200690384057
 20
-116.0220141376612
 30
0.0
  0
VERTEX
  5
E5
330
E3
100
AcDbEntity
  8
_U+30EC_U+30A4_U+30E4_U+30FC 1
 62
   179
420
  2234388
370
     9
100
AcDbVertex
100
AcDb2dVertex
 10
115.4651162209061
 20
-116.0220141376612
 30
0.0
  0
SEQEND
  5
E6
330
E3
100
AcDbEntity
  8
_U+30EC_U+30A4_U+30E4_U+30FC 1
 62
   179
420
  2234388
370
     9
  0
INSERT
  5
E8
330
1F
100
AcDbEntity
  8
_U+30EC_U+30A4_U+30E4_U+30FC 1
100
AcDbBlockReference
  2
block 4
 10
0.0
 20
0.0
 30
0.0
  0
POLYLINE
  5
F9
330
1F
100
AcDbEntity
  8
_U+30EC_U+30A4_U+30E4_U+30FC 1
 62
   179
420
  2234388
370
     9
100
AcDb2dPolyline
 66
     1
 10
0.0
 20
0.0
 30
0.0
  0
VERTEX
  5
FA
330
F9
100
AcDbEntity
  8
_U+30EC_U+30A4_U+30E4_U+30FC 1
 62
   179
420
  2234388
370
     9
100
AcDbVertex
100
AcDb2dVertex
 10
114.4667551352653
 20
-114.5237669158134
 30
0.0
  0
VERTEX
  5
FB
330
F9
100
AcDbEntity
  8
_U+30EC_U+30A4_U+30E4_U+30FC 1
 62
   179
420
  2234388
370
     9
100
AcDbVertex
100
AcDb2dVertex
 10
114.4667551352653
 20
-109.2720699726819
 30
0.0
  0
SEQEND
  5
FC
330
F9
100
AcDbEntity
  8
_U+30EC_U+30A4_U+30E4_U+30FC 1
 62
   179
420
  2234388
370
     9
  0
POLYLINE
  5
FD
330
1F
100
AcDbEntity
  8
_U+30EC_U+30A4_U+30E4_U+30FC 1
 62
   179
420
  2234388
370
     9
100
AcDb2dPolyline
 66
     1
 10
0.0
 20
0.0
 30
0.0
  0
VERTEX
  5
FE
330
FD
100
AcDbEntity
  8
_U+30EC_U+30A4_U+30E4_U+30FC 1
 62
   179
420
  2234388
370
     9
100
AcDbVertex
100
AcDb2dVertex
 10
114.4667551352653
 20
-116.0220141376612
 30
0.0
  0
VERTEX
  5
FF
330
FD
100
AcDbEntity
  8
_U+30EC_U+30A4_U+30E4_U+30FC 1
 62
   179
420
  2234388
370
     9
100
AcDbVertex
100
AcDb2dVertex
 10
114.4667551352653
 20
-114.5237669158134
 30
0.0
  0
SEQEND
  5
100
330
FD
100
AcDbEntity
  8
_U+30EC_U+30A4_U+30E4_U+30FC 1
 62
   179
420
  2234388
370
     9
  0
POLYLINE
  5
101
330
1F
100
AcDbEntity
  8
_U+30EC_U+30A4_U+30E4_U+30FC 1
 62
   179
420
  2234388
370
     9
100
AcDb2dPolyline
 66
     1
 10
0.0
 20
0.0
 30
0.0
  0
VERTEX
  5
102
330
101
100
AcDbEntity
  8
_U+30EC_U+30A4_U+30E4_U+30FC 1
 62
   179
420
  2234388
370
     9
100
AcDbVertex
100
AcDb2dVertex
 10
90.53505213470284
 20
-114.5237669158134
 30
0.0
  0
VERTEX
  5
103
330
101
100
AcDbEntity
  8
_U+30EC_U+30A4_U+30E4_U+30FC 1
 62
   179
420
  2234388
370
     9
100
AcDbVertex
100
AcDb2dVertex
 10
115.4651162209061
 20
-114.5237669158134
 30
0.0
  0
SEQEND
  5
104
330
101
100
AcDbEntity
  8
_U+30EC_U+30A4_U+30E4_U+30FC 1
 62
   179
420
  2234388
370
     9
  0
INSERT
  5
106
330
1F
100
AcDbEntity
  8
_U+30EC_U+30A4_U+30E4_U+30FC 1
100
AcDbBlockReference
  2
block 5
 10
0.0
 20
0.0
 30
0.0
  0
ENDSEC
  0
SECTION
  2
OBJECTS
  0
DICTIONARY
  5
C
330
0
100
AcDbDictionary
281
     1
  3
ACAD_GROUP
350
D
  3
ACAD_LAYOUT
350
1A
  3
ACAD_MATERIAL
350
3B
  3
ACAD_MLEADERSTYLE
350
116
  3
ACAD_MLINESTYLE
350
17
  3
ACAD_PLOTSETTINGS
350
19
  3
ACAD_PLOTSTYLENAME
350
E
  3
ACAD_TABLESTYLE
350
115
  3
ACAD_VISUALSTYLE
350
2A
  0
SUN
  5
3F
330
29
100
AcDbSun
 90
        1
290
     0
 63
     7
421
 16777215
 40
1.0
291
     1
 91
  2455826
 92
 54000000
292
     0
 70
     2
 71
   256
280
     1
  0
DICTIONARY
  5
D
102
{ACAD_REACTORS
330
C
102
}
330
C
100
AcDbDictionary
281
     1
  0
DICTIONARY
  5
1A
102
{ACAD_REACTORS
330
C
102
}
330
C
100
AcDbDictionary
281
     1
  3
Layout1
350
1E
  3
Layout2
350
26
  3
Model
350
22
  0
DICTIONARY
  5
3B
102
{ACAD_REACTORS
330
C
102
}
330
C
100
AcDbDictionary
281
     1
  3
ByBlock
350
3D
  3
ByLayer
350
3C
  3
Global
350
3E
  0
DICTIONARY
  5
116
102
{ACAD_REACTORS
330
C
102
}
330
C
100
AcDbDictionary
281
     1
  0
DICTIONARY
  5
17
102
{ACAD_REACTORS
330
C
102
}
330
C
100
AcDbDictionary
281
     1
  3
Standard
350
18
  0
DICTIONARY
  5
19
102
{ACAD_REACTORS
330
C
102
}
330
C
100
AcDbDictionary
281
     1
  0
ACDBDICTIONARYWDFLT
  5
E
102
{ACAD_REACTORS
330
C
102
}
330
C
100
AcDbDictionary
281
     1
  3
Normal
350
F
100
AcDbDictionaryWithDefault
340
F
  0
DICTIONARY
  5
115
102
{ACAD_REACTORS
330
C
102
}
330
C
100
AcDbDictionary
281
     1
  0
DICTIONARY
  5
2A
102
{ACAD_REACTORS
330
C
102
}
330
C
100
AcDbDictionary
281
     1
  3
2dWireframe
350
2F
  3
3D Hidden
350
31
  3
3dWireframe
350
30
  3
Basic
350
32
  3
Brighten
350
36
  3
ColorChange
350
3A
  3
Conceptual
350
34
  3
Dim
350
35
  3
Facepattern
350
39
  3
Flat
350
2B
  3
FlatWithEdges
350
2C
  3
Gouraud
350
2D
  3
GouraudWithEdges
350
2E
  3
Linepattern
350
38
  3
Realistic
350
33
  3
Thicken
350
37
  0
LAYOUT
  5
1E
102
{ACAD_REACTORS
330
1A
102
}
330
1A
100
AcDbPlotSettings
  1

  2
none_device
  4

  6

 40
0.0
 41
0.0
 42
0.0
 43
0.0
 44
0.0
 45
0.0
 46
0.0
 47
0.0
 48
0.0
 49
0.0
140
0.0
141
0.0
142
1.0
143
1.0
 70
   688
 72
     0
 73
     0
 74
     5
  7

 75
    16
 76
     0
 77
     2
 78
   300
147
1.0
148
0.0
149
0.0
100
AcDbLayout
  1
Layout1
 70
     1
 71
     1
 10
0.0
 20
0.0
 11
12.0
 21
9.0
 12
0.0
 22
0.0
 32
0.0
 14
1.000000000000000E+20
 24
1.000000000000000E+20
 34
1.000000000000000E+20
 15
-1.000000000000000E+20
 25
-1.000000000000000E+20
 35
-1.000000000000000E+20
146
0.0
 13
0.0
 23
0.0
 33
0.0
 16
1.0
 26
0.0
 36
0.0
 17
0.0
 27
1.0
 37
0.0
 76
     0
330
1B
  0
LAYOUT
  5
26
102
{ACAD_REACTORS
330
1A
102
}
330
1A
100
AcDbPlotSettings
  1

  2
none_device
  4

  6

 40
0.0
 41
0.0
 42
0.0
 43
0.0
 44
0.0
 45
0.0
 46
0.0
 47
0.0
 48
0.0
 49
0.0
140
0.0
141
0.0
142
1.0
143
1.0
 70
   688
 72
     0
 73
     0
 74
     5
  7

 75
    16
 76
     0
 77
     2
 78
   300
147
1.0
148
0.0
149
0.0
100
AcDbLayout
  1
Layout2
 70
     1
 71
     2
 10
0.0
 20
0.0
 11
0.0
 21
0.0
 12
0.0
 22
0.0
 32
0.0
 14
0.0
 24
0.0
 34
0.0
 15
0.0
 25
0.0
 35
0.0
146
0.0
 13
0.0
 23
0.0
 33
0.0
 16
1.0
 26
0.0
 36
0.0
 17
0.0
 27
1.0
 37
0.0
 76
     0
330
23
  0
LAYOUT
  5
22
102
{ACAD_REACTORS
330
1A
102
}
330
1A
100
AcDbPlotSettings
  1

  2
none_device
  4

  6

 40
0.0
 41
0.0
 42
0.0
 43
0.0
 44
0.0
 45
0.0
 46
0.0
 47
0.0
 48
0.0
 49
0.0
140
0.0
141
0.0
142
1.0
143
1.0
 70
  1712
 72
     0
 73
     0
 74
     0
  7

 75
     0
 76
     0
 77
     2
 78
   300
147
1.0
148
0.0
149
0.0
100
AcDbLayout
  1
Model
 70
     1
 71
     0
 10
0.0
 20
0.0
 11
12.0
 21
9.0
 12
0.0
 22
0.0
 32
0.0
 14
1.000000000000000E+20
 24
1.000000000000000E+20
 34
1.000000000000000E+20
 15
-1.000000000000000E+20
 25
-1.000000000000000E+20
 35
-1.000000000000000E+20
146
0.0
 13
0.0
 23
0.0
 33
0.0
 16
1.0
 26
0.0
 36
0.0
 17
0.0
 27
1.0
 37
0.0
 76
     0
330
1F
331
29
  0
MATERIAL
  5
3D
102
{ACAD_REACTORS
330
3B
102
}
330
3B
100
AcDbMaterial
  1
ByBlock
 72
     1
 94
      127
  0
MATERIAL
  5
3C
102
{ACAD_REACTORS
330
3B
102
}
330
3B
100
AcDbMaterial
  1
ByLayer
 72
     1
 94
      127
  0
MATERIAL
  5
3E
102
{ACAD_REACTORS
330
3B
102
}
330
3B
100
AcDbMaterial
  1
Global
 72
     1
 94
      127
  0
MLINESTYLE
  5
18
102
{ACAD_REACTORS
330
17
102
}
330
17
100
AcDbMlineStyle
  2
Standard
 70
     0
  3

 62
   256
 51
90.0
 52
90.0
 71
     2
 49
0.5
 62
   256
  6
BYLAYER
 49
-0.5
 62
   256
  6
BYLAYER
  0
ACDBPLACEHOLDER
  5
F
102
{ACAD_REACTORS
330
E
102
}
330
E
  0
VISUALSTYLE
  5
2F
102
{ACAD_REACTORS
330
2A
102
}
330
2A
100
AcDbVisualStyle
  2
2dWireframe
 70
     4
177
     2
291
     0
 71
     0
176
     1
 72
     2
176
     1
 73
     0
176
     1
 90
        0
176
     1
 40
-0.6
176
     1
 41
-30.0
176
     1
 62
     5
 63
     7
421
 16777215
176
     1
 74
     1
176
     1
 91
        4
176
     1
 64
     7
176
     1
 65
   257
176
     1
 75
     1
176
     1
175
     1
176
     1
 42
1.0
176
     1
 92
        0
176
     1
 66
   257
176
     1
 43
1.0
176
     1
 76
     1
176
     1
 77
     6
176
     1
 78
     2
176
     1
 67
     7
176
     1
 79
     5
176
     1
170
     0
176
     1
171
     0
176
     1
290
     0
176
     1
 93
        1
176
     1
 44
0.0
176
     1
173
     0
176
     1
  0
VISUALSTYLE
  5
31
102
{ACAD_REACTORS
330
2A
102
}
330
2A
100
AcDbVisualStyle
  2
3D Hidden
 70
     6
177
     2
291
     0
 71
     1
176
     1
 72
     2
176
     1
 73
     2
176
     1
 90
        0
176
     1
 40
-0.6
176
     1
 41
-30.0
176
     1
 62
     5
 63
     7
421
 16777215
176
     1
 74
     2
176
     1
 91
        2
176
     1
 64
     7
176
     1
 65
   257
176
     1
 75
     2
176
     1
175
     1
176
     1
 42
40.0
176
     1
 92
        0
176
     1
 66
   257
176
     1
 43
1.0
176
     1
 76
     1
176
     1
 77
     6
176
     1
 78
     2
176
     1
 67
     7
176
     1
 79
     3
176
     1
170
     0
176
     1
171
     0
176
     1
290
     0
176
     1
 93
        1
176
     1
 44
0.0
176
     1
173
     0
176
     1
  0
VISUALSTYLE
  5
30
102
{ACAD_REACTORS
330
2A
102
}
330
2A
100
AcDbVisualStyle
  2
3dWireframe
 70
     5
177
     2
291
     0
 71
     0
176
     1
 72
     2
176
     1
 73
     0
176
     1
 90
        0
176
     1
 40
-0.6
176
     1
 41
-30.0
176
     1
 62
     5
 63
     7
421
 16777215
176
     1
 74
     1
176
     1
 91
        4
176
     1
 64
     7
176
     1
 65
   257
176
     1
 75
     1
176
     1
175
     1
176
     1
 42
1.0
176
     1
 92
        0
176
     1
 66
   257
176
     1
 43
1.0
176
     1
 76
     1
176
     1
 77
     6
176
     1
 78
     2
176
     1
 67
     7
176
     1
 79
     5
176
     1
170
     0
176
     1
171
     0
176
     1
290
     0
176
     1
 93
        1
176
     1
 44
0.0
176
     1
173
     0
176
     1
  0
VISUALSTYLE
  5
32
102
{ACAD_REACTORS
330
2A
102
}
330
2A
100
AcDbVisualStyle
  2
Basic
 70
     7
177
     2
291
     1
 71
     1
176
     1
 72
     0
176
     1
 73
     1
176
     1
 90
        0
176
     1
 40
-0.6
176
     1
 41
-30.0
176
     1
 62
     5
 63
     7
421
 16777215
176
     1
 74
     0
176
     1
 91
        4
176
     1
 64
     7
176
     1
 65
   257
176
     1
 75
     1
176
     1
175
     1
176
     1
 42
1.0
176
     1
 92
        8
176
     1
 66
     7
176
     1
 43
1.0
176
     1
 76
     1
176
     1
 77
     6
176
     1
 78
     2
176
     1
 67
     7
176
     1
 79
     5
176
     1
170
     0
176
     1
171
     0
176
     1
290
     0
176
     1
 93
        1
176
     1
 44
0.0
176
     1
173
     0
176
     1
  0
VISUALSTYLE
  5
36
102
{ACAD_REACTORS
330
2A
102
}
330
2A
100
AcDbVisualStyle
  2
Brighten
 70
    12
177
     2
291
     1
 71
     2
176
     1
 72
     2
176
     1
 73
     0
176
     1
 90
        0
176
     1
 40
-0.6
176
     1
 41
-30.0
176
     1
 62
     5
 63
     7
421
 16777215
176
     1
 74
     1
176
     1
 91
        4
176
     1
 64
     7
176
     1
 65
   257
176
     1
 75
     1
176
     1
175
     1
176
     1
 42
1.0
176
     1
 92
        8
176
     1
 66
     7
176
     1
 43
1.0
176
     1
 76
     1
176
     1
 77
     6
176
     1
 78
     2
176
     1
 67
     7
176
     1
 79
     5
176
     1
170
     0
176
     1
171
     0
176
     1
290
     0
176
     1
 93
        1
176
     1
 44
50.0
176
     1
173
     0
176
     1
  0
VISUALSTYLE
  5
3A
102
{ACAD_REACTORS
330
2A
102
}
330
2A
100
AcDbVisualStyle
  2
ColorChange
 70
    16
177
     2
291
     1
 71
     2
176
     1
 72
     2
176
     1
 73
     3
176
     1
 90
        0
176
     1
 40
-0.6
176
     1
 41
-30.0
176
     1
 62
     5
 63
     8
421
  8421504
176
     1
 74
     1
176
     1
 91
        4
176
     1
 64
     7
176
     1
 65
   257
176
     1
 75
     1
176
     1
175
     1
176
     1
 42
1.0
176
     1
 92
        8
176
     1
 66
     8
424
  8421504
176
     1
 43
1.0
176
     1
 76
     1
176
     1
 77
     6
176
     1
 78
     2
176
     1
 67
     7
176
     1
 79
     5
176
     1
170
     0
176
     1
171
     0
176
     1
290
     0
176
     1
 93
        1
176
     1
 44
0.0
176
     1
173
     0
176
     1
  0
VISUALSTYLE
  5
34
102
{ACAD_REACTORS
330
2A
102
}
330
2A
100
AcDbVisualStyle
  2
Conceptual
 70
     9
177
     2
291
     0
 71
     3
176
     1
 72
     2
176
     1
 73
     0
176
     1
 90
        0
176
     1
 40
-0.6
176
     1
 41
-30.0
176
     1
 62
     5
 63
     7
421
 16777215
176
     1
 74
     2
176
     1
 91
        2
176
     1
 64
     7
176
     1
 65
   257
176
     1
 75
     1
176
     1
175
     1
176
     1
 42
40.0
176
     1
 92
        8
176
     1
 66
     7
176
     1
 43
1.0
176
     1
 76
     1
176
     1
 77
     6
176
     1
 78
     2
176
     1
 67
     7
176
     1
 79
     3
176
     1
170
     0
176
     1
171
     0
176
     1
290
     0
176
     1
 93
        1
176
     1
 44
0.0
176
     1
173
     0
176
     1
  0
VISUALSTYLE
  5
35
102
{ACAD_REACTORS
330
2A
102
}
330
2A
100
AcDbVisualStyle
  2
Dim
 70
    11
177
     2
291
     1
 71
     2
176
     1
 72
     2
176
     1
 73
     0
176
     1
 90
        0
176
     1
 40
-0.6
176
     1
 41
-30.0
176
     1
 62
     5
 63
     7
421
 16777215
176
     1
 74
     1
176
     1
 91
        4
176
     1
 64
     7
176
     1
 65
   257
176
     1
 75
     1
176
     1
175
     1
176
     1
 42
1.0
176
     1
 92
        8
176
     1
 66
     7
176
     1
 43
1.0
176
     1
 76
     1
176
     1
 77
     6
176
     1
 78
     2
176
     1
 67
     7
176
     1
 79
     5
176
     1
170
     0
176
     1
171
     0
176
     1
290
     0
176
     1
 93
        1
176
     1
 44
-50.0
176
     1
173
     0
176
     1
  0
VISUALSTYLE
  5
39
102
{ACAD_REACTORS
330
2A
102
}
330
2A
100
AcDbVisualStyle
  2
Facepattern
 70
    15
177
     2
291
     1
 71
     2
176
     1
 72
     2
176
     1
 73
     0
176
     1
 90
        0
176
     1
 40
-0.6
176
     1
 41
-30.0
176
     1
 62
     5
 63
     7
421
 16777215
176
     1
 74
     1
176
     1
 91
        4
176
     1
 64
     7
176
     1
 65
   257
176
     1
 75
     1
176
     1
175
     1
176
     1
 42
1.0
176
     1
 92
        8
176
     1
 66
     7
176
     1
 43
1.0
176
     1
 76
     1
176
     1
 77
     6
176
     1
 78
     2
176
     1
 67
     7
176
     1
 79
     5
176
     1
170
     0
176
     1
171
     0
176
     1
290
     0
176
     1
 93
        1
176
     1
 44
0.0
176
     1
173
     0
176
     1
  0
VISUALSTYLE
  5
2B
102
{ACAD_REACTORS
330
2A
102
}
330
2A
100
AcDbVisualStyle
  2
Flat
 70
     0
177
     2
291
     1
 71
     2
176
     1
 72
     1
176
     1
 73
     1
176
     1
 90
        2
176
     1
 40
-0.6
176
     1
 41
30.0
176
     1
 62
     5
 63
     7
421
 16777215
176
     1
 74
     0
176
     1
 91
        4
176
     1
 64
     7
176
     1
 65
   257
176
     1
 75
     1
176
     1
175
     1
176
     1
 42
1.0
176
     1
 92
        8
176
     1
 66
     7
176
     1
 43
1.0
176
     1
 76
     1
176
     1
 77
     6
176
     1
 78
     2
176
     1
 67
     7
176
     1
 79
     5
176
     1
170
     0
176
     1
171
     0
176
     1
290
     0
176
     1
 93
       13
176
     1
 44
0.0
176
     1
173
     0
176
     1
  0
VISUALSTYLE
  5
2C
102
{ACAD_REACTORS
330
2A
102
}
330
2A
100
AcDbVisualStyle
  2
FlatWithEdges
 70
     1
177
     2
291
     1
 71
     2
176
     1
 72
     1
176
     1
 73
     1
176
     1
 90
        2
176
     1
 40
-0.6
176
     1
 41
30.0
176
     1
 62
     5
 63
     7
421
 16777215
176
     1
 74
     1
176
     1
 91
        4
176
     1
 64
     7
176
     1
 65
   257
176
     1
 75
     1
176
     1
175
     1
176
     1
 42
1.0
176
     1
 92
        0
176
     1
 66
   257
176
     1
 43
1.0
176
     1
 76
     1
176
     1
 77
     6
176
     1
 78
     2
176
     1
 67
     7
176
     1
 79
     5
176
     1
170
     0
176
     1
171
     0
176
     1
290
     0
176
     1
 93
       13
176
     1
 44
0.0
176
     1
173
     0
176
     1
  0
VISUALSTYLE
  5
2D
102
{ACAD_REACTORS
330
2A
102
}
330
2A
100
AcDbVisualStyle
  2
Gouraud
 70
     2
177
     2
291
     1
 71
     2
176
     1
 72
     2
176
     1
 73
     1
176
     1
 90
        2
176
     1
 40
-0.6
176
     1
 41
30.0
176
     1
 62
     5
 63
     7
421
 16777215
176
     1
 74
     0
176
     1
 91
        4
176
     1
 64
     7
176
     1
 65
   257
176
     1
 75
     1
176
     1
175
     1
176
     1
 42
1.0
176
     1
 92
        0
176
     1
 66
     7
176
     1
 43
1.0
176
     1
 76
     1
176
     1
 77
     6
176
     1
 78
     2
176
     1
 67
     7
176
     1
 79
     5
176
     1
170
     0
176
     1
171
     0
176
     1
290
     0
176
     1
 93
       13
176
     1
 44
0.0
176
     1
173
     0
176
     1
  0
VISUALSTYLE
  5
2E
102
{ACAD_REACTORS
330
2A
102
}
330
2A
100
AcDbVisualStyle
  2
GouraudWithEdges
 70
     3
177
     2
291
     1
 71
     2
176
     1
 72
     2
176
     1
 73
     1
176
     1
 90
        2
176
     1
 40
-0.6
176
     1
 41
30.0
176
     1
 62
     5
 63
     7
421
 16777215
176
     1
 74
     1
176
     1
 91
        4
176
     1
 64
     7
176
     1
 65
   257
176
     1
 75
     1
176
     1
175
     1
176
     1
 42
1.0
176
     1
 92
        0
176
     1
 66
   257
176
     1
 43
1.0
176
     1
 76
     1
176
     1
 77
     6
176
     1
 78
     2
176
     1
 67
     7
176
     1
 79
     5
176
     1
170
     0
176
     1
171
     0
176
     1
290
     0
176
     1
 93
       13
176
     1
 44
0.0
176
     1
173
     0
176
     1
  0
VISUALSTYLE
  5
38
102
{ACAD_REACTORS
330
2A
102
}
330
2A
100
AcDbVisualStyle
  2
Linepattern
 70
    14
177
     2
291
     1
 71
     2
176
     1
 72
     2
176
     1
 73
     0
176
     1
 90
        0
176
     1
 40
-0.6
176
     1
 41
-30.0
176
     1
 62
     5
 63
     7
421
 16777215
176
     1
 74
     1
176
     1
 91
        4
176
     1
 64
     7
176
     1
 65
   257
176
     1
 75
     7
176
     1
175
     7
176
     1
 42
1.0
176
     1
 92
        8
176
     1
 66
     7
176
     1
 43
1.0
176
     1
 76
     1
176
     1
 77
     6
176
     1
 78
     2
176
     1
 67
     7
176
     1
 79
     5
176
     1
170
     0
176
     1
171
     0
176
     1
290
     0
176
     1
 93
        1
176
     1
 44
0.0
176
     1
173
     0
176
     1
  0
VISUALSTYLE
  5
33
102
{ACAD_REACTORS
330
2A
102
}
330
2A
100
AcDbVisualStyle
  2
Realistic
 70
     8
177
     2
291
     0
 71
     2
176
     1
 72
     2
176
     1
 73
     0
176
     1
 90
        0
176
     1
 40
-0.6
176
     1
 41
-30.0
176
     1
 62
     5
 63
     7
421
 16777215
176
     1
 74
     1
176
     1
 91
        0
176
     1
 64
     7
176
     1
 65
   257
176
     1
 75
     1
176
     1
175
     1
176
     1
 42
1.0
176
     1
 92
        8
176
     1
 66
     8
424
  7895160
176
     1
 43
1.0
176
     1
 76
     1
176
     1
 77
     6
176
     1
 78
     2
176
     1
 67
     7
176
     1
 79
     5
176
     1
170
     0
176
     1
171
     0
176
     1
290
     0
176
     1
 93
       13
176
     1
 44
0.0
176
     1
173
     0
176
     1
  0
VISUALSTYLE
  5
37
102
{ACAD_REACTORS
330
2A
102
}
330
2A
100
AcDbVisualStyle
  2
Thicken
 70
    13
177
     2
291
     1
 71
     2
176
     1
 72
     2
176
     1
 73
     0
176
     1
 90
        0
176
     1
 40
-0.6
176
     1
 41
-30.0
176
     1
 62
     5
 63
     7
421
 16777215
176
     1
 74
     1
176
     1
 91
        4
176
     1
 64
     7
176
     1
 65
   257
176
     1
 75
     1
176
     1
175
     1
176
     1
 42
1.0
176
     1
 92
       12
176
     1
 66
     7
176
     1
 43
1.0
176
     1
 76
     1
176
     1
 77
     6
176
     1
 78
     2
176
     1
 67
     7
176
     1
 79
     5
176
     1
170
     0
176
     1
171
     0
176
     1
290
     0
176
     1
 93
        1
176
     1
 44
0.0
176
     1
173
     0
176
     1
  0
ENDSEC
  0
EOF
