  0
SECTION
  2
HEADER
  9
$ACADVER
  1
AC1024
  9
$ACADMAINTVER
 70
     6
  9
$DWGCODEPAGE
  3
UNDEFINED
  9
$INSBASE
 10
0.0
 20
0.0
 30
0.0
  9
$EXTMIN
 10
1.000000000000000E+20
 20
1.000000000000000E+20
 30
1.000000000000000E+20
  9
$EXTMAX
 10
-1.000000000000000E+20
 20
-1.000000000000000E+20
 30
-1.000000000000000E+20
  9
$LIMMIN
 10
0.0
 20
0.0
  9
$LIMMAX
 10
12.0
 20
9.0
  9
$ORTHOMODE
 70
     0
  9
$REGENMODE
 70
     1
  9
$FILLMODE
 70
     1
  9
$QTEXTMODE
 70
     0
  9
$MIRRTEXT
 70
     1
  9
$LTSCALE
 40
1.0
  9
$ATTMODE
 70
     1
  9
$TEXTSIZE
 40
0.2
  9
$TRACEWID
 40
0.05
  9
$TEXTSTYLE
  7
Standard
  9
$CLAYER
  8
0
  9
$CELTYPE
  6
ByLayer
  9
$CECOLOR
 62
   256
  9
$CELTSCALE
 40
1.0
  9
$DISPSILH
 70
     0
  9
$DIMSCALE
 40
1.0
  9
$DIMASZ
 40
0.18
  9
$DIMEXO
 40
0.0625
  9
$DIMDLI
 40
0.38
  9
$DIMRND
 40
0.0
  9
$DIMDLE
 40
0.0
  9
$DIMEXE
 40
0.18
  9
$DIMTP
 40
0.0
  9
$DIMTM
 40
0.0
  9
$DIMTXT
 40
0.18
  9
$DIMCEN
 40
0.09
  9
$DIMTSZ
 40
0.0
  9
$DIMTOL
 70
     0
  9
$DIMLIM
 70
     0
  9
$DIMTIH
 70
     1
  9
$DIMTOH
 70
     1
  9
$DIMSE1
 70
     0
  9
$DIMSE2
 70
     0
  9
$DIMTAD
 70
     0
  9
$DIMZIN
 70
     0
  9
$DIMBLK
  1

  9
$DIMASO
 70
     1
  9
$DIMSHO
 70
     1
  9
$DIMPOST
  1

  9
$DIMAPOST
  1

  9
$DIMALT
 70
     0
  9
$DIMALTD
 70
     2
  9
$DIMALTF
 40
25.4
  9
$DIMLFAC
 40
1.0
  9
$DIMTOFL
 70
     0
  9
$DIMTVP
 40
0.0
  9
$DIMTIX
 70
     0
  9
$DIMSOXD
 70
     0
  9
$DIMSAH
 70
     0
  9
$DIMBLK1
  1

  9
$DIMBLK2
  1

  9
$DIMSTYLE
  2
Standard
  9
$DIMCLRD
 70
     0
  9
$DIMCLRE
 70
     0
  9
$DIMCLRT
 70
     0
  9
$DIMTFAC
 40
1.0
  9
$DIMGAP
 40
0.09
  9
$DIMJUST
 70
     0
  9
$DIMSD1
 70
     0
  9
$DIMSD2
 70
     0
  9
$DIMTOLJ
 70
     1
  9
$DIMTZIN
 70
     0
  9
$DIMALTZ
 70
     0
  9
$DIMALTTZ
 70
     0
  9
$DIMUPT
 70
     0
  9
$DIMDEC
 70
     4
  9
$DIMTDEC
 70
     4
  9
$DIMALTU
 70
     2
  9
$DIMALTTD
 70
     2
  9
$DIMTXSTY
  7
Standard
  9
$DIMAUNIT
 70
     0
  9
$DIMADEC
 70
     0
  9
$DIMALTRND
 40
0.0
  9
$DIMAZIN
 70
     0
  9
$DIMDSEP
 70
    46
  9
$DIMATFIT
 70
     3
  9
$DIMFRAC
 70
     0
  9
$DIMLDRBLK
  1

  9
$DIMLUNIT
 70
     2
  9
$DIMLWD
 70
    -2
  9
$DIMLWE
 70
    -2
  9
$DIMTMOVE
 70
     0
  9
$DIMFXL
 40
1.0
  9
$DIMFXLON
 70
     0
  9
$DIMJOGANG
 40
0.7853981633974483
  9
$DIMTFILL
 70
     0
  9
$DIMTFILLCLR
 70
     0
  9
$DIMARCSYM
 70
     0
  9
$DIMLTYPE
  6

  9
$DIMLTEX1
  6

  9
$DIMLTEX2
  6

  9
$DIMTXTDIRECTION
 70
     0
  9
$LUNITS
 70
     2
  9
$LUPREC
 70
     4
  9
$SKETCHINC
 40
0.1
  9
$FILLETRAD
 40
0.5
  9
$AUNITS
 70
     0
  9
$AUPREC
 70
     0
  9
$MENU
  1
.
  9
$ELEVATION
 40
0.0
  9
$PELEVATION
 40
0.0
  9
$THICKNESS
 40
0.0
  9
$LIMCHECK
 70
     0
  9
$CHAMFERA
 40
0.5
  9
$CHAMFERB
 40
0.5
  9
$CHAMFERC
 40
1.0
  9
$CHAMFERD
 40
0.0
  9
$SKPOLY
 70
     0
  9
$TDCREATE
 40
2457917.593784711
  9
$TDUCREATE
 40
2457917.218784722
  9
$TDUPDATE
 40
2457917.593784711
  9
$TDUUPDATE
 40
2457917.218784722
  9
$TDINDWG
 40
0.0000000116
  9
$TDUSRTIMER
 40
0.0000000116
  9
$USRTIMER
 70
     1
  9
$ANGBASE
 50
0.0
  9
$ANGDIR
 70
     0
  9
$PDMODE
 70
     0
  9
$PDSIZE
 40
0.0
  9
$PLINEWID
 40
0.0
  9
$SPLFRAME
 70
     0
  9
$SPLINETYPE
 70
     6
  9
$SPLINESEGS
 70
     8
  9
$HANDSEED
  5
E8
  9
$SURFTAB1
 70
     6
  9
$SURFTAB2
 70
     6
  9
$SURFTYPE
 70
     6
  9
$SURFU
 70
     6
  9
$SURFV
 70
     6
  9
$UCSBASE
  2

  9
$UCSNAME
  2

  9
$UCSORG
 10
0.0
 20
0.0
 30
0.0
  9
$UCSXDIR
 10
1.0
 20
0.0
 30
0.0
  9
$UCSYDIR
 10
0.0
 20
1.0
 30
0.0
  9
$UCSORTHOREF
  2

  9
$UCSORTHOVIEW
 70
     0
  9
$UCSORGTOP
 10
0.0
 20
0.0
 30
0.0
  9
$UCSORGBOTTOM
 10
0.0
 20
0.0
 30
0.0
  9
$UCSORGLEFT
 10
0.0
 20
0.0
 30
0.0
  9
$UCSORGRIGHT
 10
0.0
 20
0.0
 30
0.0
  9
$UCSORGFRONT
 10
0.0
 20
0.0
 30
0.0
  9
$UCSORGBACK
 10
0.0
 20
0.0
 30
0.0
  9
$PUCSBASE
  2

  9
$PUCSNAME
  2

  9
$PUCSORG
 10
0.0
 20
0.0
 30
0.0
  9
$PUCSXDIR
 10
1.0
 20
0.0
 30
0.0
  9
$PUCSYDIR
 10
0.0
 20
1.0
 30
0.0
  9
$PUCSORTHOREF
  2

  9
$PUCSORTHOVIEW
 70
     0
  9
$PUCSORGTOP
 10
0.0
 20
0.0
 30
0.0
  9
$PUCSORGBOTTOM
 10
0.0
 20
0.0
 30
0.0
  9
$PUCSORGLEFT
 10
0.0
 20
0.0
 30
0.0
  9
$PUCSORGRIGHT
 10
0.0
 20
0.0
 30
0.0
  9
$PUCSORGFRONT
 10
0.0
 20
0.0
 30
0.0
  9
$PUCSORGBACK
 10
0.0
 20
0.0
 30
0.0
  9
$USERI1
 70
     0
  9
$USERI2
 70
     0
  9
$USERI3
 70
     0
  9
$USERI4
 70
     0
  9
$USERI5
 70
     0
  9
$USERR1
 40
0.0
  9
$USERR2
 40
0.0
  9
$USERR3
 40
0.0
  9
$USERR4
 40
0.0
  9
$USERR5
 40
0.0
  9
$WORLDVIEW
 70
     1
  9
$SHADEDGE
 70
     3
  9
$SHADEDIF
 70
    70
  9
$TILEMODE
 70
     1
  9
$MAXACTVP
 70
    64
  9
$PINSBASE
 10
0.0
 20
0.0
 30
0.0
  9
$PLIMCHECK
 70
     0
  9
$PEXTMIN
 10
1.000000000000000E+20
 20
1.000000000000000E+20
 30
1.000000000000000E+20
  9
$PEXTMAX
 10
-1.000000000000000E+20
 20
-1.000000000000000E+20
 30
-1.000000000000000E+20
  9
$PLIMMIN
 10
0.0
 20
0.0
  9
$PLIMMAX
 10
12.0
 20
9.0
  9
$UNITMODE
 70
     0
  9
$VISRETAIN
 70
     1
  9
$PLINEGEN
 70
     0
  9
$PSLTSCALE
 70
     1
  9
$TREEDEPTH
 70
  3020
  9
$CMLSTYLE
  2
Standard
  9
$CMLJUST
 70
     0
  9
$CMLSCALE
 40
1.0
  9
$PROXYGRAPHICS
 70
     1
  9
$MEASUREMENT
 70
     0
  9
$CELWEIGHT
370
    -1
  9
$ENDCAPS
280
     0
  9
$JOINSTYLE
280
     0
  9
$LWDISPLAY
290
     1
  9
$INSUNITS
 70
     1
  9
$HYPERLINKBASE
  1

  9
$STYLESHEET
  1

  9
$XEDIT
290
     1
  9
$CEPSNTYPE
380
     0
  9
$PSTYLEMODE
290
     1
  9
$FINGERPRINTGUID
  2
{1EFF31F9-0633-A1CA-128B-A619D7B4C621}
  9
$VERSIONGUID
  2
{FAEB1C32-E019-11D5-929B-00C0DF256EC4}
  9
$EXTNAMES
290
     1
  9
$PSVPSCALE
 40
0.0
  9
$OLESTARTUP
290
     0
  9
$SORTENTS
280
   127
  9
$INDEXCTL
280
     0
  9
$HIDETEXT
280
     1
  9
$XCLIPFRAME
280
     2
  9
$HALOGAP
280
     0
  9
$OBSCOLOR
 70
   257
  9
$OBSLTYPE
280
     0
  9
$INTERSECTIONDISPLAY
280
     0
  9
$INTERSECTIONCOLOR
 70
   257
  9
$DIMASSOC
280
     2
  9
$PROJECTNAME
  1

  9
$CAMERADISPLAY
290
     0
  9
$LENSLENGTH
 40
50.0
  9
$CAMERAHEIGHT
 40
0.0
  9
$STEPSPERSEC
 40
2.0
  9
$STEPSIZE
 40
6.0
  9
$3DDWFPREC
 40
2.0
  9
$PSOLWIDTH
 40
0.25
  9
$PSOLHEIGHT
 40
4.0
  9
$LOFTANG1
 40
1.570796326794897
  9
$LOFTANG2
 40
1.570796326794897
  9
$LOFTMAG1
 40
0.0
  9
$LOFTMAG2
 40
0.0
  9
$LOFTPARAM
 70
     7
  9
$LOFTNORMALS
280
     1
  9
$LATITUDE
 40
37.795
  9
$LONGITUDE
 40
-122.394
  9
$NORTHDIRECTION
 40
0.0
  9
$TIMEZONE
 70
 -8000
  9
$LIGHTGLYPHDISPLAY
280
     1
  9
$TILEMODELIGHTSYNCH
280
     1
  9
$CMATERIAL
347
3C
  9
$SOLIDHIST
280
     1
  9
$SHOWHIST
280
     1
  9
$DWFFRAME
280
     2
  9
$DGNFRAME
280
     2
  9
$REALWORLDSCALE
290
     1
  9
$INTERFERECOLOR
 62
   256
  9
$CSHADOW
280
     0
  9
$SHADOWPLANELOCATION
 40
0.0
  0
ENDSEC
  0
SECTION
  2
CLASSES
  0
CLASS
  1
ACDBDICTIONARYWDFLT
  2
AcDbDictionaryWithDefault
  3
ObjectDBX Classes
 90
        0
 91
        4
280
     0
281
     0
  0
CLASS
  1
VISUALSTYLE
  2
AcDbVisualStyle
  3
ObjectDBX Classes
 90
     4095
 91
        4
280
     0
281
     0
  0
CLASS
  1
MATERIAL
  2
AcDbMaterial
  3
ObjectDBX Classes
 90
     1153
 91
        4
280
     0
281
     0
  0
CLASS
  1
SUN
  2
AcDbSun
  3
SCENEOE
 90
     1024
 91
        4
280
     0
281
     0
  0
ENDSEC
  0
SECTION
  2
TABLES
  0
TABLE
  2
VPORT
  5
8
330
0
100
AcDbSymbolTable
 70
     1
  0
VPORT
  5
29
330
8
100
AcDbSymbolTableRecord
100
AcDbViewportTableRecord
  2
*Active
 70
     0
 10
0.0
 20
0.0
 11
1.0
 21
1.0
 12
0.0
 22
0.0
 13
0.0
 23
0.0
 14
0.5
 24
0.5
 15
0.5
 25
0.5
 16
0.0
 26
0.0
 36
1.0
 17
91.00082462281999
 27
-128.4993055234307
 37
0.0
 40
256.9986110468615
 41
0.7081814508812795
 42
50.0
 43
0.0
 44
0.0
 50
0.0
 51
0.0
 71
     0
 72
   100
 73
     1
 74
     3
 75
     0
 76
     0
 77
     0
 78
     0
281
     0
 65
     1
110
0.0
120
0.0
130
0.0
111
1.0
121
0.0
131
0.0
112
0.0
122
1.0
132
0.0
 79
     0
146
0.0
 60
     3
 61
     5
292
     1
282
     1
141
0.0
142
0.0
 63
   250
361
3F
  0
ENDTAB
  0
TABLE
  2
LTYPE
  5
5
330
0
100
AcDbSymbolTable
 70
     1
  0
LTYPE
  5
14
330
5
100
AcDbSymbolTableRecord
100
AcDbLinetypeTableRecord
  2
ByBlock
 70
     0
  3

 72
    65
 73
     0
 40
0.0
  0
LTYPE
  5
15
330
5
100
AcDbSymbolTableRecord
100
AcDbLinetypeTableRecord
  2
ByLayer
 70
     0
  3

 72
    65
 73
     0
 40
0.0
  0
LTYPE
  5
16
330
5
100
AcDbSymbolTableRecord
100
AcDbLinetypeTableRecord
  2
Continuous
 70
     0
  3
Solid line
 72
    65
 73
     0
 40
0.0
  0
ENDTAB
  0
TABLE
  2
LAYER
  5
2
330
0
100
AcDbSymbolTable
 70
     2
  0
LAYER
  5
10
330
2
100
AcDbSymbolTableRecord
100
AcDbLayerTableRecord
  2
0
 70
     0
 62
     7
  6
Continuous
370
    -3
390
F
347
3E
  0
LAYER
  5
40
330
2
100
AcDbSymbolTableRecord
100
AcDbLayerTableRecord
  2
_U+30EC_U+30A4_U+30E4_U+30FC 1
 70
     0
 62
     7
  6
Continuous
370
    -3
390
F
347
3E
  0
ENDTAB
  0
TABLE
  2
STYLE
  5
3
330
0
100
AcDbSymbolTable
 70
     1
  0
STYLE
  5
11
330
3
100
AcDbSymbolTableRecord
100
AcDbTextStyleTableRecord
  2
Standard
 70
     0
 40
0.0
 41
1.0
 50
0.0
 71
     0
 42
0.2
  3
txt
  4

  0
ENDTAB
  0
TABLE
  2
VIEW
  5
6
330
0
100
AcDbSymbolTable
 70
     0
  0
ENDTAB
  0
TABLE
  2
UCS
  5
7
330
0
100
AcDbSymbolTable
 70
     0
  0
ENDTAB
  0
TABLE
  2
APPID
  5
9
330
0
100
AcDbSymbolTable
 70
     1
  0
APPID
  5
12
330
9
100
AcDbSymbolTableRecord
100
AcDbRegAppTableRecord
  2
ACAD
 70
     0
  0
ENDTAB
  0
TABLE
  2
DIMSTYLE
  5
A
330
0
100
AcDbSymbolTable
 70
     1
100
AcDbDimStyleTable
  0
DIMSTYLE
105
27
330
A
100
AcDbSymbolTableRecord
100
AcDbDimStyleTableRecord
  2
Standard
 70
     0
178
     0
340
11
  0
ENDTAB
  0
TABLE
  2
BLOCK_RECORD
  5
1
330
0
100
AcDbSymbolTable
 70
     8
  0
BLOCK_RECORD
  5
1F
330
1
100
AcDbSymbolTableRecord
100
AcDbBlockTableRecord
  2
*Model_Space
340
22
 70
     0
280
     1
281
     0
  0
BLOCK_RECORD
  5
1B
330
1
100
AcDbSymbolTableRecord
100
AcDbBlockTableRecord
  2
*Paper_Space
340
1E
 70
     0
280
     1
281
     0
  0
BLOCK_RECORD
  5
23
330
1
100
AcDbSymbolTableRecord
100
AcDbBlockTableRecord
  2
*Paper_Space0
340
26
 70
     0
280
     1
281
     0
  0
BLOCK_RECORD
  5
59
330
1
100
AcDbSymbolTableRecord
100
AcDbBlockTableRecord
  2
block 2
340
0
102
{BLKREFS
331
5A
102
}
 70
     0
280
     1
281
     0
  0
BLOCK_RECORD
  5
61
330
1
100
AcDbSymbolTableRecord
100
AcDbBlockTableRecord
  2
block 3
340
0
102
{BLKREFS
331
62
102
}
 70
     0
280
     1
281
     0
  0
BLOCK_RECORD
  5
73
330
1
100
AcDbSymbolTableRecord
100
AcDbBlockTableRecord
  2
block 4
340
0
102
{BLKREFS
331
74
102
}
 70
     0
280
     1
281
     0
  0
BLOCK_RECORD
  5
A7
330
1
100
AcDbSymbolTableRecord
100
AcDbBlockTableRecord
  2
block 5
340
0
102
{BLKREFS
331
A8
102
}
 70
     0
280
     1
281
     0
  0
BLOCK_RECORD
  5
AE
330
1
100
AcDbSymbolTableRecord
100
AcDbBlockTableRecord
  2
block 6
340
0
102
{BLKREFS
331
AF
102
}
 70
     0
280
     1
281
     0
  0
BLOCK_RECORD
  5
B9
330
1
100
AcDbSymbolTableRecord
100
AcDbBlockTableRecord
  2
block 7
340
0
102
{BLKREFS
331
BA
102
}
 70
     0
280
     1
281
     0
  0
BLOCK_RECORD
  5
DA
330
1
100
AcDbSymbolTableRecord
100
AcDbBlockTableRecord
  2
block 8
340
0
102
{BLKREFS
331
DB
102
}
 70
     0
280
     1
281
     0
  0
ENDTAB
  0
ENDSEC
  0
SECTION
  2
BLOCKS
  0
BLOCK
  5
20
330
1F
100
AcDbEntity
  8
0
100
AcDbBlockBegin
  2
*Model_Space
 70
     0
 10
0.0
 20
0.0
 30
0.0
  3
*Model_Space
  1

  0
ENDBLK
  5
21
330
1F
100
AcDbEntity
  8
0
100
AcDbBlockEnd
  0
BLOCK
  5
1C
330
1B
100
AcDbEntity
 67
     1
  8
0
100
AcDbBlockBegin
  2
*Paper_Space
 70
     0
 10
0.0
 20
0.0
 30
0.0
  3
*Paper_Space
  1

  0
ENDBLK
  5
1D
330
1B
100
AcDbEntity
 67
     1
  8
0
100
AcDbBlockEnd
  0
BLOCK
  5
24
330
23
100
AcDbEntity
  8
0
100
AcDbBlockBegin
  2
*Paper_Space0
 70
     0
 10
0.0
 20
0.0
 30
0.0
  3
*Paper_Space0
  1

  0
ENDBLK
  5
25
330
23
100
AcDbEntity
  8
0
100
AcDbBlockEnd
  0
BLOCK
  5
5B
330
59
100
AcDbEntity
  8
0
100
AcDbBlockBegin
  2
block 2
 70
     0
 10
0.0
 20
0.0
 30
0.0
  3
block 2
  1

  0
SPLINE
  5
5D
330
59
100
AcDbEntity
  8
_U+30EC_U+30A4_U+30E4_U+30FC 1
370
     0
100
AcDbSpline
210
0.0
220
0.0
230
1.0
 70
    11
 71
     3
 72
    26
 73
    22
 74
     0
 42
0.0000000001
 43
0.0000000001
 12
1.0
 22
0.0
 32
0.0
 13
1.0
 23
0.0
 33
0.0
 40
0.0
 40
0.0
 40
0.0
 40
0.0
 40
1.0
 40
1.0
 40
1.0
 40
2.0
 40
2.0
 40
2.0
 40
3.0
 40
3.0
 40
3.0
 40
4.0
 40
4.0
 40
4.0
 40
5.0
 40
5.0
 40
5.0
 40
6.0
 40
6.0
 40
6.0
 40
7.0
 40
7.0
 40
7.0
 40
7.0
 10
112.1564615605025
 20
-130.5842773111039
 30
0.0
 10
112.1564615605025
 20
-130.5842773111039
 30
0.0
 10
111.05230845748
 20
-130.5842773111039
 30
0.0
 10
111.05230845748
 20
-130.5842773111039
 30
0.0
 10
111.05230845748
 20
-130.5842773111039
 30
0.0
 10
111.05230845748
 20
-130.9143174585909
 30
0.0
 10
111.05230845748
 20
-130.9143174585909
 30
0.0
 10
111.05230845748
 20
-130.9143174585909
 30
0.0
 10
110.9041693516142
 20
-130.9143174585909
 30
0.0
 10
110.9041693516142
 20
-130.9143174585909
 30
0.0
 10
110.8893554410277
 20
-130.5822102538128
 30
0.0
 10
110.7264024245754
 20
-130.5357014647619
 30
0.0
 10
110.6120252544651
 20
-130.5060736435888
 30
0.0
 10
110.6120252544651
 20
-130.5060736435888
 30
0.0
 10
110.6120252544651
 20
-130.3600015950142
 30
0.0
 10
110.6120252544651
 20
-130.3600015950142
 30
0.0
 10
110.6120252544651
 20
-130.3600015950142
 30
0.0
 10
112.1564615605025
 20
-130.3600015950142
 30
0.0
 10
112.1564615605025
 20
-130.3600015950142
 30
0.0
 10
112.1564615605025
 20
-130.3600015950142
 30
0.0
 10
112.1564615605025
 20
-130.5842773111039
 30
0.0
 10
112.1564615605025
 20
-130.5842773111039
 30
0.0
  0
HATCH
  5
5E
330
59
100
AcDbEntity
  8
_U+30EC_U+30A4_U+30E4_U+30FC 1
 62
   179
420
  2234388
100
AcDbHatch
 10
0.0
 20
0.0
 30
0.0
210
0.0
220
0.0
230
1.0
  2
SOLID
 70
     1
 71
     0
 91
        1
 92
        1
 93
        1
 72
     4
 94
        3
 73
     0
 74
     1
 95
       26
 96
       22
 40
0.0
 40
0.0
 40
0.0
 40
0.0
 40
1.0
 40
1.0
 40
1.0
 40
2.0
 40
2.0
 40
2.0
 40
3.0
 40
3.0
 40
3.0
 40
4.0
 40
4.0
 40
4.0
 40
5.0
 40
5.0
 40
5.0
 40
6.0
 40
6.0
 40
6.0
 40
7.0
 40
7.0
 40
7.0
 40
7.0
 10
112.1564615605025
 20
-130.5842773111039
 10
112.1564615605025
 20
-130.5842773111039
 10
111.05230845748
 20
-130.5842773111039
 10
111.05230845748
 20
-130.5842773111039
 10
111.05230845748
 20
-130.5842773111039
 10
111.05230845748
 20
-130.9143174585909
 10
111.05230845748
 20
-130.9143174585909
 10
111.05230845748
 20
-130.9143174585909
 10
110.9041693516142
 20
-130.9143174585909
 10
110.9041693516142
 20
-130.9143174585909
 10
110.8893554410277
 20
-130.5822102538128
 10
110.7264024245754
 20
-130.5357014647619
 10
110.6120252544651
 20
-130.5060736435888
 10
110.6120252544651
 20
-130.5060736435888
 10
110.6120252544651
 20
-130.3600015950142
 10
110.6120252544651
 20
-130.3600015950142
 10
110.6120252544651
 20
-130.3600015950142
 10
112.1564615605025
 20
-130.3600015950142
 10
112.1564615605025
 20
-130.3600015950142
 10
112.1564615605025
 20
-130.3600015950142
 10
112.1564615605025
 20
-130.5842773111039
 10
112.1564615605025
 20
-130.5842773111039
 97
        0
 97
        0
 75
     2
 76
     1
 98
        0
  0
SPLINE
  5
5F
330
59
100
AcDbEntity
  8
_U+30EC_U+30A4_U+30E4_U+30FC 1
370
     0
100
AcDbSpline
210
0.0
220
0.0
230
1.0
 70
    11
 71
     3
 72
    62
 73
    58
 74
     0
 42
0.0000000001
 43
0.0000000001
 12
1.0
 22
0.0
 32
0.0
 13
1.0
 23
0.0
 33
0.0
 40
0.0
 40
0.0
 40
0.0
 40
0.0
 40
1.0
 40
1.0
 40
1.0
 40
2.0
 40
2.0
 40
2.0
 40
3.0
 40
3.0
 40
3.0
 40
4.0
 40
4.0
 40
4.0
 40
5.0
 40
5.0
 40
5.0
 40
6.0
 40
6.0
 40
6.0
 40
7.0
 40
7.0
 40
7.0
 40
8.0
 40
8.0
 40
8.0
 40
9.0
 40
9.0
 40
9.0
 40
10.0
 40
10.0
 40
10.0
 40
11.0
 40
11.0
 40
11.0
 40
12.0
 40
12.0
 40
12.0
 40
13.0
 40
13.0
 40
13.0
 40
14.0
 40
14.0
 40
14.0
 40
15.0
 40
15.0
 40
15.0
 40
16.0
 40
16.0
 40
16.0
 40
17.0
 40
17.0
 40
17.0
 40
18.0
 40
18.0
 40
18.0
 40
19.0
 40
19.0
 40
19.0
 40
19.0
 10
112.2071044641357
 20
-129.3671250761652
 30
0.0
 10
112.2071044641357
 20
-129.4625542211066
 30
0.0
 10
112.1860893816757
 20
-129.6802842557744
 30
0.0
 10
112.0000542254722
 20
-129.8053412218889
 30
0.0
 10
111.8877441126531
 20
-129.8794107748218
 30
0.0
 10
111.7885253626779
 20
-129.8835448894041
 30
0.0
 10
111.7037760137407
 20
-129.8876790039864
 30
0.0
 10
111.7037760137407
 20
-129.8876790039864
 30
0.0
 10
111.7037760137407
 20
-129.667537402479
 30
0.0
 10
111.7037760137407
 20
-129.667537402479
 30
0.0
 10
111.7778455666736
 20
-129.6654703451878
 30
0.0
 10
112.0124565692191
 20
-129.655135058732
 30
0.0
 10
112.0124565692191
 20
-129.371603700296
 30
0.0
 10
112.0124565692191
 20
-129.2341443904345
 30
0.0
 10
111.9428656404171
 20
-129.081526660438
 30
0.0
 10
111.714455809745
 20
-129.081526660438
 30
0.0
 10
111.5980115823436
 20
-129.081526660438
 30
0.0
 10
111.5494357360015
 20
-129.1197672203242
 30
0.0
 10
111.5177408575372
 20
-129.1514620987885
 30
0.0
 10
111.4436713046044
 20
-129.2255316517214
 30
0.0
 10
111.4309244513089
 20
-129.3419758791229
 30
0.0
 10
111.4309244513089
 20
-129.3967528973383
 30
0.0
 10
111.4309244513089
 20
-129.4160454320557
 30
0.0
 10
111.4329915086001
 20
-129.4518744251023
 30
0.0
 10
111.4371256231824
 20
-129.4794351889843
 30
0.0
 10
111.4371256231824
 20
-129.4794351889843
 30
0.0
 10
111.2424777282658
 20
-129.4794351889843
 30
0.0
 10
111.2424777282658
 20
-129.4794351889843
 30
0.0
 10
111.2490234096878
 20
-129.441194629098
 30
0.0
 10
111.2510904669789
 20
-129.399164464178
 30
0.0
 10
111.2510904669789
 20
-129.392618782756
 30
0.0
 10
111.2510904669789
 20
-129.3271619685363
 30
0.0
 10
111.2297308749703
 20
-129.1283799590373
 30
0.0
 10
110.9930528151337
 20
-129.1283799590373
 30
0.0
 10
110.8152858880948
 20
-129.1283799590373
 30
0.0
 10
110.7601643603308
 20
-129.2592935874769
 30
0.0
 10
110.7601643603308
 20
-129.3695366430048
 30
0.0
 10
110.7601643603308
 20
-129.6337754667235
 30
0.0
 10
110.9930528151337
 20
-129.6423882054366
 30
0.0
 10
111.0647108012269
 20
-129.6465223200189
 30
0.0
 10
111.0647108012269
 20
-129.6465223200189
 30
0.0
 10
111.0647108012269
 20
-129.8497829536487
 30
0.0
 10
111.0647108012269
 20
-129.8497829536487
 30
0.0
 10
110.9399983446608
 20
-129.8411702149355
 30
0.0
 10
110.563449408123
 20
-129.8136094510535
 30
0.0
 10
110.563449408123
 20
-129.3567897897094
 30
0.0
 10
110.563449408123
 20
-129.1325140736197
 30
0.0
 10
110.6905734315287
 20
-128.8913573896522
 30
0.0
 10
110.9865071337117
 20
-128.8913573896522
 30
0.0
 10
111.1728867994637
 20
-128.8913573896522
 30
0.0
 10
111.2552245815612
 20
-128.9864420250451
 30
0.0
 10
111.3165472811987
 20
-129.0860052845688
 30
0.0
 10
111.3441080450806
 20
-129.0246825849313
 30
0.0
 10
111.424378769887
 20
-128.8427815433101
 30
0.0
 10
111.7017089564496
 20
-128.8427815433101
 30
0.0
 10
112.0400173331011
 20
-128.8427815433101
 30
0.0
 10
112.2071044641357
 20
-129.0901393991511
 30
0.0
 10
112.2071044641357
 20
-129.3671250761652
 30
0.0
  0
HATCH
  5
60
330
59
100
AcDbEntity
  8
_U+30EC_U+30A4_U+30E4_U+30FC 1
 62
   179
420
  2234388
100
AcDbHatch
 10
0.0
 20
0.0
 30
0.0
210
0.0
220
0.0
230
1.0
  2
SOLID
 70
     1
 71
     0
 91
        1
 92
        1
 93
        1
 72
     4
 94
        3
 73
     0
 74
     1
 95
       62
 96
       58
 40
0.0
 40
0.0
 40
0.0
 40
0.0
 40
1.0
 40
1.0
 40
1.0
 40
2.0
 40
2.0
 40
2.0
 40
3.0
 40
3.0
 40
3.0
 40
4.0
 40
4.0
 40
4.0
 40
5.0
 40
5.0
 40
5.0
 40
6.0
 40
6.0
 40
6.0
 40
7.0
 40
7.0
 40
7.0
 40
8.0
 40
8.0
 40
8.0
 40
9.0
 40
9.0
 40
9.0
 40
10.0
 40
10.0
 40
10.0
 40
11.0
 40
11.0
 40
11.0
 40
12.0
 40
12.0
 40
12.0
 40
13.0
 40
13.0
 40
13.0
 40
14.0
 40
14.0
 40
14.0
 40
15.0
 40
15.0
 40
15.0
 40
16.0
 40
16.0
 40
16.0
 40
17.0
 40
17.0
 40
17.0
 40
18.0
 40
18.0
 40
18.0
 40
19.0
 40
19.0
 40
19.0
 40
19.0
 10
112.2071044641357
 20
-129.3671250761652
 10
112.2071044641357
 20
-129.4625542211066
 10
112.1860893816757
 20
-129.6802842557744
 10
112.0000542254722
 20
-129.8053412218889
 10
111.8877441126531
 20
-129.8794107748218
 10
111.7885253626779
 20
-129.8835448894041
 10
111.7037760137407
 20
-129.8876790039864
 10
111.7037760137407
 20
-129.8876790039864
 10
111.7037760137407
 20
-129.667537402479
 10
111.7037760137407
 20
-129.667537402479
 10
111.7778455666736
 20
-129.6654703451878
 10
112.0124565692191
 20
-129.655135058732
 10
112.0124565692191
 20
-129.371603700296
 10
112.0124565692191
 20
-129.2341443904345
 10
111.9428656404171
 20
-129.081526660438
 10
111.714455809745
 20
-129.081526660438
 10
111.5980115823436
 20
-129.081526660438
 10
111.5494357360015
 20
-129.1197672203242
 10
111.5177408575372
 20
-129.1514620987885
 10
111.4436713046044
 20
-129.2255316517214
 10
111.4309244513089
 20
-129.3419758791229
 10
111.4309244513089
 20
-129.3967528973383
 10
111.4309244513089
 20
-129.4160454320557
 10
111.4329915086001
 20
-129.4518744251023
 10
111.4371256231824
 20
-129.4794351889843
 10
111.4371256231824
 20
-129.4794351889843
 10
111.2424777282658
 20
-129.4794351889843
 10
111.2424777282658
 20
-129.4794351889843
 10
111.2490234096878
 20
-129.441194629098
 10
111.2510904669789
 20
-129.399164464178
 10
111.2510904669789
 20
-129.392618782756
 10
111.2510904669789
 20
-129.3271619685363
 10
111.2297308749703
 20
-129.1283799590373
 10
110.9930528151337
 20
-129.1283799590373
 10
110.8152858880948
 20
-129.1283799590373
 10
110.7601643603308
 20
-129.2592935874769
 10
110.7601643603308
 20
-129.3695366430048
 10
110.7601643603308
 20
-129.6337754667235
 10
110.9930528151337
 20
-129.6423882054366
 10
111.0647108012269
 20
-129.6465223200189
 10
111.0647108012269
 20
-129.6465223200189
 10
111.0647108012269
 20
-129.8497829536487
 10
111.0647108012269
 20
-129.8497829536487
 10
110.9399983446608
 20
-129.8411702149355
 10
110.563449408123
 20
-129.8136094510535
 10
110.563449408123
 20
-129.3567897897094
 10
110.563449408123
 20
-129.1325140736197
 10
110.6905734315287
 20
-128.8913573896522
 10
110.9865071337117
 20
-128.8913573896522
 10
111.1728867994637
 20
-128.8913573896522
 10
111.2552245815612
 20
-128.9864420250451
 10
111.3165472811987
 20
-129.0860052845688
 10
111.3441080450806
 20
-129.0246825849313
 10
111.424378769887
 20
-128.8427815433101
 10
111.7017089564496
 20
-128.8427815433101
 10
112.0400173331011
 20
-128.8427815433101
 10
112.2071044641357
 20
-129.0901393991511
 10
112.2071044641357
 20
-129.3671250761652
 97
        0
 97
        0
 75
     2
 76
     1
 98
        0
  0
ENDBLK
  5
5C
330
59
100
AcDbEntity
  8
0
100
AcDbBlockEnd
  0
BLOCK
  5
63
330
61
100
AcDbEntity
  8
0
100
AcDbBlockBegin
  2
block 3
 70
     0
 10
0.0
 20
0.0
 30
0.0
  3
block 3
  1

  0
SPLINE
  5
65
330
61
100
AcDbEntity
  8
_U+30EC_U+30A4_U+30E4_U+30FC 1
370
     0
100
AcDbSpline
210
0.0
220
0.0
230
1.0
 70
    11
 71
     3
 72
    62
 73
    58
 74
     0
 42
0.0000000001
 43
0.0000000001
 12
1.0
 22
0.0
 32
0.0
 13
1.0
 23
0.0
 33
0.0
 40
0.0
 40
0.0
 40
0.0
 40
0.0
 40
1.0
 40
1.0
 40
1.0
 40
2.0
 40
2.0
 40
2.0
 40
3.0
 40
3.0
 40
3.0
 40
4.0
 40
4.0
 40
4.0
 40
5.0
 40
5.0
 40
5.0
 40
6.0
 40
6.0
 40
6.0
 40
7.0
 40
7.0
 40
7.0
 40
8.0
 40
8.0
 40
8.0
 40
9.0
 40
9.0
 40
9.0
 40
10.0
 40
10.0
 40
10.0
 40
11.0
 40
11.0
 40
11.0
 40
12.0
 40
12.0
 40
12.0
 40
13.0
 40
13.0
 40
13.0
 40
14.0
 40
14.0
 40
14.0
 40
15.0
 40
15.0
 40
15.0
 40
16.0
 40
16.0
 40
16.0
 40
17.0
 40
17.0
 40
17.0
 40
18.0
 40
18.0
 40
18.0
 40
19.0
 40
19.0
 40
19.0
 40
19.0
 10
107.8273545737376
 20
-121.6025688715091
 30
0.0
 10
107.8273545737376
 20
-121.6979980164505
 30
0.0
 10
107.8063394912776
 20
-121.9157280511183
 30
0.0
 10
107.6203043350741
 20
-122.0407850172329
 30
0.0
 10
107.507994222255
 20
-122.1148545701657
 30
0.0
 10
107.4087754722798
 20
-122.118988684748
 30
0.0
 10
107.3240261233426
 20
-122.1231227993303
 30
0.0
 10
107.3240261233426
 20
-122.1231227993303
 30
0.0
 10
107.3240261233426
 20
-121.9029811978229
 30
0.0
 10
107.3240261233426
 20
-121.9029811978229
 30
0.0
 10
107.3980956762755
 20
-121.9009141405317
 30
0.0
 10
107.632706678821
 20
-121.890578854076
 30
0.0
 10
107.632706678821
 20
-121.6070474956399
 30
0.0
 10
107.632706678821
 20
-121.4695881857784
 30
0.0
 10
107.563115750019
 20
-121.3169704557819
 30
0.0
 10
107.3347059193469
 20
-121.3169704557819
 30
0.0
 10
107.2182616919454
 20
-121.3169704557819
 30
0.0
 10
107.1696858456034
 20
-121.3552110156681
 30
0.0
 10
107.1379909671391
 20
-121.3869058941324
 30
0.0
 10
107.0639214142062
 20
-121.4609754470653
 30
0.0
 10
107.0511745609108
 20
-121.5774196744668
 30
0.0
 10
107.0511745609108
 20
-121.6321966926822
 30
0.0
 10
107.0511745609108
 20
-121.6514892273996
 30
0.0
 10
107.053241618202
 20
-121.6873182204462
 30
0.0
 10
107.0573757327843
 20
-121.7148789843282
 30
0.0
 10
107.0573757327843
 20
-121.7148789843282
 30
0.0
 10
106.8627278378677
 20
-121.7148789843282
 30
0.0
 10
106.8627278378677
 20
-121.7148789843282
 30
0.0
 10
106.8692735192896
 20
-121.676638424442
 30
0.0
 10
106.8713405765808
 20
-121.6346082595219
 30
0.0
 10
106.8713405765808
 20
-121.6280625780999
 30
0.0
 10
106.8713405765808
 20
-121.5626057638802
 30
0.0
 10
106.8499809845722
 20
-121.3638237543813
 30
0.0
 10
106.6133029247356
 20
-121.3638237543813
 30
0.0
 10
106.4355359976967
 20
-121.3638237543813
 30
0.0
 10
106.3804144699327
 20
-121.4947373828208
 30
0.0
 10
106.3804144699327
 20
-121.6049804383488
 30
0.0
 10
106.3804144699327
 20
-121.8692192620674
 30
0.0
 10
106.6133029247356
 20
-121.8778320007805
 30
0.0
 10
106.6849609108288
 20
-121.8819661153628
 30
0.0
 10
106.6849609108288
 20
-121.8819661153628
 30
0.0
 10
106.6849609108288
 20
-122.0852267489926
 30
0.0
 10
106.6849609108288
 20
-122.0852267489926
 30
0.0
 10
106.5602484542627
 20
-122.0766140102795
 30
0.0
 10
106.1836995177249
 20
-122.0490532463975
 30
0.0
 10
106.1836995177249
 20
-121.5922335850533
 30
0.0
 10
106.1836995177249
 20
-121.3679578689636
 30
0.0
 10
106.3108235411306
 20
-121.1268011849961
 30
0.0
 10
106.6067572433136
 20
-121.1268011849961
 30
0.0
 10
106.7931369090656
 20
-121.1268011849961
 30
0.0
 10
106.8754746911631
 20
-121.221885820389
 30
0.0
 10
106.9367973908005
 20
-121.3214490799127
 30
0.0
 10
106.9643581546825
 20
-121.2601263802753
 30
0.0
 10
107.0446288794889
 20
-121.0782253386541
 30
0.0
 10
107.3219590660515
 20
-121.0782253386541
 30
0.0
 10
107.660267442703
 20
-121.0782253386541
 30
0.0
 10
107.8273545737376
 20
-121.325583194495
 30
0.0
 10
107.8273545737376
 20
-121.6025688715091
 30
0.0
  0
HATCH
  5
66
330
61
100
AcDbEntity
  8
_U+30EC_U+30A4_U+30E4_U+30FC 1
 62
   179
420
  2234388
100
AcDbHatch
 10
0.0
 20
0.0
 30
0.0
210
0.0
220
0.0
230
1.0
  2
SOLID
 70
     1
 71
     0
 91
        1
 92
        1
 93
        1
 72
     4
 94
        3
 73
     0
 74
     1
 95
       62
 96
       58
 40
0.0
 40
0.0
 40
0.0
 40
0.0
 40
1.0
 40
1.0
 40
1.0
 40
2.0
 40
2.0
 40
2.0
 40
3.0
 40
3.0
 40
3.0
 40
4.0
 40
4.0
 40
4.0
 40
5.0
 40
5.0
 40
5.0
 40
6.0
 40
6.0
 40
6.0
 40
7.0
 40
7.0
 40
7.0
 40
8.0
 40
8.0
 40
8.0
 40
9.0
 40
9.0
 40
9.0
 40
10.0
 40
10.0
 40
10.0
 40
11.0
 40
11.0
 40
11.0
 40
12.0
 40
12.0
 40
12.0
 40
13.0
 40
13.0
 40
13.0
 40
14.0
 40
14.0
 40
14.0
 40
15.0
 40
15.0
 40
15.0
 40
16.0
 40
16.0
 40
16.0
 40
17.0
 40
17.0
 40
17.0
 40
18.0
 40
18.0
 40
18.0
 40
19.0
 40
19.0
 40
19.0
 40
19.0
 10
107.8273545737376
 20
-121.6025688715091
 10
107.8273545737376
 20
-121.6979980164505
 10
107.8063394912776
 20
-121.9157280511183
 10
107.6203043350741
 20
-122.0407850172329
 10
107.507994222255
 20
-122.1148545701657
 10
107.4087754722798
 20
-122.118988684748
 10
107.3240261233426
 20
-122.1231227993303
 10
107.3240261233426
 20
-122.1231227993303
 10
107.3240261233426
 20
-121.9029811978229
 10
107.3240261233426
 20
-121.9029811978229
 10
107.3980956762755
 20
-121.9009141405317
 10
107.632706678821
 20
-121.890578854076
 10
107.632706678821
 20
-121.6070474956399
 10
107.632706678821
 20
-121.4695881857784
 10
107.563115750019
 20
-121.3169704557819
 10
107.3347059193469
 20
-121.3169704557819
 10
107.2182616919454
 20
-121.3169704557819
 10
107.1696858456034
 20
-121.3552110156681
 10
107.1379909671391
 20
-121.3869058941324
 10
107.0639214142062
 20
-121.4609754470653
 10
107.0511745609108
 20
-121.5774196744668
 10
107.0511745609108
 20
-121.6321966926822
 10
107.0511745609108
 20
-121.6514892273996
 10
107.053241618202
 20
-121.6873182204462
 10
107.0573757327843
 20
-121.7148789843282
 10
107.0573757327843
 20
-121.7148789843282
 10
106.8627278378677
 20
-121.7148789843282
 10
106.8627278378677
 20
-121.7148789843282
 10
106.8692735192896
 20
-121.676638424442
 10
106.8713405765808
 20
-121.6346082595219
 10
106.8713405765808
 20
-121.6280625780999
 10
106.8713405765808
 20
-121.5626057638802
 10
106.8499809845722
 20
-121.3638237543813
 10
106.6133029247356
 20
-121.3638237543813
 10
106.4355359976967
 20
-121.3638237543813
 10
106.3804144699327
 20
-121.4947373828208
 10
106.3804144699327
 20
-121.6049804383488
 10
106.3804144699327
 20
-121.8692192620674
 10
106.6133029247356
 20
-121.8778320007805
 10
106.6849609108288
 20
-121.8819661153628
 10
106.6849609108288
 20
-121.8819661153628
 10
106.6849609108288
 20
-122.0852267489926
 10
106.6849609108288
 20
-122.0852267489926
 10
106.5602484542627
 20
-122.0766140102795
 10
106.1836995177249
 20
-122.0490532463975
 10
106.1836995177249
 20
-121.5922335850533
 10
106.1836995177249
 20
-121.3679578689636
 10
106.3108235411306
 20
-121.1268011849961
 10
106.6067572433136
 20
-121.1268011849961
 10
106.7931369090656
 20
-121.1268011849961
 10
106.8754746911631
 20
-121.221885820389
 10
106.9367973908005
 20
-121.3214490799127
 10
106.9643581546825
 20
-121.2601263802753
 10
107.0446288794889
 20
-121.0782253386541
 10
107.3219590660515
 20
-121.0782253386541
 10
107.660267442703
 20
-121.0782253386541
 10
107.8273545737376
 20
-121.325583194495
 10
107.8273545737376
 20
-121.6025688715091
 97
        0
 97
        0
 75
     2
 76
     1
 98
        0
  0
ENDBLK
  5
64
330
61
100
AcDbEntity
  8
0
100
AcDbBlockEnd
  0
BLOCK
  5
75
330
73
100
AcDbEntity
  8
0
100
AcDbBlockBegin
  2
block 4
 70
     0
 10
0.0
 20
0.0
 30
0.0
  3
block 4
  1

  0
POLYLINE
  5
77
330
73
100
AcDbEntity
  8
_U+30EC_U+30A4_U+30E4_U+30FC 1
370
     0
100
AcDb2dPolyline
 66
     1
 10
0.0
 20
0.0
 30
0.0
  0
VERTEX
  5
78
330
77
100
AcDbEntity
  8
_U+30EC_U+30A4_U+30E4_U+30FC 1
370
     0
100
AcDbVertex
100
AcDb2dVertex
 10
87.43497312267252
 20
-140.1392496394444
 30
0.0
  0
VERTEX
  5
79
330
77
100
AcDbEntity
  8
_U+30EC_U+30A4_U+30E4_U+30FC 1
370
     0
100
AcDbVertex
100
AcDb2dVertex
 10
87.43497312267252
 20
-140.486170754809
 30
0.0
  0
VERTEX
  5
7A
330
77
100
AcDbEntity
  8
_U+30EC_U+30A4_U+30E4_U+30FC 1
370
     0
100
AcDbVertex
100
AcDb2dVertex
 10
87.21724308800472
 20
-140.486170754809
 30
0.0
  0
VERTEX
  5
7B
330
77
100
AcDbEntity
  8
_U+30EC_U+30A4_U+30E4_U+30FC 1
370
     0
100
AcDbVertex
100
AcDb2dVertex
 10
87.21724308800472
 20
-140.1392496394444
 30
0.0
  0
VERTEX
  5
7C
330
77
100
AcDbEntity
  8
_U+30EC_U+30A4_U+30E4_U+30FC 1
370
     0
100
AcDbVertex
100
AcDb2dVertex
 10
86.56129690761315
 20
-140.1392496394444
 30
0.0
  0
VERTEX
  5
7D
330
77
100
AcDbEntity
  8
_U+30EC_U+30A4_U+30E4_U+30FC 1
370
     0
100
AcDbVertex
100
AcDb2dVertex
 10
86.56129690761315
 20
-139.9149739233546
 30
0.0
  0
VERTEX
  5
7E
330
77
100
AcDbEntity
  8
_U+30EC_U+30A4_U+30E4_U+30FC 1
370
     0
100
AcDbVertex
100
AcDb2dVertex
 10
87.24032522775589
 20
-138.9417344487715
 30
0.0
  0
VERTEX
  5
7F
330
77
100
AcDbEntity
  8
_U+30EC_U+30A4_U+30E4_U+30FC 1
370
     0
100
AcDbVertex
100
AcDb2dVertex
 10
87.43497312267252
 20
-138.9417344487715
 30
0.0
  0
VERTEX
  5
80
330
77
100
AcDbEntity
  8
_U+30EC_U+30A4_U+30E4_U+30FC 1
370
     0
100
AcDbVertex
100
AcDb2dVertex
 10
87.43497312267252
 20
-139.9404676299454
 30
0.0
  0
VERTEX
  5
81
330
77
100
AcDbEntity
  8
_U+30EC_U+30A4_U+30E4_U+30FC 1
370
     0
100
AcDbVertex
100
AcDb2dVertex
 10
87.64236787088456
 20
-139.9404676299454
 30
0.0
  0
VERTEX
  5
82
330
77
100
AcDbEntity
  8
_U+30EC_U+30A4_U+30E4_U+30FC 1
370
     0
100
AcDbVertex
100
AcDb2dVertex
 10
87.64236787088456
 20
-140.1392496394444
 30
0.0
  0
VERTEX
  5
83
330
77
100
AcDbEntity
  8
_U+30EC_U+30A4_U+30E4_U+30FC 1
370
     0
100
AcDbVertex
100
AcDb2dVertex
 10
87.43497312267252
 20
-140.1392496394444
 30
0.0
  0
SEQEND
  5
84
330
77
100
AcDbEntity
  8
_U+30EC_U+30A4_U+30E4_U+30FC 1
370
     0
  0
POLYLINE
  5
85
330
73
100
AcDbEntity
  8
_U+30EC_U+30A4_U+30E4_U+30FC 1
370
     0
100
AcDb2dPolyline
 66
     1
 10
0.0
 20
0.0
 30
0.0
  0
VERTEX
  5
86
330
85
100
AcDbEntity
  8
_U+30EC_U+30A4_U+30E4_U+30FC 1
370
     0
100
AcDbVertex
100
AcDb2dVertex
 10
87.21724308800472
 20
-139.2845214495539
 30
0.0
  0
VERTEX
  5
87
330
85
100
AcDbEntity
  8
_U+30EC_U+30A4_U+30E4_U+30FC 1
370
     0
100
AcDbVertex
100
AcDb2dVertex
 10
86.76007891711207
 20
-139.9404676299454
 30
0.0
  0
VERTEX
  5
88
330
85
100
AcDbEntity
  8
_U+30EC_U+30A4_U+30E4_U+30FC 1
370
     0
100
AcDbVertex
100
AcDb2dVertex
 10
87.21724308800472
 20
-139.9404676299454
 30
0.0
  0
VERTEX
  5
89
330
85
100
AcDbEntity
  8
_U+30EC_U+30A4_U+30E4_U+30FC 1
370
     0
100
AcDbVertex
100
AcDb2dVertex
 10
87.21724308800472
 20
-139.2845214495539
 30
0.0
  0
SEQEND
  5
8A
330
85
100
AcDbEntity
  8
_U+30EC_U+30A4_U+30E4_U+30FC 1
370
     0
  0
HATCH
  5
8B
330
73
100
AcDbEntity
  8
_U+30EC_U+30A4_U+30E4_U+30FC 1
 62
   179
420
  2234388
100
AcDbHatch
 10
0.0
 20
0.0
 30
0.0
210
0.0
220
0.0
230
1.0
  2
SOLID
 70
     1
 71
     0
 91
        2
 92
        1
 93
       11
 72
     1
 10
87.43497312267252
 20
-140.1392496394444
 11
87.43497312267252
 21
-140.486170754809
 72
     1
 10
87.43497312267252
 20
-140.486170754809
 11
87.21724308800472
 21
-140.486170754809
 72
     1
 10
87.21724308800472
 20
-140.486170754809
 11
87.21724308800472
 21
-140.1392496394444
 72
     1
 10
87.21724308800472
 20
-140.1392496394444
 11
86.56129690761315
 21
-140.1392496394444
 72
     1
 10
86.56129690761315
 20
-140.1392496394444
 11
86.56129690761315
 21
-139.9149739233546
 72
     1
 10
86.56129690761315
 20
-139.9149739233546
 11
87.24032522775589
 21
-138.9417344487715
 72
     1
 10
87.24032522775589
 20
-138.9417344487715
 11
87.43497312267252
 21
-138.9417344487715
 72
     1
 10
87.43497312267252
 20
-138.9417344487715
 11
87.43497312267252
 21
-139.9404676299454
 72
     1
 10
87.43497312267252
 20
-139.9404676299454
 11
87.64236787088456
 21
-139.9404676299454
 72
     1
 10
87.64236787088456
 20
-139.9404676299454
 11
87.64236787088456
 21
-140.1392496394444
 72
     1
 10
87.64236787088456
 20
-140.1392496394444
 11
87.43497312267252
 21
-140.1392496394444
 97
        0
 92
        1
 93
        3
 72
     1
 10
87.21724308800472
 20
-139.2845214495539
 11
86.76007891711207
 21
-139.9404676299454
 72
     1
 10
86.76007891711207
 20
-139.9404676299454
 11
87.21724308800472
 21
-139.9404676299454
 72
     1
 10
87.21724308800472
 20
-139.9404676299454
 11
87.21724308800472
 21
-139.2845214495539
 97
        0
 75
     2
 76
     1
 98
        0
  0
SPLINE
  5
8C
330
73
100
AcDbEntity
  8
_U+30EC_U+30A4_U+30E4_U+30FC 1
370
     0
100
AcDbSpline
210
0.0
220
0.0
230
1.0
 70
    11
 71
     3
 72
    62
 73
    58
 74
     0
 42
0.0000000001
 43
0.0000000001
 12
1.0
 22
0.0
 32
0.0
 13
1.0
 23
0.0
 33
0.0
 40
0.0
 40
0.0
 40
0.0
 40
0.0
 40
1.0
 40
1.0
 40
1.0
 40
2.0
 40
2.0
 40
2.0
 40
3.0
 40
3.0
 40
3.0
 40
4.0
 40
4.0
 40
4.0
 40
5.0
 40
5.0
 40
5.0
 40
6.0
 40
6.0
 40
6.0
 40
7.0
 40
7.0
 40
7.0
 40
8.0
 40
8.0
 40
8.0
 40
9.0
 40
9.0
 40
9.0
 40
10.0
 40
10.0
 40
10.0
 40
11.0
 40
11.0
 40
11.0
 40
12.0
 40
12.0
 40
12.0
 40
13.0
 40
13.0
 40
13.0
 40
14.0
 40
14.0
 40
14.0
 40
15.0
 40
15.0
 40
15.0
 40
16.0
 40
16.0
 40
16.0
 40
17.0
 40
17.0
 40
17.0
 40
18.0
 40
18.0
 40
18.0
 40
19.0
 40
19.0
 40
19.0
 40
19.0
 10
88.27144230649117
 20
-140.5368136584422
 30
0.0
 10
88.17601316154975
 20
-140.5368136584422
 30
0.0
 10
87.95828312688197
 20
-140.5157985759822
 30
0.0
 10
87.8332261607674
 20
-140.3297634197787
 30
0.0
 10
87.75950111738304
 20
-140.2174533069595
 30
0.0
 10
87.75502249325223
 20
-140.1182345569843
 30
0.0
 10
87.75088837866993
 20
-140.0334852080472
 30
0.0
 10
87.75088837866993
 20
-140.0334852080472
 30
0.0
 10
87.97102998017739
 20
-140.0334852080472
 30
0.0
 10
87.97102998017739
 20
-140.0334852080472
 30
0.0
 10
87.97309703746853
 20
-140.1075547609801
 30
0.0
 10
87.98343232392429
 20
-140.3421657635256
 30
0.0
 10
88.26696368236034
 20
-140.3421657635256
 30
0.0
 10
88.40442299222181
 20
-140.3421657635256
 30
0.0
 10
88.55704072221839
 20
-140.2725748347235
 30
0.0
 10
88.55704072221839
 20
-140.0441650040515
 30
0.0
 10
88.55704072221839
 20
-139.92772077665
 30
0.0
 10
88.51880016233211
 20
-139.879144930308
 30
0.0
 10
88.4871052838678
 20
-139.8474500518437
 30
0.0
 10
88.41303573093494
 20
-139.7733804989108
 30
0.0
 10
88.29659150353349
 20
-139.7606336456154
 30
0.0
 10
88.24181448531802
 20
-139.7606336456154
 30
0.0
 10
88.22252195060062
 20
-139.7606336456154
 30
0.0
 10
88.18669295755403
 20
-139.7627007029066
 30
0.0
 10
88.15913219367202
 20
-139.7668348174888
 30
0.0
 10
88.15913219367202
 20
-139.7668348174888
 30
0.0
 10
88.15913219367202
 20
-139.5721869225722
 30
0.0
 10
88.15913219367202
 20
-139.5721869225722
 30
0.0
 10
88.1973727535583
 20
-139.5787326039942
 30
0.0
 10
88.23940291847835
 20
-139.5807996612854
 30
0.0
 10
88.24594859990032
 20
-139.5807996612854
 30
0.0
 10
88.31140541412007
 20
-139.5807996612854
 30
0.0
 10
88.51018742361899
 20
-139.5594400692768
 30
0.0
 10
88.51018742361899
 20
-139.3227620094401
 30
0.0
 10
88.51018742361899
 20
-139.1449950824013
 30
0.0
 10
88.37927379517949
 20
-139.0898735546373
 30
0.0
 10
88.2690307396515
 20
-139.0898735546373
 30
0.0
 10
88.00479191593283
 20
-139.0898735546373
 30
0.0
 10
87.99617917721972
 20
-139.3227620094401
 30
0.0
 10
87.99204506263742
 20
-139.3944199955334
 30
0.0
 10
87.99204506263742
 20
-139.3944199955334
 30
0.0
 10
87.78878442900766
 20
-139.3944199955334
 30
0.0
 10
87.78878442900766
 20
-139.3944199955334
 30
0.0
 10
87.79739716772079
 20
-139.2697075389673
 30
0.0
 10
87.8249579316028
 20
-138.8931586024295
 30
0.0
 10
88.28177759294692
 20
-138.8931586024295
 30
0.0
 10
88.50605330903669
 20
-138.8931586024295
 30
0.0
 10
88.74720999300418
 20
-139.0202826258352
 30
0.0
 10
88.74720999300418
 20
-139.3162163280182
 30
0.0
 10
88.74720999300418
 20
-139.5025959937702
 30
0.0
 10
88.65212535761128
 20
-139.5849337758677
 30
0.0
 10
88.55256209808756
 20
-139.6462564755051
 30
0.0
 10
88.613884797725
 20
-139.6738172393871
 30
0.0
 10
88.7957858393462
 20
-139.7540879641934
 30
0.0
 10
88.7957858393462
 20
-140.0314181507561
 30
0.0
 10
88.7957858393462
 20
-140.3697265274076
 30
0.0
 10
88.54842798350526
 20
-140.5368136584422
 30
0.0
 10
88.27144230649117
 20
-140.5368136584422
 30
0.0
  0
HATCH
  5
8D
330
73
100
AcDbEntity
  8
_U+30EC_U+30A4_U+30E4_U+30FC 1
 62
   179
420
  2234388
100
AcDbHatch
 10
0.0
 20
0.0
 30
0.0
210
0.0
220
0.0
230
1.0
  2
SOLID
 70
     1
 71
     0
 91
        1
 92
        1
 93
        1
 72
     4
 94
        3
 73
     0
 74
     1
 95
       62
 96
       58
 40
0.0
 40
0.0
 40
0.0
 40
0.0
 40
1.0
 40
1.0
 40
1.0
 40
2.0
 40
2.0
 40
2.0
 40
3.0
 40
3.0
 40
3.0
 40
4.0
 40
4.0
 40
4.0
 40
5.0
 40
5.0
 40
5.0
 40
6.0
 40
6.0
 40
6.0
 40
7.0
 40
7.0
 40
7.0
 40
8.0
 40
8.0
 40
8.0
 40
9.0
 40
9.0
 40
9.0
 40
10.0
 40
10.0
 40
10.0
 40
11.0
 40
11.0
 40
11.0
 40
12.0
 40
12.0
 40
12.0
 40
13.0
 40
13.0
 40
13.0
 40
14.0
 40
14.0
 40
14.0
 40
15.0
 40
15.0
 40
15.0
 40
16.0
 40
16.0
 40
16.0
 40
17.0
 40
17.0
 40
17.0
 40
18.0
 40
18.0
 40
18.0
 40
19.0
 40
19.0
 40
19.0
 40
19.0
 10
88.27144230649117
 20
-140.5368136584422
 10
88.17601316154975
 20
-140.5368136584422
 10
87.95828312688197
 20
-140.5157985759822
 10
87.8332261607674
 20
-140.3297634197787
 10
87.75950111738304
 20
-140.2174533069595
 10
87.75502249325223
 20
-140.1182345569843
 10
87.75088837866993
 20
-140.0334852080472
 10
87.75088837866993
 20
-140.0334852080472
 10
87.97102998017739
 20
-140.0334852080472
 10
87.97102998017739
 20
-140.0334852080472
 10
87.97309703746853
 20
-140.1075547609801
 10
87.98343232392429
 20
-140.3421657635256
 10
88.26696368236034
 20
-140.3421657635256
 10
88.40442299222181
 20
-140.3421657635256
 10
88.55704072221839
 20
-140.2725748347235
 10
88.55704072221839
 20
-140.0441650040515
 10
88.55704072221839
 20
-139.92772077665
 10
88.51880016233211
 20
-139.879144930308
 10
88.4871052838678
 20
-139.8474500518437
 10
88.41303573093494
 20
-139.7733804989108
 10
88.29659150353349
 20
-139.7606336456154
 10
88.24181448531802
 20
-139.7606336456154
 10
88.22252195060062
 20
-139.7606336456154
 10
88.18669295755403
 20
-139.7627007029066
 10
88.15913219367202
 20
-139.7668348174888
 10
88.15913219367202
 20
-139.7668348174888
 10
88.15913219367202
 20
-139.5721869225722
 10
88.15913219367202
 20
-139.5721869225722
 10
88.1973727535583
 20
-139.5787326039942
 10
88.23940291847835
 20
-139.5807996612854
 10
88.24594859990032
 20
-139.5807996612854
 10
88.31140541412007
 20
-139.5807996612854
 10
88.51018742361899
 20
-139.5594400692768
 10
88.51018742361899
 20
-139.3227620094401
 10
88.51018742361899
 20
-139.1449950824013
 10
88.37927379517949
 20
-139.0898735546373
 10
88.2690307396515
 20
-139.0898735546373
 10
88.00479191593283
 20
-139.0898735546373
 10
87.99617917721972
 20
-139.3227620094401
 10
87.99204506263742
 20
-139.3944199955334
 10
87.99204506263742
 20
-139.3944199955334
 10
87.78878442900766
 20
-139.3944199955334
 10
87.78878442900766
 20
-139.3944199955334
 10
87.79739716772079
 20
-139.2697075389673
 10
87.8249579316028
 20
-138.8931586024295
 10
88.28177759294692
 20
-138.8931586024295
 10
88.50605330903669
 20
-138.8931586024295
 10
88.74720999300418
 20
-139.0202826258352
 10
88.74720999300418
 20
-139.3162163280182
 10
88.74720999300418
 20
-139.5025959937702
 10
88.65212535761128
 20
-139.5849337758677
 10
88.55256209808756
 20
-139.6462564755051
 10
88.613884797725
 20
-139.6738172393871
 10
88.7957858393462
 20
-139.7540879641934
 10
88.7957858393462
 20
-140.0314181507561
 10
88.7957858393462
 20
-140.3697265274076
 10
88.54842798350526
 20
-140.5368136584422
 10
88.27144230649117
 20
-140.5368136584422
 97
        0
 97
        0
 75
     2
 76
     1
 98
        0
  0
ENDBLK
  5
76
330
73
100
AcDbEntity
  8
0
100
AcDbBlockEnd
  0
BLOCK
  5
A9
330
A7
100
AcDbEntity
  8
0
100
AcDbBlockBegin
  2
block 5
 70
     0
 10
0.0
 20
0.0
 30
0.0
  3
block 5
  1

  0
SPLINE
  5
AB
330
A7
100
AcDbEntity
  8
_U+30EC_U+30A4_U+30E4_U+30FC 1
370
     0
100
AcDbSpline
210
0.0
220
0.0
230
1.0
 70
    11
 71
     3
 72
    32
 73
    28
 74
     0
 42
0.0000000001
 43
0.0000000001
 12
1.0
 22
0.0
 32
0.0
 13
1.0
 23
0.0
 33
0.0
 40
0.0
 40
0.0
 40
0.0
 40
0.0
 40
1.0
 40
1.0
 40
1.0
 40
2.0
 40
2.0
 40
2.0
 40
3.0
 40
3.0
 40
3.0
 40
4.0
 40
4.0
 40
4.0
 40
5.0
 40
5.0
 40
5.0
 40
6.0
 40
6.0
 40
6.0
 40
7.0
 40
7.0
 40
7.0
 40
8.0
 40
8.0
 40
8.0
 40
9.0
 40
9.0
 40
9.0
 40
9.0
 10
87.76087915557714
 20
-117.0181803092871
 30
0.0
 10
87.58759085266908
 20
-117.0181803092871
 30
0.0
 10
87.34195554457077
 20
-116.9485893804851
 30
0.0
 10
87.30405949423302
 20
-116.616482175707
 30
0.0
 10
87.30405949423302
 20
-116.616482175707
 30
0.0
 10
87.51765541431851
 20
-116.616482175707
 30
0.0
 10
87.51765541431851
 20
-116.616482175707
 30
0.0
 10
87.52833521032278
 20
-116.6757378180533
 30
0.0
 10
87.56003008878707
 20
-116.8235324143705
 30
0.0
 10
87.7629462128683
 20
-116.8235324143705
 30
0.0
 10
88.05509031001748
 20
-116.8235324143705
 30
0.0
 10
88.09298636035523
 20
-116.4934922668836
 30
0.0
 10
88.10573321365065
 20
-116.2885090855112
 30
0.0
 10
88.01478269284006
 20
-116.3687798103175
 30
0.0
 10
87.94725882132916
 20
-116.4259683953727
 30
0.0
 10
87.76535777970797
 20
-116.4259683953727
 30
0.0
 10
87.58552379537792
 20
-116.4259683953727
 30
0.0
 10
87.28304441177299
 20
-116.3202039639755
 30
0.0
 10
87.28304441177299
 20
-115.9140272062645
 30
0.0
 10
87.28304441177299
 20
-115.5946668547819
 30
0.0
 10
87.4818264212719
 20
-115.3745252532744
 30
0.0
 10
87.79911971546342
 20
-115.3745252532744
 30
0.0
 10
88.31312796186269
 20
-115.3745252532744
 30
0.0
 10
88.32380775786697
 20
-115.9288411168511
 30
0.0
 10
88.32380775786697
 20
-116.1424370369366
 30
0.0
 10
88.32380775786697
 20
-116.3729139248998
 30
0.0
 10
88.30451522314956
 20
-117.0181803092871
 30
0.0
 10
87.76087915557714
 20
-117.0181803092871
 30
0.0
  0
SPLINE
  5
AC
330
A7
100
AcDbEntity
  8
_U+30EC_U+30A4_U+30E4_U+30FC 1
370
     0
100
AcDbSpline
210
0.0
220
0.0
230
1.0
 70
    11
 71
     3
 72
    17
 73
    13
 74
     0
 42
0.0000000001
 43
0.0000000001
 12
1.0
 22
0.0
 32
0.0
 13
1.0
 23
0.0
 33
0.0
 40
0.0
 40
0.0
 40
0.0
 40
0.0
 40
1.0
 40
1.0
 40
1.0
 40
2.0
 40
2.0
 40
2.0
 40
3.0
 40
3.0
 40
3.0
 40
4.0
 40
4.0
 40
4.0
 40
4.0
 10
87.80118677275456
 20
-115.5671060908999
 30
0.0
 10
87.68267548806197
 20
-115.5671060908999
 30
0.0
 10
87.50697561831423
 20
-115.624294675955
 30
0.0
 10
87.50697561831423
 20
-115.9098930916822
 30
0.0
 10
87.50697561831423
 20
-116.1362358650632
 30
0.0
 10
87.64684649501538
 20
-116.2313205004561
 30
0.0
 10
87.7822387475857
 20
-116.2313205004561
 30
0.0
 10
88.04441051401321
 20
-116.2313205004561
 30
0.0
 10
88.08265107389948
 20
-116.0218586949529
 30
0.0
 10
88.08265107389948
 20
-115.9054144675514
 30
0.0
 10
88.08265107389948
 20
-115.7300591073522
 30
0.0
 10
87.98722192895806
 20
-115.5671060908999
 30
0.0
 10
87.80118677275456
 20
-115.5671060908999
 30
0.0
  0
HATCH
  5
AD
330
A7
100
AcDbEntity
  8
_U+30EC_U+30A4_U+30E4_U+30FC 1
 62
   179
420
  2234388
100
AcDbHatch
 10
0.0
 20
0.0
 30
0.0
210
0.0
220
0.0
230
1.0
  2
SOLID
 70
     1
 71
     0
 91
        2
 92
        1
 93
        1
 72
     4
 94
        3
 73
     0
 74
     1
 95
       32
 96
       28
 40
0.0
 40
0.0
 40
0.0
 40
0.0
 40
1.0
 40
1.0
 40
1.0
 40
2.0
 40
2.0
 40
2.0
 40
3.0
 40
3.0
 40
3.0
 40
4.0
 40
4.0
 40
4.0
 40
5.0
 40
5.0
 40
5.0
 40
6.0
 40
6.0
 40
6.0
 40
7.0
 40
7.0
 40
7.0
 40
8.0
 40
8.0
 40
8.0
 40
9.0
 40
9.0
 40
9.0
 40
9.0
 10
87.76087915557714
 20
-117.0181803092871
 10
87.58759085266908
 20
-117.0181803092871
 10
87.34195554457077
 20
-116.9485893804851
 10
87.30405949423302
 20
-116.616482175707
 10
87.30405949423302
 20
-116.616482175707
 10
87.51765541431851
 20
-116.616482175707
 10
87.51765541431851
 20
-116.616482175707
 10
87.52833521032278
 20
-116.6757378180533
 10
87.56003008878707
 20
-116.8235324143705
 10
87.7629462128683
 20
-116.8235324143705
 10
88.05509031001748
 20
-116.8235324143705
 10
88.09298636035523
 20
-116.4934922668836
 10
88.10573321365065
 20
-116.2885090855112
 10
88.01478269284006
 20
-116.3687798103175
 10
87.94725882132916
 20
-116.4259683953727
 10
87.76535777970797
 20
-116.4259683953727
 10
87.58552379537792
 20
-116.4259683953727
 10
87.28304441177299
 20
-116.3202039639755
 10
87.28304441177299
 20
-115.9140272062645
 10
87.28304441177299
 20
-115.5946668547819
 10
87.4818264212719
 20
-115.3745252532744
 10
87.79911971546342
 20
-115.3745252532744
 10
88.31312796186269
 20
-115.3745252532744
 10
88.32380775786697
 20
-115.9288411168511
 10
88.32380775786697
 20
-116.1424370369366
 10
88.32380775786697
 20
-116.3729139248998
 10
88.30451522314956
 20
-117.0181803092871
 10
87.76087915557714
 20
-117.0181803092871
 97
        0
 97
        0
 92
        1
 93
        1
 72
     4
 94
        3
 73
     0
 74
     1
 95
       17
 96
       13
 40
0.0
 40
0.0
 40
0.0
 40
0.0
 40
1.0
 40
1.0
 40
1.0
 40
2.0
 40
2.0
 40
2.0
 40
3.0
 40
3.0
 40
3.0
 40
4.0
 40
4.0
 40
4.0
 40
4.0
 10
87.80118677275456
 20
-115.5671060908999
 10
87.68267548806197
 20
-115.5671060908999
 10
87.50697561831423
 20
-115.624294675955
 10
87.50697561831423
 20
-115.9098930916822
 10
87.50697561831423
 20
-116.1362358650632
 10
87.64684649501538
 20
-116.2313205004561
 10
87.7822387475857
 20
-116.2313205004561
 10
88.04441051401321
 20
-116.2313205004561
 10
88.08265107389948
 20
-116.0218586949529
 10
88.08265107389948
 20
-115.9054144675514
 10
88.08265107389948
 20
-115.7300591073522
 10
87.98722192895806
 20
-115.5671060908999
 10
87.80118677275456
 20
-115.5671060908999
 97
        0
 97
        0
 75
     2
 76
     1
 98
        0
  0
ENDBLK
  5
AA
330
A7
100
AcDbEntity
  8
0
100
AcDbBlockEnd
  0
BLOCK
  5
B0
330
AE
100
AcDbEntity
  8
0
100
AcDbBlockBegin
  2
block 6
 70
     0
 10
0.0
 20
0.0
 30
0.0
  3
block 6
  1

  0
SPLINE
  5
B2
330
AE
100
AcDbEntity
  8
_U+30EC_U+30A4_U+30E4_U+30FC 1
370
     0
100
AcDbSpline
210
0.0
220
0.0
230
1.0
 70
    11
 71
     3
 72
    32
 73
    28
 74
     0
 42
0.0000000001
 43
0.0000000001
 12
1.0
 22
0.0
 32
0.0
 13
1.0
 23
0.0
 33
0.0
 40
0.0
 40
0.0
 40
0.0
 40
0.0
 40
1.0
 40
1.0
 40
1.0
 40
2.0
 40
2.0
 40
2.0
 40
3.0
 40
3.0
 40
3.0
 40
4.0
 40
4.0
 40
4.0
 40
5.0
 40
5.0
 40
5.0
 40
6.0
 40
6.0
 40
6.0
 40
7.0
 40
7.0
 40
7.0
 40
8.0
 40
8.0
 40
8.0
 40
9.0
 40
9.0
 40
9.0
 40
9.0
 10
78.76091170991047
 20
-117.0181803092871
 30
0.0
 10
78.5876234070024
 20
-117.0181803092871
 30
0.0
 10
78.3419880989041
 20
-116.9485893804851
 30
0.0
 10
78.30409204856635
 20
-116.616482175707
 30
0.0
 10
78.30409204856635
 20
-116.616482175707
 30
0.0
 10
78.51768796865183
 20
-116.616482175707
 30
0.0
 10
78.51768796865183
 20
-116.616482175707
 30
0.0
 10
78.52836776465611
 20
-116.6757378180533
 30
0.0
 10
78.5600626431204
 20
-116.8235324143705
 30
0.0
 10
78.76297876720162
 20
-116.8235324143705
 30
0.0
 10
79.0551228643508
 20
-116.8235324143705
 30
0.0
 10
79.09301891468856
 20
-116.4934922668836
 30
0.0
 10
79.10576576798398
 20
-116.2885090855112
 30
0.0
 10
79.01481524717339
 20
-116.3687798103175
 30
0.0
 10
78.94729137566249
 20
-116.4259683953727
 30
0.0
 10
78.7653903340413
 20
-116.4259683953727
 30
0.0
 10
78.58555634971125
 20
-116.4259683953727
 30
0.0
 10
78.28307696610632
 20
-116.3202039639755
 30
0.0
 10
78.28307696610632
 20
-115.9140272062645
 30
0.0
 10
78.28307696610632
 20
-115.5946668547819
 30
0.0
 10
78.48185897560523
 20
-115.3745252532744
 30
0.0
 10
78.79915226979675
 20
-115.3745252532744
 30
0.0
 10
79.31316051619602
 20
-115.3745252532744
 30
0.0
 10
79.32384031220029
 20
-115.9288411168511
 30
0.0
 10
79.32384031220029
 20
-116.1424370369366
 30
0.0
 10
79.32384031220029
 20
-116.3729139248998
 30
0.0
 10
79.3045477774829
 20
-117.0181803092871
 30
0.0
 10
78.76091170991047
 20
-117.0181803092871
 30
0.0
  0
SPLINE
  5
B3
330
AE
100
AcDbEntity
  8
_U+30EC_U+30A4_U+30E4_U+30FC 1
370
     0
100
AcDbSpline
210
0.0
220
0.0
230
1.0
 70
    11
 71
     3
 72
    17
 73
    13
 74
     0
 42
0.0000000001
 43
0.0000000001
 12
1.0
 22
0.0
 32
0.0
 13
1.0
 23
0.0
 33
0.0
 40
0.0
 40
0.0
 40
0.0
 40
0.0
 40
1.0
 40
1.0
 40
1.0
 40
2.0
 40
2.0
 40
2.0
 40
3.0
 40
3.0
 40
3.0
 40
4.0
 40
4.0
 40
4.0
 40
4.0
 10
78.80121932708789
 20
-115.5671060908999
 30
0.0
 10
78.6827080423953
 20
-115.5671060908999
 30
0.0
 10
78.50700817264756
 20
-115.624294675955
 30
0.0
 10
78.50700817264756
 20
-115.9098930916822
 30
0.0
 10
78.50700817264756
 20
-116.1362358650632
 30
0.0
 10
78.6468790493487
 20
-116.2313205004561
 30
0.0
 10
78.78227130191902
 20
-116.2313205004561
 30
0.0
 10
79.04444306834654
 20
-116.2313205004561
 30
0.0
 10
79.0826836282328
 20
-116.0218586949529
 30
0.0
 10
79.0826836282328
 20
-115.9054144675514
 30
0.0
 10
79.0826836282328
 20
-115.7300591073522
 30
0.0
 10
78.98725448329138
 20
-115.5671060908999
 30
0.0
 10
78.80121932708789
 20
-115.5671060908999
 30
0.0
  0
HATCH
  5
B4
330
AE
100
AcDbEntity
  8
_U+30EC_U+30A4_U+30E4_U+30FC 1
 62
   179
420
  2234388
100
AcDbHatch
 10
0.0
 20
0.0
 30
0.0
210
0.0
220
0.0
230
1.0
  2
SOLID
 70
     1
 71
     0
 91
        2
 92
        1
 93
        1
 72
     4
 94
        3
 73
     0
 74
     1
 95
       32
 96
       28
 40
0.0
 40
0.0
 40
0.0
 40
0.0
 40
1.0
 40
1.0
 40
1.0
 40
2.0
 40
2.0
 40
2.0
 40
3.0
 40
3.0
 40
3.0
 40
4.0
 40
4.0
 40
4.0
 40
5.0
 40
5.0
 40
5.0
 40
6.0
 40
6.0
 40
6.0
 40
7.0
 40
7.0
 40
7.0
 40
8.0
 40
8.0
 40
8.0
 40
9.0
 40
9.0
 40
9.0
 40
9.0
 10
78.76091170991047
 20
-117.0181803092871
 10
78.5876234070024
 20
-117.0181803092871
 10
78.3419880989041
 20
-116.9485893804851
 10
78.30409204856635
 20
-116.616482175707
 10
78.30409204856635
 20
-116.616482175707
 10
78.51768796865183
 20
-116.616482175707
 10
78.51768796865183
 20
-116.616482175707
 10
78.52836776465611
 20
-116.6757378180533
 10
78.5600626431204
 20
-116.8235324143705
 10
78.76297876720162
 20
-116.8235324143705
 10
79.0551228643508
 20
-116.8235324143705
 10
79.09301891468856
 20
-116.4934922668836
 10
79.10576576798398
 20
-116.2885090855112
 10
79.01481524717339
 20
-116.3687798103175
 10
78.94729137566249
 20
-116.4259683953727
 10
78.7653903340413
 20
-116.4259683953727
 10
78.58555634971125
 20
-116.4259683953727
 10
78.28307696610632
 20
-116.3202039639755
 10
78.28307696610632
 20
-115.9140272062645
 10
78.28307696610632
 20
-115.5946668547819
 10
78.48185897560523
 20
-115.3745252532744
 10
78.79915226979675
 20
-115.3745252532744
 10
79.31316051619602
 20
-115.3745252532744
 10
79.32384031220029
 20
-115.9288411168511
 10
79.32384031220029
 20
-116.1424370369366
 10
79.32384031220029
 20
-116.3729139248998
 10
79.3045477774829
 20
-117.0181803092871
 10
78.76091170991047
 20
-117.0181803092871
 97
        0
 97
        0
 92
        1
 93
        1
 72
     4
 94
        3
 73
     0
 74
     1
 95
       17
 96
       13
 40
0.0
 40
0.0
 40
0.0
 40
0.0
 40
1.0
 40
1.0
 40
1.0
 40
2.0
 40
2.0
 40
2.0
 40
3.0
 40
3.0
 40
3.0
 40
4.0
 40
4.0
 40
4.0
 40
4.0
 10
78.80121932708789
 20
-115.5671060908999
 10
78.6827080423953
 20
-115.5671060908999
 10
78.50700817264756
 20
-115.624294675955
 10
78.50700817264756
 20
-115.9098930916822
 10
78.50700817264756
 20
-116.1362358650632
 10
78.6468790493487
 20
-116.2313205004561
 10
78.78227130191902
 20
-116.2313205004561
 10
79.04444306834654
 20
-116.2313205004561
 10
79.0826836282328
 20
-116.0218586949529
 10
79.0826836282328
 20
-115.9054144675514
 10
79.0826836282328
 20
-115.7300591073522
 10
78.98725448329138
 20
-115.5671060908999
 10
78.80121932708789
 20
-115.5671060908999
 97
        0
 97
        0
 75
     2
 76
     1
 98
        0
  0
ENDBLK
  5
B1
330
AE
100
AcDbEntity
  8
0
100
AcDbBlockEnd
  0
BLOCK
  5
BB
330
B9
100
AcDbEntity
  8
0
100
AcDbBlockBegin
  2
block 7
 70
     0
 10
0.0
 20
0.0
 30
0.0
  3
block 7
  1

  0
SPLINE
  5
BD
330
B9
100
AcDbEntity
  8
_U+30EC_U+30A4_U+30E4_U+30FC 1
370
     0
100
AcDbSpline
210
0.0
220
0.0
230
1.0
 70
    11
 71
     3
 72
    32
 73
    28
 74
     0
 42
0.0000000001
 43
0.0000000001
 12
1.0
 22
0.0
 32
0.0
 13
1.0
 23
0.0
 33
0.0
 40
0.0
 40
0.0
 40
0.0
 40
0.0
 40
1.0
 40
1.0
 40
1.0
 40
2.0
 40
2.0
 40
2.0
 40
3.0
 40
3.0
 40
3.0
 40
4.0
 40
4.0
 40
4.0
 40
5.0
 40
5.0
 40
5.0
 40
6.0
 40
6.0
 40
6.0
 40
7.0
 40
7.0
 40
7.0
 40
8.0
 40
8.0
 40
8.0
 40
9.0
 40
9.0
 40
9.0
 40
9.0
 10
96.76067434646956
 20
-117.0181803092871
 30
0.0
 10
96.5873860435615
 20
-117.0181803092871
 30
0.0
 10
96.34175073546318
 20
-116.9485893804851
 30
0.0
 10
96.30385468512543
 20
-116.616482175707
 30
0.0
 10
96.30385468512543
 20
-116.616482175707
 30
0.0
 10
96.51745060521093
 20
-116.616482175707
 30
0.0
 10
96.51745060521093
 20
-116.616482175707
 30
0.0
 10
96.5281304012152
 20
-116.6757378180533
 30
0.0
 10
96.55982527967949
 20
-116.8235324143705
 30
0.0
 10
96.76274140376071
 20
-116.8235324143705
 30
0.0
 10
97.05488550090989
 20
-116.8235324143705
 30
0.0
 10
97.09278155124764
 20
-116.4934922668836
 30
0.0
 10
97.10552840454307
 20
-116.2885090855112
 30
0.0
 10
97.01457788373247
 20
-116.3687798103175
 30
0.0
 10
96.94705401222157
 20
-116.4259683953727
 30
0.0
 10
96.76515297060038
 20
-116.4259683953727
 30
0.0
 10
96.58531898627034
 20
-116.4259683953727
 30
0.0
 10
96.2828396026654
 20
-116.3202039639755
 30
0.0
 10
96.2828396026654
 20
-115.9140272062645
 30
0.0
 10
96.2828396026654
 20
-115.5946668547819
 30
0.0
 10
96.48162161216432
 20
-115.3745252532744
 30
0.0
 10
96.79891490635583
 20
-115.3745252532744
 30
0.0
 10
97.3129231527551
 20
-115.3745252532744
 30
0.0
 10
97.32360294875939
 20
-115.9288411168511
 30
0.0
 10
97.32360294875939
 20
-116.1424370369366
 30
0.0
 10
97.32360294875939
 20
-116.3729139248998
 30
0.0
 10
97.30431041404198
 20
-117.0181803092871
 30
0.0
 10
96.76067434646956
 20
-117.0181803092871
 30
0.0
  0
SPLINE
  5
BE
330
B9
100
AcDbEntity
  8
_U+30EC_U+30A4_U+30E4_U+30FC 1
370
     0
100
AcDbSpline
210
0.0
220
0.0
230
1.0
 70
    11
 71
     3
 72
    17
 73
    13
 74
     0
 42
0.0000000001
 43
0.0000000001
 12
1.0
 22
0.0
 32
0.0
 13
1.0
 23
0.0
 33
0.0
 40
0.0
 40
0.0
 40
0.0
 40
0.0
 40
1.0
 40
1.0
 40
1.0
 40
2.0
 40
2.0
 40
2.0
 40
3.0
 40
3.0
 40
3.0
 40
4.0
 40
4.0
 40
4.0
 40
4.0
 10
96.80098196364698
 20
-115.5671060908999
 30
0.0
 10
96.68247067895439
 20
-115.5671060908999
 30
0.0
 10
96.50677080920664
 20
-115.624294675955
 30
0.0
 10
96.50677080920664
 20
-115.9098930916822
 30
0.0
 10
96.50677080920664
 20
-116.1362358650632
 30
0.0
 10
96.6466416859078
 20
-116.2313205004561
 30
0.0
 10
96.78203393847811
 20
-116.2313205004561
 30
0.0
 10
97.04420570490562
 20
-116.2313205004561
 30
0.0
 10
97.0824462647919
 20
-116.0218586949529
 30
0.0
 10
97.0824462647919
 20
-115.9054144675514
 30
0.0
 10
97.0824462647919
 20
-115.7300591073522
 30
0.0
 10
96.98701711985048
 20
-115.5671060908999
 30
0.0
 10
96.80098196364698
 20
-115.5671060908999
 30
0.0
  0
HATCH
  5
BF
330
B9
100
AcDbEntity
  8
_U+30EC_U+30A4_U+30E4_U+30FC 1
 62
   179
420
  2234388
100
AcDbHatch
 10
0.0
 20
0.0
 30
0.0
210
0.0
220
0.0
230
1.0
  2
SOLID
 70
     1
 71
     0
 91
        2
 92
        1
 93
        1
 72
     4
 94
        3
 73
     0
 74
     1
 95
       32
 96
       28
 40
0.0
 40
0.0
 40
0.0
 40
0.0
 40
1.0
 40
1.0
 40
1.0
 40
2.0
 40
2.0
 40
2.0
 40
3.0
 40
3.0
 40
3.0
 40
4.0
 40
4.0
 40
4.0
 40
5.0
 40
5.0
 40
5.0
 40
6.0
 40
6.0
 40
6.0
 40
7.0
 40
7.0
 40
7.0
 40
8.0
 40
8.0
 40
8.0
 40
9.0
 40
9.0
 40
9.0
 40
9.0
 10
96.76067434646956
 20
-117.0181803092871
 10
96.5873860435615
 20
-117.0181803092871
 10
96.34175073546318
 20
-116.9485893804851
 10
96.30385468512543
 20
-116.616482175707
 10
96.30385468512543
 20
-116.616482175707
 10
96.51745060521093
 20
-116.616482175707
 10
96.51745060521093
 20
-116.616482175707
 10
96.5281304012152
 20
-116.6757378180533
 10
96.55982527967949
 20
-116.8235324143705
 10
96.76274140376071
 20
-116.8235324143705
 10
97.05488550090989
 20
-116.8235324143705
 10
97.09278155124764
 20
-116.4934922668836
 10
97.10552840454307
 20
-116.2885090855112
 10
97.01457788373247
 20
-116.3687798103175
 10
96.94705401222157
 20
-116.4259683953727
 10
96.76515297060038
 20
-116.4259683953727
 10
96.58531898627034
 20
-116.4259683953727
 10
96.2828396026654
 20
-116.3202039639755
 10
96.2828396026654
 20
-115.9140272062645
 10
96.2828396026654
 20
-115.5946668547819
 10
96.48162161216432
 20
-115.3745252532744
 10
96.79891490635583
 20
-115.3745252532744
 10
97.3129231527551
 20
-115.3745252532744
 10
97.32360294875939
 20
-115.9288411168511
 10
97.32360294875939
 20
-116.1424370369366
 10
97.32360294875939
 20
-116.3729139248998
 10
97.30431041404198
 20
-117.0181803092871
 10
96.76067434646956
 20
-117.0181803092871
 97
        0
 97
        0
 92
        1
 93
        1
 72
     4
 94
        3
 73
     0
 74
     1
 95
       17
 96
       13
 40
0.0
 40
0.0
 40
0.0
 40
0.0
 40
1.0
 40
1.0
 40
1.0
 40
2.0
 40
2.0
 40
2.0
 40
3.0
 40
3.0
 40
3.0
 40
4.0
 40
4.0
 40
4.0
 40
4.0
 10
96.80098196364698
 20
-115.5671060908999
 10
96.68247067895439
 20
-115.5671060908999
 10
96.50677080920664
 20
-115.624294675955
 10
96.50677080920664
 20
-115.9098930916822
 10
96.50677080920664
 20
-116.1362358650632
 10
96.6466416859078
 20
-116.2313205004561
 10
96.78203393847811
 20
-116.2313205004561
 10
97.04420570490562
 20
-116.2313205004561
 10
97.0824462647919
 20
-116.0218586949529
 10
97.0824462647919
 20
-115.9054144675514
 10
97.0824462647919
 20
-115.7300591073522
 10
96.98701711985048
 20
-115.5671060908999
 10
96.80098196364698
 20
-115.5671060908999
 97
        0
 97
        0
 75
     2
 76
     1
 98
        0
  0
ENDBLK
  5
BC
330
B9
100
AcDbEntity
  8
0
100
AcDbBlockEnd
  0
BLOCK
  5
DC
330
DA
100
AcDbEntity
  8
0
100
AcDbBlockBegin
  2
block 8
 70
     0
 10
0.0
 20
0.0
 30
0.0
  3
block 8
  1

  0
SPLINE
  5
DE
330
DA
100
AcDbEntity
  8
_U+30EC_U+30A4_U+30E4_U+30FC 1
370
     0
100
AcDbSpline
210
0.0
220
0.0
230
1.0
 70
    11
 71
     3
 72
    26
 73
    22
 74
     0
 42
0.0000000001
 43
0.0000000001
 12
1.0
 22
0.0
 32
0.0
 13
1.0
 23
0.0
 33
0.0
 40
0.0
 40
0.0
 40
0.0
 40
0.0
 40
1.0
 40
1.0
 40
1.0
 40
2.0
 40
2.0
 40
2.0
 40
3.0
 40
3.0
 40
3.0
 40
4.0
 40
4.0
 40
4.0
 40
5.0
 40
5.0
 40
5.0
 40
6.0
 40
6.0
 40
6.0
 40
7.0
 40
7.0
 40
7.0
 40
7.0
 10
84.71920435165006
 20
-125.493287457776
 30
0.0
 10
84.71920435165006
 20
-125.493287457776
 30
0.0
 10
84.71920435165006
 20
-124.3889620999792
 30
0.0
 10
84.71920435165006
 20
-124.3889620999792
 30
0.0
 10
84.71920435165006
 20
-124.3889620999792
 30
0.0
 10
84.38916420416312
 20
-124.3889620999792
 30
0.0
 10
84.38916420416312
 20
-124.3889620999792
 30
0.0
 10
84.38916420416312
 20
-124.3889620999792
 30
0.0
 10
84.38916420416312
 20
-124.2408229941134
 30
0.0
 10
84.38916420416312
 20
-124.2408229941134
 30
0.0
 10
84.72127140894122
 20
-124.2261813383011
 30
0.0
 10
84.76778019799208
 20
-124.0632283218488
 30
0.0
 10
84.79740801916523
 20
-123.9490234065128
 30
0.0
 10
84.79740801916523
 20
-123.9490234065128
 30
0.0
 10
84.94348006773983
 20
-123.9490234065128
 30
0.0
 10
84.94348006773983
 20
-123.9490234065128
 30
0.0
 10
84.94348006773983
 20
-123.9490234065128
 30
0.0
 10
84.94348006773983
 20
-125.493287457776
 30
0.0
 10
84.94348006773983
 20
-125.493287457776
 30
0.0
 10
84.94348006773983
 20
-125.493287457776
 30
0.0
 10
84.71920435165006
 20
-125.493287457776
 30
0.0
 10
84.71920435165006
 20
-125.493287457776
 30
0.0
  0
HATCH
  5
DF
330
DA
100
AcDbEntity
  8
_U+30EC_U+30A4_U+30E4_U+30FC 1
 62
   179
420
  2234388
100
AcDbHatch
 10
0.0
 20
0.0
 30
0.0
210
0.0
220
0.0
230
1.0
  2
SOLID
 70
     1
 71
     0
 91
        1
 92
        1
 93
        1
 72
     4
 94
        3
 73
     0
 74
     1
 95
       26
 96
       22
 40
0.0
 40
0.0
 40
0.0
 40
0.0
 40
1.0
 40
1.0
 40
1.0
 40
2.0
 40
2.0
 40
2.0
 40
3.0
 40
3.0
 40
3.0
 40
4.0
 40
4.0
 40
4.0
 40
5.0
 40
5.0
 40
5.0
 40
6.0
 40
6.0
 40
6.0
 40
7.0
 40
7.0
 40
7.0
 40
7.0
 10
84.71920435165006
 20
-125.493287457776
 10
84.71920435165006
 20
-125.493287457776
 10
84.71920435165006
 20
-124.3889620999792
 10
84.71920435165006
 20
-124.3889620999792
 10
84.71920435165006
 20
-124.3889620999792
 10
84.38916420416312
 20
-124.3889620999792
 10
84.38916420416312
 20
-124.3889620999792
 10
84.38916420416312
 20
-124.3889620999792
 10
84.38916420416312
 20
-124.2408229941134
 10
84.38916420416312
 20
-124.2408229941134
 10
84.72127140894122
 20
-124.2261813383011
 10
84.76778019799208
 20
-124.0632283218488
 10
84.79740801916523
 20
-123.9490234065128
 10
84.79740801916523
 20
-123.9490234065128
 10
84.94348006773983
 20
-123.9490234065128
 10
84.94348006773983
 20
-123.9490234065128
 10
84.94348006773983
 20
-123.9490234065128
 10
84.94348006773983
 20
-125.493287457776
 10
84.94348006773983
 20
-125.493287457776
 10
84.94348006773983
 20
-125.493287457776
 10
84.71920435165006
 20
-125.493287457776
 10
84.71920435165006
 20
-125.493287457776
 97
        0
 97
        0
 75
     2
 76
     1
 98
        0
  0
ENDBLK
  5
DD
330
DA
100
AcDbEntity
  8
0
100
AcDbBlockEnd
  0
ENDSEC
  0
SECTION
  2
ENTITIES
  0
SPLINE
  5
41
330
1F
100
AcDbEntity
  8
_U+30EC_U+30A4_U+30E4_U+30FC 1
 62
   179
420
  2234388
370
     9
100
AcDbSpline
210
0.0
220
0.0
230
1.0
 70
    11
 71
     3
 72
    17
 73
    13
 74
     0
 42
0.0000000001
 43
0.0000000001
 12
1.0
 22
0.0
 32
0.0
 13
1.0
 23
0.0
 33
0.0
 40
0.0
 40
0.0
 40
0.0
 40
0.0
 40
1.0
 40
1.0
 40
1.0
 40
2.0
 40
2.0
 40
2.0
 40
3.0
 40
3.0
 40
3.0
 40
4.0
 40
4.0
 40
4.0
 40
4.0
 10
114.2049234752786
 20
-136.0826519104239
 30
0.0
 10
114.2049234752786
 20
-136.0275127437708
 30
0.0
 10
114.1601206986438
 20
-135.98309802156
 30
0.0
 10
114.1050168111607
 20
-135.98309802156
 30
0.0
 10
114.0498805270428
 20
-135.98309802156
 30
0.0
 10
114.0051101470429
 20
-136.0275127437708
 30
0.0
 10
114.0051101470429
 20
-136.0826519104239
 30
0.0
 10
114.0051101470429
 20
-136.1377557992988
 30
0.0
 10
114.0498805270428
 20
-136.1825585770655
 30
0.0
 10
114.1050168111607
 20
-136.1825585770655
 30
0.0
 10
114.1601206986438
 20
-136.1825585770655
 30
0.0
 10
114.2049234752786
 20
-136.1377557992988
 30
0.0
 10
114.2049234752786
 20
-136.0826519104239
 30
0.0
  0
SPLINE
  5
42
330
1F
100
AcDbEntity
  8
_U+30EC_U+30A4_U+30E4_U+30FC 1
 62
   179
420
  2234388
370
     9
100
AcDbSpline
210
0.0
220
0.0
230
1.0
 70
    11
 71
     3
 72
    17
 73
    13
 74
     0
 42
0.0000000001
 43
0.0000000001
 12
1.0
 22
0.0
 32
0.0
 13
1.0
 23
0.0
 33
0.0
 40
0.0
 40
0.0
 40
0.0
 40
0.0
 40
1.0
 40
1.0
 40
1.0
 40
2.0
 40
2.0
 40
2.0
 40
3.0
 40
3.0
 40
3.0
 40
4.0
 40
4.0
 40
4.0
 40
4.0
 10
109.5678008158036
 20
-141.0832063536178
 30
0.0
 10
109.5678008158036
 20
-141.0280671869654
 30
0.0
 10
109.5230360837306
 20
-140.9832996869762
 30
0.0
 10
109.4678941516858
 20
-140.9832996869762
 30
0.0
 10
109.4127902642027
 20
-140.9832996869762
 30
0.0
 10
109.367987487568
 20
-141.0280671869654
 30
0.0
 10
109.367987487568
 20
-141.0832063536178
 30
0.0
 10
109.367987487568
 20
-141.1383102424934
 30
0.0
 10
109.4127902642027
 20
-141.1831130202601
 30
0.0
 10
109.4678941516858
 20
-141.1831130202601
 30
0.0
 10
109.5230360837306
 20
-141.1831130202601
 30
0.0
 10
109.5678008158036
 20
-141.1383102424934
 30
0.0
 10
109.5678008158036
 20
-141.0832063536178
 30
0.0
  0
SPLINE
  5
43
330
1F
100
AcDbEntity
  8
_U+30EC_U+30A4_U+30E4_U+30FC 1
 62
   179
420
  2234388
370
     9
100
AcDbSpline
210
0.0
220
0.0
230
1.0
 70
    11
 71
     3
 72
    17
 73
    13
 74
     0
 42
0.0000000001
 43
0.0000000001
 12
1.0
 22
0.0
 32
0.0
 13
1.0
 23
0.0
 33
0.0
 40
0.0
 40
0.0
 40
0.0
 40
0.0
 40
1.0
 40
1.0
 40
1.0
 40
2.0
 40
2.0
 40
2.0
 40
3.0
 40
3.0
 40
3.0
 40
4.0
 40
4.0
 40
4.0
 40
4.0
 10
66.56750691283253
 20
-141.0832063536178
 30
0.0
 10
66.56750691283253
 20
-141.0280671869654
 30
0.0
 10
66.52273941397463
 20
-140.9832996869762
 30
0.0
 10
66.46760024871469
 20
-140.9832996869762
 30
0.0
 10
66.41249636123162
 20
-140.9832996869762
 30
0.0
 10
66.36769358459685
 20
-141.0280671869654
 30
0.0
 10
66.36769358459685
 20
-141.0832063536178
 30
0.0
 10
66.36769358459685
 20
-141.1383102424934
 30
0.0
 10
66.41249636123162
 20
-141.1831130202601
 30
0.0
 10
66.46760024871469
 20
-141.1831130202601
 30
0.0
 10
66.52273941397463
 20
-141.1831130202601
 30
0.0
 10
66.56750691283253
 20
-141.1383102424934
 30
0.0
 10
66.56750691283253
 20
-141.0832063536178
 30
0.0
  0
SPLINE
  5
44
330
1F
100
AcDbEntity
  8
_U+30EC_U+30A4_U+30E4_U+30FC 1
 62
   179
420
  2234388
370
     9
100
AcDbSpline
210
0.0
220
0.0
230
1.0
 70
    11
 71
     3
 72
    17
 73
    13
 74
     0
 42
0.0000000001
 43
0.0000000001
 12
1.0
 22
0.0
 32
0.0
 13
1.0
 23
0.0
 33
0.0
 40
0.0
 40
0.0
 40
0.0
 40
0.0
 40
1.0
 40
1.0
 40
1.0
 40
2.0
 40
2.0
 40
2.0
 40
3.0
 40
3.0
 40
3.0
 40
4.0
 40
4.0
 40
4.0
 40
4.0
 10
92.56765180506912
 20
-117.5642174706091
 30
0.0
 10
92.56765180506912
 20
-117.5091135817339
 30
0.0
 10
92.52284902843436
 20
-117.4643108039671
 30
0.0
 10
92.4677451409513
 20
-117.4643108039671
 30
0.0
 10
92.4126083102303
 20
-117.4643108039671
 30
0.0
 10
92.36783847683346
 20
-117.5091135817339
 30
0.0
 10
92.36783847683346
 20
-117.5642174706091
 30
0.0
 10
92.36783847683346
 20
-117.6200269150395
 30
0.0
 10
92.4126083102303
 20
-117.6648296928059
 30
0.0
 10
92.4677451409513
 20
-117.6648296928059
 30
0.0
 10
92.52284902843436
 20
-117.6648296928059
 30
0.0
 10
92.56765180506912
 20
-117.6200269150395
 30
0.0
 10
92.56765180506912
 20
-117.5642174706091
 30
0.0
  0
SPLINE
  5
45
330
1F
100
AcDbEntity
  8
_U+30EC_U+30A4_U+30E4_U+30FC 1
 62
   179
420
  2234388
370
     9
100
AcDbSpline
210
0.0
220
0.0
230
1.0
 70
    11
 71
     3
 72
    17
 73
    13
 74
     0
 42
0.0000000001
 43
0.0000000001
 12
1.0
 22
0.0
 32
0.0
 13
1.0
 23
0.0
 33
0.0
 40
0.0
 40
0.0
 40
0.0
 40
0.0
 40
1.0
 40
1.0
 40
1.0
 40
2.0
 40
2.0
 40
2.0
 40
3.0
 40
3.0
 40
3.0
 40
4.0
 40
4.0
 40
4.0
 40
4.0
 10
101.5676124087943
 20
-117.5642174706091
 30
0.0
 10
101.5676124087943
 20
-117.5091135817339
 30
0.0
 10
101.5228449099365
 20
-117.4643108039671
 30
0.0
 10
101.4677083079664
 20
-117.4643108039671
 30
0.0
 10
101.4126018571934
 20
-117.4643108039671
 30
0.0
 10
101.3677990805587
 20
-117.5091135817339
 30
0.0
 10
101.3677990805587
 20
-117.5642174706091
 30
0.0
 10
101.3677990805587
 20
-117.6200269150395
 30
0.0
 10
101.4126018571934
 20
-117.6648296928059
 30
0.0
 10
101.4677083079664
 20
-117.6648296928059
 30
0.0
 10
101.5228449099365
 20
-117.6648296928059
 30
0.0
 10
101.5676124087943
 20
-117.6200269150395
 30
0.0
 10
101.5676124087943
 20
-117.5642174706091
 30
0.0
  0
SPLINE
  5
46
330
1F
100
AcDbEntity
  8
_U+30EC_U+30A4_U+30E4_U+30FC 1
 62
   179
420
  2234388
370
     9
100
AcDbSpline
210
0.0
220
0.0
230
1.0
 70
    11
 71
     3
 72
    17
 73
    13
 74
     0
 42
0.0000000001
 43
0.0000000001
 12
1.0
 22
0.0
 32
0.0
 13
1.0
 23
0.0
 33
0.0
 40
0.0
 40
0.0
 40
0.0
 40
0.0
 40
1.0
 40
1.0
 40
1.0
 40
2.0
 40
2.0
 40
2.0
 40
3.0
 40
3.0
 40
3.0
 40
4.0
 40
4.0
 40
4.0
 40
4.0
 10
83.56733842357514
 20
-117.5642174706091
 30
0.0
 10
83.56733842357514
 20
-117.5091135817339
 30
0.0
 10
83.52253564694037
 20
-117.4643108039671
 30
0.0
 10
83.4674317594573
 20
-117.4643108039671
 30
0.0
 10
83.41229259419735
 20
-117.4643108039671
 30
0.0
 10
83.36752509533946
 20
-117.5091135817339
 30
0.0
 10
83.36752509533946
 20
-117.5642174706091
 30
0.0
 10
83.36752509533946
 20
-117.6200269150395
 30
0.0
 10
83.41229259419735
 20
-117.6648296928059
 30
0.0
 10
83.4674317594573
 20
-117.6648296928059
 30
0.0
 10
83.52253564694037
 20
-117.6648296928059
 30
0.0
 10
83.56733842357514
 20
-117.6200269150395
 30
0.0
 10
83.56733842357514
 20
-117.5642174706091
 30
0.0
  0
POLYLINE
  5
47
330
1F
100
AcDbEntity
  8
_U+30EC_U+30A4_U+30E4_U+30FC 1
 62
   179
420
  2234388
370
     9
100
AcDb2dPolyline
 66
     1
 10
0.0
 20
0.0
 30
0.0
  0
VERTEX
  5
48
330
47
100
AcDbEntity
  8
_U+30EC_U+30A4_U+30E4_U+30FC 1
 62
   179
420
  2234388
370
     9
100
AcDbVertex
100
AcDb2dVertex
 10
114.1050168111607
 20
-136.0826519104239
 30
0.0
  0
VERTEX
  5
49
330
47
100
AcDbEntity
  8
_U+30EC_U+30A4_U+30E4_U+30FC 1
 62
   179
420
  2234388
370
     9
100
AcDbVertex
100
AcDb2dVertex
 10
114.1050168111607
 20
-120.0784646922026
 30
0.0
  0
SEQEND
  5
4A
330
47
100
AcDbEntity
  8
_U+30EC_U+30A4_U+30E4_U+30FC 1
 62
   179
420
  2234388
370
     9
  0
POLYLINE
  5
4B
330
1F
100
AcDbEntity
  8
_U+30EC_U+30A4_U+30E4_U+30FC 1
 62
   179
420
  2234388
370
     9
100
AcDb2dPolyline
 66
     1
 10
0.0
 20
0.0
 30
0.0
  0
VERTEX
  5
4C
330
4B
100
AcDbEntity
  8
_U+30EC_U+30A4_U+30E4_U+30FC 1
 62
   179
420
  2234388
370
     9
100
AcDbVertex
100
AcDb2dVertex
 10
112.6449754595206
 20
-136.0826519104239
 30
0.0
  0
VERTEX
  5
4D
330
4B
100
AcDbEntity
  8
_U+30EC_U+30A4_U+30E4_U+30FC 1
 62
   179
420
  2234388
370
     9
100
AcDbVertex
100
AcDb2dVertex
 10
115.1054592856373
 20
-136.0826519104239
 30
0.0
  0
SEQEND
  5
4E
330
4B
100
AcDbEntity
  8
_U+30EC_U+30A4_U+30E4_U+30FC 1
 62
   179
420
  2234388
370
     9
  0
SPLINE
  5
4F
330
1F
100
AcDbEntity
  8
_U+30EC_U+30A4_U+30E4_U+30FC 1
 62
   179
420
  2234388
370
     9
100
AcDbSpline
210
0.0
220
0.0
230
1.0
 70
    11
 71
     3
 72
    17
 73
    13
 74
     0
 42
0.0000000001
 43
0.0000000001
 12
1.0
 22
0.0
 32
0.0
 13
1.0
 23
0.0
 33
0.0
 40
0.0
 40
0.0
 40
0.0
 40
0.0
 40
1.0
 40
1.0
 40
1.0
 40
2.0
 40
2.0
 40
2.0
 40
3.0
 40
3.0
 40
3.0
 40
4.0
 40
4.0
 40
4.0
 40
4.0
 10
114.2049234752786
 20
-123.0825791358959
 30
0.0
 10
114.2049234752786
 20
-123.027475247021
 30
0.0
 10
114.1601206986438
 20
-122.9826724692543
 30
0.0
 10
114.1050168111607
 20
-122.9826724692543
 30
0.0
 10
114.0498805270428
 20
-122.9826724692543
 30
0.0
 10
114.0051101470429
 20
-123.027475247021
 30
0.0
 10
114.0051101470429
 20
-123.0825791358959
 30
0.0
 10
114.0051101470429
 20
-123.137718302549
 30
0.0
 10
114.0498805270428
 20
-123.1824858025379
 30
0.0
 10
114.1050168111607
 20
-123.1824858025379
 30
0.0
 10
114.1601206986438
 20
-123.1824858025379
 30
0.0
 10
114.2049234752786
 20
-123.137718302549
 30
0.0
 10
114.2049234752786
 20
-123.0825791358959
 30
0.0
  0
POLYLINE
  5
50
330
1F
100
AcDbEntity
  8
_U+30EC_U+30A4_U+30E4_U+30FC 1
 62
   179
420
  2234388
370
     9
100
AcDb2dPolyline
 66
     1
 10
0.0
 20
0.0
 30
0.0
  0
VERTEX
  5
51
330
50
100
AcDbEntity
  8
_U+30EC_U+30A4_U+30E4_U+30FC 1
 62
   179
420
  2234388
370
     9
100
AcDbVertex
100
AcDb2dVertex
 10
108.6455691726651
 20
-123.0825791358959
 30
0.0
  0
VERTEX
  5
52
330
50
100
AcDbEntity
  8
_U+30EC_U+30A4_U+30E4_U+30FC 1
 62
   179
420
  2234388
370
     9
100
AcDbVertex
100
AcDb2dVertex
 10
115.1054592856373
 20
-123.0825791358959
 30
0.0
  0
SEQEND
  5
53
330
50
100
AcDbEntity
  8
_U+30EC_U+30A4_U+30E4_U+30FC 1
 62
   179
420
  2234388
370
     9
  0
SPLINE
  5
54
330
1F
100
AcDbEntity
  8
_U+30EC_U+30A4_U+30E4_U+30FC 1
 62
   179
420
  2234388
370
     9
100
AcDbSpline
210
0.0
220
0.0
230
1.0
 70
    11
 71
     3
 72
    17
 73
    13
 74
     0
 42
0.0000000001
 43
0.0000000001
 12
1.0
 22
0.0
 32
0.0
 13
1.0
 23
0.0
 33
0.0
 40
0.0
 40
0.0
 40
0.0
 40
0.0
 40
1.0
 40
1.0
 40
1.0
 40
2.0
 40
2.0
 40
2.0
 40
3.0
 40
3.0
 40
3.0
 40
4.0
 40
4.0
 40
4.0
 40
4.0
 10
114.2049234752786
 20
-120.0825921922016
 30
0.0
 10
114.2049234752786
 20
-120.0274883033263
 30
0.0
 10
114.1601206986438
 20
-119.9826855255599
 30
0.0
 10
114.1050168111607
 20
-119.9826855255599
 30
0.0
 10
114.0498805270428
 20
-119.9826855255599
 30
0.0
 10
114.0051101470429
 20
-120.0274883033263
 30
0.0
 10
114.0051101470429
 20
-120.0825921922016
 30
0.0
 10
114.0051101470429
 20
-120.1377313588543
 30
0.0
 10
114.0498805270428
 20
-120.1824988588432
 30
0.0
 10
114.1050168111607
 20
-120.1824988588432
 30
0.0
 10
114.1601206986438
 20
-120.1824988588432
 30
0.0
 10
114.2049234752786
 20
-120.1377313588543
 30
0.0
 10
114.2049234752786
 20
-120.0825921922016
 30
0.0
  0
POLYLINE
  5
55
330
1F
100
AcDbEntity
  8
_U+30EC_U+30A4_U+30E4_U+30FC 1
 62
   179
420
  2234388
370
     9
100
AcDb2dPolyline
 66
     1
 10
0.0
 20
0.0
 30
0.0
  0
VERTEX
  5
56
330
55
100
AcDbEntity
  8
_U+30EC_U+30A4_U+30E4_U+30FC 1
 62
   179
420
  2234388
370
     9
100
AcDbVertex
100
AcDb2dVertex
 10
108.6455691726651
 20
-120.0825921922016
 30
0.0
  0
VERTEX
  5
57
330
55
100
AcDbEntity
  8
_U+30EC_U+30A4_U+30E4_U+30FC 1
 62
   179
420
  2234388
370
     9
100
AcDbVertex
100
AcDb2dVertex
 10
115.1054592856373
 20
-120.0825921922016
 30
0.0
  0
SEQEND
  5
58
330
55
100
AcDbEntity
  8
_U+30EC_U+30A4_U+30E4_U+30FC 1
 62
   179
420
  2234388
370
     9
  0
INSERT
  5
5A
330
1F
100
AcDbEntity
  8
_U+30EC_U+30A4_U+30E4_U+30FC 1
100
AcDbBlockReference
  2
block 2
 10
0.0
 20
0.0
 30
0.0
  0
INSERT
  5
62
330
1F
100
AcDbEntity
  8
_U+30EC_U+30A4_U+30E4_U+30FC 1
100
AcDbBlockReference
  2
block 3
 10
0.0
 20
0.0
 30
0.0
  0
POLYLINE
  5
67
330
1F
100
AcDbEntity
  8
_U+30EC_U+30A4_U+30E4_U+30FC 1
 62
   179
420
  2234388
370
     9
100
AcDb2dPolyline
 66
     1
 10
0.0
 20
0.0
 30
0.0
  0
VERTEX
  5
68
330
67
100
AcDbEntity
  8
_U+30EC_U+30A4_U+30E4_U+30FC 1
 62
   179
420
  2234388
370
     9
100
AcDbVertex
100
AcDb2dVertex
 10
66.46760024871469
 20
-141.0832063536178
 30
0.0
  0
VERTEX
  5
69
330
67
100
AcDbEntity
  8
_U+30EC_U+30A4_U+30E4_U+30FC 1
 62
   179
420
  2234388
370
     9
100
AcDbVertex
100
AcDb2dVertex
 10
109.4678941516858
 20
-141.0832063536178
 30
0.0
  0
SEQEND
  5
6A
330
67
100
AcDbEntity
  8
_U+30EC_U+30A4_U+30E4_U+30FC 1
 62
   179
420
  2234388
370
     9
  0
POLYLINE
  5
6B
330
1F
100
AcDbEntity
  8
_U+30EC_U+30A4_U+30E4_U+30FC 1
 62
   179
420
  2234388
370
     9
100
AcDb2dPolyline
 66
     1
 10
0.0
 20
0.0
 30
0.0
  0
VERTEX
  5
6C
330
6B
100
AcDbEntity
  8
_U+30EC_U+30A4_U+30E4_U+30FC 1
 62
   179
420
  2234388
370
     9
100
AcDbVertex
100
AcDb2dVertex
 10
66.46760024871469
 20
-139.6231649650941
 30
0.0
  0
VERTEX
  5
6D
330
6B
100
AcDbEntity
  8
_U+30EC_U+30A4_U+30E4_U+30FC 1
 62
   179
420
  2234388
370
     9
100
AcDbVertex
100
AcDb2dVertex
 10
66.46760024871469
 20
-142.0829785755903
 30
0.0
  0
SEQEND
  5
6E
330
6B
100
AcDbEntity
  8
_U+30EC_U+30A4_U+30E4_U+30FC 1
 62
   179
420
  2234388
370
     9
  0
POLYLINE
  5
6F
330
1F
100
AcDbEntity
  8
_U+30EC_U+30A4_U+30E4_U+30FC 1
 62
   179
420
  2234388
370
     9
100
AcDb2dPolyline
 66
     1
 10
0.0
 20
0.0
 30
0.0
  0
VERTEX
  5
70
330
6F
100
AcDbEntity
  8
_U+30EC_U+30A4_U+30E4_U+30FC 1
 62
   179
420
  2234388
370
     9
100
AcDbVertex
100
AcDb2dVertex
 10
109.4678941516858
 20
-139.6231649650941
 30
0.0
  0
VERTEX
  5
71
330
6F
100
AcDbEntity
  8
_U+30EC_U+30A4_U+30E4_U+30FC 1
 62
   179
420
  2234388
370
     9
100
AcDbVertex
100
AcDb2dVertex
 10
109.4678941516858
 20
-142.0829785755903
 30
0.0
  0
SEQEND
  5
72
330
6F
100
AcDbEntity
  8
_U+30EC_U+30A4_U+30E4_U+30FC 1
 62
   179
420
  2234388
370
     9
  0
INSERT
  5
74
330
1F
100
AcDbEntity
  8
_U+30EC_U+30A4_U+30E4_U+30FC 1
100
AcDbBlockReference
  2
block 4
 10
0.0
 20
0.0
 30
0.0
  0
POLYLINE
  5
8E
330
1F
100
AcDbEntity
  8
_U+30EC_U+30A4_U+30E4_U+30FC 1
 62
   179
420
  2234388
370
     9
100
AcDb2dPolyline
 66
     1
 10
0.0
 20
0.0
 30
0.0
  0
VERTEX
  5
8F
330
8E
100
AcDbEntity
  8
_U+30EC_U+30A4_U+30E4_U+30FC 1
 62
   179
420
  2234388
370
     9
100
AcDbVertex
100
AcDb2dVertex
 10
92.4677451409513
 20
-117.5642174706091
 30
0.0
  0
VERTEX
  5
90
330
8E
100
AcDbEntity
  8
_U+30EC_U+30A4_U+30E4_U+30FC 1
 62
   179
420
  2234388
370
     9
100
AcDbVertex
100
AcDb2dVertex
 10
83.4674317594573
 20
-117.5642174706091
 30
0.0
  0
SEQEND
  5
91
330
8E
100
AcDbEntity
  8
_U+30EC_U+30A4_U+30E4_U+30FC 1
 62
   179
420
  2234388
370
     9
  0
POLYLINE
  5
92
330
1F
100
AcDbEntity
  8
_U+30EC_U+30A4_U+30E4_U+30FC 1
 62
   179
420
  2234388
370
     9
100
AcDb2dPolyline
 66
     1
 10
0.0
 20
0.0
 30
0.0
  0
VERTEX
  5
93
330
92
100
AcDbEntity
  8
_U+30EC_U+30A4_U+30E4_U+30FC 1
 62
   179
420
  2234388
370
     9
100
AcDbVertex
100
AcDb2dVertex
 10
83.46778453722608
 20
-117.5642174706091
 30
0.0
  0
VERTEX
  5
94
330
92
100
AcDbEntity
  8
_U+30EC_U+30A4_U+30E4_U+30FC 1
 62
   179
420
  2234388
370
     9
100
AcDbVertex
100
AcDb2dVertex
 10
74.46747115573208
 20
-117.5642174706091
 30
0.0
  0
SEQEND
  5
95
330
92
100
AcDbEntity
  8
_U+30EC_U+30A4_U+30E4_U+30FC 1
 62
   179
420
  2234388
370
     9
  0
POLYLINE
  5
96
330
1F
100
AcDbEntity
  8
_U+30EC_U+30A4_U+30E4_U+30FC 1
 62
   179
420
  2234388
370
     9
100
AcDb2dPolyline
 66
     1
 10
0.0
 20
0.0
 30
0.0
  0
VERTEX
  5
97
330
96
100
AcDbEntity
  8
_U+30EC_U+30A4_U+30E4_U+30FC 1
 62
   179
420
  2234388
370
     9
100
AcDbVertex
100
AcDb2dVertex
 10
92.4677451409513
 20
-119.0242588591328
 30
0.0
  0
VERTEX
  5
98
330
96
100
AcDbEntity
  8
_U+30EC_U+30A4_U+30E4_U+30FC 1
 62
   179
420
  2234388
370
     9
100
AcDbVertex
100
AcDb2dVertex
 10
92.4677451409513
 20
-116.5644452486366
 30
0.0
  0
SEQEND
  5
99
330
96
100
AcDbEntity
  8
_U+30EC_U+30A4_U+30E4_U+30FC 1
 62
   179
420
  2234388
370
     9
  0
POLYLINE
  5
9A
330
1F
100
AcDbEntity
  8
_U+30EC_U+30A4_U+30E4_U+30FC 1
 62
   179
420
  2234388
370
     9
100
AcDb2dPolyline
 66
     1
 10
0.0
 20
0.0
 30
0.0
  0
VERTEX
  5
9B
330
9A
100
AcDbEntity
  8
_U+30EC_U+30A4_U+30E4_U+30FC 1
 62
   179
420
  2234388
370
     9
100
AcDbVertex
100
AcDb2dVertex
 10
101.4677083079664
 20
-119.0242588591328
 30
0.0
  0
VERTEX
  5
9C
330
9A
100
AcDbEntity
  8
_U+30EC_U+30A4_U+30E4_U+30FC 1
 62
   179
420
  2234388
370
     9
100
AcDbVertex
100
AcDb2dVertex
 10
101.4677083079664
 20
-116.5644452486366
 30
0.0
  0
SEQEND
  5
9D
330
9A
100
AcDbEntity
  8
_U+30EC_U+30A4_U+30E4_U+30FC 1
 62
   179
420
  2234388
370
     9
  0
POLYLINE
  5
9E
330
1F
100
AcDbEntity
  8
_U+30EC_U+30A4_U+30E4_U+30FC 1
 62
   179
420
  2234388
370
     9
100
AcDb2dPolyline
 66
     1
 10
0.0
 20
0.0
 30
0.0
  0
VERTEX
  5
9F
330
9E
100
AcDbEntity
  8
_U+30EC_U+30A4_U+30E4_U+30FC 1
 62
   179
420
  2234388
370
     9
100
AcDbVertex
100
AcDb2dVertex
 10
83.4674317594573
 20
-119.0242588591328
 30
0.0
  0
VERTEX
  5
A0
330
9E
100
AcDbEntity
  8
_U+30EC_U+30A4_U+30E4_U+30FC 1
 62
   179
420
  2234388
370
     9
100
AcDbVertex
100
AcDb2dVertex
 10
83.4674317594573
 20
-116.5644452486366
 30
0.0
  0
SEQEND
  5
A1
330
9E
100
AcDbEntity
  8
_U+30EC_U+30A4_U+30E4_U+30FC 1
 62
   179
420
  2234388
370
     9
  0
SPLINE
  5
A2
330
1F
100
AcDbEntity
  8
_U+30EC_U+30A4_U+30E4_U+30FC 1
 62
   179
420
  2234388
370
     9
100
AcDbSpline
210
0.0
220
0.0
230
1.0
 70
    11
 71
     3
 72
    17
 73
    13
 74
     0
 42
0.0000000001
 43
0.0000000001
 12
1.0
 22
0.0
 32
0.0
 13
1.0
 23
0.0
 33
0.0
 40
0.0
 40
0.0
 40
0.0
 40
0.0
 40
1.0
 40
1.0
 40
1.0
 40
2.0
 40
2.0
 40
2.0
 40
3.0
 40
3.0
 40
3.0
 40
4.0
 40
4.0
 40
4.0
 40
4.0
 10
74.56737781984992
 20
-117.5642174706091
 30
0.0
 10
74.56737781984992
 20
-117.5091135817339
 30
0.0
 10
74.52257504321516
 20
-117.4643108039671
 30
0.0
 10
74.46747115573208
 20
-117.4643108039671
 30
0.0
 10
74.41233199047214
 20
-117.4643108039671
 30
0.0
 10
74.36756449161426
 20
-117.5091135817339
 30
0.0
 10
74.36756449161426
 20
-117.5642174706091
 30
0.0
 10
74.36756449161426
 20
-117.6200269150395
 30
0.0
 10
74.41233199047214
 20
-117.6648296928059
 30
0.0
 10
74.46747115573208
 20
-117.6648296928059
 30
0.0
 10
74.52257504321516
 20
-117.6648296928059
 30
0.0
 10
74.56737781984992
 20
-117.6200269150395
 30
0.0
 10
74.56737781984992
 20
-117.5642174706091
 30
0.0
  0
POLYLINE
  5
A3
330
1F
100
AcDbEntity
  8
_U+30EC_U+30A4_U+30E4_U+30FC 1
 62
   179
420
  2234388
370
     9
100
AcDb2dPolyline
 66
     1
 10
0.0
 20
0.0
 30
0.0
  0
VERTEX
  5
A4
330
A3
100
AcDbEntity
  8
_U+30EC_U+30A4_U+30E4_U+30FC 1
 62
   179
420
  2234388
370
     9
100
AcDbVertex
100
AcDb2dVertex
 10
74.46747115573208
 20
-119.0242588591328
 30
0.0
  0
VERTEX
  5
A5
330
A3
100
AcDbEntity
  8
_U+30EC_U+30A4_U+30E4_U+30FC 1
 62
   179
420
  2234388
370
     9
100
AcDbVertex
100
AcDb2dVertex
 10
74.46747115573208
 20
-116.5644452486366
 30
0.0
  0
SEQEND
  5
A6
330
A3
100
AcDbEntity
  8
_U+30EC_U+30A4_U+30E4_U+30FC 1
 62
   179
420
  2234388
370
     9
  0
INSERT
  5
A8
330
1F
100
AcDbEntity
  8
_U+30EC_U+30A4_U+30E4_U+30FC 1
100
AcDbBlockReference
  2
block 5
 10
0.0
 20
0.0
 30
0.0
  0
INSERT
  5
AF
330
1F
100
AcDbEntity
  8
_U+30EC_U+30A4_U+30E4_U+30FC 1
100
AcDbBlockReference
  2
block 6
 10
0.0
 20
0.0
 30
0.0
  0
POLYLINE
  5
B5
330
1F
100
AcDbEntity
  8
_U+30EC_U+30A4_U+30E4_U+30FC 1
 62
   179
420
  2234388
370
     9
100
AcDb2dPolyline
 66
     1
 10
0.0
 20
0.0
 30
0.0
  0
VERTEX
  5
B6
330
B5
100
AcDbEntity
  8
_U+30EC_U+30A4_U+30E4_U+30FC 1
 62
   179
420
  2234388
370
     9
100
AcDbVertex
100
AcDb2dVertex
 10
101.4677083079664
 20
-117.5642174706091
 30
0.0
  0
VERTEX
  5
B7
330
B5
100
AcDbEntity
  8
_U+30EC_U+30A4_U+30E4_U+30FC 1
 62
   179
420
  2234388
370
     9
100
AcDbVertex
100
AcDb2dVertex
 10
92.46739236318251
 20
-117.5642174706091
 30
0.0
  0
SEQEND
  5
B8
330
B5
100
AcDbEntity
  8
_U+30EC_U+30A4_U+30E4_U+30FC 1
 62
   179
420
  2234388
370
     9
  0
INSERT
  5
BA
330
1F
100
AcDbEntity
  8
_U+30EC_U+30A4_U+30E4_U+30FC 1
100
AcDbBlockReference
  2
block 7
 10
0.0
 20
0.0
 30
0.0
  0
POLYLINE
  5
C0
330
1F
100
AcDbEntity
  8
_U+30EC_U+30A4_U+30E4_U+30FC 1
 62
   179
420
  2234388
370
    25
100
AcDb2dPolyline
 66
     1
 10
0.0
 20
0.0
 30
0.0
  0
VERTEX
  5
C1
330
C0
100
AcDbEntity
  8
_U+30EC_U+30A4_U+30E4_U+30FC 1
 62
   179
420
  2234388
370
    25
100
AcDbVertex
100
AcDb2dVertex
 10
66.46760024871469
 20
-137.0827769101735
 30
0.0
  0
VERTEX
  5
C2
330
C0
100
AcDbEntity
  8
_U+30EC_U+30A4_U+30E4_U+30FC 1
 62
   179
420
  2234388
370
    25
100
AcDbVertex
100
AcDb2dVertex
 10
109.4675766516939
 20
-137.0827769101735
 30
0.0
  0
SEQEND
  5
C3
330
C0
100
AcDbEntity
  8
_U+30EC_U+30A4_U+30E4_U+30FC 1
 62
   179
420
  2234388
370
    25
  0
POLYLINE
  5
C4
330
1F
100
AcDbEntity
  8
_U+30EC_U+30A4_U+30E4_U+30FC 1
 62
   179
420
  2234388
370
    25
100
AcDb2dPolyline
 66
     1
 10
0.0
 20
0.0
 30
0.0
  0
VERTEX
  5
C5
330
C4
100
AcDbEntity
  8
_U+30EC_U+30A4_U+30E4_U+30FC 1
 62
   179
420
  2234388
370
    25
100
AcDbVertex
100
AcDb2dVertex
 10
108.4684747327387
 20
-136.0822991326461
 30
0.0
  0
VERTEX
  5
C6
330
C4
100
AcDbEntity
  8
_U+30EC_U+30A4_U+30E4_U+30FC 1
 62
   179
420
  2234388
370
    25
100
AcDbVertex
100
AcDb2dVertex
 10
93.4678348376591
 20
-136.0822991326461
 30
0.0
  0
VERTEX
  5
C7
330
C4
100
AcDbEntity
  8
_U+30EC_U+30A4_U+30E4_U+30FC 1
 62
   179
420
  2234388
370
    25
100
AcDbVertex
100
AcDb2dVertex
 10
93.4678348376591
 20
-121.0244735808549
 30
0.0
  0
VERTEX
  5
C8
330
C4
100
AcDbEntity
  8
_U+30EC_U+30A4_U+30E4_U+30FC 1
 62
   179
420
  2234388
370
    25
100
AcDbVertex
100
AcDb2dVertex
 10
100.4675833082167
 20
-121.0244735808549
 30
0.0
  0
VERTEX
  5
C9
330
C4
100
AcDbEntity
  8
_U+30EC_U+30A4_U+30E4_U+30FC 1
 62
   179
420
  2234388
370
    25
100
AcDbVertex
100
AcDb2dVertex
 10
100.4675833082167
 20
-123.0240180247997
 30
0.0
  0
VERTEX
  5
CA
330
C4
100
AcDbEntity
  8
_U+30EC_U+30A4_U+30E4_U+30FC 1
 62
   179
420
  2234388
370
    25
100
AcDbVertex
100
AcDb2dVertex
 10
101.4677083079664
 20
-123.0240180247997
 30
0.0
  0
VERTEX
  5
CB
330
C4
100
AcDbEntity
  8
_U+30EC_U+30A4_U+30E4_U+30FC 1
 62
   179
420
  2234388
370
    25
100
AcDbVertex
100
AcDb2dVertex
 10
101.4677083079664
 20
-120.024031081105
 30
0.0
  0
VERTEX
  5
CC
330
C4
100
AcDbEntity
  8
_U+30EC_U+30A4_U+30E4_U+30FC 1
 62
   179
420
  2234388
370
    25
100
AcDbVertex
100
AcDb2dVertex
 10
92.4677451409513
 20
-120.024031081105
 30
0.0
  0
VERTEX
  5
CD
330
C4
100
AcDbEntity
  8
_U+30EC_U+30A4_U+30E4_U+30FC 1
 62
   179
420
  2234388
370
    25
100
AcDbVertex
100
AcDb2dVertex
 10
92.4677451409513
 20
-136.0822991326461
 30
0.0
  0
VERTEX
  5
CE
330
C4
100
AcDbEntity
  8
_U+30EC_U+30A4_U+30E4_U+30FC 1
 62
   179
420
  2234388
370
    25
100
AcDbVertex
100
AcDb2dVertex
 10
83.46778453722608
 20
-136.0822991326461
 30
0.0
  0
VERTEX
  5
CF
330
C4
100
AcDbEntity
  8
_U+30EC_U+30A4_U+30E4_U+30FC 1
 62
   179
420
  2234388
370
    25
100
AcDbVertex
100
AcDb2dVertex
 10
83.46778453722608
 20
-120.024031081105
 30
0.0
  0
VERTEX
  5
D0
330
C4
100
AcDbEntity
  8
_U+30EC_U+30A4_U+30E4_U+30FC 1
 62
   179
420
  2234388
370
    25
100
AcDbVertex
100
AcDb2dVertex
 10
74.467788655724
 20
-120.024031081105
 30
0.0
  0
VERTEX
  5
D1
330
C4
100
AcDbEntity
  8
_U+30EC_U+30A4_U+30E4_U+30FC 1
 62
   179
420
  2234388
370
    25
100
AcDbVertex
100
AcDb2dVertex
 10
74.467788655724
 20
-123.0240180247997
 30
0.0
  0
VERTEX
  5
D2
330
C4
100
AcDbEntity
  8
_U+30EC_U+30A4_U+30E4_U+30FC 1
 62
   179
420
  2234388
370
    25
100
AcDbVertex
100
AcDb2dVertex
 10
75.46791363020867
 20
-123.0240180247997
 30
0.0
  0
VERTEX
  5
D3
330
C4
100
AcDbEntity
  8
_U+30EC_U+30A4_U+30E4_U+30FC 1
 62
   179
420
  2234388
370
    25
100
AcDbVertex
100
AcDb2dVertex
 10
75.46791363020867
 20
-121.0244735808549
 30
0.0
  0
VERTEX
  5
D4
330
C4
100
AcDbEntity
  8
_U+30EC_U+30A4_U+30E4_U+30FC 1
 62
   179
420
  2234388
370
    25
100
AcDbVertex
100
AcDb2dVertex
 10
82.46765956274139
 20
-121.0244735808549
 30
0.0
  0
VERTEX
  5
D5
330
C4
100
AcDbEntity
  8
_U+30EC_U+30A4_U+30E4_U+30FC 1
 62
   179
420
  2234388
370
    25
100
AcDbVertex
100
AcDb2dVertex
 10
82.46765956274139
 20
-136.0822991326461
 30
0.0
  0
VERTEX
  5
D6
330
C4
100
AcDbEntity
  8
_U+30EC_U+30A4_U+30E4_U+30FC 1
 62
   179
420
  2234388
370
    25
100
AcDbVertex
100
AcDb2dVertex
 10
67.46839720535506
 20
-136.0822991326461
 30
0.0
  0
SEQEND
  5
D7
330
C4
100
AcDbEntity
  8
_U+30EC_U+30A4_U+30E4_U+30FC 1
 62
   179
420
  2234388
370
    25
  0
SPLINE
  5
D8
330
1F
100
AcDbEntity
  8
_U+30EC_U+30A4_U+30E4_U+30FC 1
 62
   179
420
  2234388
370
     9
100
AcDbSpline
210
0.0
220
0.0
230
1.0
 70
    11
 71
     3
 72
    17
 73
    13
 74
     0
 42
0.0000000001
 43
0.0000000001
 12
1.0
 22
0.0
 32
0.0
 13
1.0
 23
0.0
 33
0.0
 40
0.0
 40
0.0
 40
0.0
 40
0.0
 40
1.0
 40
1.0
 40
1.0
 40
2.0
 40
2.0
 40
2.0
 40
3.0
 40
3.0
 40
3.0
 40
4.0
 40
4.0
 40
4.0
 40
4.0
 10
82.46801234051017
 20
-126.0822133018128
 30
0.0
 10
82.46801234051017
 20
-126.0271094129376
 30
0.0
 10
82.4232095638754
 20
-125.9823066351712
 30
0.0
 10
82.36810567639233
 20
-125.9823066351712
 30
0.0
 10
82.31296651113239
 20
-125.9823066351712
 30
0.0
 10
82.2681990122745
 20
-126.0271094129376
 30
0.0
 10
82.2681990122745
 20
-126.0822133018128
 30
0.0
 10
82.2681990122745
 20
-126.1373524684656
 30
0.0
 10
82.31296651113239
 20
-126.1821199684544
 30
0.0
 10
82.36810567639233
 20
-126.1821199684544
 30
0.0
 10
82.4232095638754
 20
-126.1821199684544
 30
0.0
 10
82.46801234051017
 20
-126.1373524684656
 30
0.0
 10
82.46801234051017
 20
-126.0822133018128
 30
0.0
  0
SPLINE
  5
D9
330
1F
100
AcDbEntity
  8
_U+30EC_U+30A4_U+30E4_U+30FC 1
 62
   179
420
  2234388
370
     9
100
AcDbSpline
210
0.0
220
0.0
230
1.0
 70
    11
 71
     3
 72
    17
 73
    13
 74
     0
 42
0.0000000001
 43
0.0000000001
 12
1.0
 22
0.0
 32
0.0
 13
1.0
 23
0.0
 33
0.0
 40
0.0
 40
0.0
 40
0.0
 40
0.0
 40
1.0
 40
1.0
 40
1.0
 40
2.0
 40
2.0
 40
2.0
 40
3.0
 40
3.0
 40
3.0
 40
4.0
 40
4.0
 40
4.0
 40
4.0
 10
83.46778453722608
 20
-126.0822133018128
 30
0.0
 10
83.46778453722608
 20
-126.0271094129376
 30
0.0
 10
83.42298176059131
 20
-125.9823066351712
 30
0.0
 10
83.36787787310824
 20
-125.9823066351712
 30
0.0
 10
83.3127387078483
 20
-125.9823066351712
 30
0.0
 10
83.2679712089904
 20
-126.0271094129376
 30
0.0
 10
83.2679712089904
 20
-126.0822133018128
 30
0.0
 10
83.2679712089904
 20
-126.1373524684656
 30
0.0
 10
83.3127387078483
 20
-126.1821199684544
 30
0.0
 10
83.36787787310824
 20
-126.1821199684544
 30
0.0
 10
83.42298176059131
 20
-126.1821199684544
 30
0.0
 10
83.46778453722608
 20
-126.1373524684656
 30
0.0
 10
83.46778453722608
 20
-126.0822133018128
 30
0.0
  0
INSERT
  5
DB
330
1F
100
AcDbEntity
  8
_U+30EC_U+30A4_U+30E4_U+30FC 1
100
AcDbBlockReference
  2
block 8
 10
0.0
 20
0.0
 30
0.0
  0
POLYLINE
  5
E0
330
1F
100
AcDbEntity
  8
_U+30EC_U+30A4_U+30E4_U+30FC 1
 62
   179
420
  2234388
370
     9
100
AcDb2dPolyline
 66
     1
 10
0.0
 20
0.0
 30
0.0
  0
VERTEX
  5
E1
330
E0
100
AcDbEntity
  8
_U+30EC_U+30A4_U+30E4_U+30FC 1
 62
   179
420
  2234388
370
     9
100
AcDbVertex
100
AcDb2dVertex
 10
85.28748282413504
 20
-126.0822133018128
 30
0.0
  0
VERTEX
  5
E2
330
E0
100
AcDbEntity
  8
_U+30EC_U+30A4_U+30E4_U+30FC 1
 62
   179
420
  2234388
370
     9
100
AcDbVertex
100
AcDb2dVertex
 10
81.44894319984212
 20
-126.0822133018128
 30
0.0
  0
SEQEND
  5
E3
330
E0
100
AcDbEntity
  8
_U+30EC_U+30A4_U+30E4_U+30FC 1
 62
   179
420
  2234388
370
     9
  0
SPLINE
  5
E4
330
1F
100
AcDbEntity
  8
_U+30EC_U+30A4_U+30E4_U+30FC 1
 62
   179
420
  2234388
370
    25
100
AcDbSpline
210
0.0
220
0.0
230
1.0
 70
     8
 71
     3
 72
     8
 73
     4
 74
     0
 42
0.0000000001
 43
0.0000000001
 12
1.0
 22
0.0
 32
0.0
 13
1.0
 23
0.0
 33
0.0
 40
0.0
 40
0.0
 40
0.0
 40
0.0
 40
1.0
 40
1.0
 40
1.0
 40
1.0
 10
108.4684747327387
 20
-136.0819463548684
 30
0.0
 10
109.0196899964538
 20
-136.0819463548684
 30
0.0
 10
109.4675766516939
 20
-136.5298330214229
 30
0.0
 10
109.4675766516939
 20
-137.0827769101735
 30
0.0
  0
SPLINE
  5
E5
330
1F
100
AcDbEntity
  8
_U+30EC_U+30A4_U+30E4_U+30FC 1
 62
   179
420
  2234388
370
    25
100
AcDbSpline
210
0.0
220
0.0
230
1.0
 70
     8
 71
     3
 72
     8
 73
     4
 74
     0
 42
0.0000000001
 43
0.0000000001
 12
1.0
 22
0.0
 32
0.0
 13
1.0
 23
0.0
 33
0.0
 40
0.0
 40
0.0
 40
0.0
 40
0.0
 40
1.0
 40
1.0
 40
1.0
 40
1.0
 10
66.46760024871469
 20
-137.0827769101735
 30
0.0
 10
66.46760024871469
 20
-136.5315616325336
 30
0.0
 10
66.91545162617794
 20
-136.083674965979
 30
0.0
 10
67.46839720535506
 20
-136.083674965979
 30
0.0
  0
ENDSEC
  0
SECTION
  2
OBJECTS
  0
DICTIONARY
  5
C
330
0
100
AcDbDictionary
281
     1
  3
ACAD_GROUP
350
D
  3
ACAD_LAYOUT
350
1A
  3
ACAD_MATERIAL
350
3B
  3
ACAD_MLEADERSTYLE
350
E7
  3
ACAD_MLINESTYLE
350
17
  3
ACAD_PLOTSETTINGS
350
19
  3
ACAD_PLOTSTYLENAME
350
E
  3
ACAD_TABLESTYLE
350
E6
  3
ACAD_VISUALSTYLE
350
2A
  0
SUN
  5
3F
330
29
100
AcDbSun
 90
        1
290
     0
 63
     7
421
 16777215
 40
1.0
291
     1
 91
  2455826
 92
 54000000
292
     0
 70
     2
 71
   256
280
     1
  0
DICTIONARY
  5
D
102
{ACAD_REACTORS
330
C
102
}
330
C
100
AcDbDictionary
281
     1
  0
DICTIONARY
  5
1A
102
{ACAD_REACTORS
330
C
102
}
330
C
100
AcDbDictionary
281
     1
  3
Layout1
350
1E
  3
Layout2
350
26
  3
Model
350
22
  0
DICTIONARY
  5
3B
102
{ACAD_REACTORS
330
C
102
}
330
C
100
AcDbDictionary
281
     1
  3
ByBlock
350
3D
  3
ByLayer
350
3C
  3
Global
350
3E
  0
DICTIONARY
  5
E7
102
{ACAD_REACTORS
330
C
102
}
330
C
100
AcDbDictionary
281
     1
  0
DICTIONARY
  5
17
102
{ACAD_REACTORS
330
C
102
}
330
C
100
AcDbDictionary
281
     1
  3
Standard
350
18
  0
DICTIONARY
  5
19
102
{ACAD_REACTORS
330
C
102
}
330
C
100
AcDbDictionary
281
     1
  0
ACDBDICTIONARYWDFLT
  5
E
102
{ACAD_REACTORS
330
C
102
}
330
C
100
AcDbDictionary
281
     1
  3
Normal
350
F
100
AcDbDictionaryWithDefault
340
F
  0
DICTIONARY
  5
E6
102
{ACAD_REACTORS
330
C
102
}
330
C
100
AcDbDictionary
281
     1
  0
DICTIONARY
  5
2A
102
{ACAD_REACTORS
330
C
102
}
330
C
100
AcDbDictionary
281
     1
  3
2dWireframe
350
2F
  3
3D Hidden
350
31
  3
3dWireframe
350
30
  3
Basic
350
32
  3
Brighten
350
36
  3
ColorChange
350
3A
  3
Conceptual
350
34
  3
Dim
350
35
  3
Facepattern
350
39
  3
Flat
350
2B
  3
FlatWithEdges
350
2C
  3
Gouraud
350
2D
  3
GouraudWithEdges
350
2E
  3
Linepattern
350
38
  3
Realistic
350
33
  3
Thicken
350
37
  0
LAYOUT
  5
1E
102
{ACAD_REACTORS
330
1A
102
}
330
1A
100
AcDbPlotSettings
  1

  2
none_device
  4

  6

 40
0.0
 41
0.0
 42
0.0
 43
0.0
 44
0.0
 45
0.0
 46
0.0
 47
0.0
 48
0.0
 49
0.0
140
0.0
141
0.0
142
1.0
143
1.0
 70
   688
 72
     0
 73
     0
 74
     5
  7

 75
    16
 76
     0
 77
     2
 78
   300
147
1.0
148
0.0
149
0.0
100
AcDbLayout
  1
Layout1
 70
     1
 71
     1
 10
0.0
 20
0.0
 11
12.0
 21
9.0
 12
0.0
 22
0.0
 32
0.0
 14
1.000000000000000E+20
 24
1.000000000000000E+20
 34
1.000000000000000E+20
 15
-1.000000000000000E+20
 25
-1.000000000000000E+20
 35
-1.000000000000000E+20
146
0.0
 13
0.0
 23
0.0
 33
0.0
 16
1.0
 26
0.0
 36
0.0
 17
0.0
 27
1.0
 37
0.0
 76
     0
330
1B
  0
LAYOUT
  5
26
102
{ACAD_REACTORS
330
1A
102
}
330
1A
100
AcDbPlotSettings
  1

  2
none_device
  4

  6

 40
0.0
 41
0.0
 42
0.0
 43
0.0
 44
0.0
 45
0.0
 46
0.0
 47
0.0
 48
0.0
 49
0.0
140
0.0
141
0.0
142
1.0
143
1.0
 70
   688
 72
     0
 73
     0
 74
     5
  7

 75
    16
 76
     0
 77
     2
 78
   300
147
1.0
148
0.0
149
0.0
100
AcDbLayout
  1
Layout2
 70
     1
 71
     2
 10
0.0
 20
0.0
 11
0.0
 21
0.0
 12
0.0
 22
0.0
 32
0.0
 14
0.0
 24
0.0
 34
0.0
 15
0.0
 25
0.0
 35
0.0
146
0.0
 13
0.0
 23
0.0
 33
0.0
 16
1.0
 26
0.0
 36
0.0
 17
0.0
 27
1.0
 37
0.0
 76
     0
330
23
  0
LAYOUT
  5
22
102
{ACAD_REACTORS
330
1A
102
}
330
1A
100
AcDbPlotSettings
  1

  2
none_device
  4

  6

 40
0.0
 41
0.0
 42
0.0
 43
0.0
 44
0.0
 45
0.0
 46
0.0
 47
0.0
 48
0.0
 49
0.0
140
0.0
141
0.0
142
1.0
143
1.0
 70
  1712
 72
     0
 73
     0
 74
     0
  7

 75
     0
 76
     0
 77
     2
 78
   300
147
1.0
148
0.0
149
0.0
100
AcDbLayout
  1
Model
 70
     1
 71
     0
 10
0.0
 20
0.0
 11
12.0
 21
9.0
 12
0.0
 22
0.0
 32
0.0
 14
1.000000000000000E+20
 24
1.000000000000000E+20
 34
1.000000000000000E+20
 15
-1.000000000000000E+20
 25
-1.000000000000000E+20
 35
-1.000000000000000E+20
146
0.0
 13
0.0
 23
0.0
 33
0.0
 16
1.0
 26
0.0
 36
0.0
 17
0.0
 27
1.0
 37
0.0
 76
     0
330
1F
331
29
  0
MATERIAL
  5
3D
102
{ACAD_REACTORS
330
3B
102
}
330
3B
100
AcDbMaterial
  1
ByBlock
 72
     1
 94
      127
  0
MATERIAL
  5
3C
102
{ACAD_REACTORS
330
3B
102
}
330
3B
100
AcDbMaterial
  1
ByLayer
 72
     1
 94
      127
  0
MATERIAL
  5
3E
102
{ACAD_REACTORS
330
3B
102
}
330
3B
100
AcDbMaterial
  1
Global
 72
     1
 94
      127
  0
MLINESTYLE
  5
18
102
{ACAD_REACTORS
330
17
102
}
330
17
100
AcDbMlineStyle
  2
Standard
 70
     0
  3

 62
   256
 51
90.0
 52
90.0
 71
     2
 49
0.5
 62
   256
  6
BYLAYER
 49
-0.5
 62
   256
  6
BYLAYER
  0
ACDBPLACEHOLDER
  5
F
102
{ACAD_REACTORS
330
E
102
}
330
E
  0
VISUALSTYLE
  5
2F
102
{ACAD_REACTORS
330
2A
102
}
330
2A
100
AcDbVisualStyle
  2
2dWireframe
 70
     4
177
     2
291
     0
 71
     0
176
     1
 72
     2
176
     1
 73
     0
176
     1
 90
        0
176
     1
 40
-0.6
176
     1
 41
-30.0
176
     1
 62
     5
 63
     7
421
 16777215
176
     1
 74
     1
176
     1
 91
        4
176
     1
 64
     7
176
     1
 65
   257
176
     1
 75
     1
176
     1
175
     1
176
     1
 42
1.0
176
     1
 92
        0
176
     1
 66
   257
176
     1
 43
1.0
176
     1
 76
     1
176
     1
 77
     6
176
     1
 78
     2
176
     1
 67
     7
176
     1
 79
     5
176
     1
170
     0
176
     1
171
     0
176
     1
290
     0
176
     1
 93
        1
176
     1
 44
0.0
176
     1
173
     0
176
     1
  0
VISUALSTYLE
  5
31
102
{ACAD_REACTORS
330
2A
102
}
330
2A
100
AcDbVisualStyle
  2
3D Hidden
 70
     6
177
     2
291
     0
 71
     1
176
     1
 72
     2
176
     1
 73
     2
176
     1
 90
        0
176
     1
 40
-0.6
176
     1
 41
-30.0
176
     1
 62
     5
 63
     7
421
 16777215
176
     1
 74
     2
176
     1
 91
        2
176
     1
 64
     7
176
     1
 65
   257
176
     1
 75
     2
176
     1
175
     1
176
     1
 42
40.0
176
     1
 92
        0
176
     1
 66
   257
176
     1
 43
1.0
176
     1
 76
     1
176
     1
 77
     6
176
     1
 78
     2
176
     1
 67
     7
176
     1
 79
     3
176
     1
170
     0
176
     1
171
     0
176
     1
290
     0
176
     1
 93
        1
176
     1
 44
0.0
176
     1
173
     0
176
     1
  0
VISUALSTYLE
  5
30
102
{ACAD_REACTORS
330
2A
102
}
330
2A
100
AcDbVisualStyle
  2
3dWireframe
 70
     5
177
     2
291
     0
 71
     0
176
     1
 72
     2
176
     1
 73
     0
176
     1
 90
        0
176
     1
 40
-0.6
176
     1
 41
-30.0
176
     1
 62
     5
 63
     7
421
 16777215
176
     1
 74
     1
176
     1
 91
        4
176
     1
 64
     7
176
     1
 65
   257
176
     1
 75
     1
176
     1
175
     1
176
     1
 42
1.0
176
     1
 92
        0
176
     1
 66
   257
176
     1
 43
1.0
176
     1
 76
     1
176
     1
 77
     6
176
     1
 78
     2
176
     1
 67
     7
176
     1
 79
     5
176
     1
170
     0
176
     1
171
     0
176
     1
290
     0
176
     1
 93
        1
176
     1
 44
0.0
176
     1
173
     0
176
     1
  0
VISUALSTYLE
  5
32
102
{ACAD_REACTORS
330
2A
102
}
330
2A
100
AcDbVisualStyle
  2
Basic
 70
     7
177
     2
291
     1
 71
     1
176
     1
 72
     0
176
     1
 73
     1
176
     1
 90
        0
176
     1
 40
-0.6
176
     1
 41
-30.0
176
     1
 62
     5
 63
     7
421
 16777215
176
     1
 74
     0
176
     1
 91
        4
176
     1
 64
     7
176
     1
 65
   257
176
     1
 75
     1
176
     1
175
     1
176
     1
 42
1.0
176
     1
 92
        8
176
     1
 66
     7
176
     1
 43
1.0
176
     1
 76
     1
176
     1
 77
     6
176
     1
 78
     2
176
     1
 67
     7
176
     1
 79
     5
176
     1
170
     0
176
     1
171
     0
176
     1
290
     0
176
     1
 93
        1
176
     1
 44
0.0
176
     1
173
     0
176
     1
  0
VISUALSTYLE
  5
36
102
{ACAD_REACTORS
330
2A
102
}
330
2A
100
AcDbVisualStyle
  2
Brighten
 70
    12
177
     2
291
     1
 71
     2
176
     1
 72
     2
176
     1
 73
     0
176
     1
 90
        0
176
     1
 40
-0.6
176
     1
 41
-30.0
176
     1
 62
     5
 63
     7
421
 16777215
176
     1
 74
     1
176
     1
 91
        4
176
     1
 64
     7
176
     1
 65
   257
176
     1
 75
     1
176
     1
175
     1
176
     1
 42
1.0
176
     1
 92
        8
176
     1
 66
     7
176
     1
 43
1.0
176
     1
 76
     1
176
     1
 77
     6
176
     1
 78
     2
176
     1
 67
     7
176
     1
 79
     5
176
     1
170
     0
176
     1
171
     0
176
     1
290
     0
176
     1
 93
        1
176
     1
 44
50.0
176
     1
173
     0
176
     1
  0
VISUALSTYLE
  5
3A
102
{ACAD_REACTORS
330
2A
102
}
330
2A
100
AcDbVisualStyle
  2
ColorChange
 70
    16
177
     2
291
     1
 71
     2
176
     1
 72
     2
176
     1
 73
     3
176
     1
 90
        0
176
     1
 40
-0.6
176
     1
 41
-30.0
176
     1
 62
     5
 63
     8
421
  8421504
176
     1
 74
     1
176
     1
 91
        4
176
     1
 64
     7
176
     1
 65
   257
176
     1
 75
     1
176
     1
175
     1
176
     1
 42
1.0
176
     1
 92
        8
176
     1
 66
     8
424
  8421504
176
     1
 43
1.0
176
     1
 76
     1
176
     1
 77
     6
176
     1
 78
     2
176
     1
 67
     7
176
     1
 79
     5
176
     1
170
     0
176
     1
171
     0
176
     1
290
     0
176
     1
 93
        1
176
     1
 44
0.0
176
     1
173
     0
176
     1
  0
VISUALSTYLE
  5
34
102
{ACAD_REACTORS
330
2A
102
}
330
2A
100
AcDbVisualStyle
  2
Conceptual
 70
     9
177
     2
291
     0
 71
     3
176
     1
 72
     2
176
     1
 73
     0
176
     1
 90
        0
176
     1
 40
-0.6
176
     1
 41
-30.0
176
     1
 62
     5
 63
     7
421
 16777215
176
     1
 74
     2
176
     1
 91
        2
176
     1
 64
     7
176
     1
 65
   257
176
     1
 75
     1
176
     1
175
     1
176
     1
 42
40.0
176
     1
 92
        8
176
     1
 66
     7
176
     1
 43
1.0
176
     1
 76
     1
176
     1
 77
     6
176
     1
 78
     2
176
     1
 67
     7
176
     1
 79
     3
176
     1
170
     0
176
     1
171
     0
176
     1
290
     0
176
     1
 93
        1
176
     1
 44
0.0
176
     1
173
     0
176
     1
  0
VISUALSTYLE
  5
35
102
{ACAD_REACTORS
330
2A
102
}
330
2A
100
AcDbVisualStyle
  2
Dim
 70
    11
177
     2
291
     1
 71
     2
176
     1
 72
     2
176
     1
 73
     0
176
     1
 90
        0
176
     1
 40
-0.6
176
     1
 41
-30.0
176
     1
 62
     5
 63
     7
421
 16777215
176
     1
 74
     1
176
     1
 91
        4
176
     1
 64
     7
176
     1
 65
   257
176
     1
 75
     1
176
     1
175
     1
176
     1
 42
1.0
176
     1
 92
        8
176
     1
 66
     7
176
     1
 43
1.0
176
     1
 76
     1
176
     1
 77
     6
176
     1
 78
     2
176
     1
 67
     7
176
     1
 79
     5
176
     1
170
     0
176
     1
171
     0
176
     1
290
     0
176
     1
 93
        1
176
     1
 44
-50.0
176
     1
173
     0
176
     1
  0
VISUALSTYLE
  5
39
102
{ACAD_REACTORS
330
2A
102
}
330
2A
100
AcDbVisualStyle
  2
Facepattern
 70
    15
177
     2
291
     1
 71
     2
176
     1
 72
     2
176
     1
 73
     0
176
     1
 90
        0
176
     1
 40
-0.6
176
     1
 41
-30.0
176
     1
 62
     5
 63
     7
421
 16777215
176
     1
 74
     1
176
     1
 91
        4
176
     1
 64
     7
176
     1
 65
   257
176
     1
 75
     1
176
     1
175
     1
176
     1
 42
1.0
176
     1
 92
        8
176
     1
 66
     7
176
     1
 43
1.0
176
     1
 76
     1
176
     1
 77
     6
176
     1
 78
     2
176
     1
 67
     7
176
     1
 79
     5
176
     1
170
     0
176
     1
171
     0
176
     1
290
     0
176
     1
 93
        1
176
     1
 44
0.0
176
     1
173
     0
176
     1
  0
VISUALSTYLE
  5
2B
102
{ACAD_REACTORS
330
2A
102
}
330
2A
100
AcDbVisualStyle
  2
Flat
 70
     0
177
     2
291
     1
 71
     2
176
     1
 72
     1
176
     1
 73
     1
176
     1
 90
        2
176
     1
 40
-0.6
176
     1
 41
30.0
176
     1
 62
     5
 63
     7
421
 16777215
176
     1
 74
     0
176
     1
 91
        4
176
     1
 64
     7
176
     1
 65
   257
176
     1
 75
     1
176
     1
175
     1
176
     1
 42
1.0
176
     1
 92
        8
176
     1
 66
     7
176
     1
 43
1.0
176
     1
 76
     1
176
     1
 77
     6
176
     1
 78
     2
176
     1
 67
     7
176
     1
 79
     5
176
     1
170
     0
176
     1
171
     0
176
     1
290
     0
176
     1
 93
       13
176
     1
 44
0.0
176
     1
173
     0
176
     1
  0
VISUALSTYLE
  5
2C
102
{ACAD_REACTORS
330
2A
102
}
330
2A
100
AcDbVisualStyle
  2
FlatWithEdges
 70
     1
177
     2
291
     1
 71
     2
176
     1
 72
     1
176
     1
 73
     1
176
     1
 90
        2
176
     1
 40
-0.6
176
     1
 41
30.0
176
     1
 62
     5
 63
     7
421
 16777215
176
     1
 74
     1
176
     1
 91
        4
176
     1
 64
     7
176
     1
 65
   257
176
     1
 75
     1
176
     1
175
     1
176
     1
 42
1.0
176
     1
 92
        0
176
     1
 66
   257
176
     1
 43
1.0
176
     1
 76
     1
176
     1
 77
     6
176
     1
 78
     2
176
     1
 67
     7
176
     1
 79
     5
176
     1
170
     0
176
     1
171
     0
176
     1
290
     0
176
     1
 93
       13
176
     1
 44
0.0
176
     1
173
     0
176
     1
  0
VISUALSTYLE
  5
2D
102
{ACAD_REACTORS
330
2A
102
}
330
2A
100
AcDbVisualStyle
  2
Gouraud
 70
     2
177
     2
291
     1
 71
     2
176
     1
 72
     2
176
     1
 73
     1
176
     1
 90
        2
176
     1
 40
-0.6
176
     1
 41
30.0
176
     1
 62
     5
 63
     7
421
 16777215
176
     1
 74
     0
176
     1
 91
        4
176
     1
 64
     7
176
     1
 65
   257
176
     1
 75
     1
176
     1
175
     1
176
     1
 42
1.0
176
     1
 92
        0
176
     1
 66
     7
176
     1
 43
1.0
176
     1
 76
     1
176
     1
 77
     6
176
     1
 78
     2
176
     1
 67
     7
176
     1
 79
     5
176
     1
170
     0
176
     1
171
     0
176
     1
290
     0
176
     1
 93
       13
176
     1
 44
0.0
176
     1
173
     0
176
     1
  0
VISUALSTYLE
  5
2E
102
{ACAD_REACTORS
330
2A
102
}
330
2A
100
AcDbVisualStyle
  2
GouraudWithEdges
 70
     3
177
     2
291
     1
 71
     2
176
     1
 72
     2
176
     1
 73
     1
176
     1
 90
        2
176
     1
 40
-0.6
176
     1
 41
30.0
176
     1
 62
     5
 63
     7
421
 16777215
176
     1
 74
     1
176
     1
 91
        4
176
     1
 64
     7
176
     1
 65
   257
176
     1
 75
     1
176
     1
175
     1
176
     1
 42
1.0
176
     1
 92
        0
176
     1
 66
   257
176
     1
 43
1.0
176
     1
 76
     1
176
     1
 77
     6
176
     1
 78
     2
176
     1
 67
     7
176
     1
 79
     5
176
     1
170
     0
176
     1
171
     0
176
     1
290
     0
176
     1
 93
       13
176
     1
 44
0.0
176
     1
173
     0
176
     1
  0
VISUALSTYLE
  5
38
102
{ACAD_REACTORS
330
2A
102
}
330
2A
100
AcDbVisualStyle
  2
Linepattern
 70
    14
177
     2
291
     1
 71
     2
176
     1
 72
     2
176
     1
 73
     0
176
     1
 90
        0
176
     1
 40
-0.6
176
     1
 41
-30.0
176
     1
 62
     5
 63
     7
421
 16777215
176
     1
 74
     1
176
     1
 91
        4
176
     1
 64
     7
176
     1
 65
   257
176
     1
 75
     7
176
     1
175
     7
176
     1
 42
1.0
176
     1
 92
        8
176
     1
 66
     7
176
     1
 43
1.0
176
     1
 76
     1
176
     1
 77
     6
176
     1
 78
     2
176
     1
 67
     7
176
     1
 79
     5
176
     1
170
     0
176
     1
171
     0
176
     1
290
     0
176
     1
 93
        1
176
     1
 44
0.0
176
     1
173
     0
176
     1
  0
VISUALSTYLE
  5
33
102
{ACAD_REACTORS
330
2A
102
}
330
2A
100
AcDbVisualStyle
  2
Realistic
 70
     8
177
     2
291
     0
 71
     2
176
     1
 72
     2
176
     1
 73
     0
176
     1
 90
        0
176
     1
 40
-0.6
176
     1
 41
-30.0
176
     1
 62
     5
 63
     7
421
 16777215
176
     1
 74
     1
176
     1
 91
        0
176
     1
 64
     7
176
     1
 65
   257
176
     1
 75
     1
176
     1
175
     1
176
     1
 42
1.0
176
     1
 92
        8
176
     1
 66
     8
424
  7895160
176
     1
 43
1.0
176
     1
 76
     1
176
     1
 77
     6
176
     1
 78
     2
176
     1
 67
     7
176
     1
 79
     5
176
     1
170
     0
176
     1
171
     0
176
     1
290
     0
176
     1
 93
       13
176
     1
 44
0.0
176
     1
173
     0
176
     1
  0
VISUALSTYLE
  5
37
102
{ACAD_REACTORS
330
2A
102
}
330
2A
100
AcDbVisualStyle
  2
Thicken
 70
    13
177
     2
291
     1
 71
     2
176
     1
 72
     2
176
     1
 73
     0
176
     1
 90
        0
176
     1
 40
-0.6
176
     1
 41
-30.0
176
     1
 62
     5
 63
     7
421
 16777215
176
     1
 74
     1
176
     1
 91
        4
176
     1
 64
     7
176
     1
 65
   257
176
     1
 75
     1
176
     1
175
     1
176
     1
 42
1.0
176
     1
 92
       12
176
     1
 66
     7
176
     1
 43
1.0
176
     1
 76
     1
176
     1
 77
     6
176
     1
 78
     2
176
     1
 67
     7
176
     1
 79
     5
176
     1
170
     0
176
     1
171
     0
176
     1
290
     0
176
     1
 93
        1
176
     1
 44
0.0
176
     1
173
     0
176
     1
  0
ENDSEC
  0
EOF
