  0
SECTION
  2
HEADER
  9
$ACADVER
  1
AC1024
  9
$ACADMAINTVER
 70
     6
  9
$DWGCODEPAGE
  3
UNDEFINED
  9
$INSBASE
 10
0.0
 20
0.0
 30
0.0
  9
$EXTMIN
 10
1.000000000000000E+20
 20
1.000000000000000E+20
 30
1.000000000000000E+20
  9
$EXTMAX
 10
-1.000000000000000E+20
 20
-1.000000000000000E+20
 30
-1.000000000000000E+20
  9
$LIMMIN
 10
0.0
 20
0.0
  9
$LIMMAX
 10
12.0
 20
9.0
  9
$ORTHOMODE
 70
     0
  9
$REGENMODE
 70
     1
  9
$FILLMODE
 70
     1
  9
$QTEXTMODE
 70
     0
  9
$MIRRTEXT
 70
     1
  9
$LTSCALE
 40
1.0
  9
$ATTMODE
 70
     1
  9
$TEXTSIZE
 40
0.2
  9
$TRACEWID
 40
0.05
  9
$TEXTSTYLE
  7
Standard
  9
$CLAYER
  8
0
  9
$CELTYPE
  6
ByLayer
  9
$CECOLOR
 62
   256
  9
$CELTSCALE
 40
1.0
  9
$DISPSILH
 70
     0
  9
$DIMSCALE
 40
1.0
  9
$DIMASZ
 40
0.18
  9
$DIMEXO
 40
0.0625
  9
$DIMDLI
 40
0.38
  9
$DIMRND
 40
0.0
  9
$DIMDLE
 40
0.0
  9
$DIMEXE
 40
0.18
  9
$DIMTP
 40
0.0
  9
$DIMTM
 40
0.0
  9
$DIMTXT
 40
0.18
  9
$DIMCEN
 40
0.09
  9
$DIMTSZ
 40
0.0
  9
$DIMTOL
 70
     0
  9
$DIMLIM
 70
     0
  9
$DIMTIH
 70
     1
  9
$DIMTOH
 70
     1
  9
$DIMSE1
 70
     0
  9
$DIMSE2
 70
     0
  9
$DIMTAD
 70
     0
  9
$DIMZIN
 70
     0
  9
$DIMBLK
  1

  9
$DIMASO
 70
     1
  9
$DIMSHO
 70
     1
  9
$DIMPOST
  1

  9
$DIMAPOST
  1

  9
$DIMALT
 70
     0
  9
$DIMALTD
 70
     2
  9
$DIMALTF
 40
25.4
  9
$DIMLFAC
 40
1.0
  9
$DIMTOFL
 70
     0
  9
$DIMTVP
 40
0.0
  9
$DIMTIX
 70
     0
  9
$DIMSOXD
 70
     0
  9
$DIMSAH
 70
     0
  9
$DIMBLK1
  1

  9
$DIMBLK2
  1

  9
$DIMSTYLE
  2
Standard
  9
$DIMCLRD
 70
     0
  9
$DIMCLRE
 70
     0
  9
$DIMCLRT
 70
     0
  9
$DIMTFAC
 40
1.0
  9
$DIMGAP
 40
0.09
  9
$DIMJUST
 70
     0
  9
$DIMSD1
 70
     0
  9
$DIMSD2
 70
     0
  9
$DIMTOLJ
 70
     1
  9
$DIMTZIN
 70
     0
  9
$DIMALTZ
 70
     0
  9
$DIMALTTZ
 70
     0
  9
$DIMUPT
 70
     0
  9
$DIMDEC
 70
     4
  9
$DIMTDEC
 70
     4
  9
$DIMALTU
 70
     2
  9
$DIMALTTD
 70
     2
  9
$DIMTXSTY
  7
Standard
  9
$DIMAUNIT
 70
     0
  9
$DIMADEC
 70
     0
  9
$DIMALTRND
 40
0.0
  9
$DIMAZIN
 70
     0
  9
$DIMDSEP
 70
    46
  9
$DIMATFIT
 70
     3
  9
$DIMFRAC
 70
     0
  9
$DIMLDRBLK
  1

  9
$DIMLUNIT
 70
     2
  9
$DIMLWD
 70
    -2
  9
$DIMLWE
 70
    -2
  9
$DIMTMOVE
 70
     0
  9
$DIMFXL
 40
1.0
  9
$DIMFXLON
 70
     0
  9
$DIMJOGANG
 40
0.7853981633974483
  9
$DIMTFILL
 70
     0
  9
$DIMTFILLCLR
 70
     0
  9
$DIMARCSYM
 70
     0
  9
$DIMLTYPE
  6

  9
$DIMLTEX1
  6

  9
$DIMLTEX2
  6

  9
$DIMTXTDIRECTION
 70
     0
  9
$LUNITS
 70
     2
  9
$LUPREC
 70
     4
  9
$SKETCHINC
 40
0.1
  9
$FILLETRAD
 40
0.5
  9
$AUNITS
 70
     0
  9
$AUPREC
 70
     0
  9
$MENU
  1
.
  9
$ELEVATION
 40
0.0
  9
$PELEVATION
 40
0.0
  9
$THICKNESS
 40
0.0
  9
$LIMCHECK
 70
     0
  9
$CHAMFERA
 40
0.5
  9
$CHAMFERB
 40
0.5
  9
$CHAMFERC
 40
1.0
  9
$CHAMFERD
 40
0.0
  9
$SKPOLY
 70
     0
  9
$TDCREATE
 40
2457917.593738426
  9
$TDUCREATE
 40
2457917.218738426
  9
$TDUPDATE
 40
2457917.593738426
  9
$TDUUPDATE
 40
2457917.218738426
  9
$TDINDWG
 40
0.0000000116
  9
$TDUSRTIMER
 40
0.0000000116
  9
$USRTIMER
 70
     1
  9
$ANGBASE
 50
0.0
  9
$ANGDIR
 70
     0
  9
$PDMODE
 70
     0
  9
$PDSIZE
 40
0.0
  9
$PLINEWID
 40
0.0
  9
$SPLFRAME
 70
     0
  9
$SPLINETYPE
 70
     6
  9
$SPLINESEGS
 70
     8
  9
$HANDSEED
  5
F1
  9
$SURFTAB1
 70
     6
  9
$SURFTAB2
 70
     6
  9
$SURFTYPE
 70
     6
  9
$SURFU
 70
     6
  9
$SURFV
 70
     6
  9
$UCSBASE
  2

  9
$UCSNAME
  2

  9
$UCSORG
 10
0.0
 20
0.0
 30
0.0
  9
$UCSXDIR
 10
1.0
 20
0.0
 30
0.0
  9
$UCSYDIR
 10
0.0
 20
1.0
 30
0.0
  9
$UCSORTHOREF
  2

  9
$UCSORTHOVIEW
 70
     0
  9
$UCSORGTOP
 10
0.0
 20
0.0
 30
0.0
  9
$UCSORGBOTTOM
 10
0.0
 20
0.0
 30
0.0
  9
$UCSORGLEFT
 10
0.0
 20
0.0
 30
0.0
  9
$UCSORGRIGHT
 10
0.0
 20
0.0
 30
0.0
  9
$UCSORGFRONT
 10
0.0
 20
0.0
 30
0.0
  9
$UCSORGBACK
 10
0.0
 20
0.0
 30
0.0
  9
$PUCSBASE
  2

  9
$PUCSNAME
  2

  9
$PUCSORG
 10
0.0
 20
0.0
 30
0.0
  9
$PUCSXDIR
 10
1.0
 20
0.0
 30
0.0
  9
$PUCSYDIR
 10
0.0
 20
1.0
 30
0.0
  9
$PUCSORTHOREF
  2

  9
$PUCSORTHOVIEW
 70
     0
  9
$PUCSORGTOP
 10
0.0
 20
0.0
 30
0.0
  9
$PUCSORGBOTTOM
 10
0.0
 20
0.0
 30
0.0
  9
$PUCSORGLEFT
 10
0.0
 20
0.0
 30
0.0
  9
$PUCSORGRIGHT
 10
0.0
 20
0.0
 30
0.0
  9
$PUCSORGFRONT
 10
0.0
 20
0.0
 30
0.0
  9
$PUCSORGBACK
 10
0.0
 20
0.0
 30
0.0
  9
$USERI1
 70
     0
  9
$USERI2
 70
     0
  9
$USERI3
 70
     0
  9
$USERI4
 70
     0
  9
$USERI5
 70
     0
  9
$USERR1
 40
0.0
  9
$USERR2
 40
0.0
  9
$USERR3
 40
0.0
  9
$USERR4
 40
0.0
  9
$USERR5
 40
0.0
  9
$WORLDVIEW
 70
     1
  9
$SHADEDGE
 70
     3
  9
$SHADEDIF
 70
    70
  9
$TILEMODE
 70
     1
  9
$MAXACTVP
 70
    64
  9
$PINSBASE
 10
0.0
 20
0.0
 30
0.0
  9
$PLIMCHECK
 70
     0
  9
$PEXTMIN
 10
1.000000000000000E+20
 20
1.000000000000000E+20
 30
1.000000000000000E+20
  9
$PEXTMAX
 10
-1.000000000000000E+20
 20
-1.000000000000000E+20
 30
-1.000000000000000E+20
  9
$PLIMMIN
 10
0.0
 20
0.0
  9
$PLIMMAX
 10
12.0
 20
9.0
  9
$UNITMODE
 70
     0
  9
$VISRETAIN
 70
     1
  9
$PLINEGEN
 70
     0
  9
$PSLTSCALE
 70
     1
  9
$TREEDEPTH
 70
  3020
  9
$CMLSTYLE
  2
Standard
  9
$CMLJUST
 70
     0
  9
$CMLSCALE
 40
1.0
  9
$PROXYGRAPHICS
 70
     1
  9
$MEASUREMENT
 70
     0
  9
$CELWEIGHT
370
    -1
  9
$ENDCAPS
280
     0
  9
$JOINSTYLE
280
     0
  9
$LWDISPLAY
290
     1
  9
$INSUNITS
 70
     1
  9
$HYPERLINKBASE
  1

  9
$STYLESHEET
  1

  9
$XEDIT
290
     1
  9
$CEPSNTYPE
380
     0
  9
$PSTYLEMODE
290
     1
  9
$FINGERPRINTGUID
  2
{64C57259-8EFC-84E3-9D93-D9AE416E546E}
  9
$VERSIONGUID
  2
{FAEB1C32-E019-11D5-929B-00C0DF256EC4}
  9
$EXTNAMES
290
     1
  9
$PSVPSCALE
 40
0.0
  9
$OLESTARTUP
290
     0
  9
$SORTENTS
280
   127
  9
$INDEXCTL
280
     0
  9
$HIDETEXT
280
     1
  9
$XCLIPFRAME
280
     2
  9
$HALOGAP
280
     0
  9
$OBSCOLOR
 70
   257
  9
$OBSLTYPE
280
     0
  9
$INTERSECTIONDISPLAY
280
     0
  9
$INTERSECTIONCOLOR
 70
   257
  9
$DIMASSOC
280
     2
  9
$PROJECTNAME
  1

  9
$CAMERADISPLAY
290
     0
  9
$LENSLENGTH
 40
50.0
  9
$CAMERAHEIGHT
 40
0.0
  9
$STEPSPERSEC
 40
2.0
  9
$STEPSIZE
 40
6.0
  9
$3DDWFPREC
 40
2.0
  9
$PSOLWIDTH
 40
0.25
  9
$PSOLHEIGHT
 40
4.0
  9
$LOFTANG1
 40
1.570796326794897
  9
$LOFTANG2
 40
1.570796326794897
  9
$LOFTMAG1
 40
0.0
  9
$LOFTMAG2
 40
0.0
  9
$LOFTPARAM
 70
     7
  9
$LOFTNORMALS
280
     1
  9
$LATITUDE
 40
37.795
  9
$LONGITUDE
 40
-122.394
  9
$NORTHDIRECTION
 40
0.0
  9
$TIMEZONE
 70
 -8000
  9
$LIGHTGLYPHDISPLAY
280
     1
  9
$TILEMODELIGHTSYNCH
280
     1
  9
$CMATERIAL
347
3C
  9
$SOLIDHIST
280
     1
  9
$SHOWHIST
280
     1
  9
$DWFFRAME
280
     2
  9
$DGNFRAME
280
     2
  9
$REALWORLDSCALE
290
     1
  9
$INTERFERECOLOR
 62
   256
  9
$CSHADOW
280
     0
  9
$SHADOWPLANELOCATION
 40
0.0
  0
ENDSEC
  0
SECTION
  2
CLASSES
  0
CLASS
  1
ACDBDICTIONARYWDFLT
  2
AcDbDictionaryWithDefault
  3
ObjectDBX Classes
 90
        0
 91
        4
280
     0
281
     0
  0
CLASS
  1
VISUALSTYLE
  2
AcDbVisualStyle
  3
ObjectDBX Classes
 90
     4095
 91
        4
280
     0
281
     0
  0
CLASS
  1
MATERIAL
  2
AcDbMaterial
  3
ObjectDBX Classes
 90
     1153
 91
        4
280
     0
281
     0
  0
CLASS
  1
SUN
  2
AcDbSun
  3
SCENEOE
 90
     1024
 91
        4
280
     0
281
     0
  0
ENDSEC
  0
SECTION
  2
TABLES
  0
TABLE
  2
VPORT
  5
8
330
0
100
AcDbSymbolTable
 70
     1
  0
VPORT
  5
29
330
8
100
AcDbSymbolTableRecord
100
AcDbViewportTableRecord
  2
*Active
 70
     0
 10
0.0
 20
0.0
 11
1.0
 21
1.0
 12
0.0
 22
0.0
 13
0.0
 23
0.0
 14
0.5
 24
0.5
 15
0.5
 25
0.5
 16
0.0
 26
0.0
 36
1.0
 17
91.00082462281999
 27
-128.4993055234307
 37
0.0
 40
256.9986110468615
 41
0.7081814508812795
 42
50.0
 43
0.0
 44
0.0
 50
0.0
 51
0.0
 71
     0
 72
   100
 73
     1
 74
     3
 75
     0
 76
     0
 77
     0
 78
     0
281
     0
 65
     1
110
0.0
120
0.0
130
0.0
111
1.0
121
0.0
131
0.0
112
0.0
122
1.0
132
0.0
 79
     0
146
0.0
 60
     3
 61
     5
292
     1
282
     1
141
0.0
142
0.0
 63
   250
361
3F
  0
ENDTAB
  0
TABLE
  2
LTYPE
  5
5
330
0
100
AcDbSymbolTable
 70
     1
  0
LTYPE
  5
14
330
5
100
AcDbSymbolTableRecord
100
AcDbLinetypeTableRecord
  2
ByBlock
 70
     0
  3

 72
    65
 73
     0
 40
0.0
  0
LTYPE
  5
15
330
5
100
AcDbSymbolTableRecord
100
AcDbLinetypeTableRecord
  2
ByLayer
 70
     0
  3

 72
    65
 73
     0
 40
0.0
  0
LTYPE
  5
16
330
5
100
AcDbSymbolTableRecord
100
AcDbLinetypeTableRecord
  2
Continuous
 70
     0
  3
Solid line
 72
    65
 73
     0
 40
0.0
  0
ENDTAB
  0
TABLE
  2
LAYER
  5
2
330
0
100
AcDbSymbolTable
 70
     2
  0
LAYER
  5
10
330
2
100
AcDbSymbolTableRecord
100
AcDbLayerTableRecord
  2
0
 70
     0
 62
     7
  6
Continuous
370
    -3
390
F
347
3E
  0
LAYER
  5
40
330
2
100
AcDbSymbolTableRecord
100
AcDbLayerTableRecord
  2
_U+30EC_U+30A4_U+30E4_U+30FC 1
 70
     0
 62
     7
  6
Continuous
370
    -3
390
F
347
3E
  0
ENDTAB
  0
TABLE
  2
STYLE
  5
3
330
0
100
AcDbSymbolTable
 70
     1
  0
STYLE
  5
11
330
3
100
AcDbSymbolTableRecord
100
AcDbTextStyleTableRecord
  2
Standard
 70
     0
 40
0.0
 41
1.0
 50
0.0
 71
     0
 42
0.2
  3
txt
  4

  0
ENDTAB
  0
TABLE
  2
VIEW
  5
6
330
0
100
AcDbSymbolTable
 70
     0
  0
ENDTAB
  0
TABLE
  2
UCS
  5
7
330
0
100
AcDbSymbolTable
 70
     0
  0
ENDTAB
  0
TABLE
  2
APPID
  5
9
330
0
100
AcDbSymbolTable
 70
     1
  0
APPID
  5
12
330
9
100
AcDbSymbolTableRecord
100
AcDbRegAppTableRecord
  2
ACAD
 70
     0
  0
ENDTAB
  0
TABLE
  2
DIMSTYLE
  5
A
330
0
100
AcDbSymbolTable
 70
     1
100
AcDbDimStyleTable
  0
DIMSTYLE
105
27
330
A
100
AcDbSymbolTableRecord
100
AcDbDimStyleTableRecord
  2
Standard
 70
     0
178
     0
340
11
  0
ENDTAB
  0
TABLE
  2
BLOCK_RECORD
  5
1
330
0
100
AcDbSymbolTable
 70
     8
  0
BLOCK_RECORD
  5
1F
330
1
100
AcDbSymbolTableRecord
100
AcDbBlockTableRecord
  2
*Model_Space
340
22
 70
     0
280
     1
281
     0
  0
BLOCK_RECORD
  5
1B
330
1
100
AcDbSymbolTableRecord
100
AcDbBlockTableRecord
  2
*Paper_Space
340
1E
 70
     0
280
     1
281
     0
  0
BLOCK_RECORD
  5
23
330
1
100
AcDbSymbolTableRecord
100
AcDbBlockTableRecord
  2
*Paper_Space0
340
26
 70
     0
280
     1
281
     0
  0
BLOCK_RECORD
  5
59
330
1
100
AcDbSymbolTableRecord
100
AcDbBlockTableRecord
  2
block 2
340
0
102
{BLKREFS
331
5A
102
}
 70
     0
280
     1
281
     0
  0
BLOCK_RECORD
  5
6A
330
1
100
AcDbSymbolTableRecord
100
AcDbBlockTableRecord
  2
block 3
340
0
102
{BLKREFS
331
6B
102
}
 70
     0
280
     1
281
     0
  0
BLOCK_RECORD
  5
7C
330
1
100
AcDbSymbolTableRecord
100
AcDbBlockTableRecord
  2
block 4
340
0
102
{BLKREFS
331
7D
102
}
 70
     0
280
     1
281
     0
  0
BLOCK_RECORD
  5
B0
330
1
100
AcDbSymbolTableRecord
100
AcDbBlockTableRecord
  2
block 5
340
0
102
{BLKREFS
331
B1
102
}
 70
     0
280
     1
281
     0
  0
BLOCK_RECORD
  5
B7
330
1
100
AcDbSymbolTableRecord
100
AcDbBlockTableRecord
  2
block 6
340
0
102
{BLKREFS
331
B8
102
}
 70
     0
280
     1
281
     0
  0
BLOCK_RECORD
  5
C2
330
1
100
AcDbSymbolTableRecord
100
AcDbBlockTableRecord
  2
block 7
340
0
102
{BLKREFS
331
C3
102
}
 70
     0
280
     1
281
     0
  0
BLOCK_RECORD
  5
E3
330
1
100
AcDbSymbolTableRecord
100
AcDbBlockTableRecord
  2
block 8
340
0
102
{BLKREFS
331
E4
102
}
 70
     0
280
     1
281
     0
  0
ENDTAB
  0
ENDSEC
  0
SECTION
  2
BLOCKS
  0
BLOCK
  5
20
330
1F
100
AcDbEntity
  8
0
100
AcDbBlockBegin
  2
*Model_Space
 70
     0
 10
0.0
 20
0.0
 30
0.0
  3
*Model_Space
  1

  0
ENDBLK
  5
21
330
1F
100
AcDbEntity
  8
0
100
AcDbBlockEnd
  0
BLOCK
  5
1C
330
1B
100
AcDbEntity
 67
     1
  8
0
100
AcDbBlockBegin
  2
*Paper_Space
 70
     0
 10
0.0
 20
0.0
 30
0.0
  3
*Paper_Space
  1

  0
ENDBLK
  5
1D
330
1B
100
AcDbEntity
 67
     1
  8
0
100
AcDbBlockEnd
  0
BLOCK
  5
24
330
23
100
AcDbEntity
  8
0
100
AcDbBlockBegin
  2
*Paper_Space0
 70
     0
 10
0.0
 20
0.0
 30
0.0
  3
*Paper_Space0
  1

  0
ENDBLK
  5
25
330
23
100
AcDbEntity
  8
0
100
AcDbBlockEnd
  0
BLOCK
  5
5B
330
59
100
AcDbEntity
  8
0
100
AcDbBlockBegin
  2
block 2
 70
     0
 10
0.0
 20
0.0
 30
0.0
  3
block 2
  1

  0
SPLINE
  5
5D
330
59
100
AcDbEntity
  8
_U+30EC_U+30A4_U+30E4_U+30FC 1
370
     0
100
AcDbSpline
210
0.0
220
0.0
230
1.0
 70
    11
 71
     3
 72
    32
 73
    28
 74
     0
 42
0.0000000001
 43
0.0000000001
 12
1.0
 22
0.0
 32
0.0
 13
1.0
 23
0.0
 33
0.0
 40
0.0
 40
0.0
 40
0.0
 40
0.0
 40
1.0
 40
1.0
 40
1.0
 40
2.0
 40
2.0
 40
2.0
 40
3.0
 40
3.0
 40
3.0
 40
4.0
 40
4.0
 40
4.0
 40
5.0
 40
5.0
 40
5.0
 40
6.0
 40
6.0
 40
6.0
 40
7.0
 40
7.0
 40
7.0
 40
8.0
 40
8.0
 40
8.0
 40
9.0
 40
9.0
 40
9.0
 40
9.0
 10
112.286686169845
 20
-130.6066704317581
 30
0.0
 10
112.286686169845
 20
-131.1227457354485
 30
0.0
 10
111.7327148158168
 20
-131.1313584741616
 30
0.0
 10
111.5191188957313
 20
-131.1313584741616
 30
0.0
 10
111.2882974982196
 20
-131.1313584741616
 30
0.0
 10
110.6413085660897
 20
-131.1120659394442
 30
0.0
 10
110.6413085660897
 20
-130.5684298718718
 30
0.0
 10
110.6413085660897
 20
-130.3951415689637
 30
0.0
 10
110.7108994948917
 20
-130.1495062608654
 30
0.0
 10
111.0430066996698
 20
-130.1116102105277
 30
0.0
 10
111.0430066996698
 20
-130.1116102105277
 30
0.0
 10
111.0430066996698
 20
-130.3252061306131
 30
0.0
 10
111.0430066996698
 20
-130.3252061306131
 30
0.0
 10
110.9858181146147
 20
-130.3358859266174
 30
0.0
 10
110.8376790087489
 20
-130.3675808050817
 30
0.0
 10
110.8376790087489
 20
-130.5704969291629
 30
0.0
 10
110.8376790087489
 20
-130.8626410263121
 30
0.0
 10
111.1656520989447
 20
-130.902604133941
 30
0.0
 10
111.3709797898656
 20
-130.9153509872365
 30
0.0
 10
111.2924316128019
 20
-130.8223334091347
 30
0.0
 10
111.2331759704556
 20
-130.7544650280753
 30
0.0
 10
111.2331759704556
 20
-130.5725639864541
 30
0.0
 10
111.2331759704556
 20
-130.392730002124
 30
0.0
 10
111.3413519686925
 20
-130.0902506185191
 30
0.0
 10
111.7478732359519
 20
-130.0902506185191
 30
0.0
 10
112.0668890778861
 20
-130.0902506185191
 30
0.0
 10
112.286686169845
 20
-130.2893771375666
 30
0.0
 10
112.286686169845
 20
-130.6066704317581
 30
0.0
  0
SPLINE
  5
5E
330
59
100
AcDbEntity
  8
_U+30EC_U+30A4_U+30E4_U+30FC 1
370
     0
100
AcDbSpline
210
0.0
220
0.0
230
1.0
 70
    11
 71
     3
 72
    17
 73
    13
 74
     0
 42
0.0000000001
 43
0.0000000001
 12
1.0
 22
0.0
 32
0.0
 13
1.0
 23
0.0
 33
0.0
 40
0.0
 40
0.0
 40
0.0
 40
0.0
 40
1.0
 40
1.0
 40
1.0
 40
2.0
 40
2.0
 40
2.0
 40
3.0
 40
3.0
 40
3.0
 40
4.0
 40
4.0
 40
4.0
 40
4.0
 10
111.4281683749207
 20
-130.5897894638803
 30
0.0
 10
111.4281683749207
 20
-130.8519612303078
 30
0.0
 10
111.6396972377151
 20
-130.8898572806456
 30
0.0
 10
111.7561414651165
 20
-130.8898572806456
 30
0.0
 10
111.9318413348643
 20
-130.8898572806456
 30
0.0
 10
112.0944498417681
 20
-130.7947726452527
 30
0.0
 10
112.0944498417681
 20
-130.6108045463403
 30
0.0
 10
112.0944498417681
 20
-130.4902262043566
 30
0.0
 10
112.0351941994218
 20
-130.3145263346089
 30
0.0
 10
111.7499402932431
 20
-130.3145263346089
 30
0.0
 10
111.5253200676048
 20
-130.3145263346089
 30
0.0
 10
111.4281683749207
 20
-130.4540527017615
 30
0.0
 10
111.4281683749207
 20
-130.5897894638803
 30
0.0
  0
HATCH
  5
5F
330
59
100
AcDbEntity
  8
_U+30EC_U+30A4_U+30E4_U+30FC 1
 62
   179
420
  2234388
100
AcDbHatch
 10
0.0
 20
0.0
 30
0.0
210
0.0
220
0.0
230
1.0
  2
SOLID
 70
     1
 71
     0
 91
        2
 92
        1
 93
        1
 72
     4
 94
        3
 73
     0
 74
     1
 95
       32
 96
       28
 40
0.0
 40
0.0
 40
0.0
 40
0.0
 40
1.0
 40
1.0
 40
1.0
 40
2.0
 40
2.0
 40
2.0
 40
3.0
 40
3.0
 40
3.0
 40
4.0
 40
4.0
 40
4.0
 40
5.0
 40
5.0
 40
5.0
 40
6.0
 40
6.0
 40
6.0
 40
7.0
 40
7.0
 40
7.0
 40
8.0
 40
8.0
 40
8.0
 40
9.0
 40
9.0
 40
9.0
 40
9.0
 10
112.286686169845
 20
-130.6066704317581
 10
112.286686169845
 20
-131.1227457354485
 10
111.7327148158168
 20
-131.1313584741616
 10
111.5191188957313
 20
-131.1313584741616
 10
111.2882974982196
 20
-131.1313584741616
 10
110.6413085660897
 20
-131.1120659394442
 10
110.6413085660897
 20
-130.5684298718718
 10
110.6413085660897
 20
-130.3951415689637
 10
110.7108994948917
 20
-130.1495062608654
 10
111.0430066996698
 20
-130.1116102105277
 10
111.0430066996698
 20
-130.1116102105277
 10
111.0430066996698
 20
-130.3252061306131
 10
111.0430066996698
 20
-130.3252061306131
 10
110.9858181146147
 20
-130.3358859266174
 10
110.8376790087489
 20
-130.3675808050817
 10
110.8376790087489
 20
-130.5704969291629
 10
110.8376790087489
 20
-130.8626410263121
 10
111.1656520989447
 20
-130.902604133941
 10
111.3709797898656
 20
-130.9153509872365
 10
111.2924316128019
 20
-130.8223334091347
 10
111.2331759704556
 20
-130.7544650280753
 10
111.2331759704556
 20
-130.5725639864541
 10
111.2331759704556
 20
-130.392730002124
 10
111.3413519686925
 20
-130.0902506185191
 10
111.7478732359519
 20
-130.0902506185191
 10
112.0668890778861
 20
-130.0902506185191
 10
112.286686169845
 20
-130.2893771375666
 10
112.286686169845
 20
-130.6066704317581
 97
        0
 97
        0
 92
        1
 93
        1
 72
     4
 94
        3
 73
     0
 74
     1
 95
       17
 96
       13
 40
0.0
 40
0.0
 40
0.0
 40
0.0
 40
1.0
 40
1.0
 40
1.0
 40
2.0
 40
2.0
 40
2.0
 40
3.0
 40
3.0
 40
3.0
 40
4.0
 40
4.0
 40
4.0
 40
4.0
 10
111.4281683749207
 20
-130.5897894638803
 10
111.4281683749207
 20
-130.8519612303078
 10
111.6396972377151
 20
-130.8898572806456
 10
111.7561414651165
 20
-130.8898572806456
 10
111.9318413348643
 20
-130.8898572806456
 10
112.0944498417681
 20
-130.7947726452527
 10
112.0944498417681
 20
-130.6108045463403
 10
112.0944498417681
 20
-130.4902262043566
 10
112.0351941994218
 20
-130.3145263346089
 10
111.7499402932431
 20
-130.3145263346089
 10
111.5253200676048
 20
-130.3145263346089
 10
111.4281683749207
 20
-130.4540527017615
 10
111.4281683749207
 20
-130.5897894638803
 97
        0
 97
        0
 75
     2
 76
     1
 98
        0
  0
POLYLINE
  5
60
330
59
100
AcDbEntity
  8
_U+30EC_U+30A4_U+30E4_U+30FC 1
370
     0
100
AcDb2dPolyline
 66
     1
 10
0.0
 20
0.0
 30
0.0
  0
VERTEX
  5
61
330
60
100
AcDbEntity
  8
_U+30EC_U+30A4_U+30E4_U+30FC 1
370
     0
100
AcDbVertex
100
AcDb2dVertex
 10
112.2363877757603
 20
-129.8738986220454
 30
0.0
  0
VERTEX
  5
62
330
60
100
AcDbEntity
  8
_U+30EC_U+30A4_U+30E4_U+30FC 1
370
     0
100
AcDbVertex
100
AcDb2dVertex
 10
111.9842067862401
 20
-129.8738986220454
 30
0.0
  0
VERTEX
  5
63
330
60
100
AcDbEntity
  8
_U+30EC_U+30A4_U+30E4_U+30FC 1
370
     0
100
AcDbVertex
100
AcDb2dVertex
 10
111.9842067862401
 20
-129.6220621420736
 30
0.0
  0
VERTEX
  5
64
330
60
100
AcDbEntity
  8
_U+30EC_U+30A4_U+30E4_U+30FC 1
370
     0
100
AcDbVertex
100
AcDb2dVertex
 10
112.2363877757603
 20
-129.6220621420736
 30
0.0
  0
VERTEX
  5
65
330
60
100
AcDbEntity
  8
_U+30EC_U+30A4_U+30E4_U+30FC 1
370
     0
100
AcDbVertex
100
AcDb2dVertex
 10
112.2363877757603
 20
-129.8738986220454
 30
0.0
  0
SEQEND
  5
66
330
60
100
AcDbEntity
  8
_U+30EC_U+30A4_U+30E4_U+30FC 1
370
     0
  0
HATCH
  5
67
330
59
100
AcDbEntity
  8
_U+30EC_U+30A4_U+30E4_U+30FC 1
 62
   179
420
  2234388
100
AcDbHatch
 10
0.0
 20
0.0
 30
0.0
210
0.0
220
0.0
230
1.0
  2
SOLID
 70
     1
 71
     0
 91
        1
 92
        1
 93
        4
 72
     1
 10
112.2363877757603
 20
-129.8738986220454
 11
111.9842067862401
 21
-129.8738986220454
 72
     1
 10
111.9842067862401
 20
-129.8738986220454
 11
111.9842067862401
 21
-129.6220621420736
 72
     1
 10
111.9842067862401
 20
-129.6220621420736
 11
112.2363877757603
 21
-129.6220621420736
 72
     1
 10
112.2363877757603
 20
-129.6220621420736
 11
112.2363877757603
 21
-129.8738986220454
 97
        0
 75
     2
 76
     1
 98
        0
  0
SPLINE
  5
68
330
59
100
AcDbEntity
  8
_U+30EC_U+30A4_U+30E4_U+30FC 1
370
     0
100
AcDbSpline
210
0.0
220
0.0
230
1.0
 70
    11
 71
     3
 72
    53
 73
    49
 74
     0
 42
0.0000000001
 43
0.0000000001
 12
1.0
 22
0.0
 32
0.0
 13
1.0
 23
0.0
 33
0.0
 40
0.0
 40
0.0
 40
0.0
 40
0.0
 40
1.0
 40
1.0
 40
1.0
 40
2.0
 40
2.0
 40
2.0
 40
3.0
 40
3.0
 40
3.0
 40
4.0
 40
4.0
 40
4.0
 40
5.0
 40
5.0
 40
5.0
 40
6.0
 40
6.0
 40
6.0
 40
7.0
 40
7.0
 40
7.0
 40
8.0
 40
8.0
 40
8.0
 40
9.0
 40
9.0
 40
9.0
 40
10.0
 40
10.0
 40
10.0
 40
11.0
 40
11.0
 40
11.0
 40
12.0
 40
12.0
 40
12.0
 40
13.0
 40
13.0
 40
13.0
 40
14.0
 40
14.0
 40
14.0
 40
15.0
 40
15.0
 40
15.0
 40
16.0
 40
16.0
 40
16.0
 40
16.0
 10
112.286686169845
 20
-128.9047932620446
 30
0.0
 10
112.286686169845
 20
-128.9829969295598
 30
0.0
 10
112.2701497115158
 20
-129.0846272463747
 30
0.0
 10
112.2067599545872
 20
-129.1862575631895
 30
0.0
 10
112.0965168990592
 20
-129.3595458660976
 30
0.0
 10
111.9656032706197
 20
-129.3809054581062
 30
0.0
 10
111.8574272723829
 20
-129.3998534832751
 30
0.0
 10
111.8574272723829
 20
-129.3998534832751
 30
0.0
 10
111.8574272723829
 20
-129.1776448244764
 30
0.0
 10
111.8574272723829
 20
-129.1776448244764
 30
0.0
 10
112.0565537914303
 20
-129.122867806261
 30
0.0
 10
112.0861816126035
 20
-128.9957437828552
 30
0.0
 10
112.0861816126035
 20
-128.9027262047535
 30
0.0
 10
112.0861816126035
 20
-128.7631998376009
 30
0.0
 10
111.9862738435312
 20
-128.6109266171528
 30
0.0
 10
111.7540744078254
 20
-128.6109266171528
 30
0.0
 10
111.4977593037228
 20
-128.6109266171528
 30
0.0
 10
111.4281683749207
 20
-128.7907606014829
 30
0.0
 10
111.4281683749207
 20
-128.9113389434666
 30
0.0
 10
111.4281683749207
 20
-128.9430338219309
 30
0.0
 10
111.4281683749207
 20
-129.0846272463747
 30
0.0
 10
111.5570149460691
 20
-129.1735107098941
 30
0.0
 10
111.5570149460691
 20
-129.1735107098941
 30
0.0
 10
111.5384114304487
 20
-129.3492105796419
 30
0.0
 10
111.5384114304487
 20
-129.3492105796419
 30
0.0
 10
111.5384114304487
 20
-129.3492105796419
 30
0.0
 10
110.6916069601743
 20
-129.2286322376581
 30
0.0
 10
110.6916069601743
 20
-129.2286322376581
 30
0.0
 10
110.6916069601743
 20
-129.2286322376581
 30
0.0
 10
110.6916069601743
 20
-128.4500406579917
 30
0.0
 10
110.6916069601743
 20
-128.4500406579917
 30
0.0
 10
110.6916069601743
 20
-128.4500406579917
 30
0.0
 10
110.8865993646395
 20
-128.4500406579917
 30
0.0
 10
110.8865993646395
 20
-128.4500406579917
 30
0.0
 10
110.8865993646395
 20
-128.4500406579917
 30
0.0
 10
110.8865993646395
 20
-129.0656792212058
 30
0.0
 10
110.8865993646395
 20
-129.0656792212058
 30
0.0
 10
110.8865993646395
 20
-129.0656792212058
 30
0.0
 10
111.3096570902281
 20
-129.1311360354256
 30
0.0
 10
111.3096570902281
 20
-129.1311360354256
 30
0.0
 10
111.2758951544727
 20
-129.0698133357881
 30
0.0
 10
111.2352430277467
 20
-128.9874755536906
 30
0.0
 10
111.2352430277467
 20
-128.868964268998
 30
0.0
 10
111.2352430277467
 20
-128.6150607317351
 30
0.0
 10
111.4219672030473
 20
-128.37803816235
 30
0.0
 10
111.734781873108
 20
-128.37803816235
 30
0.0
 10
112.052419676848
 20
-128.37803816235
 30
0.0
 10
112.286686169845
 20
-128.6023138784397
 30
0.0
 10
112.286686169845
 20
-128.9047932620446
 30
0.0
  0
HATCH
  5
69
330
59
100
AcDbEntity
  8
_U+30EC_U+30A4_U+30E4_U+30FC 1
 62
   179
420
  2234388
100
AcDbHatch
 10
0.0
 20
0.0
 30
0.0
210
0.0
220
0.0
230
1.0
  2
SOLID
 70
     1
 71
     0
 91
        1
 92
        1
 93
        1
 72
     4
 94
        3
 73
     0
 74
     1
 95
       53
 96
       49
 40
0.0
 40
0.0
 40
0.0
 40
0.0
 40
1.0
 40
1.0
 40
1.0
 40
2.0
 40
2.0
 40
2.0
 40
3.0
 40
3.0
 40
3.0
 40
4.0
 40
4.0
 40
4.0
 40
5.0
 40
5.0
 40
5.0
 40
6.0
 40
6.0
 40
6.0
 40
7.0
 40
7.0
 40
7.0
 40
8.0
 40
8.0
 40
8.0
 40
9.0
 40
9.0
 40
9.0
 40
10.0
 40
10.0
 40
10.0
 40
11.0
 40
11.0
 40
11.0
 40
12.0
 40
12.0
 40
12.0
 40
13.0
 40
13.0
 40
13.0
 40
14.0
 40
14.0
 40
14.0
 40
15.0
 40
15.0
 40
15.0
 40
16.0
 40
16.0
 40
16.0
 40
16.0
 10
112.286686169845
 20
-128.9047932620446
 10
112.286686169845
 20
-128.9829969295598
 10
112.2701497115158
 20
-129.0846272463747
 10
112.2067599545872
 20
-129.1862575631895
 10
112.0965168990592
 20
-129.3595458660976
 10
111.9656032706197
 20
-129.3809054581062
 10
111.8574272723829
 20
-129.3998534832751
 10
111.8574272723829
 20
-129.3998534832751
 10
111.8574272723829
 20
-129.1776448244764
 10
111.8574272723829
 20
-129.1776448244764
 10
112.0565537914303
 20
-129.122867806261
 10
112.0861816126035
 20
-128.9957437828552
 10
112.0861816126035
 20
-128.9027262047535
 10
112.0861816126035
 20
-128.7631998376009
 10
111.9862738435312
 20
-128.6109266171528
 10
111.7540744078254
 20
-128.6109266171528
 10
111.4977593037228
 20
-128.6109266171528
 10
111.4281683749207
 20
-128.7907606014829
 10
111.4281683749207
 20
-128.9113389434666
 10
111.4281683749207
 20
-128.9430338219309
 10
111.4281683749207
 20
-129.0846272463747
 10
111.5570149460691
 20
-129.1735107098941
 10
111.5570149460691
 20
-129.1735107098941
 10
111.5384114304487
 20
-129.3492105796419
 10
111.5384114304487
 20
-129.3492105796419
 10
111.5384114304487
 20
-129.3492105796419
 10
110.6916069601743
 20
-129.2286322376581
 10
110.6916069601743
 20
-129.2286322376581
 10
110.6916069601743
 20
-129.2286322376581
 10
110.6916069601743
 20
-128.4500406579917
 10
110.6916069601743
 20
-128.4500406579917
 10
110.6916069601743
 20
-128.4500406579917
 10
110.8865993646395
 20
-128.4500406579917
 10
110.8865993646395
 20
-128.4500406579917
 10
110.8865993646395
 20
-128.4500406579917
 10
110.8865993646395
 20
-129.0656792212058
 10
110.8865993646395
 20
-129.0656792212058
 10
110.8865993646395
 20
-129.0656792212058
 10
111.3096570902281
 20
-129.1311360354256
 10
111.3096570902281
 20
-129.1311360354256
 10
111.2758951544727
 20
-129.0698133357881
 10
111.2352430277467
 20
-128.9874755536906
 10
111.2352430277467
 20
-128.868964268998
 10
111.2352430277467
 20
-128.6150607317351
 10
111.4219672030473
 20
-128.37803816235
 10
111.734781873108
 20
-128.37803816235
 10
112.052419676848
 20
-128.37803816235
 10
112.286686169845
 20
-128.6023138784397
 10
112.286686169845
 20
-128.9047932620446
 97
        0
 97
        0
 75
     2
 76
     1
 98
        0
  0
ENDBLK
  5
5C
330
59
100
AcDbEntity
  8
0
100
AcDbBlockEnd
  0
BLOCK
  5
6C
330
6A
100
AcDbEntity
  8
0
100
AcDbBlockBegin
  2
block 3
 70
     0
 10
0.0
 20
0.0
 30
0.0
  3
block 3
  1

  0
SPLINE
  5
6E
330
6A
100
AcDbEntity
  8
_U+30EC_U+30A4_U+30E4_U+30FC 1
370
     0
100
AcDbSpline
210
0.0
220
0.0
230
1.0
 70
    11
 71
     3
 72
    62
 73
    58
 74
     0
 42
0.0000000001
 43
0.0000000001
 12
1.0
 22
0.0
 32
0.0
 13
1.0
 23
0.0
 33
0.0
 40
0.0
 40
0.0
 40
0.0
 40
0.0
 40
1.0
 40
1.0
 40
1.0
 40
2.0
 40
2.0
 40
2.0
 40
3.0
 40
3.0
 40
3.0
 40
4.0
 40
4.0
 40
4.0
 40
5.0
 40
5.0
 40
5.0
 40
6.0
 40
6.0
 40
6.0
 40
7.0
 40
7.0
 40
7.0
 40
8.0
 40
8.0
 40
8.0
 40
9.0
 40
9.0
 40
9.0
 40
10.0
 40
10.0
 40
10.0
 40
11.0
 40
11.0
 40
11.0
 40
12.0
 40
12.0
 40
12.0
 40
13.0
 40
13.0
 40
13.0
 40
14.0
 40
14.0
 40
14.0
 40
15.0
 40
15.0
 40
15.0
 40
16.0
 40
16.0
 40
16.0
 40
17.0
 40
17.0
 40
17.0
 40
18.0
 40
18.0
 40
18.0
 40
19.0
 40
19.0
 40
19.0
 40
19.0
 10
107.9065917698984
 20
-124.9274305243237
 30
0.0
 10
107.9065917698984
 20
-125.0228596692651
 30
0.0
 10
107.8855766874383
 20
-125.2405897039329
 30
0.0
 10
107.6995415312348
 20
-125.3656466700475
 30
0.0
 10
107.5872314184157
 20
-125.4397162229804
 30
0.0
 10
107.4880126684405
 20
-125.4438503375627
 30
0.0
 10
107.4032633195034
 20
-125.447984452145
 30
0.0
 10
107.4032633195034
 20
-125.447984452145
 30
0.0
 10
107.4032633195034
 20
-125.2278428506375
 30
0.0
 10
107.4032633195034
 20
-125.2278428506375
 30
0.0
 10
107.4773328724362
 20
-125.2257757933463
 30
0.0
 10
107.7119438749817
 20
-125.2154405068906
 30
0.0
 10
107.7119438749817
 20
-124.9319091484545
 30
0.0
 10
107.7119438749817
 20
-124.7944498385931
 30
0.0
 10
107.6423529461797
 20
-124.6418321085965
 30
0.0
 10
107.4139431155076
 20
-124.6418321085965
 30
0.0
 10
107.2974988881062
 20
-124.6418321085965
 30
0.0
 10
107.2489230417642
 20
-124.6800726684828
 30
0.0
 10
107.2172281632999
 20
-124.7117675469471
 30
0.0
 10
107.143158610367
 20
-124.7858370998799
 30
0.0
 10
107.1304117570716
 20
-124.9022813272814
 30
0.0
 10
107.1304117570716
 20
-124.9570583454968
 30
0.0
 10
107.1304117570716
 20
-124.9763508802143
 30
0.0
 10
107.1324788143627
 20
-125.0121798732608
 30
0.0
 10
107.136612928945
 20
-125.0397406371428
 30
0.0
 10
107.136612928945
 20
-125.0397406371428
 30
0.0
 10
106.9419650340284
 20
-125.0397406371428
 30
0.0
 10
106.9419650340284
 20
-125.0397406371428
 30
0.0
 10
106.9485107154504
 20
-125.0015000772566
 30
0.0
 10
106.9505777727415
 20
-124.9594699123365
 30
0.0
 10
106.9505777727415
 20
-124.9529242309145
 30
0.0
 10
106.9505777727415
 20
-124.8874674166948
 30
0.0
 10
106.929218180733
 20
-124.6886854071959
 30
0.0
 10
106.6925401208963
 20
-124.6886854071959
 30
0.0
 10
106.5147731938574
 20
-124.6886854071959
 30
0.0
 10
106.4596516660934
 20
-124.8195990356354
 30
0.0
 10
106.4596516660934
 20
-124.9298420911634
 30
0.0
 10
106.4596516660934
 20
-125.194080914882
 30
0.0
 10
106.6925401208963
 20
-125.2026936535952
 30
0.0
 10
106.7641981069895
 20
-125.2068277681775
 30
0.0
 10
106.7641981069895
 20
-125.2068277681775
 30
0.0
 10
106.7641981069895
 20
-125.4100884018072
 30
0.0
 10
106.7641981069895
 20
-125.4100884018072
 30
0.0
 10
106.6394856504235
 20
-125.4014756630941
 30
0.0
 10
106.2629367138857
 20
-125.3739148992121
 30
0.0
 10
106.2629367138857
 20
-124.917095237868
 30
0.0
 10
106.2629367138857
 20
-124.6928195217782
 30
0.0
 10
106.3900607372914
 20
-124.4516628378107
 30
0.0
 10
106.6859944394743
 20
-124.4516628378107
 30
0.0
 10
106.8723741052264
 20
-124.4516628378107
 30
0.0
 10
106.9547118873238
 20
-124.5467474732036
 30
0.0
 10
107.0160345869613
 20
-124.6463107327273
 30
0.0
 10
107.0435953508433
 20
-124.5849880330899
 30
0.0
 10
107.1238660756496
 20
-124.4030869914687
 30
0.0
 10
107.4011962622122
 20
-124.4030869914687
 30
0.0
 10
107.7395046388637
 20
-124.4030869914687
 30
0.0
 10
107.9065917698984
 20
-124.6504448473096
 30
0.0
 10
107.9065917698984
 20
-124.9274305243237
 30
0.0
  0
HATCH
  5
6F
330
6A
100
AcDbEntity
  8
_U+30EC_U+30A4_U+30E4_U+30FC 1
 62
   179
420
  2234388
100
AcDbHatch
 10
0.0
 20
0.0
 30
0.0
210
0.0
220
0.0
230
1.0
  2
SOLID
 70
     1
 71
     0
 91
        1
 92
        1
 93
        1
 72
     4
 94
        3
 73
     0
 74
     1
 95
       62
 96
       58
 40
0.0
 40
0.0
 40
0.0
 40
0.0
 40
1.0
 40
1.0
 40
1.0
 40
2.0
 40
2.0
 40
2.0
 40
3.0
 40
3.0
 40
3.0
 40
4.0
 40
4.0
 40
4.0
 40
5.0
 40
5.0
 40
5.0
 40
6.0
 40
6.0
 40
6.0
 40
7.0
 40
7.0
 40
7.0
 40
8.0
 40
8.0
 40
8.0
 40
9.0
 40
9.0
 40
9.0
 40
10.0
 40
10.0
 40
10.0
 40
11.0
 40
11.0
 40
11.0
 40
12.0
 40
12.0
 40
12.0
 40
13.0
 40
13.0
 40
13.0
 40
14.0
 40
14.0
 40
14.0
 40
15.0
 40
15.0
 40
15.0
 40
16.0
 40
16.0
 40
16.0
 40
17.0
 40
17.0
 40
17.0
 40
18.0
 40
18.0
 40
18.0
 40
19.0
 40
19.0
 40
19.0
 40
19.0
 10
107.9065917698984
 20
-124.9274305243237
 10
107.9065917698984
 20
-125.0228596692651
 10
107.8855766874383
 20
-125.2405897039329
 10
107.6995415312348
 20
-125.3656466700475
 10
107.5872314184157
 20
-125.4397162229804
 10
107.4880126684405
 20
-125.4438503375627
 10
107.4032633195034
 20
-125.447984452145
 10
107.4032633195034
 20
-125.447984452145
 10
107.4032633195034
 20
-125.2278428506375
 10
107.4032633195034
 20
-125.2278428506375
 10
107.4773328724362
 20
-125.2257757933463
 10
107.7119438749817
 20
-125.2154405068906
 10
107.7119438749817
 20
-124.9319091484545
 10
107.7119438749817
 20
-124.7944498385931
 10
107.6423529461797
 20
-124.6418321085965
 10
107.4139431155076
 20
-124.6418321085965
 10
107.2974988881062
 20
-124.6418321085965
 10
107.2489230417642
 20
-124.6800726684828
 10
107.2172281632999
 20
-124.7117675469471
 10
107.143158610367
 20
-124.7858370998799
 10
107.1304117570716
 20
-124.9022813272814
 10
107.1304117570716
 20
-124.9570583454968
 10
107.1304117570716
 20
-124.9763508802143
 10
107.1324788143627
 20
-125.0121798732608
 10
107.136612928945
 20
-125.0397406371428
 10
107.136612928945
 20
-125.0397406371428
 10
106.9419650340284
 20
-125.0397406371428
 10
106.9419650340284
 20
-125.0397406371428
 10
106.9485107154504
 20
-125.0015000772566
 10
106.9505777727415
 20
-124.9594699123365
 10
106.9505777727415
 20
-124.9529242309145
 10
106.9505777727415
 20
-124.8874674166948
 10
106.929218180733
 20
-124.6886854071959
 10
106.6925401208963
 20
-124.6886854071959
 10
106.5147731938574
 20
-124.6886854071959
 10
106.4596516660934
 20
-124.8195990356354
 10
106.4596516660934
 20
-124.9298420911634
 10
106.4596516660934
 20
-125.194080914882
 10
106.6925401208963
 20
-125.2026936535952
 10
106.7641981069895
 20
-125.2068277681775
 10
106.7641981069895
 20
-125.2068277681775
 10
106.7641981069895
 20
-125.4100884018072
 10
106.7641981069895
 20
-125.4100884018072
 10
106.6394856504235
 20
-125.4014756630941
 10
106.2629367138857
 20
-125.3739148992121
 10
106.2629367138857
 20
-124.917095237868
 10
106.2629367138857
 20
-124.6928195217782
 10
106.3900607372914
 20
-124.4516628378107
 10
106.6859944394743
 20
-124.4516628378107
 10
106.8723741052264
 20
-124.4516628378107
 10
106.9547118873238
 20
-124.5467474732036
 10
107.0160345869613
 20
-124.6463107327273
 10
107.0435953508433
 20
-124.5849880330899
 10
107.1238660756496
 20
-124.4030869914687
 10
107.4011962622122
 20
-124.4030869914687
 10
107.7395046388637
 20
-124.4030869914687
 10
107.9065917698984
 20
-124.6504448473096
 10
107.9065917698984
 20
-124.9274305243237
 97
        0
 97
        0
 75
     2
 76
     1
 98
        0
  0
ENDBLK
  5
6D
330
6A
100
AcDbEntity
  8
0
100
AcDbBlockEnd
  0
BLOCK
  5
7E
330
7C
100
AcDbEntity
  8
0
100
AcDbBlockBegin
  2
block 4
 70
     0
 10
0.0
 20
0.0
 30
0.0
  3
block 4
  1

  0
POLYLINE
  5
80
330
7C
100
AcDbEntity
  8
_U+30EC_U+30A4_U+30E4_U+30FC 1
370
     0
100
AcDb2dPolyline
 66
     1
 10
0.0
 20
0.0
 30
0.0
  0
VERTEX
  5
81
330
80
100
AcDbEntity
  8
_U+30EC_U+30A4_U+30E4_U+30FC 1
370
     0
100
AcDbVertex
100
AcDb2dVertex
 10
87.51455482838178
 20
-136.9642496402381
 30
0.0
  0
VERTEX
  5
82
330
80
100
AcDbEntity
  8
_U+30EC_U+30A4_U+30E4_U+30FC 1
370
     0
100
AcDbVertex
100
AcDb2dVertex
 10
87.51455482838178
 20
-137.3111707556028
 30
0.0
  0
VERTEX
  5
83
330
80
100
AcDbEntity
  8
_U+30EC_U+30A4_U+30E4_U+30FC 1
370
     0
100
AcDbVertex
100
AcDb2dVertex
 10
87.296824793714
 20
-137.3111707556028
 30
0.0
  0
VERTEX
  5
84
330
80
100
AcDbEntity
  8
_U+30EC_U+30A4_U+30E4_U+30FC 1
370
     0
100
AcDbVertex
100
AcDb2dVertex
 10
87.296824793714
 20
-136.9642496402381
 30
0.0
  0
VERTEX
  5
85
330
80
100
AcDbEntity
  8
_U+30EC_U+30A4_U+30E4_U+30FC 1
370
     0
100
AcDbVertex
100
AcDb2dVertex
 10
86.64087861332243
 20
-136.9642496402381
 30
0.0
  0
VERTEX
  5
86
330
80
100
AcDbEntity
  8
_U+30EC_U+30A4_U+30E4_U+30FC 1
370
     0
100
AcDbVertex
100
AcDb2dVertex
 10
86.64087861332243
 20
-136.7399739241484
 30
0.0
  0
VERTEX
  5
87
330
80
100
AcDbEntity
  8
_U+30EC_U+30A4_U+30E4_U+30FC 1
370
     0
100
AcDbVertex
100
AcDb2dVertex
 10
87.31990693346516
 20
-135.7667344495653
 30
0.0
  0
VERTEX
  5
88
330
80
100
AcDbEntity
  8
_U+30EC_U+30A4_U+30E4_U+30FC 1
370
     0
100
AcDbVertex
100
AcDb2dVertex
 10
87.51455482838178
 20
-135.7667344495653
 30
0.0
  0
VERTEX
  5
89
330
80
100
AcDbEntity
  8
_U+30EC_U+30A4_U+30E4_U+30FC 1
370
     0
100
AcDbVertex
100
AcDb2dVertex
 10
87.51455482838178
 20
-136.7654676307392
 30
0.0
  0
VERTEX
  5
8A
330
80
100
AcDbEntity
  8
_U+30EC_U+30A4_U+30E4_U+30FC 1
370
     0
100
AcDbVertex
100
AcDb2dVertex
 10
87.72194957659383
 20
-136.7654676307392
 30
0.0
  0
VERTEX
  5
8B
330
80
100
AcDbEntity
  8
_U+30EC_U+30A4_U+30E4_U+30FC 1
370
     0
100
AcDbVertex
100
AcDb2dVertex
 10
87.72194957659383
 20
-136.9642496402381
 30
0.0
  0
VERTEX
  5
8C
330
80
100
AcDbEntity
  8
_U+30EC_U+30A4_U+30E4_U+30FC 1
370
     0
100
AcDbVertex
100
AcDb2dVertex
 10
87.51455482838178
 20
-136.9642496402381
 30
0.0
  0
SEQEND
  5
8D
330
80
100
AcDbEntity
  8
_U+30EC_U+30A4_U+30E4_U+30FC 1
370
     0
  0
POLYLINE
  5
8E
330
7C
100
AcDbEntity
  8
_U+30EC_U+30A4_U+30E4_U+30FC 1
370
     0
100
AcDb2dPolyline
 66
     1
 10
0.0
 20
0.0
 30
0.0
  0
VERTEX
  5
8F
330
8E
100
AcDbEntity
  8
_U+30EC_U+30A4_U+30E4_U+30FC 1
370
     0
100
AcDbVertex
100
AcDb2dVertex
 10
87.296824793714
 20
-136.1095214503476
 30
0.0
  0
VERTEX
  5
90
330
8E
100
AcDbEntity
  8
_U+30EC_U+30A4_U+30E4_U+30FC 1
370
     0
100
AcDbVertex
100
AcDb2dVertex
 10
86.83966062282134
 20
-136.7654676307392
 30
0.0
  0
VERTEX
  5
91
330
8E
100
AcDbEntity
  8
_U+30EC_U+30A4_U+30E4_U+30FC 1
370
     0
100
AcDbVertex
100
AcDb2dVertex
 10
87.296824793714
 20
-136.7654676307392
 30
0.0
  0
VERTEX
  5
92
330
8E
100
AcDbEntity
  8
_U+30EC_U+30A4_U+30E4_U+30FC 1
370
     0
100
AcDbVertex
100
AcDb2dVertex
 10
87.296824793714
 20
-136.1095214503476
 30
0.0
  0
SEQEND
  5
93
330
8E
100
AcDbEntity
  8
_U+30EC_U+30A4_U+30E4_U+30FC 1
370
     0
  0
HATCH
  5
94
330
7C
100
AcDbEntity
  8
_U+30EC_U+30A4_U+30E4_U+30FC 1
 62
   179
420
  2234388
100
AcDbHatch
 10
0.0
 20
0.0
 30
0.0
210
0.0
220
0.0
230
1.0
  2
SOLID
 70
     1
 71
     0
 91
        2
 92
        1
 93
       11
 72
     1
 10
87.51455482838178
 20
-136.9642496402381
 11
87.51455482838178
 21
-137.3111707556028
 72
     1
 10
87.51455482838178
 20
-137.3111707556028
 11
87.296824793714
 21
-137.3111707556028
 72
     1
 10
87.296824793714
 20
-137.3111707556028
 11
87.296824793714
 21
-136.9642496402381
 72
     1
 10
87.296824793714
 20
-136.9642496402381
 11
86.64087861332243
 21
-136.9642496402381
 72
     1
 10
86.64087861332243
 20
-136.9642496402381
 11
86.64087861332243
 21
-136.7399739241484
 72
     1
 10
86.64087861332243
 20
-136.7399739241484
 11
87.31990693346516
 21
-135.7667344495653
 72
     1
 10
87.31990693346516
 20
-135.7667344495653
 11
87.51455482838178
 21
-135.7667344495653
 72
     1
 10
87.51455482838178
 20
-135.7667344495653
 11
87.51455482838178
 21
-136.7654676307392
 72
     1
 10
87.51455482838178
 20
-136.7654676307392
 11
87.72194957659383
 21
-136.7654676307392
 72
     1
 10
87.72194957659383
 20
-136.7654676307392
 11
87.72194957659383
 21
-136.9642496402381
 72
     1
 10
87.72194957659383
 20
-136.9642496402381
 11
87.51455482838178
 21
-136.9642496402381
 97
        0
 92
        1
 93
        3
 72
     1
 10
87.296824793714
 20
-136.1095214503476
 11
86.83966062282134
 21
-136.7654676307392
 72
     1
 10
86.83966062282134
 20
-136.7654676307392
 11
87.296824793714
 21
-136.7654676307392
 72
     1
 10
87.296824793714
 20
-136.7654676307392
 11
87.296824793714
 21
-136.1095214503476
 97
        0
 75
     2
 76
     1
 98
        0
  0
SPLINE
  5
95
330
7C
100
AcDbEntity
  8
_U+30EC_U+30A4_U+30E4_U+30FC 1
370
     0
100
AcDbSpline
210
0.0
220
0.0
230
1.0
 70
    11
 71
     3
 72
    62
 73
    58
 74
     0
 42
0.0000000001
 43
0.0000000001
 12
1.0
 22
0.0
 32
0.0
 13
1.0
 23
0.0
 33
0.0
 40
0.0
 40
0.0
 40
0.0
 40
0.0
 40
1.0
 40
1.0
 40
1.0
 40
2.0
 40
2.0
 40
2.0
 40
3.0
 40
3.0
 40
3.0
 40
4.0
 40
4.0
 40
4.0
 40
5.0
 40
5.0
 40
5.0
 40
6.0
 40
6.0
 40
6.0
 40
7.0
 40
7.0
 40
7.0
 40
8.0
 40
8.0
 40
8.0
 40
9.0
 40
9.0
 40
9.0
 40
10.0
 40
10.0
 40
10.0
 40
11.0
 40
11.0
 40
11.0
 40
12.0
 40
12.0
 40
12.0
 40
13.0
 40
13.0
 40
13.0
 40
14.0
 40
14.0
 40
14.0
 40
15.0
 40
15.0
 40
15.0
 40
16.0
 40
16.0
 40
16.0
 40
17.0
 40
17.0
 40
17.0
 40
18.0
 40
18.0
 40
18.0
 40
19.0
 40
19.0
 40
19.0
 40
19.0
 10
88.35102401220044
 20
-137.3618136592359
 30
0.0
 10
88.25559486725902
 20
-137.3618136592359
 30
0.0
 10
88.03786483259123
 20
-137.3407985767759
 30
0.0
 10
87.91280786647667
 20
-137.1547634205724
 30
0.0
 10
87.83908282309231
 20
-137.0424533077533
 30
0.0
 10
87.83460419896149
 20
-136.9432345577781
 30
0.0
 10
87.83047008437919
 20
-136.8584852088409
 30
0.0
 10
87.83047008437919
 20
-136.8584852088409
 30
0.0
 10
88.05061168588665
 20
-136.8584852088409
 30
0.0
 10
88.05061168588665
 20
-136.8584852088409
 30
0.0
 10
88.05267874317781
 20
-136.9325547617738
 30
0.0
 10
88.06301402963355
 20
-137.1671657643193
 30
0.0
 10
88.34654538806961
 20
-137.1671657643193
 30
0.0
 10
88.48400469793108
 20
-137.1671657643193
 30
0.0
 10
88.63662242792765
 20
-137.0975748355173
 30
0.0
 10
88.63662242792765
 20
-136.8691650048452
 30
0.0
 10
88.63662242792765
 20
-136.7527207774438
 30
0.0
 10
88.59838186804139
 20
-136.7041449311018
 30
0.0
 10
88.56668698957708
 20
-136.6724500526375
 30
0.0
 10
88.49261743664421
 20
-136.5983804997046
 30
0.0
 10
88.37617320924276
 20
-136.5856336464091
 30
0.0
 10
88.32139619102729
 20
-136.5856336464091
 30
0.0
 10
88.3021036563099
 20
-136.5856336464091
 30
0.0
 10
88.2662746632633
 20
-136.5877007037003
 30
0.0
 10
88.2387138993813
 20
-136.5918348182826
 30
0.0
 10
88.2387138993813
 20
-136.5918348182826
 30
0.0
 10
88.2387138993813
 20
-136.397186923366
 30
0.0
 10
88.2387138993813
 20
-136.397186923366
 30
0.0
 10
88.27695445926757
 20
-136.403732604788
 30
0.0
 10
88.31898462418762
 20
-136.4057996620791
 30
0.0
 10
88.32553030560959
 20
-136.4057996620791
 30
0.0
 10
88.39098711982935
 20
-136.4057996620791
 30
0.0
 10
88.58976912932826
 20
-136.3844400700706
 30
0.0
 10
88.58976912932826
 20
-136.1477620102339
 30
0.0
 10
88.58976912932826
 20
-135.969995083195
 30
0.0
 10
88.45885550088876
 20
-135.914873555431
 30
0.0
 10
88.34861244536077
 20
-135.914873555431
 30
0.0
 10
88.0843736216421
 20
-135.914873555431
 30
0.0
 10
88.07576088292898
 20
-136.1477620102339
 30
0.0
 10
88.07162676834668
 20
-136.2194199963271
 30
0.0
 10
88.07162676834668
 20
-136.2194199963271
 30
0.0
 10
87.86836613471694
 20
-136.2194199963271
 30
0.0
 10
87.86836613471694
 20
-136.2194199963271
 30
0.0
 10
87.87697887343006
 20
-136.0947075397611
 30
0.0
 10
87.90453963731207
 20
-135.7181586032232
 30
0.0
 10
88.3613592986562
 20
-135.7181586032232
 30
0.0
 10
88.58563501474596
 20
-135.7181586032232
 30
0.0
 10
88.82679169871345
 20
-135.845282626629
 30
0.0
 10
88.82679169871345
 20
-136.1412163288119
 30
0.0
 10
88.82679169871345
 20
-136.3275959945639
 30
0.0
 10
88.73170706332056
 20
-136.4099337766614
 30
0.0
 10
88.63214380379682
 20
-136.4712564762989
 30
0.0
 10
88.69346650343428
 20
-136.4988172401809
 30
0.0
 10
88.87536754505547
 20
-136.5790879649872
 30
0.0
 10
88.87536754505547
 20
-136.8564181515498
 30
0.0
 10
88.87536754505547
 20
-137.1947265282013
 30
0.0
 10
88.62800968921452
 20
-137.3618136592359
 30
0.0
 10
88.35102401220044
 20
-137.3618136592359
 30
0.0
  0
HATCH
  5
96
330
7C
100
AcDbEntity
  8
_U+30EC_U+30A4_U+30E4_U+30FC 1
 62
   179
420
  2234388
100
AcDbHatch
 10
0.0
 20
0.0
 30
0.0
210
0.0
220
0.0
230
1.0
  2
SOLID
 70
     1
 71
     0
 91
        1
 92
        1
 93
        1
 72
     4
 94
        3
 73
     0
 74
     1
 95
       62
 96
       58
 40
0.0
 40
0.0
 40
0.0
 40
0.0
 40
1.0
 40
1.0
 40
1.0
 40
2.0
 40
2.0
 40
2.0
 40
3.0
 40
3.0
 40
3.0
 40
4.0
 40
4.0
 40
4.0
 40
5.0
 40
5.0
 40
5.0
 40
6.0
 40
6.0
 40
6.0
 40
7.0
 40
7.0
 40
7.0
 40
8.0
 40
8.0
 40
8.0
 40
9.0
 40
9.0
 40
9.0
 40
10.0
 40
10.0
 40
10.0
 40
11.0
 40
11.0
 40
11.0
 40
12.0
 40
12.0
 40
12.0
 40
13.0
 40
13.0
 40
13.0
 40
14.0
 40
14.0
 40
14.0
 40
15.0
 40
15.0
 40
15.0
 40
16.0
 40
16.0
 40
16.0
 40
17.0
 40
17.0
 40
17.0
 40
18.0
 40
18.0
 40
18.0
 40
19.0
 40
19.0
 40
19.0
 40
19.0
 10
88.35102401220044
 20
-137.3618136592359
 10
88.25559486725902
 20
-137.3618136592359
 10
88.03786483259123
 20
-137.3407985767759
 10
87.91280786647667
 20
-137.1547634205724
 10
87.83908282309231
 20
-137.0424533077533
 10
87.83460419896149
 20
-136.9432345577781
 10
87.83047008437919
 20
-136.8584852088409
 10
87.83047008437919
 20
-136.8584852088409
 10
88.05061168588665
 20
-136.8584852088409
 10
88.05061168588665
 20
-136.8584852088409
 10
88.05267874317781
 20
-136.9325547617738
 10
88.06301402963355
 20
-137.1671657643193
 10
88.34654538806961
 20
-137.1671657643193
 10
88.48400469793108
 20
-137.1671657643193
 10
88.63662242792765
 20
-137.0975748355173
 10
88.63662242792765
 20
-136.8691650048452
 10
88.63662242792765
 20
-136.7527207774438
 10
88.59838186804139
 20
-136.7041449311018
 10
88.56668698957708
 20
-136.6724500526375
 10
88.49261743664421
 20
-136.5983804997046
 10
88.37617320924276
 20
-136.5856336464091
 10
88.32139619102729
 20
-136.5856336464091
 10
88.3021036563099
 20
-136.5856336464091
 10
88.2662746632633
 20
-136.5877007037003
 10
88.2387138993813
 20
-136.5918348182826
 10
88.2387138993813
 20
-136.5918348182826
 10
88.2387138993813
 20
-136.397186923366
 10
88.2387138993813
 20
-136.397186923366
 10
88.27695445926757
 20
-136.403732604788
 10
88.31898462418762
 20
-136.4057996620791
 10
88.32553030560959
 20
-136.4057996620791
 10
88.39098711982935
 20
-136.4057996620791
 10
88.58976912932826
 20
-136.3844400700706
 10
88.58976912932826
 20
-136.1477620102339
 10
88.58976912932826
 20
-135.969995083195
 10
88.45885550088876
 20
-135.914873555431
 10
88.34861244536077
 20
-135.914873555431
 10
88.0843736216421
 20
-135.914873555431
 10
88.07576088292898
 20
-136.1477620102339
 10
88.07162676834668
 20
-136.2194199963271
 10
88.07162676834668
 20
-136.2194199963271
 10
87.86836613471694
 20
-136.2194199963271
 10
87.86836613471694
 20
-136.2194199963271
 10
87.87697887343006
 20
-136.0947075397611
 10
87.90453963731207
 20
-135.7181586032232
 10
88.3613592986562
 20
-135.7181586032232
 10
88.58563501474596
 20
-135.7181586032232
 10
88.82679169871345
 20
-135.845282626629
 10
88.82679169871345
 20
-136.1412163288119
 10
88.82679169871345
 20
-136.3275959945639
 10
88.73170706332056
 20
-136.4099337766614
 10
88.63214380379682
 20
-136.4712564762989
 10
88.69346650343428
 20
-136.4988172401809
 10
88.87536754505547
 20
-136.5790879649872
 10
88.87536754505547
 20
-136.8564181515498
 10
88.87536754505547
 20
-137.1947265282013
 10
88.62800968921452
 20
-137.3618136592359
 10
88.35102401220044
 20
-137.3618136592359
 97
        0
 97
        0
 75
     2
 76
     1
 98
        0
  0
ENDBLK
  5
7F
330
7C
100
AcDbEntity
  8
0
100
AcDbBlockEnd
  0
BLOCK
  5
B2
330
B0
100
AcDbEntity
  8
0
100
AcDbBlockBegin
  2
block 5
 70
     0
 10
0.0
 20
0.0
 30
0.0
  3
block 5
  1

  0
SPLINE
  5
B4
330
B0
100
AcDbEntity
  8
_U+30EC_U+30A4_U+30E4_U+30FC 1
370
     0
100
AcDbSpline
210
0.0
220
0.0
230
1.0
 70
    11
 71
     3
 72
    32
 73
    28
 74
     0
 42
0.0000000001
 43
0.0000000001
 12
1.0
 22
0.0
 32
0.0
 13
1.0
 23
0.0
 33
0.0
 40
0.0
 40
0.0
 40
0.0
 40
0.0
 40
1.0
 40
1.0
 40
1.0
 40
2.0
 40
2.0
 40
2.0
 40
3.0
 40
3.0
 40
3.0
 40
4.0
 40
4.0
 40
4.0
 40
5.0
 40
5.0
 40
5.0
 40
6.0
 40
6.0
 40
6.0
 40
7.0
 40
7.0
 40
7.0
 40
8.0
 40
8.0
 40
8.0
 40
9.0
 40
9.0
 40
9.0
 40
9.0
 10
87.84046086128642
 20
-120.3430419621018
 30
0.0
 10
87.66717255837835
 20
-120.3430419621018
 30
0.0
 10
87.42153725028004
 20
-120.2734510332997
 30
0.0
 10
87.38364119994229
 20
-119.9413438285216
 30
0.0
 10
87.38364119994229
 20
-119.9413438285216
 30
0.0
 10
87.59723712002778
 20
-119.9413438285216
 30
0.0
 10
87.59723712002778
 20
-119.9413438285216
 30
0.0
 10
87.60791691603205
 20
-120.0005994708679
 30
0.0
 10
87.63961179449635
 20
-120.1483940671851
 30
0.0
 10
87.84252791857756
 20
-120.1483940671851
 30
0.0
 10
88.13467201572675
 20
-120.1483940671851
 30
0.0
 10
88.1725680660645
 20
-119.8183539196982
 30
0.0
 10
88.18531491935993
 20
-119.6133707383258
 30
0.0
 10
88.09436439854933
 20
-119.6936414631322
 30
0.0
 10
88.02684052703843
 20
-119.7508300481873
 30
0.0
 10
87.84493948541724
 20
-119.7508300481873
 30
0.0
 10
87.6651055010872
 20
-119.7508300481873
 30
0.0
 10
87.36262611748226
 20
-119.6450656167901
 30
0.0
 10
87.36262611748226
 20
-119.2388888590792
 30
0.0
 10
87.36262611748226
 20
-118.9195285075965
 30
0.0
 10
87.56140812698118
 20
-118.699386906089
 30
0.0
 10
87.87870142117269
 20
-118.699386906089
 30
0.0
 10
88.39270966757196
 20
-118.699386906089
 30
0.0
 10
88.40338946357625
 20
-119.2537027696658
 30
0.0
 10
88.40338946357625
 20
-119.4672986897512
 30
0.0
 10
88.40338946357625
 20
-119.6977755777145
 30
0.0
 10
88.38409692885884
 20
-120.3430419621018
 30
0.0
 10
87.84046086128642
 20
-120.3430419621018
 30
0.0
  0
SPLINE
  5
B5
330
B0
100
AcDbEntity
  8
_U+30EC_U+30A4_U+30E4_U+30FC 1
370
     0
100
AcDbSpline
210
0.0
220
0.0
230
1.0
 70
    11
 71
     3
 72
    17
 73
    13
 74
     0
 42
0.0000000001
 43
0.0000000001
 12
1.0
 22
0.0
 32
0.0
 13
1.0
 23
0.0
 33
0.0
 40
0.0
 40
0.0
 40
0.0
 40
0.0
 40
1.0
 40
1.0
 40
1.0
 40
2.0
 40
2.0
 40
2.0
 40
3.0
 40
3.0
 40
3.0
 40
4.0
 40
4.0
 40
4.0
 40
4.0
 10
87.88076847846384
 20
-118.8919677437145
 30
0.0
 10
87.76225719377125
 20
-118.8919677437145
 30
0.0
 10
87.5865573240235
 20
-118.9491563287697
 30
0.0
 10
87.5865573240235
 20
-119.2347547444969
 30
0.0
 10
87.5865573240235
 20
-119.4610975178778
 30
0.0
 10
87.72642820072464
 20
-119.5561821532707
 30
0.0
 10
87.86182045329497
 20
-119.5561821532707
 30
0.0
 10
88.12399221972248
 20
-119.5561821532707
 30
0.0
 10
88.16223277960876
 20
-119.3467203477675
 30
0.0
 10
88.16223277960876
 20
-119.230276120366
 30
0.0
 10
88.16223277960876
 20
-119.0549207601668
 30
0.0
 10
88.06680363466734
 20
-118.8919677437145
 30
0.0
 10
87.88076847846384
 20
-118.8919677437145
 30
0.0
  0
HATCH
  5
B6
330
B0
100
AcDbEntity
  8
_U+30EC_U+30A4_U+30E4_U+30FC 1
 62
   179
420
  2234388
100
AcDbHatch
 10
0.0
 20
0.0
 30
0.0
210
0.0
220
0.0
230
1.0
  2
SOLID
 70
     1
 71
     0
 91
        2
 92
        1
 93
        1
 72
     4
 94
        3
 73
     0
 74
     1
 95
       32
 96
       28
 40
0.0
 40
0.0
 40
0.0
 40
0.0
 40
1.0
 40
1.0
 40
1.0
 40
2.0
 40
2.0
 40
2.0
 40
3.0
 40
3.0
 40
3.0
 40
4.0
 40
4.0
 40
4.0
 40
5.0
 40
5.0
 40
5.0
 40
6.0
 40
6.0
 40
6.0
 40
7.0
 40
7.0
 40
7.0
 40
8.0
 40
8.0
 40
8.0
 40
9.0
 40
9.0
 40
9.0
 40
9.0
 10
87.84046086128642
 20
-120.3430419621018
 10
87.66717255837835
 20
-120.3430419621018
 10
87.42153725028004
 20
-120.2734510332997
 10
87.38364119994229
 20
-119.9413438285216
 10
87.38364119994229
 20
-119.9413438285216
 10
87.59723712002778
 20
-119.9413438285216
 10
87.59723712002778
 20
-119.9413438285216
 10
87.60791691603205
 20
-120.0005994708679
 10
87.63961179449635
 20
-120.1483940671851
 10
87.84252791857756
 20
-120.1483940671851
 10
88.13467201572675
 20
-120.1483940671851
 10
88.1725680660645
 20
-119.8183539196982
 10
88.18531491935993
 20
-119.6133707383258
 10
88.09436439854933
 20
-119.6936414631322
 10
88.02684052703843
 20
-119.7508300481873
 10
87.84493948541724
 20
-119.7508300481873
 10
87.6651055010872
 20
-119.7508300481873
 10
87.36262611748226
 20
-119.6450656167901
 10
87.36262611748226
 20
-119.2388888590792
 10
87.36262611748226
 20
-118.9195285075965
 10
87.56140812698118
 20
-118.699386906089
 10
87.87870142117269
 20
-118.699386906089
 10
88.39270966757196
 20
-118.699386906089
 10
88.40338946357625
 20
-119.2537027696658
 10
88.40338946357625
 20
-119.4672986897512
 10
88.40338946357625
 20
-119.6977755777145
 10
88.38409692885884
 20
-120.3430419621018
 10
87.84046086128642
 20
-120.3430419621018
 97
        0
 97
        0
 92
        1
 93
        1
 72
     4
 94
        3
 73
     0
 74
     1
 95
       17
 96
       13
 40
0.0
 40
0.0
 40
0.0
 40
0.0
 40
1.0
 40
1.0
 40
1.0
 40
2.0
 40
2.0
 40
2.0
 40
3.0
 40
3.0
 40
3.0
 40
4.0
 40
4.0
 40
4.0
 40
4.0
 10
87.88076847846384
 20
-118.8919677437145
 10
87.76225719377125
 20
-118.8919677437145
 10
87.5865573240235
 20
-118.9491563287697
 10
87.5865573240235
 20
-119.2347547444969
 10
87.5865573240235
 20
-119.4610975178778
 10
87.72642820072464
 20
-119.5561821532707
 10
87.86182045329497
 20
-119.5561821532707
 10
88.12399221972248
 20
-119.5561821532707
 10
88.16223277960876
 20
-119.3467203477675
 10
88.16223277960876
 20
-119.230276120366
 10
88.16223277960876
 20
-119.0549207601668
 10
88.06680363466734
 20
-118.8919677437145
 10
87.88076847846384
 20
-118.8919677437145
 97
        0
 97
        0
 75
     2
 76
     1
 98
        0
  0
ENDBLK
  5
B3
330
B0
100
AcDbEntity
  8
0
100
AcDbBlockEnd
  0
BLOCK
  5
B9
330
B7
100
AcDbEntity
  8
0
100
AcDbBlockBegin
  2
block 6
 70
     0
 10
0.0
 20
0.0
 30
0.0
  3
block 6
  1

  0
SPLINE
  5
BB
330
B7
100
AcDbEntity
  8
_U+30EC_U+30A4_U+30E4_U+30FC 1
370
     0
100
AcDbSpline
210
0.0
220
0.0
230
1.0
 70
    11
 71
     3
 72
    32
 73
    28
 74
     0
 42
0.0000000001
 43
0.0000000001
 12
1.0
 22
0.0
 32
0.0
 13
1.0
 23
0.0
 33
0.0
 40
0.0
 40
0.0
 40
0.0
 40
0.0
 40
1.0
 40
1.0
 40
1.0
 40
2.0
 40
2.0
 40
2.0
 40
3.0
 40
3.0
 40
3.0
 40
4.0
 40
4.0
 40
4.0
 40
5.0
 40
5.0
 40
5.0
 40
6.0
 40
6.0
 40
6.0
 40
7.0
 40
7.0
 40
7.0
 40
8.0
 40
8.0
 40
8.0
 40
9.0
 40
9.0
 40
9.0
 40
9.0
 10
78.84049341561975
 20
-120.3430419621018
 30
0.0
 10
78.66720511271167
 20
-120.3430419621018
 30
0.0
 10
78.42156980461336
 20
-120.2734510332997
 30
0.0
 10
78.38367375427562
 20
-119.9413438285216
 30
0.0
 10
78.38367375427562
 20
-119.9413438285216
 30
0.0
 10
78.5972696743611
 20
-119.9413438285216
 30
0.0
 10
78.5972696743611
 20
-119.9413438285216
 30
0.0
 10
78.60794947036538
 20
-120.0005994708679
 30
0.0
 10
78.63964434882968
 20
-120.1483940671851
 30
0.0
 10
78.84256047291089
 20
-120.1483940671851
 30
0.0
 10
79.13470457006008
 20
-120.1483940671851
 30
0.0
 10
79.17260062039783
 20
-119.8183539196982
 30
0.0
 10
79.18534747369326
 20
-119.6133707383258
 30
0.0
 10
79.09439695288266
 20
-119.6936414631322
 30
0.0
 10
79.02687308137176
 20
-119.7508300481873
 30
0.0
 10
78.84497203975057
 20
-119.7508300481873
 30
0.0
 10
78.66513805542053
 20
-119.7508300481873
 30
0.0
 10
78.3626586718156
 20
-119.6450656167901
 30
0.0
 10
78.3626586718156
 20
-119.2388888590792
 30
0.0
 10
78.3626586718156
 20
-118.9195285075965
 30
0.0
 10
78.56144068131451
 20
-118.699386906089
 30
0.0
 10
78.87873397550601
 20
-118.699386906089
 30
0.0
 10
79.3927422219053
 20
-118.699386906089
 30
0.0
 10
79.40342201790956
 20
-119.2537027696658
 30
0.0
 10
79.40342201790956
 20
-119.4672986897512
 30
0.0
 10
79.40342201790956
 20
-119.6977755777145
 30
0.0
 10
79.38412948319217
 20
-120.3430419621018
 30
0.0
 10
78.84049341561975
 20
-120.3430419621018
 30
0.0
  0
SPLINE
  5
BC
330
B7
100
AcDbEntity
  8
_U+30EC_U+30A4_U+30E4_U+30FC 1
370
     0
100
AcDbSpline
210
0.0
220
0.0
230
1.0
 70
    11
 71
     3
 72
    17
 73
    13
 74
     0
 42
0.0000000001
 43
0.0000000001
 12
1.0
 22
0.0
 32
0.0
 13
1.0
 23
0.0
 33
0.0
 40
0.0
 40
0.0
 40
0.0
 40
0.0
 40
1.0
 40
1.0
 40
1.0
 40
2.0
 40
2.0
 40
2.0
 40
3.0
 40
3.0
 40
3.0
 40
4.0
 40
4.0
 40
4.0
 40
4.0
 10
78.88080103279717
 20
-118.8919677437145
 30
0.0
 10
78.76228974810456
 20
-118.8919677437145
 30
0.0
 10
78.58658987835683
 20
-118.9491563287697
 30
0.0
 10
78.58658987835683
 20
-119.2347547444969
 30
0.0
 10
78.58658987835683
 20
-119.4610975178778
 30
0.0
 10
78.72646075505797
 20
-119.5561821532707
 30
0.0
 10
78.86185300762828
 20
-119.5561821532707
 30
0.0
 10
79.1240247740558
 20
-119.5561821532707
 30
0.0
 10
79.16226533394207
 20
-119.3467203477675
 30
0.0
 10
79.16226533394207
 20
-119.230276120366
 30
0.0
 10
79.16226533394207
 20
-119.0549207601668
 30
0.0
 10
79.06683618900065
 20
-118.8919677437145
 30
0.0
 10
78.88080103279717
 20
-118.8919677437145
 30
0.0
  0
HATCH
  5
BD
330
B7
100
AcDbEntity
  8
_U+30EC_U+30A4_U+30E4_U+30FC 1
 62
   179
420
  2234388
100
AcDbHatch
 10
0.0
 20
0.0
 30
0.0
210
0.0
220
0.0
230
1.0
  2
SOLID
 70
     1
 71
     0
 91
        2
 92
        1
 93
        1
 72
     4
 94
        3
 73
     0
 74
     1
 95
       32
 96
       28
 40
0.0
 40
0.0
 40
0.0
 40
0.0
 40
1.0
 40
1.0
 40
1.0
 40
2.0
 40
2.0
 40
2.0
 40
3.0
 40
3.0
 40
3.0
 40
4.0
 40
4.0
 40
4.0
 40
5.0
 40
5.0
 40
5.0
 40
6.0
 40
6.0
 40
6.0
 40
7.0
 40
7.0
 40
7.0
 40
8.0
 40
8.0
 40
8.0
 40
9.0
 40
9.0
 40
9.0
 40
9.0
 10
78.84049341561975
 20
-120.3430419621018
 10
78.66720511271167
 20
-120.3430419621018
 10
78.42156980461336
 20
-120.2734510332997
 10
78.38367375427562
 20
-119.9413438285216
 10
78.38367375427562
 20
-119.9413438285216
 10
78.5972696743611
 20
-119.9413438285216
 10
78.5972696743611
 20
-119.9413438285216
 10
78.60794947036538
 20
-120.0005994708679
 10
78.63964434882968
 20
-120.1483940671851
 10
78.84256047291089
 20
-120.1483940671851
 10
79.13470457006008
 20
-120.1483940671851
 10
79.17260062039783
 20
-119.8183539196982
 10
79.18534747369326
 20
-119.6133707383258
 10
79.09439695288266
 20
-119.6936414631322
 10
79.02687308137176
 20
-119.7508300481873
 10
78.84497203975057
 20
-119.7508300481873
 10
78.66513805542053
 20
-119.7508300481873
 10
78.3626586718156
 20
-119.6450656167901
 10
78.3626586718156
 20
-119.2388888590792
 10
78.3626586718156
 20
-118.9195285075965
 10
78.56144068131451
 20
-118.699386906089
 10
78.87873397550601
 20
-118.699386906089
 10
79.3927422219053
 20
-118.699386906089
 10
79.40342201790956
 20
-119.2537027696658
 10
79.40342201790956
 20
-119.4672986897512
 10
79.40342201790956
 20
-119.6977755777145
 10
79.38412948319217
 20
-120.3430419621018
 10
78.84049341561975
 20
-120.3430419621018
 97
        0
 97
        0
 92
        1
 93
        1
 72
     4
 94
        3
 73
     0
 74
     1
 95
       17
 96
       13
 40
0.0
 40
0.0
 40
0.0
 40
0.0
 40
1.0
 40
1.0
 40
1.0
 40
2.0
 40
2.0
 40
2.0
 40
3.0
 40
3.0
 40
3.0
 40
4.0
 40
4.0
 40
4.0
 40
4.0
 10
78.88080103279717
 20
-118.8919677437145
 10
78.76228974810456
 20
-118.8919677437145
 10
78.58658987835683
 20
-118.9491563287697
 10
78.58658987835683
 20
-119.2347547444969
 10
78.58658987835683
 20
-119.4610975178778
 10
78.72646075505797
 20
-119.5561821532707
 10
78.86185300762828
 20
-119.5561821532707
 10
79.1240247740558
 20
-119.5561821532707
 10
79.16226533394207
 20
-119.3467203477675
 10
79.16226533394207
 20
-119.230276120366
 10
79.16226533394207
 20
-119.0549207601668
 10
79.06683618900065
 20
-118.8919677437145
 10
78.88080103279717
 20
-118.8919677437145
 97
        0
 97
        0
 75
     2
 76
     1
 98
        0
  0
ENDBLK
  5
BA
330
B7
100
AcDbEntity
  8
0
100
AcDbBlockEnd
  0
BLOCK
  5
C4
330
C2
100
AcDbEntity
  8
0
100
AcDbBlockBegin
  2
block 7
 70
     0
 10
0.0
 20
0.0
 30
0.0
  3
block 7
  1

  0
SPLINE
  5
C6
330
C2
100
AcDbEntity
  8
_U+30EC_U+30A4_U+30E4_U+30FC 1
370
     0
100
AcDbSpline
210
0.0
220
0.0
230
1.0
 70
    11
 71
     3
 72
    32
 73
    28
 74
     0
 42
0.0000000001
 43
0.0000000001
 12
1.0
 22
0.0
 32
0.0
 13
1.0
 23
0.0
 33
0.0
 40
0.0
 40
0.0
 40
0.0
 40
0.0
 40
1.0
 40
1.0
 40
1.0
 40
2.0
 40
2.0
 40
2.0
 40
3.0
 40
3.0
 40
3.0
 40
4.0
 40
4.0
 40
4.0
 40
5.0
 40
5.0
 40
5.0
 40
6.0
 40
6.0
 40
6.0
 40
7.0
 40
7.0
 40
7.0
 40
8.0
 40
8.0
 40
8.0
 40
9.0
 40
9.0
 40
9.0
 40
9.0
 10
96.84060056172736
 20
-120.3430419621018
 30
0.0
 10
96.6673122588193
 20
-120.3430419621018
 30
0.0
 10
96.42167695072098
 20
-120.2734510332997
 30
0.0
 10
96.38378090038323
 20
-119.9413438285216
 30
0.0
 10
96.38378090038323
 20
-119.9413438285216
 30
0.0
 10
96.59737682046871
 20
-119.9413438285216
 30
0.0
 10
96.59737682046871
 20
-119.9413438285216
 30
0.0
 10
96.608056616473
 20
-120.0005994708679
 30
0.0
 10
96.63975149493729
 20
-120.1483940671851
 30
0.0
 10
96.8426676190185
 20
-120.1483940671851
 30
0.0
 10
97.13481171616769
 20
-120.1483940671851
 30
0.0
 10
97.17270776650544
 20
-119.8183539196982
 30
0.0
 10
97.18545461980086
 20
-119.6133707383258
 30
0.0
 10
97.09450409899027
 20
-119.6936414631322
 30
0.0
 10
97.02698022747937
 20
-119.7508300481873
 30
0.0
 10
96.84507918585818
 20
-119.7508300481873
 30
0.0
 10
96.66524520152814
 20
-119.7508300481873
 30
0.0
 10
96.3627658179232
 20
-119.6450656167901
 30
0.0
 10
96.3627658179232
 20
-119.2388888590792
 30
0.0
 10
96.3627658179232
 20
-118.9195285075965
 30
0.0
 10
96.56154782742212
 20
-118.699386906089
 30
0.0
 10
96.87884112161363
 20
-118.699386906089
 30
0.0
 10
97.3928493680129
 20
-118.699386906089
 30
0.0
 10
97.40352916401717
 20
-119.2537027696658
 30
0.0
 10
97.40352916401717
 20
-119.4672986897512
 30
0.0
 10
97.40352916401717
 20
-119.6977755777145
 30
0.0
 10
97.38423662929978
 20
-120.3430419621018
 30
0.0
 10
96.84060056172736
 20
-120.3430419621018
 30
0.0
  0
SPLINE
  5
C7
330
C2
100
AcDbEntity
  8
_U+30EC_U+30A4_U+30E4_U+30FC 1
370
     0
100
AcDbSpline
210
0.0
220
0.0
230
1.0
 70
    11
 71
     3
 72
    17
 73
    13
 74
     0
 42
0.0000000001
 43
0.0000000001
 12
1.0
 22
0.0
 32
0.0
 13
1.0
 23
0.0
 33
0.0
 40
0.0
 40
0.0
 40
0.0
 40
0.0
 40
1.0
 40
1.0
 40
1.0
 40
2.0
 40
2.0
 40
2.0
 40
3.0
 40
3.0
 40
3.0
 40
4.0
 40
4.0
 40
4.0
 40
4.0
 10
96.88090817890478
 20
-118.8919677437145
 30
0.0
 10
96.76239689421219
 20
-118.8919677437145
 30
0.0
 10
96.58669702446444
 20
-118.9491563287697
 30
0.0
 10
96.58669702446444
 20
-119.2347547444969
 30
0.0
 10
96.58669702446444
 20
-119.4610975178778
 30
0.0
 10
96.72656790116558
 20
-119.5561821532707
 30
0.0
 10
96.86196015373591
 20
-119.5561821532707
 30
0.0
 10
97.12413192016342
 20
-119.5561821532707
 30
0.0
 10
97.16237248004968
 20
-119.3467203477675
 30
0.0
 10
97.16237248004968
 20
-119.230276120366
 30
0.0
 10
97.16237248004968
 20
-119.0549207601668
 30
0.0
 10
97.06694333510826
 20
-118.8919677437145
 30
0.0
 10
96.88090817890478
 20
-118.8919677437145
 30
0.0
  0
HATCH
  5
C8
330
C2
100
AcDbEntity
  8
_U+30EC_U+30A4_U+30E4_U+30FC 1
 62
   179
420
  2234388
100
AcDbHatch
 10
0.0
 20
0.0
 30
0.0
210
0.0
220
0.0
230
1.0
  2
SOLID
 70
     1
 71
     0
 91
        2
 92
        1
 93
        1
 72
     4
 94
        3
 73
     0
 74
     1
 95
       32
 96
       28
 40
0.0
 40
0.0
 40
0.0
 40
0.0
 40
1.0
 40
1.0
 40
1.0
 40
2.0
 40
2.0
 40
2.0
 40
3.0
 40
3.0
 40
3.0
 40
4.0
 40
4.0
 40
4.0
 40
5.0
 40
5.0
 40
5.0
 40
6.0
 40
6.0
 40
6.0
 40
7.0
 40
7.0
 40
7.0
 40
8.0
 40
8.0
 40
8.0
 40
9.0
 40
9.0
 40
9.0
 40
9.0
 10
96.84060056172736
 20
-120.3430419621018
 10
96.6673122588193
 20
-120.3430419621018
 10
96.42167695072098
 20
-120.2734510332997
 10
96.38378090038323
 20
-119.9413438285216
 10
96.38378090038323
 20
-119.9413438285216
 10
96.59737682046871
 20
-119.9413438285216
 10
96.59737682046871
 20
-119.9413438285216
 10
96.608056616473
 20
-120.0005994708679
 10
96.63975149493729
 20
-120.1483940671851
 10
96.8426676190185
 20
-120.1483940671851
 10
97.13481171616769
 20
-120.1483940671851
 10
97.17270776650544
 20
-119.8183539196982
 10
97.18545461980086
 20
-119.6133707383258
 10
97.09450409899027
 20
-119.6936414631322
 10
97.02698022747937
 20
-119.7508300481873
 10
96.84507918585818
 20
-119.7508300481873
 10
96.66524520152814
 20
-119.7508300481873
 10
96.3627658179232
 20
-119.6450656167901
 10
96.3627658179232
 20
-119.2388888590792
 10
96.3627658179232
 20
-118.9195285075965
 10
96.56154782742212
 20
-118.699386906089
 10
96.87884112161363
 20
-118.699386906089
 10
97.3928493680129
 20
-118.699386906089
 10
97.40352916401717
 20
-119.2537027696658
 10
97.40352916401717
 20
-119.4672986897512
 10
97.40352916401717
 20
-119.6977755777145
 10
97.38423662929978
 20
-120.3430419621018
 10
96.84060056172736
 20
-120.3430419621018
 97
        0
 97
        0
 92
        1
 93
        1
 72
     4
 94
        3
 73
     0
 74
     1
 95
       17
 96
       13
 40
0.0
 40
0.0
 40
0.0
 40
0.0
 40
1.0
 40
1.0
 40
1.0
 40
2.0
 40
2.0
 40
2.0
 40
3.0
 40
3.0
 40
3.0
 40
4.0
 40
4.0
 40
4.0
 40
4.0
 10
96.88090817890478
 20
-118.8919677437145
 10
96.76239689421219
 20
-118.8919677437145
 10
96.58669702446444
 20
-118.9491563287697
 10
96.58669702446444
 20
-119.2347547444969
 10
96.58669702446444
 20
-119.4610975178778
 10
96.72656790116558
 20
-119.5561821532707
 10
96.86196015373591
 20
-119.5561821532707
 10
97.12413192016342
 20
-119.5561821532707
 10
97.16237248004968
 20
-119.3467203477675
 10
97.16237248004968
 20
-119.230276120366
 10
97.16237248004968
 20
-119.0549207601668
 10
97.06694333510826
 20
-118.8919677437145
 10
96.88090817890478
 20
-118.8919677437145
 97
        0
 97
        0
 75
     2
 76
     1
 98
        0
  0
ENDBLK
  5
C5
330
C2
100
AcDbEntity
  8
0
100
AcDbBlockEnd
  0
BLOCK
  5
E5
330
E3
100
AcDbEntity
  8
0
100
AcDbBlockBegin
  2
block 8
 70
     0
 10
0.0
 20
0.0
 30
0.0
  3
block 8
  1

  0
SPLINE
  5
E7
330
E3
100
AcDbEntity
  8
_U+30EC_U+30A4_U+30E4_U+30FC 1
370
     0
100
AcDbSpline
210
0.0
220
0.0
230
1.0
 70
    11
 71
     3
 72
    26
 73
    22
 74
     0
 42
0.0000000001
 43
0.0000000001
 12
1.0
 22
0.0
 32
0.0
 13
1.0
 23
0.0
 33
0.0
 40
0.0
 40
0.0
 40
0.0
 40
0.0
 40
1.0
 40
1.0
 40
1.0
 40
2.0
 40
2.0
 40
2.0
 40
3.0
 40
3.0
 40
3.0
 40
4.0
 40
4.0
 40
4.0
 40
5.0
 40
5.0
 40
5.0
 40
6.0
 40
6.0
 40
6.0
 40
7.0
 40
7.0
 40
7.0
 40
7.0
 10
84.89869382643158
 20
-127.4184068149336
 30
0.0
 10
84.89869382643158
 20
-127.4184068149336
 30
0.0
 10
84.89869382643158
 20
-126.3140814571368
 30
0.0
 10
84.89869382643158
 20
-126.3140814571368
 30
0.0
 10
84.89869382643158
 20
-126.3140814571368
 30
0.0
 10
84.56865367894464
 20
-126.3140814571368
 30
0.0
 10
84.56865367894464
 20
-126.3140814571368
 30
0.0
 10
84.56865367894464
 20
-126.3140814571368
 30
0.0
 10
84.56865367894464
 20
-126.165942351271
 30
0.0
 10
84.56865367894464
 20
-126.165942351271
 30
0.0
 10
84.90076088372273
 20
-126.1513006954587
 30
0.0
 10
84.9472696727736
 20
-125.9883476790064
 30
0.0
 10
84.97689749394675
 20
-125.8741427636704
 30
0.0
 10
84.97689749394675
 20
-125.8741427636704
 30
0.0
 10
85.12296954252135
 20
-125.8741427636704
 30
0.0
 10
85.12296954252135
 20
-125.8741427636704
 30
0.0
 10
85.12296954252135
 20
-125.8741427636704
 30
0.0
 10
85.12296954252135
 20
-127.4184068149336
 30
0.0
 10
85.12296954252135
 20
-127.4184068149336
 30
0.0
 10
85.12296954252135
 20
-127.4184068149336
 30
0.0
 10
84.89869382643158
 20
-127.4184068149336
 30
0.0
 10
84.89869382643158
 20
-127.4184068149336
 30
0.0
  0
HATCH
  5
E8
330
E3
100
AcDbEntity
  8
_U+30EC_U+30A4_U+30E4_U+30FC 1
 62
   179
420
  2234388
100
AcDbHatch
 10
0.0
 20
0.0
 30
0.0
210
0.0
220
0.0
230
1.0
  2
SOLID
 70
     1
 71
     0
 91
        1
 92
        1
 93
        1
 72
     4
 94
        3
 73
     0
 74
     1
 95
       26
 96
       22
 40
0.0
 40
0.0
 40
0.0
 40
0.0
 40
1.0
 40
1.0
 40
1.0
 40
2.0
 40
2.0
 40
2.0
 40
3.0
 40
3.0
 40
3.0
 40
4.0
 40
4.0
 40
4.0
 40
5.0
 40
5.0
 40
5.0
 40
6.0
 40
6.0
 40
6.0
 40
7.0
 40
7.0
 40
7.0
 40
7.0
 10
84.89869382643158
 20
-127.4184068149336
 10
84.89869382643158
 20
-127.4184068149336
 10
84.89869382643158
 20
-126.3140814571368
 10
84.89869382643158
 20
-126.3140814571368
 10
84.89869382643158
 20
-126.3140814571368
 10
84.56865367894464
 20
-126.3140814571368
 10
84.56865367894464
 20
-126.3140814571368
 10
84.56865367894464
 20
-126.3140814571368
 10
84.56865367894464
 20
-126.165942351271
 10
84.56865367894464
 20
-126.165942351271
 10
84.90076088372273
 20
-126.1513006954587
 10
84.9472696727736
 20
-125.9883476790064
 10
84.97689749394675
 20
-125.8741427636704
 10
84.97689749394675
 20
-125.8741427636704
 10
85.12296954252135
 20
-125.8741427636704
 10
85.12296954252135
 20
-125.8741427636704
 10
85.12296954252135
 20
-125.8741427636704
 10
85.12296954252135
 20
-127.4184068149336
 10
85.12296954252135
 20
-127.4184068149336
 10
85.12296954252135
 20
-127.4184068149336
 10
84.89869382643158
 20
-127.4184068149336
 10
84.89869382643158
 20
-127.4184068149336
 97
        0
 97
        0
 75
     2
 76
     1
 98
        0
  0
ENDBLK
  5
E6
330
E3
100
AcDbEntity
  8
0
100
AcDbBlockEnd
  0
ENDSEC
  0
SECTION
  2
ENTITIES
  0
SPLINE
  5
41
330
1F
100
AcDbEntity
  8
_U+30EC_U+30A4_U+30E4_U+30FC 1
 62
   179
420
  2234388
370
     9
100
AcDbSpline
210
0.0
220
0.0
230
1.0
 70
    11
 71
     3
 72
    17
 73
    13
 74
     0
 42
0.0000000001
 43
0.0000000001
 12
1.0
 22
0.0
 32
0.0
 13
1.0
 23
0.0
 33
0.0
 40
0.0
 40
0.0
 40
0.0
 40
0.0
 40
1.0
 40
1.0
 40
1.0
 40
2.0
 40
2.0
 40
2.0
 40
3.0
 40
3.0
 40
3.0
 40
4.0
 40
4.0
 40
4.0
 40
4.0
 10
114.2845101399148
 20
-132.9076519112176
 30
0.0
 10
114.2845101399148
 20
-132.8525127445646
 30
0.0
 10
114.23970736328
 20
-132.8080980223538
 30
0.0
 10
114.184603475797
 20
-132.8080980223538
 30
0.0
 10
114.129464310537
 20
-132.8080980223538
 30
0.0
 10
114.0846615339022
 20
-132.8525127445646
 30
0.0
 10
114.0846615339022
 20
-132.9076519112176
 30
0.0
 10
114.0846615339022
 20
-132.9627558000926
 30
0.0
 10
114.129464310537
 20
-133.0075585778593
 30
0.0
 10
114.184603475797
 20
-133.0075585778593
 30
0.0
 10
114.23970736328
 20
-133.0075585778593
 30
0.0
 10
114.2845101399148
 20
-132.9627558000926
 30
0.0
 10
114.2845101399148
 20
-132.9076519112176
 30
0.0
  0
SPLINE
  5
42
330
1F
100
AcDbEntity
  8
_U+30EC_U+30A4_U+30E4_U+30FC 1
 62
   179
420
  2234388
370
     9
100
AcDbSpline
210
0.0
220
0.0
230
1.0
 70
    11
 71
     3
 72
    17
 73
    13
 74
     0
 42
0.0000000001
 43
0.0000000001
 12
1.0
 22
0.0
 32
0.0
 13
1.0
 23
0.0
 33
0.0
 40
0.0
 40
0.0
 40
0.0
 40
0.0
 40
1.0
 40
1.0
 40
1.0
 40
2.0
 40
2.0
 40
2.0
 40
3.0
 40
3.0
 40
3.0
 40
4.0
 40
4.0
 40
4.0
 40
4.0
 10
109.6473874804399
 20
-137.9082063544116
 30
0.0
 10
109.6473874804399
 20
-137.8530671877591
 30
0.0
 10
109.602619981582
 20
-137.8082996877699
 30
0.0
 10
109.547480816322
 20
-137.8082996877699
 30
0.0
 10
109.492376928839
 20
-137.8082996877699
 30
0.0
 10
109.4475741522042
 20
-137.8530671877591
 30
0.0
 10
109.4475741522042
 20
-137.9082063544116
 30
0.0
 10
109.4475741522042
 20
-137.9633102432871
 30
0.0
 10
109.492376928839
 20
-138.0081130210538
 30
0.0
 10
109.547480816322
 20
-138.0081130210538
 30
0.0
 10
109.602619981582
 20
-138.0081130210538
 30
0.0
 10
109.6473874804399
 20
-137.9633102432871
 30
0.0
 10
109.6473874804399
 20
-137.9082063544116
 30
0.0
  0
SPLINE
  5
43
330
1F
100
AcDbEntity
  8
_U+30EC_U+30A4_U+30E4_U+30FC 1
 62
   179
420
  2234388
370
     9
100
AcDbSpline
210
0.0
220
0.0
230
1.0
 70
    11
 71
     3
 72
    17
 73
    13
 74
     0
 42
0.0000000001
 43
0.0000000001
 12
1.0
 22
0.0
 32
0.0
 13
1.0
 23
0.0
 33
0.0
 40
0.0
 40
0.0
 40
0.0
 40
0.0
 40
1.0
 40
1.0
 40
1.0
 40
2.0
 40
2.0
 40
2.0
 40
3.0
 40
3.0
 40
3.0
 40
4.0
 40
4.0
 40
4.0
 40
4.0
 10
66.64709357746877
 20
-137.9082063544116
 30
0.0
 10
66.64709357746877
 20
-137.8530671877591
 30
0.0
 10
66.602290800834
 20
-137.8082996877699
 30
0.0
 10
66.54718691335093
 20
-137.8082996877699
 30
0.0
 10
66.49204774809098
 20
-137.8082996877699
 30
0.0
 10
66.4472802492331
 20
-137.8530671877591
 30
0.0
 10
66.4472802492331
 20
-137.9082063544116
 30
0.0
 10
66.4472802492331
 20
-137.9633102432871
 30
0.0
 10
66.49204774809098
 20
-138.0081130210538
 30
0.0
 10
66.54718691335093
 20
-138.0081130210538
 30
0.0
 10
66.602290800834
 20
-138.0081130210538
 30
0.0
 10
66.64709357746877
 20
-137.9633102432871
 30
0.0
 10
66.64709357746877
 20
-137.9082063544116
 30
0.0
  0
SPLINE
  5
44
330
1F
100
AcDbEntity
  8
_U+30EC_U+30A4_U+30E4_U+30FC 1
 62
   179
420
  2234388
370
     9
100
AcDbSpline
210
0.0
220
0.0
230
1.0
 70
    11
 71
     3
 72
    17
 73
    13
 74
     0
 42
0.0000000001
 43
0.0000000001
 12
1.0
 22
0.0
 32
0.0
 13
1.0
 23
0.0
 33
0.0
 40
0.0
 40
0.0
 40
0.0
 40
0.0
 40
1.0
 40
1.0
 40
1.0
 40
2.0
 40
2.0
 40
2.0
 40
3.0
 40
3.0
 40
3.0
 40
4.0
 40
4.0
 40
4.0
 40
4.0
 10
92.64723846970537
 20
-120.8890774697778
 30
0.0
 10
92.64723846970537
 20
-120.8339735809026
 30
0.0
 10
92.6024356930706
 20
-120.7891708031362
 30
0.0
 10
92.54733180558753
 20
-120.7891708031362
 30
0.0
 10
92.49219264032757
 20
-120.7891708031362
 30
0.0
 10
92.4474251414697
 20
-120.8339735809026
 30
0.0
 10
92.4474251414697
 20
-120.8890774697778
 30
0.0
 10
92.4474251414697
 20
-120.9448869142082
 30
0.0
 10
92.49219264032757
 20
-120.989689691975
 30
0.0
 10
92.54733180558753
 20
-120.989689691975
 30
0.0
 10
92.6024356930706
 20
-120.989689691975
 30
0.0
 10
92.64723846970537
 20
-120.9448869142082
 30
0.0
 10
92.64723846970537
 20
-120.8890774697778
 30
0.0
  0
SPLINE
  5
45
330
1F
100
AcDbEntity
  8
_U+30EC_U+30A4_U+30E4_U+30FC 1
 62
   179
420
  2234388
370
     9
100
AcDbSpline
210
0.0
220
0.0
230
1.0
 70
    11
 71
     3
 72
    17
 73
    13
 74
     0
 42
0.0000000001
 43
0.0000000001
 12
1.0
 22
0.0
 32
0.0
 13
1.0
 23
0.0
 33
0.0
 40
0.0
 40
0.0
 40
0.0
 40
0.0
 40
1.0
 40
1.0
 40
1.0
 40
2.0
 40
2.0
 40
2.0
 40
3.0
 40
3.0
 40
3.0
 40
4.0
 40
4.0
 40
4.0
 40
4.0
 10
101.6471990734306
 20
-120.8890774697778
 30
0.0
 10
101.6471990734306
 20
-120.8339735809026
 30
0.0
 10
101.6023962967958
 20
-120.7891708031362
 30
0.0
 10
101.5472924093127
 20
-120.7891708031362
 30
0.0
 10
101.4921532440528
 20
-120.7891708031362
 30
0.0
 10
101.4473857451949
 20
-120.8339735809026
 30
0.0
 10
101.4473857451949
 20
-120.8890774697778
 30
0.0
 10
101.4473857451949
 20
-120.9448869142082
 30
0.0
 10
101.4921532440528
 20
-120.989689691975
 30
0.0
 10
101.5472924093127
 20
-120.989689691975
 30
0.0
 10
101.6023962967958
 20
-120.989689691975
 30
0.0
 10
101.6471990734306
 20
-120.9448869142082
 30
0.0
 10
101.6471990734306
 20
-120.8890774697778
 30
0.0
  0
SPLINE
  5
46
330
1F
100
AcDbEntity
  8
_U+30EC_U+30A4_U+30E4_U+30FC 1
 62
   179
420
  2234388
370
     9
100
AcDbSpline
210
0.0
220
0.0
230
1.0
 70
    11
 71
     3
 72
    17
 73
    13
 74
     0
 42
0.0000000001
 43
0.0000000001
 12
1.0
 22
0.0
 32
0.0
 13
1.0
 23
0.0
 33
0.0
 40
0.0
 40
0.0
 40
0.0
 40
0.0
 40
1.0
 40
1.0
 40
1.0
 40
2.0
 40
2.0
 40
2.0
 40
3.0
 40
3.0
 40
3.0
 40
4.0
 40
4.0
 40
4.0
 40
4.0
 10
83.64692508821138
 20
-120.8890774697778
 30
0.0
 10
83.64692508821138
 20
-120.8339735809026
 30
0.0
 10
83.60212231157661
 20
-120.7891708031362
 30
0.0
 10
83.54701842409354
 20
-120.7891708031362
 30
0.0
 10
83.49187925883359
 20
-120.7891708031362
 30
0.0
 10
83.447113868027
 20
-120.8339735809026
 30
0.0
 10
83.447113868027
 20
-120.8890774697778
 30
0.0
 10
83.447113868027
 20
-120.9448869142082
 30
0.0
 10
83.49187925883359
 20
-120.989689691975
 30
0.0
 10
83.54701842409354
 20
-120.989689691975
 30
0.0
 10
83.60212231157661
 20
-120.989689691975
 30
0.0
 10
83.64692508821138
 20
-120.9448869142082
 30
0.0
 10
83.64692508821138
 20
-120.8890774697778
 30
0.0
  0
POLYLINE
  5
47
330
1F
100
AcDbEntity
  8
_U+30EC_U+30A4_U+30E4_U+30FC 1
 62
   179
420
  2234388
370
     9
100
AcDb2dPolyline
 66
     1
 10
0.0
 20
0.0
 30
0.0
  0
VERTEX
  5
48
330
47
100
AcDbEntity
  8
_U+30EC_U+30A4_U+30E4_U+30FC 1
 62
   179
420
  2234388
370
     9
100
AcDbVertex
100
AcDb2dVertex
 10
114.184603475797
 20
-132.9076519112176
 30
0.0
  0
VERTEX
  5
49
330
47
100
AcDbEntity
  8
_U+30EC_U+30A4_U+30E4_U+30FC 1
 62
   179
420
  2234388
370
     9
100
AcDbVertex
100
AcDb2dVertex
 10
114.184603475797
 20
-123.403677469149
 30
0.0
  0
SEQEND
  5
4A
330
47
100
AcDbEntity
  8
_U+30EC_U+30A4_U+30E4_U+30FC 1
 62
   179
420
  2234388
370
     9
  0
POLYLINE
  5
4B
330
1F
100
AcDbEntity
  8
_U+30EC_U+30A4_U+30E4_U+30FC 1
 62
   179
420
  2234388
370
     9
100
AcDb2dPolyline
 66
     1
 10
0.0
 20
0.0
 30
0.0
  0
VERTEX
  5
4C
330
4B
100
AcDbEntity
  8
_U+30EC_U+30A4_U+30E4_U+30FC 1
 62
   179
420
  2234388
370
     9
100
AcDbVertex
100
AcDb2dVertex
 10
112.7245621241568
 20
-132.9076519112176
 30
0.0
  0
VERTEX
  5
4D
330
4B
100
AcDbEntity
  8
_U+30EC_U+30A4_U+30E4_U+30FC 1
 62
   179
420
  2234388
370
     9
100
AcDbVertex
100
AcDb2dVertex
 10
115.1850459502735
 20
-132.9076519112176
 30
0.0
  0
SEQEND
  5
4E
330
4B
100
AcDbEntity
  8
_U+30EC_U+30A4_U+30E4_U+30FC 1
 62
   179
420
  2234388
370
     9
  0
SPLINE
  5
4F
330
1F
100
AcDbEntity
  8
_U+30EC_U+30A4_U+30E4_U+30FC 1
 62
   179
420
  2234388
370
     9
100
AcDbSpline
210
0.0
220
0.0
230
1.0
 70
    11
 71
     3
 72
    17
 73
    13
 74
     0
 42
0.0000000001
 43
0.0000000001
 12
1.0
 22
0.0
 32
0.0
 13
1.0
 23
0.0
 33
0.0
 40
0.0
 40
0.0
 40
0.0
 40
0.0
 40
1.0
 40
1.0
 40
1.0
 40
2.0
 40
2.0
 40
2.0
 40
3.0
 40
3.0
 40
3.0
 40
4.0
 40
4.0
 40
4.0
 40
4.0
 10
114.2845101399148
 20
-126.4077919128424
 30
0.0
 10
114.2845101399148
 20
-126.3526527461896
 30
0.0
 10
114.23970736328
 20
-126.3078852462007
 30
0.0
 10
114.184603475797
 20
-126.3078852462007
 30
0.0
 10
114.129464310537
 20
-126.3078852462007
 30
0.0
 10
114.0846615339022
 20
-126.3526527461896
 30
0.0
 10
114.0846615339022
 20
-126.4077919128424
 30
0.0
 10
114.0846615339022
 20
-126.4628958017176
 30
0.0
 10
114.129464310537
 20
-126.5076985794843
 30
0.0
 10
114.184603475797
 20
-126.5076985794843
 30
0.0
 10
114.23970736328
 20
-126.5076985794843
 30
0.0
 10
114.2845101399148
 20
-126.4628958017176
 30
0.0
 10
114.2845101399148
 20
-126.4077919128424
 30
0.0
  0
POLYLINE
  5
50
330
1F
100
AcDbEntity
  8
_U+30EC_U+30A4_U+30E4_U+30FC 1
 62
   179
420
  2234388
370
     9
100
AcDb2dPolyline
 66
     1
 10
0.0
 20
0.0
 30
0.0
  0
VERTEX
  5
51
330
50
100
AcDbEntity
  8
_U+30EC_U+30A4_U+30E4_U+30FC 1
 62
   179
420
  2234388
370
     9
100
AcDbVertex
100
AcDb2dVertex
 10
108.7251558373013
 20
-126.4077919128424
 30
0.0
  0
VERTEX
  5
52
330
50
100
AcDbEntity
  8
_U+30EC_U+30A4_U+30E4_U+30FC 1
 62
   179
420
  2234388
370
     9
100
AcDbVertex
100
AcDb2dVertex
 10
115.1850459502735
 20
-126.4077919128424
 30
0.0
  0
SEQEND
  5
53
330
50
100
AcDbEntity
  8
_U+30EC_U+30A4_U+30E4_U+30FC 1
 62
   179
420
  2234388
370
     9
  0
SPLINE
  5
54
330
1F
100
AcDbEntity
  8
_U+30EC_U+30A4_U+30E4_U+30FC 1
 62
   179
420
  2234388
370
     9
100
AcDbSpline
210
0.0
220
0.0
230
1.0
 70
    11
 71
     3
 72
    17
 73
    13
 74
     0
 42
0.0000000001
 43
0.0000000001
 12
1.0
 22
0.0
 32
0.0
 13
1.0
 23
0.0
 33
0.0
 40
0.0
 40
0.0
 40
0.0
 40
0.0
 40
1.0
 40
1.0
 40
1.0
 40
2.0
 40
2.0
 40
2.0
 40
3.0
 40
3.0
 40
3.0
 40
4.0
 40
4.0
 40
4.0
 40
4.0
 10
114.2845101399148
 20
-123.407804969148
 30
0.0
 10
114.2845101399148
 20
-123.3526658024953
 30
0.0
 10
114.23970736328
 20
-123.3078983025064
 30
0.0
 10
114.184603475797
 20
-123.3078983025064
 30
0.0
 10
114.129464310537
 20
-123.3078983025064
 30
0.0
 10
114.0846615339022
 20
-123.3526658024953
 30
0.0
 10
114.0846615339022
 20
-123.407804969148
 30
0.0
 10
114.0846615339022
 20
-123.4629088580233
 30
0.0
 10
114.129464310537
 20
-123.5077116357897
 30
0.0
 10
114.184603475797
 20
-123.5077116357897
 30
0.0
 10
114.23970736328
 20
-123.5077116357897
 30
0.0
 10
114.2845101399148
 20
-123.4629088580233
 30
0.0
 10
114.2845101399148
 20
-123.407804969148
 30
0.0
  0
POLYLINE
  5
55
330
1F
100
AcDbEntity
  8
_U+30EC_U+30A4_U+30E4_U+30FC 1
 62
   179
420
  2234388
370
     9
100
AcDb2dPolyline
 66
     1
 10
0.0
 20
0.0
 30
0.0
  0
VERTEX
  5
56
330
55
100
AcDbEntity
  8
_U+30EC_U+30A4_U+30E4_U+30FC 1
 62
   179
420
  2234388
370
     9
100
AcDbVertex
100
AcDb2dVertex
 10
108.7251558373013
 20
-123.407804969148
 30
0.0
  0
VERTEX
  5
57
330
55
100
AcDbEntity
  8
_U+30EC_U+30A4_U+30E4_U+30FC 1
 62
   179
420
  2234388
370
     9
100
AcDbVertex
100
AcDb2dVertex
 10
115.1850459502735
 20
-123.407804969148
 30
0.0
  0
SEQEND
  5
58
330
55
100
AcDbEntity
  8
_U+30EC_U+30A4_U+30E4_U+30FC 1
 62
   179
420
  2234388
370
     9
  0
INSERT
  5
5A
330
1F
100
AcDbEntity
  8
_U+30EC_U+30A4_U+30E4_U+30FC 1
100
AcDbBlockReference
  2
block 2
 10
0.0
 20
0.0
 30
0.0
  0
INSERT
  5
6B
330
1F
100
AcDbEntity
  8
_U+30EC_U+30A4_U+30E4_U+30FC 1
100
AcDbBlockReference
  2
block 3
 10
0.0
 20
0.0
 30
0.0
  0
POLYLINE
  5
70
330
1F
100
AcDbEntity
  8
_U+30EC_U+30A4_U+30E4_U+30FC 1
 62
   179
420
  2234388
370
     9
100
AcDb2dPolyline
 66
     1
 10
0.0
 20
0.0
 30
0.0
  0
VERTEX
  5
71
330
70
100
AcDbEntity
  8
_U+30EC_U+30A4_U+30E4_U+30FC 1
 62
   179
420
  2234388
370
     9
100
AcDbVertex
100
AcDb2dVertex
 10
66.54718691335093
 20
-137.9082063544116
 30
0.0
  0
VERTEX
  5
72
330
70
100
AcDbEntity
  8
_U+30EC_U+30A4_U+30E4_U+30FC 1
 62
   179
420
  2234388
370
     9
100
AcDbVertex
100
AcDb2dVertex
 10
109.547480816322
 20
-137.9082063544116
 30
0.0
  0
SEQEND
  5
73
330
70
100
AcDbEntity
  8
_U+30EC_U+30A4_U+30E4_U+30FC 1
 62
   179
420
  2234388
370
     9
  0
POLYLINE
  5
74
330
1F
100
AcDbEntity
  8
_U+30EC_U+30A4_U+30E4_U+30FC 1
 62
   179
420
  2234388
370
     9
100
AcDb2dPolyline
 66
     1
 10
0.0
 20
0.0
 30
0.0
  0
VERTEX
  5
75
330
74
100
AcDbEntity
  8
_U+30EC_U+30A4_U+30E4_U+30FC 1
 62
   179
420
  2234388
370
     9
100
AcDbVertex
100
AcDb2dVertex
 10
66.54718691335093
 20
-136.4481649658878
 30
0.0
  0
VERTEX
  5
76
330
74
100
AcDbEntity
  8
_U+30EC_U+30A4_U+30E4_U+30FC 1
 62
   179
420
  2234388
370
     9
100
AcDbVertex
100
AcDb2dVertex
 10
66.54718691335093
 20
-138.9079785763841
 30
0.0
  0
SEQEND
  5
77
330
74
100
AcDbEntity
  8
_U+30EC_U+30A4_U+30E4_U+30FC 1
 62
   179
420
  2234388
370
     9
  0
POLYLINE
  5
78
330
1F
100
AcDbEntity
  8
_U+30EC_U+30A4_U+30E4_U+30FC 1
 62
   179
420
  2234388
370
     9
100
AcDb2dPolyline
 66
     1
 10
0.0
 20
0.0
 30
0.0
  0
VERTEX
  5
79
330
78
100
AcDbEntity
  8
_U+30EC_U+30A4_U+30E4_U+30FC 1
 62
   179
420
  2234388
370
     9
100
AcDbVertex
100
AcDb2dVertex
 10
109.547480816322
 20
-136.4481649658878
 30
0.0
  0
VERTEX
  5
7A
330
78
100
AcDbEntity
  8
_U+30EC_U+30A4_U+30E4_U+30FC 1
 62
   179
420
  2234388
370
     9
100
AcDbVertex
100
AcDb2dVertex
 10
109.547480816322
 20
-138.9079785763841
 30
0.0
  0
SEQEND
  5
7B
330
78
100
AcDbEntity
  8
_U+30EC_U+30A4_U+30E4_U+30FC 1
 62
   179
420
  2234388
370
     9
  0
INSERT
  5
7D
330
1F
100
AcDbEntity
  8
_U+30EC_U+30A4_U+30E4_U+30FC 1
100
AcDbBlockReference
  2
block 4
 10
0.0
 20
0.0
 30
0.0
  0
POLYLINE
  5
97
330
1F
100
AcDbEntity
  8
_U+30EC_U+30A4_U+30E4_U+30FC 1
 62
   179
420
  2234388
370
     9
100
AcDb2dPolyline
 66
     1
 10
0.0
 20
0.0
 30
0.0
  0
VERTEX
  5
98
330
97
100
AcDbEntity
  8
_U+30EC_U+30A4_U+30E4_U+30FC 1
 62
   179
420
  2234388
370
     9
100
AcDbVertex
100
AcDb2dVertex
 10
92.54733180558753
 20
-120.8890774697778
 30
0.0
  0
VERTEX
  5
99
330
97
100
AcDbEntity
  8
_U+30EC_U+30A4_U+30E4_U+30FC 1
 62
   179
420
  2234388
370
     9
100
AcDbVertex
100
AcDb2dVertex
 10
83.54701842409354
 20
-120.8890774697778
 30
0.0
  0
SEQEND
  5
9A
330
97
100
AcDbEntity
  8
_U+30EC_U+30A4_U+30E4_U+30FC 1
 62
   179
420
  2234388
370
     9
  0
POLYLINE
  5
9B
330
1F
100
AcDbEntity
  8
_U+30EC_U+30A4_U+30E4_U+30FC 1
 62
   179
420
  2234388
370
     9
100
AcDb2dPolyline
 66
     1
 10
0.0
 20
0.0
 30
0.0
  0
VERTEX
  5
9C
330
9B
100
AcDbEntity
  8
_U+30EC_U+30A4_U+30E4_U+30FC 1
 62
   179
420
  2234388
370
     9
100
AcDbVertex
100
AcDb2dVertex
 10
83.54733592408544
 20
-120.8890774697778
 30
0.0
  0
VERTEX
  5
9D
330
9B
100
AcDbEntity
  8
_U+30EC_U+30A4_U+30E4_U+30FC 1
 62
   179
420
  2234388
370
     9
100
AcDbVertex
100
AcDb2dVertex
 10
74.54705782036834
 20
-120.8890774697778
 30
0.0
  0
SEQEND
  5
9E
330
9B
100
AcDbEntity
  8
_U+30EC_U+30A4_U+30E4_U+30FC 1
 62
   179
420
  2234388
370
     9
  0
POLYLINE
  5
9F
330
1F
100
AcDbEntity
  8
_U+30EC_U+30A4_U+30E4_U+30FC 1
 62
   179
420
  2234388
370
     9
100
AcDb2dPolyline
 66
     1
 10
0.0
 20
0.0
 30
0.0
  0
VERTEX
  5
A0
330
9F
100
AcDbEntity
  8
_U+30EC_U+30A4_U+30E4_U+30FC 1
 62
   179
420
  2234388
370
     9
100
AcDbVertex
100
AcDb2dVertex
 10
92.54733180558753
 20
-122.3494716360793
 30
0.0
  0
VERTEX
  5
A1
330
9F
100
AcDbEntity
  8
_U+30EC_U+30A4_U+30E4_U+30FC 1
 62
   179
420
  2234388
370
     9
100
AcDbVertex
100
AcDb2dVertex
 10
92.54733180558753
 20
-119.8893405255831
 30
0.0
  0
SEQEND
  5
A2
330
9F
100
AcDbEntity
  8
_U+30EC_U+30A4_U+30E4_U+30FC 1
 62
   179
420
  2234388
370
     9
  0
POLYLINE
  5
A3
330
1F
100
AcDbEntity
  8
_U+30EC_U+30A4_U+30E4_U+30FC 1
 62
   179
420
  2234388
370
     9
100
AcDb2dPolyline
 66
     1
 10
0.0
 20
0.0
 30
0.0
  0
VERTEX
  5
A4
330
A3
100
AcDbEntity
  8
_U+30EC_U+30A4_U+30E4_U+30FC 1
 62
   179
420
  2234388
370
     9
100
AcDbVertex
100
AcDb2dVertex
 10
101.5472924093127
 20
-122.3494716360793
 30
0.0
  0
VERTEX
  5
A5
330
A3
100
AcDbEntity
  8
_U+30EC_U+30A4_U+30E4_U+30FC 1
 62
   179
420
  2234388
370
     9
100
AcDbVertex
100
AcDb2dVertex
 10
101.5472924093127
 20
-119.8893405255831
 30
0.0
  0
SEQEND
  5
A6
330
A3
100
AcDbEntity
  8
_U+30EC_U+30A4_U+30E4_U+30FC 1
 62
   179
420
  2234388
370
     9
  0
POLYLINE
  5
A7
330
1F
100
AcDbEntity
  8
_U+30EC_U+30A4_U+30E4_U+30FC 1
 62
   179
420
  2234388
370
     9
100
AcDb2dPolyline
 66
     1
 10
0.0
 20
0.0
 30
0.0
  0
VERTEX
  5
A8
330
A7
100
AcDbEntity
  8
_U+30EC_U+30A4_U+30E4_U+30FC 1
 62
   179
420
  2234388
370
     9
100
AcDbVertex
100
AcDb2dVertex
 10
83.54701842409354
 20
-122.3494716360793
 30
0.0
  0
VERTEX
  5
A9
330
A7
100
AcDbEntity
  8
_U+30EC_U+30A4_U+30E4_U+30FC 1
 62
   179
420
  2234388
370
     9
100
AcDbVertex
100
AcDb2dVertex
 10
83.54701842409354
 20
-119.8893405255831
 30
0.0
  0
SEQEND
  5
AA
330
A7
100
AcDbEntity
  8
_U+30EC_U+30A4_U+30E4_U+30FC 1
 62
   179
420
  2234388
370
     9
  0
SPLINE
  5
AB
330
1F
100
AcDbEntity
  8
_U+30EC_U+30A4_U+30E4_U+30FC 1
 62
   179
420
  2234388
370
     9
100
AcDbSpline
210
0.0
220
0.0
230
1.0
 70
    11
 71
     3
 72
    17
 73
    13
 74
     0
 42
0.0000000001
 43
0.0000000001
 12
1.0
 22
0.0
 32
0.0
 13
1.0
 23
0.0
 33
0.0
 40
0.0
 40
0.0
 40
0.0
 40
0.0
 40
1.0
 40
1.0
 40
1.0
 40
2.0
 40
2.0
 40
2.0
 40
3.0
 40
3.0
 40
3.0
 40
4.0
 40
4.0
 40
4.0
 40
4.0
 10
74.64696448448616
 20
-120.8890774697778
 30
0.0
 10
74.64696448448616
 20
-120.8339735809026
 30
0.0
 10
74.60216170785141
 20
-120.7891708031362
 30
0.0
 10
74.54705782036834
 20
-120.7891708031362
 30
0.0
 10
74.49191865510838
 20
-120.7891708031362
 30
0.0
 10
74.4471511562505
 20
-120.8339735809026
 30
0.0
 10
74.4471511562505
 20
-120.8890774697778
 30
0.0
 10
74.4471511562505
 20
-120.9448869142082
 30
0.0
 10
74.49191865510838
 20
-120.989689691975
 30
0.0
 10
74.54705782036834
 20
-120.989689691975
 30
0.0
 10
74.60216170785141
 20
-120.989689691975
 30
0.0
 10
74.64696448448616
 20
-120.9448869142082
 30
0.0
 10
74.64696448448616
 20
-120.8890774697778
 30
0.0
  0
POLYLINE
  5
AC
330
1F
100
AcDbEntity
  8
_U+30EC_U+30A4_U+30E4_U+30FC 1
 62
   179
420
  2234388
370
     9
100
AcDb2dPolyline
 66
     1
 10
0.0
 20
0.0
 30
0.0
  0
VERTEX
  5
AD
330
AC
100
AcDbEntity
  8
_U+30EC_U+30A4_U+30E4_U+30FC 1
 62
   179
420
  2234388
370
     9
100
AcDbVertex
100
AcDb2dVertex
 10
74.54705782036834
 20
-122.3494716360793
 30
0.0
  0
VERTEX
  5
AE
330
AC
100
AcDbEntity
  8
_U+30EC_U+30A4_U+30E4_U+30FC 1
 62
   179
420
  2234388
370
     9
100
AcDbVertex
100
AcDb2dVertex
 10
74.54705782036834
 20
-119.8893405255831
 30
0.0
  0
SEQEND
  5
AF
330
AC
100
AcDbEntity
  8
_U+30EC_U+30A4_U+30E4_U+30FC 1
 62
   179
420
  2234388
370
     9
  0
INSERT
  5
B1
330
1F
100
AcDbEntity
  8
_U+30EC_U+30A4_U+30E4_U+30FC 1
100
AcDbBlockReference
  2
block 5
 10
0.0
 20
0.0
 30
0.0
  0
INSERT
  5
B8
330
1F
100
AcDbEntity
  8
_U+30EC_U+30A4_U+30E4_U+30FC 1
100
AcDbBlockReference
  2
block 6
 10
0.0
 20
0.0
 30
0.0
  0
POLYLINE
  5
BE
330
1F
100
AcDbEntity
  8
_U+30EC_U+30A4_U+30E4_U+30FC 1
 62
   179
420
  2234388
370
     9
100
AcDb2dPolyline
 66
     1
 10
0.0
 20
0.0
 30
0.0
  0
VERTEX
  5
BF
330
BE
100
AcDbEntity
  8
_U+30EC_U+30A4_U+30E4_U+30FC 1
 62
   179
420
  2234388
370
     9
100
AcDbVertex
100
AcDb2dVertex
 10
101.5472924093127
 20
-120.8890774697778
 30
0.0
  0
VERTEX
  5
C0
330
BE
100
AcDbEntity
  8
_U+30EC_U+30A4_U+30E4_U+30FC 1
 62
   179
420
  2234388
370
     9
100
AcDbVertex
100
AcDb2dVertex
 10
92.54697902781875
 20
-120.8890774697778
 30
0.0
  0
SEQEND
  5
C1
330
BE
100
AcDbEntity
  8
_U+30EC_U+30A4_U+30E4_U+30FC 1
 62
   179
420
  2234388
370
     9
  0
INSERT
  5
C3
330
1F
100
AcDbEntity
  8
_U+30EC_U+30A4_U+30E4_U+30FC 1
100
AcDbBlockReference
  2
block 7
 10
0.0
 20
0.0
 30
0.0
  0
POLYLINE
  5
C9
330
1F
100
AcDbEntity
  8
_U+30EC_U+30A4_U+30E4_U+30FC 1
 62
   179
420
  2234388
370
    25
100
AcDb2dPolyline
 66
     1
 10
0.0
 20
0.0
 30
0.0
  0
VERTEX
  5
CA
330
C9
100
AcDbEntity
  8
_U+30EC_U+30A4_U+30E4_U+30FC 1
 62
   179
420
  2234388
370
    25
100
AcDbVertex
100
AcDb2dVertex
 10
66.54718691335093
 20
-133.9077769109673
 30
0.0
  0
VERTEX
  5
CB
330
C9
100
AcDbEntity
  8
_U+30EC_U+30A4_U+30E4_U+30FC 1
 62
   179
420
  2234388
370
    25
100
AcDbVertex
100
AcDb2dVertex
 10
109.5471280385533
 20
-133.9077769109673
 30
0.0
  0
SEQEND
  5
CC
330
C9
100
AcDbEntity
  8
_U+30EC_U+30A4_U+30E4_U+30FC 1
 62
   179
420
  2234388
370
    25
  0
POLYLINE
  5
CD
330
1F
100
AcDbEntity
  8
_U+30EC_U+30A4_U+30E4_U+30FC 1
 62
   179
420
  2234388
370
    25
100
AcDb2dPolyline
 66
     1
 10
0.0
 20
0.0
 30
0.0
  0
VERTEX
  5
CE
330
CD
100
AcDbEntity
  8
_U+30EC_U+30A4_U+30E4_U+30FC 1
 62
   179
420
  2234388
370
    25
100
AcDbVertex
100
AcDb2dVertex
 10
108.5480613973749
 20
-132.9072991334399
 30
0.0
  0
VERTEX
  5
CF
330
CD
100
AcDbEntity
  8
_U+30EC_U+30A4_U+30E4_U+30FC 1
 62
   179
420
  2234388
370
    25
100
AcDbVertex
100
AcDb2dVertex
 10
93.54742150229534
 20
-132.9072991334399
 30
0.0
  0
VERTEX
  5
D0
330
CD
100
AcDbEntity
  8
_U+30EC_U+30A4_U+30E4_U+30FC 1
 62
   179
420
  2234388
370
    25
100
AcDbVertex
100
AcDb2dVertex
 10
93.54742150229534
 20
-124.349333580024
 30
0.0
  0
VERTEX
  5
D1
330
CD
100
AcDbEntity
  8
_U+30EC_U+30A4_U+30E4_U+30FC 1
 62
   179
420
  2234388
370
    25
100
AcDbVertex
100
AcDb2dVertex
 10
100.5471674348281
 20
-124.349333580024
 30
0.0
  0
VERTEX
  5
D2
330
CD
100
AcDbEntity
  8
_U+30EC_U+30A4_U+30E4_U+30FC 1
 62
   179
420
  2234388
370
    25
100
AcDbVertex
100
AcDb2dVertex
 10
100.5471674348281
 20
-126.3492308017462
 30
0.0
  0
VERTEX
  5
D3
330
CD
100
AcDbEntity
  8
_U+30EC_U+30A4_U+30E4_U+30FC 1
 62
   179
420
  2234388
370
    25
100
AcDbVertex
100
AcDb2dVertex
 10
101.5472924093127
 20
-126.3492308017462
 30
0.0
  0
VERTEX
  5
D4
330
CD
100
AcDbEntity
  8
_U+30EC_U+30A4_U+30E4_U+30FC 1
 62
   179
420
  2234388
370
    25
100
AcDbVertex
100
AcDb2dVertex
 10
101.5472924093127
 20
-123.3492438580515
 30
0.0
  0
VERTEX
  5
D5
330
CD
100
AcDbEntity
  8
_U+30EC_U+30A4_U+30E4_U+30FC 1
 62
   179
420
  2234388
370
    25
100
AcDbVertex
100
AcDb2dVertex
 10
92.54733180558753
 20
-123.3492438580515
 30
0.0
  0
VERTEX
  5
D6
330
CD
100
AcDbEntity
  8
_U+30EC_U+30A4_U+30E4_U+30FC 1
 62
   179
420
  2234388
370
    25
100
AcDbVertex
100
AcDb2dVertex
 10
92.54733180558753
 20
-132.9072991334399
 30
0.0
  0
VERTEX
  5
D7
330
CD
100
AcDbEntity
  8
_U+30EC_U+30A4_U+30E4_U+30FC 1
 62
   179
420
  2234388
370
    25
100
AcDbVertex
100
AcDb2dVertex
 10
83.54733592408544
 20
-132.9072991334399
 30
0.0
  0
VERTEX
  5
D8
330
CD
100
AcDbEntity
  8
_U+30EC_U+30A4_U+30E4_U+30FC 1
 62
   179
420
  2234388
370
    25
100
AcDbVertex
100
AcDb2dVertex
 10
83.54733592408544
 20
-123.3492438580515
 30
0.0
  0
VERTEX
  5
D9
330
CD
100
AcDbEntity
  8
_U+30EC_U+30A4_U+30E4_U+30FC 1
 62
   179
420
  2234388
370
    25
100
AcDbVertex
100
AcDb2dVertex
 10
74.54737532036023
 20
-123.3492438580515
 30
0.0
  0
VERTEX
  5
DA
330
CD
100
AcDbEntity
  8
_U+30EC_U+30A4_U+30E4_U+30FC 1
 62
   179
420
  2234388
370
    25
100
AcDbVertex
100
AcDb2dVertex
 10
74.54737532036023
 20
-126.3492308017462
 30
0.0
  0
VERTEX
  5
DB
330
CD
100
AcDbEntity
  8
_U+30EC_U+30A4_U+30E4_U+30FC 1
 62
   179
420
  2234388
370
    25
100
AcDbVertex
100
AcDb2dVertex
 10
75.54750029484492
 20
-126.3492308017462
 30
0.0
  0
VERTEX
  5
DC
330
CD
100
AcDbEntity
  8
_U+30EC_U+30A4_U+30E4_U+30FC 1
 62
   179
420
  2234388
370
    25
100
AcDbVertex
100
AcDb2dVertex
 10
75.54750029484492
 20
-124.349333580024
 30
0.0
  0
VERTEX
  5
DD
330
CD
100
AcDbEntity
  8
_U+30EC_U+30A4_U+30E4_U+30FC 1
 62
   179
420
  2234388
370
    25
100
AcDbVertex
100
AcDb2dVertex
 10
82.54724622737763
 20
-124.349333580024
 30
0.0
  0
VERTEX
  5
DE
330
CD
100
AcDbEntity
  8
_U+30EC_U+30A4_U+30E4_U+30FC 1
 62
   179
420
  2234388
370
    25
100
AcDbVertex
100
AcDb2dVertex
 10
82.54724622737763
 20
-132.9072991334399
 30
0.0
  0
VERTEX
  5
DF
330
CD
100
AcDbEntity
  8
_U+30EC_U+30A4_U+30E4_U+30FC 1
 62
   179
420
  2234388
370
    25
100
AcDbVertex
100
AcDb2dVertex
 10
67.5479821655963
 20
-132.9072991334399
 30
0.0
  0
SEQEND
  5
E0
330
CD
100
AcDbEntity
  8
_U+30EC_U+30A4_U+30E4_U+30FC 1
 62
   179
420
  2234388
370
    25
  0
SPLINE
  5
E1
330
1F
100
AcDbEntity
  8
_U+30EC_U+30A4_U+30E4_U+30FC 1
 62
   179
420
  2234388
370
     9
100
AcDbSpline
210
0.0
220
0.0
230
1.0
 70
    11
 71
     3
 72
    17
 73
    13
 74
     0
 42
0.0000000001
 43
0.0000000001
 12
1.0
 22
0.0
 32
0.0
 13
1.0
 23
0.0
 33
0.0
 40
0.0
 40
0.0
 40
0.0
 40
0.0
 40
1.0
 40
1.0
 40
1.0
 40
2.0
 40
2.0
 40
2.0
 40
3.0
 40
3.0
 40
3.0
 40
4.0
 40
4.0
 40
4.0
 40
4.0
 10
82.64750566926425
 20
-128.007004134665
 30
0.0
 10
82.64750566926425
 20
-127.951864968012
 30
0.0
 10
82.60270289262948
 20
-127.9070974680231
 30
0.0
 10
82.54759900514641
 20
-127.9070974680231
 30
0.0
 10
82.49245983988646
 20
-127.9070974680231
 30
0.0
 10
82.44769442383254
 20
-127.951864968012
 30
0.0
 10
82.44769442383254
 20
-128.007004134665
 30
0.0
 10
82.44769442383254
 20
-128.06210802354
 30
0.0
 10
82.49245983988646
 20
-128.1069108013067
 30
0.0
 10
82.54759900514641
 20
-128.1069108013067
 30
0.0
 10
82.60270289262948
 20
-128.1069108013067
 30
0.0
 10
82.64750566926425
 20
-128.06210802354
 30
0.0
 10
82.64750566926425
 20
-128.007004134665
 30
0.0
  0
SPLINE
  5
E2
330
1F
100
AcDbEntity
  8
_U+30EC_U+30A4_U+30E4_U+30FC 1
 62
   179
420
  2234388
370
     9
100
AcDbSpline
210
0.0
220
0.0
230
1.0
 70
    11
 71
     3
 72
    17
 73
    13
 74
     0
 42
0.0000000001
 43
0.0000000001
 12
1.0
 22
0.0
 32
0.0
 13
1.0
 23
0.0
 33
0.0
 40
0.0
 40
0.0
 40
0.0
 40
0.0
 40
1.0
 40
1.0
 40
1.0
 40
2.0
 40
2.0
 40
2.0
 40
3.0
 40
3.0
 40
3.0
 40
4.0
 40
4.0
 40
4.0
 40
4.0
 10
83.64727786598016
 20
-128.007004134665
 30
0.0
 10
83.64727786598016
 20
-127.951864968012
 30
0.0
 10
83.60247508934539
 20
-127.9070974680231
 30
0.0
 10
83.54733592408544
 20
-127.9070974680231
 30
0.0
 10
83.49223203660237
 20
-127.9070974680231
 30
0.0
 10
83.4474292599676
 20
-127.951864968012
 30
0.0
 10
83.4474292599676
 20
-128.007004134665
 30
0.0
 10
83.4474292599676
 20
-128.06210802354
 30
0.0
 10
83.49223203660237
 20
-128.1069108013067
 30
0.0
 10
83.54733592408544
 20
-128.1069108013067
 30
0.0
 10
83.60247508934539
 20
-128.1069108013067
 30
0.0
 10
83.64727786598016
 20
-128.06210802354
 30
0.0
 10
83.64727786598016
 20
-128.007004134665
 30
0.0
  0
INSERT
  5
E4
330
1F
100
AcDbEntity
  8
_U+30EC_U+30A4_U+30E4_U+30FC 1
100
AcDbBlockReference
  2
block 8
 10
0.0
 20
0.0
 30
0.0
  0
POLYLINE
  5
E9
330
1F
100
AcDbEntity
  8
_U+30EC_U+30A4_U+30E4_U+30FC 1
 62
   179
420
  2234388
370
     9
100
AcDb2dPolyline
 66
     1
 10
0.0
 20
0.0
 30
0.0
  0
VERTEX
  5
EA
330
E9
100
AcDbEntity
  8
_U+30EC_U+30A4_U+30E4_U+30FC 1
 62
   179
420
  2234388
370
     9
100
AcDbVertex
100
AcDb2dVertex
 10
85.46697615288912
 20
-128.007004134665
 30
0.0
  0
VERTEX
  5
EB
330
E9
100
AcDbEntity
  8
_U+30EC_U+30A4_U+30E4_U+30FC 1
 62
   179
420
  2234388
370
     9
100
AcDbVertex
100
AcDb2dVertex
 10
81.6284365285962
 20
-128.007004134665
 30
0.0
  0
SEQEND
  5
EC
330
E9
100
AcDbEntity
  8
_U+30EC_U+30A4_U+30E4_U+30FC 1
 62
   179
420
  2234388
370
     9
  0
SPLINE
  5
ED
330
1F
100
AcDbEntity
  8
_U+30EC_U+30A4_U+30E4_U+30FC 1
 62
   179
420
  2234388
370
    25
100
AcDbSpline
210
0.0
220
0.0
230
1.0
 70
     8
 71
     3
 72
     8
 73
     4
 74
     0
 42
0.0000000001
 43
0.0000000001
 12
1.0
 22
0.0
 32
0.0
 13
1.0
 23
0.0
 33
0.0
 40
0.0
 40
0.0
 40
0.0
 40
0.0
 40
1.0
 40
1.0
 40
1.0
 40
1.0
 10
108.5480613973749
 20
-132.9069463556621
 30
0.0
 10
109.09927666109
 20
-132.9069463556621
 30
0.0
 10
109.5471280385533
 20
-133.3548330222167
 30
0.0
 10
109.5471280385533
 20
-133.9077769109673
 30
0.0
  0
SPLINE
  5
EE
330
1F
100
AcDbEntity
  8
_U+30EC_U+30A4_U+30E4_U+30FC 1
 62
   179
420
  2234388
370
    25
100
AcDbSpline
210
0.0
220
0.0
230
1.0
 70
     8
 71
     3
 72
     8
 73
     4
 74
     0
 42
0.0000000001
 43
0.0000000001
 12
1.0
 22
0.0
 32
0.0
 13
1.0
 23
0.0
 33
0.0
 40
0.0
 40
0.0
 40
0.0
 40
0.0
 40
1.0
 40
1.0
 40
1.0
 40
1.0
 10
66.54718691335093
 20
-133.9077769109673
 30
0.0
 10
66.54718691335093
 20
-133.3565616333273
 30
0.0
 10
66.99503829081418
 20
-132.9086749667728
 30
0.0
 10
67.5479821655963
 20
-132.9086749667728
 30
0.0
  0
ENDSEC
  0
SECTION
  2
OBJECTS
  0
DICTIONARY
  5
C
330
0
100
AcDbDictionary
281
     1
  3
ACAD_GROUP
350
D
  3
ACAD_LAYOUT
350
1A
  3
ACAD_MATERIAL
350
3B
  3
ACAD_MLEADERSTYLE
350
F0
  3
ACAD_MLINESTYLE
350
17
  3
ACAD_PLOTSETTINGS
350
19
  3
ACAD_PLOTSTYLENAME
350
E
  3
ACAD_TABLESTYLE
350
EF
  3
ACAD_VISUALSTYLE
350
2A
  0
SUN
  5
3F
330
29
100
AcDbSun
 90
        1
290
     0
 63
     7
421
 16777215
 40
1.0
291
     1
 91
  2455826
 92
 54000000
292
     0
 70
     2
 71
   256
280
     1
  0
DICTIONARY
  5
D
102
{ACAD_REACTORS
330
C
102
}
330
C
100
AcDbDictionary
281
     1
  0
DICTIONARY
  5
1A
102
{ACAD_REACTORS
330
C
102
}
330
C
100
AcDbDictionary
281
     1
  3
Layout1
350
1E
  3
Layout2
350
26
  3
Model
350
22
  0
DICTIONARY
  5
3B
102
{ACAD_REACTORS
330
C
102
}
330
C
100
AcDbDictionary
281
     1
  3
ByBlock
350
3D
  3
ByLayer
350
3C
  3
Global
350
3E
  0
DICTIONARY
  5
F0
102
{ACAD_REACTORS
330
C
102
}
330
C
100
AcDbDictionary
281
     1
  0
DICTIONARY
  5
17
102
{ACAD_REACTORS
330
C
102
}
330
C
100
AcDbDictionary
281
     1
  3
Standard
350
18
  0
DICTIONARY
  5
19
102
{ACAD_REACTORS
330
C
102
}
330
C
100
AcDbDictionary
281
     1
  0
ACDBDICTIONARYWDFLT
  5
E
102
{ACAD_REACTORS
330
C
102
}
330
C
100
AcDbDictionary
281
     1
  3
Normal
350
F
100
AcDbDictionaryWithDefault
340
F
  0
DICTIONARY
  5
EF
102
{ACAD_REACTORS
330
C
102
}
330
C
100
AcDbDictionary
281
     1
  0
DICTIONARY
  5
2A
102
{ACAD_REACTORS
330
C
102
}
330
C
100
AcDbDictionary
281
     1
  3
2dWireframe
350
2F
  3
3D Hidden
350
31
  3
3dWireframe
350
30
  3
Basic
350
32
  3
Brighten
350
36
  3
ColorChange
350
3A
  3
Conceptual
350
34
  3
Dim
350
35
  3
Facepattern
350
39
  3
Flat
350
2B
  3
FlatWithEdges
350
2C
  3
Gouraud
350
2D
  3
GouraudWithEdges
350
2E
  3
Linepattern
350
38
  3
Realistic
350
33
  3
Thicken
350
37
  0
LAYOUT
  5
1E
102
{ACAD_REACTORS
330
1A
102
}
330
1A
100
AcDbPlotSettings
  1

  2
none_device
  4

  6

 40
0.0
 41
0.0
 42
0.0
 43
0.0
 44
0.0
 45
0.0
 46
0.0
 47
0.0
 48
0.0
 49
0.0
140
0.0
141
0.0
142
1.0
143
1.0
 70
   688
 72
     0
 73
     0
 74
     5
  7

 75
    16
 76
     0
 77
     2
 78
   300
147
1.0
148
0.0
149
0.0
100
AcDbLayout
  1
Layout1
 70
     1
 71
     1
 10
0.0
 20
0.0
 11
12.0
 21
9.0
 12
0.0
 22
0.0
 32
0.0
 14
1.000000000000000E+20
 24
1.000000000000000E+20
 34
1.000000000000000E+20
 15
-1.000000000000000E+20
 25
-1.000000000000000E+20
 35
-1.000000000000000E+20
146
0.0
 13
0.0
 23
0.0
 33
0.0
 16
1.0
 26
0.0
 36
0.0
 17
0.0
 27
1.0
 37
0.0
 76
     0
330
1B
  0
LAYOUT
  5
26
102
{ACAD_REACTORS
330
1A
102
}
330
1A
100
AcDbPlotSettings
  1

  2
none_device
  4

  6

 40
0.0
 41
0.0
 42
0.0
 43
0.0
 44
0.0
 45
0.0
 46
0.0
 47
0.0
 48
0.0
 49
0.0
140
0.0
141
0.0
142
1.0
143
1.0
 70
   688
 72
     0
 73
     0
 74
     5
  7

 75
    16
 76
     0
 77
     2
 78
   300
147
1.0
148
0.0
149
0.0
100
AcDbLayout
  1
Layout2
 70
     1
 71
     2
 10
0.0
 20
0.0
 11
0.0
 21
0.0
 12
0.0
 22
0.0
 32
0.0
 14
0.0
 24
0.0
 34
0.0
 15
0.0
 25
0.0
 35
0.0
146
0.0
 13
0.0
 23
0.0
 33
0.0
 16
1.0
 26
0.0
 36
0.0
 17
0.0
 27
1.0
 37
0.0
 76
     0
330
23
  0
LAYOUT
  5
22
102
{ACAD_REACTORS
330
1A
102
}
330
1A
100
AcDbPlotSettings
  1

  2
none_device
  4

  6

 40
0.0
 41
0.0
 42
0.0
 43
0.0
 44
0.0
 45
0.0
 46
0.0
 47
0.0
 48
0.0
 49
0.0
140
0.0
141
0.0
142
1.0
143
1.0
 70
  1712
 72
     0
 73
     0
 74
     0
  7

 75
     0
 76
     0
 77
     2
 78
   300
147
1.0
148
0.0
149
0.0
100
AcDbLayout
  1
Model
 70
     1
 71
     0
 10
0.0
 20
0.0
 11
12.0
 21
9.0
 12
0.0
 22
0.0
 32
0.0
 14
1.000000000000000E+20
 24
1.000000000000000E+20
 34
1.000000000000000E+20
 15
-1.000000000000000E+20
 25
-1.000000000000000E+20
 35
-1.000000000000000E+20
146
0.0
 13
0.0
 23
0.0
 33
0.0
 16
1.0
 26
0.0
 36
0.0
 17
0.0
 27
1.0
 37
0.0
 76
     0
330
1F
331
29
  0
MATERIAL
  5
3D
102
{ACAD_REACTORS
330
3B
102
}
330
3B
100
AcDbMaterial
  1
ByBlock
 72
     1
 94
      127
  0
MATERIAL
  5
3C
102
{ACAD_REACTORS
330
3B
102
}
330
3B
100
AcDbMaterial
  1
ByLayer
 72
     1
 94
      127
  0
MATERIAL
  5
3E
102
{ACAD_REACTORS
330
3B
102
}
330
3B
100
AcDbMaterial
  1
Global
 72
     1
 94
      127
  0
MLINESTYLE
  5
18
102
{ACAD_REACTORS
330
17
102
}
330
17
100
AcDbMlineStyle
  2
Standard
 70
     0
  3

 62
   256
 51
90.0
 52
90.0
 71
     2
 49
0.5
 62
   256
  6
BYLAYER
 49
-0.5
 62
   256
  6
BYLAYER
  0
ACDBPLACEHOLDER
  5
F
102
{ACAD_REACTORS
330
E
102
}
330
E
  0
VISUALSTYLE
  5
2F
102
{ACAD_REACTORS
330
2A
102
}
330
2A
100
AcDbVisualStyle
  2
2dWireframe
 70
     4
177
     2
291
     0
 71
     0
176
     1
 72
     2
176
     1
 73
     0
176
     1
 90
        0
176
     1
 40
-0.6
176
     1
 41
-30.0
176
     1
 62
     5
 63
     7
421
 16777215
176
     1
 74
     1
176
     1
 91
        4
176
     1
 64
     7
176
     1
 65
   257
176
     1
 75
     1
176
     1
175
     1
176
     1
 42
1.0
176
     1
 92
        0
176
     1
 66
   257
176
     1
 43
1.0
176
     1
 76
     1
176
     1
 77
     6
176
     1
 78
     2
176
     1
 67
     7
176
     1
 79
     5
176
     1
170
     0
176
     1
171
     0
176
     1
290
     0
176
     1
 93
        1
176
     1
 44
0.0
176
     1
173
     0
176
     1
  0
VISUALSTYLE
  5
31
102
{ACAD_REACTORS
330
2A
102
}
330
2A
100
AcDbVisualStyle
  2
3D Hidden
 70
     6
177
     2
291
     0
 71
     1
176
     1
 72
     2
176
     1
 73
     2
176
     1
 90
        0
176
     1
 40
-0.6
176
     1
 41
-30.0
176
     1
 62
     5
 63
     7
421
 16777215
176
     1
 74
     2
176
     1
 91
        2
176
     1
 64
     7
176
     1
 65
   257
176
     1
 75
     2
176
     1
175
     1
176
     1
 42
40.0
176
     1
 92
        0
176
     1
 66
   257
176
     1
 43
1.0
176
     1
 76
     1
176
     1
 77
     6
176
     1
 78
     2
176
     1
 67
     7
176
     1
 79
     3
176
     1
170
     0
176
     1
171
     0
176
     1
290
     0
176
     1
 93
        1
176
     1
 44
0.0
176
     1
173
     0
176
     1
  0
VISUALSTYLE
  5
30
102
{ACAD_REACTORS
330
2A
102
}
330
2A
100
AcDbVisualStyle
  2
3dWireframe
 70
     5
177
     2
291
     0
 71
     0
176
     1
 72
     2
176
     1
 73
     0
176
     1
 90
        0
176
     1
 40
-0.6
176
     1
 41
-30.0
176
     1
 62
     5
 63
     7
421
 16777215
176
     1
 74
     1
176
     1
 91
        4
176
     1
 64
     7
176
     1
 65
   257
176
     1
 75
     1
176
     1
175
     1
176
     1
 42
1.0
176
     1
 92
        0
176
     1
 66
   257
176
     1
 43
1.0
176
     1
 76
     1
176
     1
 77
     6
176
     1
 78
     2
176
     1
 67
     7
176
     1
 79
     5
176
     1
170
     0
176
     1
171
     0
176
     1
290
     0
176
     1
 93
        1
176
     1
 44
0.0
176
     1
173
     0
176
     1
  0
VISUALSTYLE
  5
32
102
{ACAD_REACTORS
330
2A
102
}
330
2A
100
AcDbVisualStyle
  2
Basic
 70
     7
177
     2
291
     1
 71
     1
176
     1
 72
     0
176
     1
 73
     1
176
     1
 90
        0
176
     1
 40
-0.6
176
     1
 41
-30.0
176
     1
 62
     5
 63
     7
421
 16777215
176
     1
 74
     0
176
     1
 91
        4
176
     1
 64
     7
176
     1
 65
   257
176
     1
 75
     1
176
     1
175
     1
176
     1
 42
1.0
176
     1
 92
        8
176
     1
 66
     7
176
     1
 43
1.0
176
     1
 76
     1
176
     1
 77
     6
176
     1
 78
     2
176
     1
 67
     7
176
     1
 79
     5
176
     1
170
     0
176
     1
171
     0
176
     1
290
     0
176
     1
 93
        1
176
     1
 44
0.0
176
     1
173
     0
176
     1
  0
VISUALSTYLE
  5
36
102
{ACAD_REACTORS
330
2A
102
}
330
2A
100
AcDbVisualStyle
  2
Brighten
 70
    12
177
     2
291
     1
 71
     2
176
     1
 72
     2
176
     1
 73
     0
176
     1
 90
        0
176
     1
 40
-0.6
176
     1
 41
-30.0
176
     1
 62
     5
 63
     7
421
 16777215
176
     1
 74
     1
176
     1
 91
        4
176
     1
 64
     7
176
     1
 65
   257
176
     1
 75
     1
176
     1
175
     1
176
     1
 42
1.0
176
     1
 92
        8
176
     1
 66
     7
176
     1
 43
1.0
176
     1
 76
     1
176
     1
 77
     6
176
     1
 78
     2
176
     1
 67
     7
176
     1
 79
     5
176
     1
170
     0
176
     1
171
     0
176
     1
290
     0
176
     1
 93
        1
176
     1
 44
50.0
176
     1
173
     0
176
     1
  0
VISUALSTYLE
  5
3A
102
{ACAD_REACTORS
330
2A
102
}
330
2A
100
AcDbVisualStyle
  2
ColorChange
 70
    16
177
     2
291
     1
 71
     2
176
     1
 72
     2
176
     1
 73
     3
176
     1
 90
        0
176
     1
 40
-0.6
176
     1
 41
-30.0
176
     1
 62
     5
 63
     8
421
  8421504
176
     1
 74
     1
176
     1
 91
        4
176
     1
 64
     7
176
     1
 65
   257
176
     1
 75
     1
176
     1
175
     1
176
     1
 42
1.0
176
     1
 92
        8
176
     1
 66
     8
424
  8421504
176
     1
 43
1.0
176
     1
 76
     1
176
     1
 77
     6
176
     1
 78
     2
176
     1
 67
     7
176
     1
 79
     5
176
     1
170
     0
176
     1
171
     0
176
     1
290
     0
176
     1
 93
        1
176
     1
 44
0.0
176
     1
173
     0
176
     1
  0
VISUALSTYLE
  5
34
102
{ACAD_REACTORS
330
2A
102
}
330
2A
100
AcDbVisualStyle
  2
Conceptual
 70
     9
177
     2
291
     0
 71
     3
176
     1
 72
     2
176
     1
 73
     0
176
     1
 90
        0
176
     1
 40
-0.6
176
     1
 41
-30.0
176
     1
 62
     5
 63
     7
421
 16777215
176
     1
 74
     2
176
     1
 91
        2
176
     1
 64
     7
176
     1
 65
   257
176
     1
 75
     1
176
     1
175
     1
176
     1
 42
40.0
176
     1
 92
        8
176
     1
 66
     7
176
     1
 43
1.0
176
     1
 76
     1
176
     1
 77
     6
176
     1
 78
     2
176
     1
 67
     7
176
     1
 79
     3
176
     1
170
     0
176
     1
171
     0
176
     1
290
     0
176
     1
 93
        1
176
     1
 44
0.0
176
     1
173
     0
176
     1
  0
VISUALSTYLE
  5
35
102
{ACAD_REACTORS
330
2A
102
}
330
2A
100
AcDbVisualStyle
  2
Dim
 70
    11
177
     2
291
     1
 71
     2
176
     1
 72
     2
176
     1
 73
     0
176
     1
 90
        0
176
     1
 40
-0.6
176
     1
 41
-30.0
176
     1
 62
     5
 63
     7
421
 16777215
176
     1
 74
     1
176
     1
 91
        4
176
     1
 64
     7
176
     1
 65
   257
176
     1
 75
     1
176
     1
175
     1
176
     1
 42
1.0
176
     1
 92
        8
176
     1
 66
     7
176
     1
 43
1.0
176
     1
 76
     1
176
     1
 77
     6
176
     1
 78
     2
176
     1
 67
     7
176
     1
 79
     5
176
     1
170
     0
176
     1
171
     0
176
     1
290
     0
176
     1
 93
        1
176
     1
 44
-50.0
176
     1
173
     0
176
     1
  0
VISUALSTYLE
  5
39
102
{ACAD_REACTORS
330
2A
102
}
330
2A
100
AcDbVisualStyle
  2
Facepattern
 70
    15
177
     2
291
     1
 71
     2
176
     1
 72
     2
176
     1
 73
     0
176
     1
 90
        0
176
     1
 40
-0.6
176
     1
 41
-30.0
176
     1
 62
     5
 63
     7
421
 16777215
176
     1
 74
     1
176
     1
 91
        4
176
     1
 64
     7
176
     1
 65
   257
176
     1
 75
     1
176
     1
175
     1
176
     1
 42
1.0
176
     1
 92
        8
176
     1
 66
     7
176
     1
 43
1.0
176
     1
 76
     1
176
     1
 77
     6
176
     1
 78
     2
176
     1
 67
     7
176
     1
 79
     5
176
     1
170
     0
176
     1
171
     0
176
     1
290
     0
176
     1
 93
        1
176
     1
 44
0.0
176
     1
173
     0
176
     1
  0
VISUALSTYLE
  5
2B
102
{ACAD_REACTORS
330
2A
102
}
330
2A
100
AcDbVisualStyle
  2
Flat
 70
     0
177
     2
291
     1
 71
     2
176
     1
 72
     1
176
     1
 73
     1
176
     1
 90
        2
176
     1
 40
-0.6
176
     1
 41
30.0
176
     1
 62
     5
 63
     7
421
 16777215
176
     1
 74
     0
176
     1
 91
        4
176
     1
 64
     7
176
     1
 65
   257
176
     1
 75
     1
176
     1
175
     1
176
     1
 42
1.0
176
     1
 92
        8
176
     1
 66
     7
176
     1
 43
1.0
176
     1
 76
     1
176
     1
 77
     6
176
     1
 78
     2
176
     1
 67
     7
176
     1
 79
     5
176
     1
170
     0
176
     1
171
     0
176
     1
290
     0
176
     1
 93
       13
176
     1
 44
0.0
176
     1
173
     0
176
     1
  0
VISUALSTYLE
  5
2C
102
{ACAD_REACTORS
330
2A
102
}
330
2A
100
AcDbVisualStyle
  2
FlatWithEdges
 70
     1
177
     2
291
     1
 71
     2
176
     1
 72
     1
176
     1
 73
     1
176
     1
 90
        2
176
     1
 40
-0.6
176
     1
 41
30.0
176
     1
 62
     5
 63
     7
421
 16777215
176
     1
 74
     1
176
     1
 91
        4
176
     1
 64
     7
176
     1
 65
   257
176
     1
 75
     1
176
     1
175
     1
176
     1
 42
1.0
176
     1
 92
        0
176
     1
 66
   257
176
     1
 43
1.0
176
     1
 76
     1
176
     1
 77
     6
176
     1
 78
     2
176
     1
 67
     7
176
     1
 79
     5
176
     1
170
     0
176
     1
171
     0
176
     1
290
     0
176
     1
 93
       13
176
     1
 44
0.0
176
     1
173
     0
176
     1
  0
VISUALSTYLE
  5
2D
102
{ACAD_REACTORS
330
2A
102
}
330
2A
100
AcDbVisualStyle
  2
Gouraud
 70
     2
177
     2
291
     1
 71
     2
176
     1
 72
     2
176
     1
 73
     1
176
     1
 90
        2
176
     1
 40
-0.6
176
     1
 41
30.0
176
     1
 62
     5
 63
     7
421
 16777215
176
     1
 74
     0
176
     1
 91
        4
176
     1
 64
     7
176
     1
 65
   257
176
     1
 75
     1
176
     1
175
     1
176
     1
 42
1.0
176
     1
 92
        0
176
     1
 66
     7
176
     1
 43
1.0
176
     1
 76
     1
176
     1
 77
     6
176
     1
 78
     2
176
     1
 67
     7
176
     1
 79
     5
176
     1
170
     0
176
     1
171
     0
176
     1
290
     0
176
     1
 93
       13
176
     1
 44
0.0
176
     1
173
     0
176
     1
  0
VISUALSTYLE
  5
2E
102
{ACAD_REACTORS
330
2A
102
}
330
2A
100
AcDbVisualStyle
  2
GouraudWithEdges
 70
     3
177
     2
291
     1
 71
     2
176
     1
 72
     2
176
     1
 73
     1
176
     1
 90
        2
176
     1
 40
-0.6
176
     1
 41
30.0
176
     1
 62
     5
 63
     7
421
 16777215
176
     1
 74
     1
176
     1
 91
        4
176
     1
 64
     7
176
     1
 65
   257
176
     1
 75
     1
176
     1
175
     1
176
     1
 42
1.0
176
     1
 92
        0
176
     1
 66
   257
176
     1
 43
1.0
176
     1
 76
     1
176
     1
 77
     6
176
     1
 78
     2
176
     1
 67
     7
176
     1
 79
     5
176
     1
170
     0
176
     1
171
     0
176
     1
290
     0
176
     1
 93
       13
176
     1
 44
0.0
176
     1
173
     0
176
     1
  0
VISUALSTYLE
  5
38
102
{ACAD_REACTORS
330
2A
102
}
330
2A
100
AcDbVisualStyle
  2
Linepattern
 70
    14
177
     2
291
     1
 71
     2
176
     1
 72
     2
176
     1
 73
     0
176
     1
 90
        0
176
     1
 40
-0.6
176
     1
 41
-30.0
176
     1
 62
     5
 63
     7
421
 16777215
176
     1
 74
     1
176
     1
 91
        4
176
     1
 64
     7
176
     1
 65
   257
176
     1
 75
     7
176
     1
175
     7
176
     1
 42
1.0
176
     1
 92
        8
176
     1
 66
     7
176
     1
 43
1.0
176
     1
 76
     1
176
     1
 77
     6
176
     1
 78
     2
176
     1
 67
     7
176
     1
 79
     5
176
     1
170
     0
176
     1
171
     0
176
     1
290
     0
176
     1
 93
        1
176
     1
 44
0.0
176
     1
173
     0
176
     1
  0
VISUALSTYLE
  5
33
102
{ACAD_REACTORS
330
2A
102
}
330
2A
100
AcDbVisualStyle
  2
Realistic
 70
     8
177
     2
291
     0
 71
     2
176
     1
 72
     2
176
     1
 73
     0
176
     1
 90
        0
176
     1
 40
-0.6
176
     1
 41
-30.0
176
     1
 62
     5
 63
     7
421
 16777215
176
     1
 74
     1
176
     1
 91
        0
176
     1
 64
     7
176
     1
 65
   257
176
     1
 75
     1
176
     1
175
     1
176
     1
 42
1.0
176
     1
 92
        8
176
     1
 66
     8
424
  7895160
176
     1
 43
1.0
176
     1
 76
     1
176
     1
 77
     6
176
     1
 78
     2
176
     1
 67
     7
176
     1
 79
     5
176
     1
170
     0
176
     1
171
     0
176
     1
290
     0
176
     1
 93
       13
176
     1
 44
0.0
176
     1
173
     0
176
     1
  0
VISUALSTYLE
  5
37
102
{ACAD_REACTORS
330
2A
102
}
330
2A
100
AcDbVisualStyle
  2
Thicken
 70
    13
177
     2
291
     1
 71
     2
176
     1
 72
     2
176
     1
 73
     0
176
     1
 90
        0
176
     1
 40
-0.6
176
     1
 41
-30.0
176
     1
 62
     5
 63
     7
421
 16777215
176
     1
 74
     1
176
     1
 91
        4
176
     1
 64
     7
176
     1
 65
   257
176
     1
 75
     1
176
     1
175
     1
176
     1
 42
1.0
176
     1
 92
       12
176
     1
 66
     7
176
     1
 43
1.0
176
     1
 76
     1
176
     1
 77
     6
176
     1
 78
     2
176
     1
 67
     7
176
     1
 79
     5
176
     1
170
     0
176
     1
171
     0
176
     1
290
     0
176
     1
 93
        1
176
     1
 44
0.0
176
     1
173
     0
176
     1
  0
ENDSEC
  0
EOF
