  0
SECTION
  2
HEADER
  9
$ACADVER
  1
AC1024
  9
$ACADMAINTVER
 70
     6
  9
$DWGCODEPAGE
  3
UNDEFINED
  9
$INSBASE
 10
0.0
 20
0.0
 30
0.0
  9
$EXTMIN
 10
1.000000000000000E+20
 20
1.000000000000000E+20
 30
1.000000000000000E+20
  9
$EXTMAX
 10
-1.000000000000000E+20
 20
-1.000000000000000E+20
 30
-1.000000000000000E+20
  9
$LIMMIN
 10
0.0
 20
0.0
  9
$LIMMAX
 10
12.0
 20
9.0
  9
$ORTHOMODE
 70
     0
  9
$REGENMODE
 70
     1
  9
$FILLMODE
 70
     1
  9
$QTEXTMODE
 70
     0
  9
$MIRRTEXT
 70
     1
  9
$LTSCALE
 40
1.0
  9
$ATTMODE
 70
     1
  9
$TEXTSIZE
 40
0.2
  9
$TRACEWID
 40
0.05
  9
$TEXTSTYLE
  7
Standard
  9
$CLAYER
  8
0
  9
$CELTYPE
  6
ByLayer
  9
$CECOLOR
 62
   256
  9
$CELTSCALE
 40
1.0
  9
$DISPSILH
 70
     0
  9
$DIMSCALE
 40
1.0
  9
$DIMASZ
 40
0.18
  9
$DIMEXO
 40
0.0625
  9
$DIMDLI
 40
0.38
  9
$DIMRND
 40
0.0
  9
$DIMDLE
 40
0.0
  9
$DIMEXE
 40
0.18
  9
$DIMTP
 40
0.0
  9
$DIMTM
 40
0.0
  9
$DIMTXT
 40
0.18
  9
$DIMCEN
 40
0.09
  9
$DIMTSZ
 40
0.0
  9
$DIMTOL
 70
     0
  9
$DIMLIM
 70
     0
  9
$DIMTIH
 70
     1
  9
$DIMTOH
 70
     1
  9
$DIMSE1
 70
     0
  9
$DIMSE2
 70
     0
  9
$DIMTAD
 70
     0
  9
$DIMZIN
 70
     0
  9
$DIMBLK
  1

  9
$DIMASO
 70
     1
  9
$DIMSHO
 70
     1
  9
$DIMPOST
  1

  9
$DIMAPOST
  1

  9
$DIMALT
 70
     0
  9
$DIMALTD
 70
     2
  9
$DIMALTF
 40
25.4
  9
$DIMLFAC
 40
1.0
  9
$DIMTOFL
 70
     0
  9
$DIMTVP
 40
0.0
  9
$DIMTIX
 70
     0
  9
$DIMSOXD
 70
     0
  9
$DIMSAH
 70
     0
  9
$DIMBLK1
  1

  9
$DIMBLK2
  1

  9
$DIMSTYLE
  2
Standard
  9
$DIMCLRD
 70
     0
  9
$DIMCLRE
 70
     0
  9
$DIMCLRT
 70
     0
  9
$DIMTFAC
 40
1.0
  9
$DIMGAP
 40
0.09
  9
$DIMJUST
 70
     0
  9
$DIMSD1
 70
     0
  9
$DIMSD2
 70
     0
  9
$DIMTOLJ
 70
     1
  9
$DIMTZIN
 70
     0
  9
$DIMALTZ
 70
     0
  9
$DIMALTTZ
 70
     0
  9
$DIMUPT
 70
     0
  9
$DIMDEC
 70
     4
  9
$DIMTDEC
 70
     4
  9
$DIMALTU
 70
     2
  9
$DIMALTTD
 70
     2
  9
$DIMTXSTY
  7
Standard
  9
$DIMAUNIT
 70
     0
  9
$DIMADEC
 70
     0
  9
$DIMALTRND
 40
0.0
  9
$DIMAZIN
 70
     0
  9
$DIMDSEP
 70
    46
  9
$DIMATFIT
 70
     3
  9
$DIMFRAC
 70
     0
  9
$DIMLDRBLK
  1

  9
$DIMLUNIT
 70
     2
  9
$DIMLWD
 70
    -2
  9
$DIMLWE
 70
    -2
  9
$DIMTMOVE
 70
     0
  9
$DIMFXL
 40
1.0
  9
$DIMFXLON
 70
     0
  9
$DIMJOGANG
 40
0.7853981633974483
  9
$DIMTFILL
 70
     0
  9
$DIMTFILLCLR
 70
     0
  9
$DIMARCSYM
 70
     0
  9
$DIMLTYPE
  6

  9
$DIMLTEX1
  6

  9
$DIMLTEX2
  6

  9
$DIMTXTDIRECTION
 70
     0
  9
$LUNITS
 70
     2
  9
$LUPREC
 70
     4
  9
$SKETCHINC
 40
0.1
  9
$FILLETRAD
 40
0.5
  9
$AUNITS
 70
     0
  9
$AUPREC
 70
     0
  9
$MENU
  1
.
  9
$ELEVATION
 40
0.0
  9
$PELEVATION
 40
0.0
  9
$THICKNESS
 40
0.0
  9
$LIMCHECK
 70
     0
  9
$CHAMFERA
 40
0.5
  9
$CHAMFERB
 40
0.5
  9
$CHAMFERC
 40
1.0
  9
$CHAMFERD
 40
0.0
  9
$SKPOLY
 70
     0
  9
$TDCREATE
 40
2457917.593703692
  9
$TDUCREATE
 40
2457917.218703703
  9
$TDUPDATE
 40
2457917.593703692
  9
$TDUUPDATE
 40
2457917.218703703
  9
$TDINDWG
 40
0.0000000116
  9
$TDUSRTIMER
 40
0.0000000116
  9
$USRTIMER
 70
     1
  9
$ANGBASE
 50
0.0
  9
$ANGDIR
 70
     0
  9
$PDMODE
 70
     0
  9
$PDSIZE
 40
0.0
  9
$PLINEWID
 40
0.0
  9
$SPLFRAME
 70
     0
  9
$SPLINETYPE
 70
     6
  9
$SPLINESEGS
 70
     8
  9
$HANDSEED
  5
AF
  9
$SURFTAB1
 70
     6
  9
$SURFTAB2
 70
     6
  9
$SURFTYPE
 70
     6
  9
$SURFU
 70
     6
  9
$SURFV
 70
     6
  9
$UCSBASE
  2

  9
$UCSNAME
  2

  9
$UCSORG
 10
0.0
 20
0.0
 30
0.0
  9
$UCSXDIR
 10
1.0
 20
0.0
 30
0.0
  9
$UCSYDIR
 10
0.0
 20
1.0
 30
0.0
  9
$UCSORTHOREF
  2

  9
$UCSORTHOVIEW
 70
     0
  9
$UCSORGTOP
 10
0.0
 20
0.0
 30
0.0
  9
$UCSORGBOTTOM
 10
0.0
 20
0.0
 30
0.0
  9
$UCSORGLEFT
 10
0.0
 20
0.0
 30
0.0
  9
$UCSORGRIGHT
 10
0.0
 20
0.0
 30
0.0
  9
$UCSORGFRONT
 10
0.0
 20
0.0
 30
0.0
  9
$UCSORGBACK
 10
0.0
 20
0.0
 30
0.0
  9
$PUCSBASE
  2

  9
$PUCSNAME
  2

  9
$PUCSORG
 10
0.0
 20
0.0
 30
0.0
  9
$PUCSXDIR
 10
1.0
 20
0.0
 30
0.0
  9
$PUCSYDIR
 10
0.0
 20
1.0
 30
0.0
  9
$PUCSORTHOREF
  2

  9
$PUCSORTHOVIEW
 70
     0
  9
$PUCSORGTOP
 10
0.0
 20
0.0
 30
0.0
  9
$PUCSORGBOTTOM
 10
0.0
 20
0.0
 30
0.0
  9
$PUCSORGLEFT
 10
0.0
 20
0.0
 30
0.0
  9
$PUCSORGRIGHT
 10
0.0
 20
0.0
 30
0.0
  9
$PUCSORGFRONT
 10
0.0
 20
0.0
 30
0.0
  9
$PUCSORGBACK
 10
0.0
 20
0.0
 30
0.0
  9
$USERI1
 70
     0
  9
$USERI2
 70
     0
  9
$USERI3
 70
     0
  9
$USERI4
 70
     0
  9
$USERI5
 70
     0
  9
$USERR1
 40
0.0
  9
$USERR2
 40
0.0
  9
$USERR3
 40
0.0
  9
$USERR4
 40
0.0
  9
$USERR5
 40
0.0
  9
$WORLDVIEW
 70
     1
  9
$SHADEDGE
 70
     3
  9
$SHADEDIF
 70
    70
  9
$TILEMODE
 70
     1
  9
$MAXACTVP
 70
    64
  9
$PINSBASE
 10
0.0
 20
0.0
 30
0.0
  9
$PLIMCHECK
 70
     0
  9
$PEXTMIN
 10
1.000000000000000E+20
 20
1.000000000000000E+20
 30
1.000000000000000E+20
  9
$PEXTMAX
 10
-1.000000000000000E+20
 20
-1.000000000000000E+20
 30
-1.000000000000000E+20
  9
$PLIMMIN
 10
0.0
 20
0.0
  9
$PLIMMAX
 10
12.0
 20
9.0
  9
$UNITMODE
 70
     0
  9
$VISRETAIN
 70
     1
  9
$PLINEGEN
 70
     0
  9
$PSLTSCALE
 70
     1
  9
$TREEDEPTH
 70
  3020
  9
$CMLSTYLE
  2
Standard
  9
$CMLJUST
 70
     0
  9
$CMLSCALE
 40
1.0
  9
$PROXYGRAPHICS
 70
     1
  9
$MEASUREMENT
 70
     0
  9
$CELWEIGHT
370
    -1
  9
$ENDCAPS
280
     0
  9
$JOINSTYLE
280
     0
  9
$LWDISPLAY
290
     1
  9
$INSUNITS
 70
     1
  9
$HYPERLINKBASE
  1

  9
$STYLESHEET
  1

  9
$XEDIT
290
     1
  9
$CEPSNTYPE
380
     0
  9
$PSTYLEMODE
290
     1
  9
$FINGERPRINTGUID
  2
{84EBF534-0724-C3C5-3902-61689764B5CF}
  9
$VERSIONGUID
  2
{FAEB1C32-E019-11D5-929B-00C0DF256EC4}
  9
$EXTNAMES
290
     1
  9
$PSVPSCALE
 40
0.0
  9
$OLESTARTUP
290
     0
  9
$SORTENTS
280
   127
  9
$INDEXCTL
280
     0
  9
$HIDETEXT
280
     1
  9
$XCLIPFRAME
280
     2
  9
$HALOGAP
280
     0
  9
$OBSCOLOR
 70
   257
  9
$OBSLTYPE
280
     0
  9
$INTERSECTIONDISPLAY
280
     0
  9
$INTERSECTIONCOLOR
 70
   257
  9
$DIMASSOC
280
     2
  9
$PROJECTNAME
  1

  9
$CAMERADISPLAY
290
     0
  9
$LENSLENGTH
 40
50.0
  9
$CAMERAHEIGHT
 40
0.0
  9
$STEPSPERSEC
 40
2.0
  9
$STEPSIZE
 40
6.0
  9
$3DDWFPREC
 40
2.0
  9
$PSOLWIDTH
 40
0.25
  9
$PSOLHEIGHT
 40
4.0
  9
$LOFTANG1
 40
1.570796326794897
  9
$LOFTANG2
 40
1.570796326794897
  9
$LOFTMAG1
 40
0.0
  9
$LOFTMAG2
 40
0.0
  9
$LOFTPARAM
 70
     7
  9
$LOFTNORMALS
280
     1
  9
$LATITUDE
 40
37.795
  9
$LONGITUDE
 40
-122.394
  9
$NORTHDIRECTION
 40
0.0
  9
$TIMEZONE
 70
 -8000
  9
$LIGHTGLYPHDISPLAY
280
     1
  9
$TILEMODELIGHTSYNCH
280
     1
  9
$CMATERIAL
347
3C
  9
$SOLIDHIST
280
     1
  9
$SHOWHIST
280
     1
  9
$DWFFRAME
280
     2
  9
$DGNFRAME
280
     2
  9
$REALWORLDSCALE
290
     1
  9
$INTERFERECOLOR
 62
   256
  9
$CSHADOW
280
     0
  9
$SHADOWPLANELOCATION
 40
0.0
  0
ENDSEC
  0
SECTION
  2
CLASSES
  0
CLASS
  1
ACDBDICTIONARYWDFLT
  2
AcDbDictionaryWithDefault
  3
ObjectDBX Classes
 90
        0
 91
        4
280
     0
281
     0
  0
CLASS
  1
VISUALSTYLE
  2
AcDbVisualStyle
  3
ObjectDBX Classes
 90
     4095
 91
        4
280
     0
281
     0
  0
CLASS
  1
MATERIAL
  2
AcDbMaterial
  3
ObjectDBX Classes
 90
     1153
 91
        4
280
     0
281
     0
  0
CLASS
  1
SUN
  2
AcDbSun
  3
SCENEOE
 90
     1024
 91
        4
280
     0
281
     0
  0
ENDSEC
  0
SECTION
  2
TABLES
  0
TABLE
  2
VPORT
  5
8
330
0
100
AcDbSymbolTable
 70
     1
  0
VPORT
  5
29
330
8
100
AcDbSymbolTableRecord
100
AcDbViewportTableRecord
  2
*Active
 70
     0
 10
0.0
 20
0.0
 11
1.0
 21
1.0
 12
0.0
 22
0.0
 13
0.0
 23
0.0
 14
0.5
 24
0.5
 15
0.5
 25
0.5
 16
0.0
 26
0.0
 36
1.0
 17
91.00082462281999
 27
-128.4993055234307
 37
0.0
 40
256.9986110468615
 41
0.7081814508812795
 42
50.0
 43
0.0
 44
0.0
 50
0.0
 51
0.0
 71
     0
 72
   100
 73
     1
 74
     3
 75
     0
 76
     0
 77
     0
 78
     0
281
     0
 65
     1
110
0.0
120
0.0
130
0.0
111
1.0
121
0.0
131
0.0
112
0.0
122
1.0
132
0.0
 79
     0
146
0.0
 60
     3
 61
     5
292
     1
282
     1
141
0.0
142
0.0
 63
   250
361
3F
  0
ENDTAB
  0
TABLE
  2
LTYPE
  5
5
330
0
100
AcDbSymbolTable
 70
     1
  0
LTYPE
  5
14
330
5
100
AcDbSymbolTableRecord
100
AcDbLinetypeTableRecord
  2
ByBlock
 70
     0
  3

 72
    65
 73
     0
 40
0.0
  0
LTYPE
  5
15
330
5
100
AcDbSymbolTableRecord
100
AcDbLinetypeTableRecord
  2
ByLayer
 70
     0
  3

 72
    65
 73
     0
 40
0.0
  0
LTYPE
  5
16
330
5
100
AcDbSymbolTableRecord
100
AcDbLinetypeTableRecord
  2
Continuous
 70
     0
  3
Solid line
 72
    65
 73
     0
 40
0.0
  0
ENDTAB
  0
TABLE
  2
LAYER
  5
2
330
0
100
AcDbSymbolTable
 70
     2
  0
LAYER
  5
10
330
2
100
AcDbSymbolTableRecord
100
AcDbLayerTableRecord
  2
0
 70
     0
 62
     7
  6
Continuous
370
    -3
390
F
347
3E
  0
LAYER
  5
40
330
2
100
AcDbSymbolTableRecord
100
AcDbLayerTableRecord
  2
_U+30EC_U+30A4_U+30E4_U+30FC 1
 70
     0
 62
     7
  6
Continuous
370
    -3
390
F
347
3E
  0
ENDTAB
  0
TABLE
  2
STYLE
  5
3
330
0
100
AcDbSymbolTable
 70
     1
  0
STYLE
  5
11
330
3
100
AcDbSymbolTableRecord
100
AcDbTextStyleTableRecord
  2
Standard
 70
     0
 40
0.0
 41
1.0
 50
0.0
 71
     0
 42
0.2
  3
txt
  4

  0
ENDTAB
  0
TABLE
  2
VIEW
  5
6
330
0
100
AcDbSymbolTable
 70
     0
  0
ENDTAB
  0
TABLE
  2
UCS
  5
7
330
0
100
AcDbSymbolTable
 70
     0
  0
ENDTAB
  0
TABLE
  2
APPID
  5
9
330
0
100
AcDbSymbolTable
 70
     1
  0
APPID
  5
12
330
9
100
AcDbSymbolTableRecord
100
AcDbRegAppTableRecord
  2
ACAD
 70
     0
  0
ENDTAB
  0
TABLE
  2
DIMSTYLE
  5
A
330
0
100
AcDbSymbolTable
 70
     1
100
AcDbDimStyleTable
  0
DIMSTYLE
105
27
330
A
100
AcDbSymbolTableRecord
100
AcDbDimStyleTableRecord
  2
Standard
 70
     0
178
     0
340
11
  0
ENDTAB
  0
TABLE
  2
BLOCK_RECORD
  5
1
330
0
100
AcDbSymbolTable
 70
     6
  0
BLOCK_RECORD
  5
1F
330
1
100
AcDbSymbolTableRecord
100
AcDbBlockTableRecord
  2
*Model_Space
340
22
 70
     0
280
     1
281
     0
  0
BLOCK_RECORD
  5
1B
330
1
100
AcDbSymbolTableRecord
100
AcDbBlockTableRecord
  2
*Paper_Space
340
1E
 70
     0
280
     1
281
     0
  0
BLOCK_RECORD
  5
23
330
1
100
AcDbSymbolTableRecord
100
AcDbBlockTableRecord
  2
*Paper_Space0
340
26
 70
     0
280
     1
281
     0
  0
BLOCK_RECORD
  5
5D
330
1
100
AcDbSymbolTableRecord
100
AcDbBlockTableRecord
  2
block 2
340
0
102
{BLKREFS
331
5E
102
}
 70
     0
280
     1
281
     0
  0
BLOCK_RECORD
  5
63
330
1
100
AcDbSymbolTableRecord
100
AcDbBlockTableRecord
  2
block 3
340
0
102
{BLKREFS
331
64
102
}
 70
     0
280
     1
281
     0
  0
BLOCK_RECORD
  5
6B
330
1
100
AcDbSymbolTableRecord
100
AcDbBlockTableRecord
  2
block 4
340
0
102
{BLKREFS
331
6C
102
}
 70
     0
280
     1
281
     0
  0
BLOCK_RECORD
  5
7D
330
1
100
AcDbSymbolTableRecord
100
AcDbBlockTableRecord
  2
block 5
340
0
102
{BLKREFS
331
7E
102
}
 70
     0
280
     1
281
     0
  0
BLOCK_RECORD
  5
91
330
1
100
AcDbSymbolTableRecord
100
AcDbBlockTableRecord
  2
block 6
340
0
102
{BLKREFS
331
92
102
}
 70
     0
280
     1
281
     0
  0
ENDTAB
  0
ENDSEC
  0
SECTION
  2
BLOCKS
  0
BLOCK
  5
20
330
1F
100
AcDbEntity
  8
0
100
AcDbBlockBegin
  2
*Model_Space
 70
     0
 10
0.0
 20
0.0
 30
0.0
  3
*Model_Space
  1

  0
ENDBLK
  5
21
330
1F
100
AcDbEntity
  8
0
100
AcDbBlockEnd
  0
BLOCK
  5
1C
330
1B
100
AcDbEntity
 67
     1
  8
0
100
AcDbBlockBegin
  2
*Paper_Space
 70
     0
 10
0.0
 20
0.0
 30
0.0
  3
*Paper_Space
  1

  0
ENDBLK
  5
1D
330
1B
100
AcDbEntity
 67
     1
  8
0
100
AcDbBlockEnd
  0
BLOCK
  5
24
330
23
100
AcDbEntity
  8
0
100
AcDbBlockBegin
  2
*Paper_Space0
 70
     0
 10
0.0
 20
0.0
 30
0.0
  3
*Paper_Space0
  1

  0
ENDBLK
  5
25
330
23
100
AcDbEntity
  8
0
100
AcDbBlockEnd
  0
BLOCK
  5
5F
330
5D
100
AcDbEntity
  8
0
100
AcDbBlockBegin
  2
block 2
 70
     0
 10
0.0
 20
0.0
 30
0.0
  3
block 2
  1

  0
SPLINE
  5
61
330
5D
100
AcDbEntity
  8
_U+30EC_U+30A4_U+30E4_U+30FC 1
370
     0
100
AcDbSpline
210
0.0
220
0.0
230
1.0
 70
    11
 71
     3
 72
    26
 73
    22
 74
     0
 42
0.0000000001
 43
0.0000000001
 12
1.0
 22
0.0
 32
0.0
 13
1.0
 23
0.0
 33
0.0
 40
0.0
 40
0.0
 40
0.0
 40
0.0
 40
1.0
 40
1.0
 40
1.0
 40
2.0
 40
2.0
 40
2.0
 40
3.0
 40
3.0
 40
3.0
 40
4.0
 40
4.0
 40
4.0
 40
5.0
 40
5.0
 40
5.0
 40
6.0
 40
6.0
 40
6.0
 40
7.0
 40
7.0
 40
7.0
 40
7.0
 10
103.2061034898235
 20
-136.7885497704904
 30
0.0
 10
103.2061034898235
 20
-136.7885497704904
 30
0.0
 10
102.1022948963494
 20
-136.7885497704904
 30
0.0
 10
102.1022948963494
 20
-136.7885497704904
 30
0.0
 10
102.1022948963494
 20
-136.7885497704904
 30
0.0
 10
102.1022948963494
 20
-137.1185899179773
 30
0.0
 10
102.1022948963494
 20
-137.1185899179773
 30
0.0
 10
102.1022948963494
 20
-137.1185899179773
 30
0.0
 10
101.9541557904837
 20
-137.1185899179773
 30
0.0
 10
101.9541557904837
 20
-137.1185899179773
 30
0.0
 10
101.9389973703486
 20
-136.7864827131992
 30
0.0
 10
101.7763888634448
 20
-136.7399739241484
 30
0.0
 10
101.6620116933345
 20
-136.7103461029752
 30
0.0
 10
101.6620116933345
 20
-136.7103461029752
 30
0.0
 10
101.6620116933345
 20
-136.5642740544006
 30
0.0
 10
101.6620116933345
 20
-136.5642740544006
 30
0.0
 10
101.6620116933345
 20
-136.5642740544006
 30
0.0
 10
103.2061034898235
 20
-136.5642740544006
 30
0.0
 10
103.2061034898235
 20
-136.5642740544006
 30
0.0
 10
103.2061034898235
 20
-136.5642740544006
 30
0.0
 10
103.2061034898235
 20
-136.7885497704904
 30
0.0
 10
103.2061034898235
 20
-136.7885497704904
 30
0.0
  0
HATCH
  5
62
330
5D
100
AcDbEntity
  8
_U+30EC_U+30A4_U+30E4_U+30FC 1
 62
   179
420
  2234388
100
AcDbHatch
 10
0.0
 20
0.0
 30
0.0
210
0.0
220
0.0
230
1.0
  2
SOLID
 70
     1
 71
     0
 91
        1
 92
        1
 93
        1
 72
     4
 94
        3
 73
     0
 74
     1
 95
       26
 96
       22
 40
0.0
 40
0.0
 40
0.0
 40
0.0
 40
1.0
 40
1.0
 40
1.0
 40
2.0
 40
2.0
 40
2.0
 40
3.0
 40
3.0
 40
3.0
 40
4.0
 40
4.0
 40
4.0
 40
5.0
 40
5.0
 40
5.0
 40
6.0
 40
6.0
 40
6.0
 40
7.0
 40
7.0
 40
7.0
 40
7.0
 10
103.2061034898235
 20
-136.7885497704904
 10
103.2061034898235
 20
-136.7885497704904
 10
102.1022948963494
 20
-136.7885497704904
 10
102.1022948963494
 20
-136.7885497704904
 10
102.1022948963494
 20
-136.7885497704904
 10
102.1022948963494
 20
-137.1185899179773
 10
102.1022948963494
 20
-137.1185899179773
 10
102.1022948963494
 20
-137.1185899179773
 10
101.9541557904837
 20
-137.1185899179773
 10
101.9541557904837
 20
-137.1185899179773
 10
101.9389973703486
 20
-136.7864827131992
 10
101.7763888634448
 20
-136.7399739241484
 10
101.6620116933345
 20
-136.7103461029752
 10
101.6620116933345
 20
-136.7103461029752
 10
101.6620116933345
 20
-136.5642740544006
 10
101.6620116933345
 20
-136.5642740544006
 10
101.6620116933345
 20
-136.5642740544006
 10
103.2061034898235
 20
-136.5642740544006
 10
103.2061034898235
 20
-136.5642740544006
 10
103.2061034898235
 20
-136.5642740544006
 10
103.2061034898235
 20
-136.7885497704904
 10
103.2061034898235
 20
-136.7885497704904
 97
        0
 97
        0
 75
     2
 76
     1
 98
        0
  0
ENDBLK
  5
60
330
5D
100
AcDbEntity
  8
0
100
AcDbBlockEnd
  0
BLOCK
  5
65
330
63
100
AcDbEntity
  8
0
100
AcDbBlockBegin
  2
block 3
 70
     0
 10
0.0
 20
0.0
 30
0.0
  3
block 3
  1

  0
SPLINE
  5
67
330
63
100
AcDbEntity
  8
_U+30EC_U+30A4_U+30E4_U+30FC 1
370
     0
100
AcDbSpline
210
0.0
220
0.0
230
1.0
 70
    11
 71
     3
 72
    26
 73
    22
 74
     0
 42
0.0000000001
 43
0.0000000001
 12
1.0
 22
0.0
 32
0.0
 13
1.0
 23
0.0
 33
0.0
 40
0.0
 40
0.0
 40
0.0
 40
0.0
 40
1.0
 40
1.0
 40
1.0
 40
2.0
 40
2.0
 40
2.0
 40
3.0
 40
3.0
 40
3.0
 40
4.0
 40
4.0
 40
4.0
 40
5.0
 40
5.0
 40
5.0
 40
6.0
 40
6.0
 40
6.0
 40
7.0
 40
7.0
 40
7.0
 40
7.0
 10
103.2061034898235
 20
-130.3885958875418
 30
0.0
 10
103.2061034898235
 20
-130.3885958875418
 30
0.0
 10
102.1022948963494
 20
-130.3885958875418
 30
0.0
 10
102.1022948963494
 20
-130.3885958875418
 30
0.0
 10
102.1022948963494
 20
-130.3885958875418
 30
0.0
 10
102.1022948963494
 20
-130.7186360350287
 30
0.0
 10
102.1022948963494
 20
-130.7186360350287
 30
0.0
 10
102.1022948963494
 20
-130.7186360350287
 30
0.0
 10
101.9541557904837
 20
-130.7186360350287
 30
0.0
 10
101.9541557904837
 20
-130.7186360350287
 30
0.0
 10
101.9389973703486
 20
-130.3865288302506
 30
0.0
 10
101.7763888634448
 20
-130.3400200411997
 30
0.0
 10
101.6620116933345
 20
-130.3103922200266
 30
0.0
 10
101.6620116933345
 20
-130.3103922200266
 30
0.0
 10
101.6620116933345
 20
-130.164320171452
 30
0.0
 10
101.6620116933345
 20
-130.164320171452
 30
0.0
 10
101.6620116933345
 20
-130.164320171452
 30
0.0
 10
103.2061034898235
 20
-130.164320171452
 30
0.0
 10
103.2061034898235
 20
-130.164320171452
 30
0.0
 10
103.2061034898235
 20
-130.164320171452
 30
0.0
 10
103.2061034898235
 20
-130.3885958875418
 30
0.0
 10
103.2061034898235
 20
-130.3885958875418
 30
0.0
  0
HATCH
  5
68
330
63
100
AcDbEntity
  8
_U+30EC_U+30A4_U+30E4_U+30FC 1
 62
   179
420
  2234388
100
AcDbHatch
 10
0.0
 20
0.0
 30
0.0
210
0.0
220
0.0
230
1.0
  2
SOLID
 70
     1
 71
     0
 91
        1
 92
        1
 93
        1
 72
     4
 94
        3
 73
     0
 74
     1
 95
       26
 96
       22
 40
0.0
 40
0.0
 40
0.0
 40
0.0
 40
1.0
 40
1.0
 40
1.0
 40
2.0
 40
2.0
 40
2.0
 40
3.0
 40
3.0
 40
3.0
 40
4.0
 40
4.0
 40
4.0
 40
5.0
 40
5.0
 40
5.0
 40
6.0
 40
6.0
 40
6.0
 40
7.0
 40
7.0
 40
7.0
 40
7.0
 10
103.2061034898235
 20
-130.3885958875418
 10
103.2061034898235
 20
-130.3885958875418
 10
102.1022948963494
 20
-130.3885958875418
 10
102.1022948963494
 20
-130.3885958875418
 10
102.1022948963494
 20
-130.3885958875418
 10
102.1022948963494
 20
-130.7186360350287
 10
102.1022948963494
 20
-130.7186360350287
 10
102.1022948963494
 20
-130.7186360350287
 10
101.9541557904837
 20
-130.7186360350287
 10
101.9541557904837
 20
-130.7186360350287
 10
101.9389973703486
 20
-130.3865288302506
 10
101.7763888634448
 20
-130.3400200411997
 10
101.6620116933345
 20
-130.3103922200266
 10
101.6620116933345
 20
-130.3103922200266
 10
101.6620116933345
 20
-130.164320171452
 10
101.6620116933345
 20
-130.164320171452
 10
101.6620116933345
 20
-130.164320171452
 10
103.2061034898235
 20
-130.164320171452
 10
103.2061034898235
 20
-130.164320171452
 10
103.2061034898235
 20
-130.164320171452
 10
103.2061034898235
 20
-130.3885958875418
 10
103.2061034898235
 20
-130.3885958875418
 97
        0
 97
        0
 75
     2
 76
     1
 98
        0
  0
SPLINE
  5
69
330
63
100
AcDbEntity
  8
_U+30EC_U+30A4_U+30E4_U+30FC 1
370
     0
100
AcDbSpline
210
0.0
220
0.0
230
1.0
 70
    11
 71
     3
 72
    62
 73
    58
 74
     0
 42
0.0000000001
 43
0.0000000001
 12
1.0
 22
0.0
 32
0.0
 13
1.0
 23
0.0
 33
0.0
 40
0.0
 40
0.0
 40
0.0
 40
0.0
 40
1.0
 40
1.0
 40
1.0
 40
2.0
 40
2.0
 40
2.0
 40
3.0
 40
3.0
 40
3.0
 40
4.0
 40
4.0
 40
4.0
 40
5.0
 40
5.0
 40
5.0
 40
6.0
 40
6.0
 40
6.0
 40
7.0
 40
7.0
 40
7.0
 40
8.0
 40
8.0
 40
8.0
 40
9.0
 40
9.0
 40
9.0
 40
10.0
 40
10.0
 40
10.0
 40
11.0
 40
11.0
 40
11.0
 40
12.0
 40
12.0
 40
12.0
 40
13.0
 40
13.0
 40
13.0
 40
14.0
 40
14.0
 40
14.0
 40
15.0
 40
15.0
 40
15.0
 40
16.0
 40
16.0
 40
16.0
 40
17.0
 40
17.0
 40
17.0
 40
18.0
 40
18.0
 40
18.0
 40
19.0
 40
19.0
 40
19.0
 40
19.0
 10
103.2570909030052
 20
-129.171443652603
 30
0.0
 10
103.2570909030052
 20
-129.2668727975444
 30
0.0
 10
103.2357313109966
 20
-129.4846028322122
 30
0.0
 10
103.0496961547931
 20
-129.6096597983268
 30
0.0
 10
102.937386041974
 20
-129.6837293512596
 30
0.0
 10
102.8381672919988
 20
-129.6878634658419
 30
0.0
 10
102.7534179430616
 20
-129.6919975804242
 30
0.0
 10
102.7534179430616
 20
-129.6919975804242
 30
0.0
 10
102.7534179430616
 20
-129.4718559789168
 30
0.0
 10
102.7534179430616
 20
-129.4718559789168
 30
0.0
 10
102.827832005543
 20
-129.4697889216256
 30
0.0
 10
103.06209849854
 20
-129.4594536351699
 30
0.0
 10
103.06209849854
 20
-129.1759222767338
 30
0.0
 10
103.06209849854
 20
-129.0384629668723
 30
0.0
 10
102.992507569738
 20
-128.8858452368758
 30
0.0
 10
102.7644422486144
 20
-128.8858452368758
 30
0.0
 10
102.647998021213
 20
-128.8858452368758
 30
0.0
 10
102.5990776653225
 20
-128.924085796762
 30
0.0
 10
102.5673827868582
 20
-128.9557806752264
 30
0.0
 10
102.4936577434738
 20
-129.0298502281592
 30
0.0
 10
102.4805663806299
 20
-129.1462944555606
 30
0.0
 10
102.4805663806299
 20
-129.2010714737761
 30
0.0
 10
102.4805663806299
 20
-129.2203640084935
 30
0.0
 10
102.482633437921
 20
-129.2561930015401
 30
0.0
 10
102.4867675525033
 20
-129.2837537654221
 30
0.0
 10
102.4867675525033
 20
-129.2837537654221
 30
0.0
 10
102.2924641671352
 20
-129.2837537654221
 30
0.0
 10
102.2924641671352
 20
-129.2837537654221
 30
0.0
 10
102.2986653390087
 20
-129.2455132055358
 30
0.0
 10
102.3007323962998
 20
-129.2034830406158
 30
0.0
 10
102.3007323962998
 20
-129.1969373591938
 30
0.0
 10
102.3007323962998
 20
-129.1314805449741
 30
0.0
 10
102.2793728042913
 20
-128.9326985354752
 30
0.0
 10
102.0430392540031
 20
-128.9326985354752
 30
0.0
 10
101.8652723269642
 20
-128.9326985354752
 30
0.0
 10
101.8101507992002
 20
-129.0636121639147
 30
0.0
 10
101.8101507992002
 20
-129.1738552194427
 30
0.0
 10
101.8101507992002
 20
-129.4380940431613
 30
0.0
 10
102.0430392540031
 20
-129.4467067818744
 30
0.0
 10
102.1146972400963
 20
-129.4508408964568
 30
0.0
 10
102.1146972400963
 20
-129.4508408964568
 30
0.0
 10
102.1146972400963
 20
-129.6541015300865
 30
0.0
 10
102.1146972400963
 20
-129.6541015300865
 30
0.0
 10
101.9899847835303
 20
-129.6454887913734
 30
0.0
 10
101.6130913374439
 20
-129.6179280274914
 30
0.0
 10
101.6130913374439
 20
-129.1611083661472
 30
0.0
 10
101.6130913374439
 20
-128.9368326500575
 30
0.0
 10
101.7405598703982
 20
-128.69567596609
 30
0.0
 10
102.0361490630326
 20
-128.69567596609
 30
0.0
 10
102.2228732383332
 20
-128.69567596609
 30
0.0
 10
102.3048665108821
 20
-128.7907606014829
 30
0.0
 10
102.3661892105196
 20
-128.8903238610066
 30
0.0
 10
102.3937499744016
 20
-128.8290011613691
 30
0.0
 10
102.4743652087564
 20
-128.647100119748
 30
0.0
 10
102.7513508857705
 20
-128.647100119748
 30
0.0
 10
103.089659262422
 20
-128.647100119748
 30
0.0
 10
103.2570909030052
 20
-128.8944579755889
 30
0.0
 10
103.2570909030052
 20
-129.171443652603
 30
0.0
  0
HATCH
  5
6A
330
63
100
AcDbEntity
  8
_U+30EC_U+30A4_U+30E4_U+30FC 1
 62
   179
420
  2234388
100
AcDbHatch
 10
0.0
 20
0.0
 30
0.0
210
0.0
220
0.0
230
1.0
  2
SOLID
 70
     1
 71
     0
 91
        1
 92
        1
 93
        1
 72
     4
 94
        3
 73
     0
 74
     1
 95
       62
 96
       58
 40
0.0
 40
0.0
 40
0.0
 40
0.0
 40
1.0
 40
1.0
 40
1.0
 40
2.0
 40
2.0
 40
2.0
 40
3.0
 40
3.0
 40
3.0
 40
4.0
 40
4.0
 40
4.0
 40
5.0
 40
5.0
 40
5.0
 40
6.0
 40
6.0
 40
6.0
 40
7.0
 40
7.0
 40
7.0
 40
8.0
 40
8.0
 40
8.0
 40
9.0
 40
9.0
 40
9.0
 40
10.0
 40
10.0
 40
10.0
 40
11.0
 40
11.0
 40
11.0
 40
12.0
 40
12.0
 40
12.0
 40
13.0
 40
13.0
 40
13.0
 40
14.0
 40
14.0
 40
14.0
 40
15.0
 40
15.0
 40
15.0
 40
16.0
 40
16.0
 40
16.0
 40
17.0
 40
17.0
 40
17.0
 40
18.0
 40
18.0
 40
18.0
 40
19.0
 40
19.0
 40
19.0
 40
19.0
 10
103.2570909030052
 20
-129.171443652603
 10
103.2570909030052
 20
-129.2668727975444
 10
103.2357313109966
 20
-129.4846028322122
 10
103.0496961547931
 20
-129.6096597983268
 10
102.937386041974
 20
-129.6837293512596
 10
102.8381672919988
 20
-129.6878634658419
 10
102.7534179430616
 20
-129.6919975804242
 10
102.7534179430616
 20
-129.6919975804242
 10
102.7534179430616
 20
-129.4718559789168
 10
102.7534179430616
 20
-129.4718559789168
 10
102.827832005543
 20
-129.4697889216256
 10
103.06209849854
 20
-129.4594536351699
 10
103.06209849854
 20
-129.1759222767338
 10
103.06209849854
 20
-129.0384629668723
 10
102.992507569738
 20
-128.8858452368758
 10
102.7644422486144
 20
-128.8858452368758
 10
102.647998021213
 20
-128.8858452368758
 10
102.5990776653225
 20
-128.924085796762
 10
102.5673827868582
 20
-128.9557806752264
 10
102.4936577434738
 20
-129.0298502281592
 10
102.4805663806299
 20
-129.1462944555606
 10
102.4805663806299
 20
-129.2010714737761
 10
102.4805663806299
 20
-129.2203640084935
 10
102.482633437921
 20
-129.2561930015401
 10
102.4867675525033
 20
-129.2837537654221
 10
102.4867675525033
 20
-129.2837537654221
 10
102.2924641671352
 20
-129.2837537654221
 10
102.2924641671352
 20
-129.2837537654221
 10
102.2986653390087
 20
-129.2455132055358
 10
102.3007323962998
 20
-129.2034830406158
 10
102.3007323962998
 20
-129.1969373591938
 10
102.3007323962998
 20
-129.1314805449741
 10
102.2793728042913
 20
-128.9326985354752
 10
102.0430392540031
 20
-128.9326985354752
 10
101.8652723269642
 20
-128.9326985354752
 10
101.8101507992002
 20
-129.0636121639147
 10
101.8101507992002
 20
-129.1738552194427
 10
101.8101507992002
 20
-129.4380940431613
 10
102.0430392540031
 20
-129.4467067818744
 10
102.1146972400963
 20
-129.4508408964568
 10
102.1146972400963
 20
-129.4508408964568
 10
102.1146972400963
 20
-129.6541015300865
 10
102.1146972400963
 20
-129.6541015300865
 10
101.9899847835303
 20
-129.6454887913734
 10
101.6130913374439
 20
-129.6179280274914
 10
101.6130913374439
 20
-129.1611083661472
 10
101.6130913374439
 20
-128.9368326500575
 10
101.7405598703982
 20
-128.69567596609
 10
102.0361490630326
 20
-128.69567596609
 10
102.2228732383332
 20
-128.69567596609
 10
102.3048665108821
 20
-128.7907606014829
 10
102.3661892105196
 20
-128.8903238610066
 10
102.3937499744016
 20
-128.8290011613691
 10
102.4743652087564
 20
-128.647100119748
 10
102.7513508857705
 20
-128.647100119748
 10
103.089659262422
 20
-128.647100119748
 10
103.2570909030052
 20
-128.8944579755889
 10
103.2570909030052
 20
-129.171443652603
 97
        0
 97
        0
 75
     2
 76
     1
 98
        0
  0
ENDBLK
  5
66
330
63
100
AcDbEntity
  8
0
100
AcDbBlockEnd
  0
BLOCK
  5
6D
330
6B
100
AcDbEntity
  8
0
100
AcDbBlockBegin
  2
block 4
 70
     0
 10
0.0
 20
0.0
 30
0.0
  3
block 4
  1

  0
SPLINE
  5
6F
330
6B
100
AcDbEntity
  8
_U+30EC_U+30A4_U+30E4_U+30FC 1
370
     0
100
AcDbSpline
210
0.0
220
0.0
230
1.0
 70
    11
 71
     3
 72
    62
 73
    58
 74
     0
 42
0.0000000001
 43
0.0000000001
 12
1.0
 22
0.0
 32
0.0
 13
1.0
 23
0.0
 33
0.0
 40
0.0
 40
0.0
 40
0.0
 40
0.0
 40
1.0
 40
1.0
 40
1.0
 40
2.0
 40
2.0
 40
2.0
 40
3.0
 40
3.0
 40
3.0
 40
4.0
 40
4.0
 40
4.0
 40
5.0
 40
5.0
 40
5.0
 40
6.0
 40
6.0
 40
6.0
 40
7.0
 40
7.0
 40
7.0
 40
8.0
 40
8.0
 40
8.0
 40
9.0
 40
9.0
 40
9.0
 40
10.0
 40
10.0
 40
10.0
 40
11.0
 40
11.0
 40
11.0
 40
12.0
 40
12.0
 40
12.0
 40
13.0
 40
13.0
 40
13.0
 40
14.0
 40
14.0
 40
14.0
 40
15.0
 40
15.0
 40
15.0
 40
16.0
 40
16.0
 40
16.0
 40
17.0
 40
17.0
 40
17.0
 40
18.0
 40
18.0
 40
18.0
 40
19.0
 40
19.0
 40
19.0
 40
19.0
 10
99.25664602553306
 20
-121.7482964105351
 30
0.0
 10
99.25664602553306
 20
-121.8437255554766
 30
0.0
 10
99.23563094307305
 20
-122.0614555901444
 30
0.0
 10
99.04959578686955
 20
-122.1865125562589
 30
0.0
 10
98.9372856740504
 20
-122.2605821091918
 30
0.0
 10
98.8380669240752
 20
-122.2647162237741
 30
0.0
 10
98.75331757513807
 20
-122.2688503383564
 30
0.0
 10
98.75331757513807
 20
-122.2688503383564
 30
0.0
 10
98.75331757513807
 20
-122.0487087368489
 30
0.0
 10
98.75331757513807
 20
-122.0487087368489
 30
0.0
 10
98.82738712807094
 20
-122.0466416795578
 30
0.0
 10
99.06199813061644
 20
-122.036306393102
 30
0.0
 10
99.06199813061644
 20
-121.752775034666
 30
0.0
 10
99.06199813061644
 20
-121.6153157248045
 30
0.0
 10
98.9924072018144
 20
-121.4626979948079
 30
0.0
 10
98.76399737114234
 20
-121.4626979948079
 30
0.0
 10
98.6475531437409
 20
-121.4626979948079
 30
0.0
 10
98.59897729739887
 20
-121.5009385546942
 30
0.0
 10
98.56728241893457
 20
-121.5326334331585
 30
0.0
 10
98.4932128660017
 20
-121.6067029860914
 30
0.0
 10
98.48046601270627
 20
-121.7231472134928
 30
0.0
 10
98.48046601270627
 20
-121.7779242317083
 30
0.0
 10
98.48046601270627
 20
-121.7972167664257
 30
0.0
 10
98.48253306999743
 20
-121.8330457594723
 30
0.0
 10
98.48666718457973
 20
-121.8606065233543
 30
0.0
 10
98.48666718457973
 20
-121.8606065233543
 30
0.0
 10
98.29201928966312
 20
-121.8606065233543
 30
0.0
 10
98.29201928966312
 20
-121.8606065233543
 30
0.0
 10
98.29856497108509
 20
-121.822365963468
 30
0.0
 10
98.30063202837624
 20
-121.780335798548
 30
0.0
 10
98.30063202837624
 20
-121.773790117126
 30
0.0
 10
98.30063202837624
 20
-121.7083333029063
 30
0.0
 10
98.27927243636769
 20
-121.5095512934073
 30
0.0
 10
98.04259437653103
 20
-121.5095512934073
 30
0.0
 10
97.86482744949213
 20
-121.5095512934073
 30
0.0
 10
97.80970592172814
 20
-121.6404649218468
 30
0.0
 10
97.80970592172814
 20
-121.7507079773748
 30
0.0
 10
97.80970592172814
 20
-122.0149468010935
 30
0.0
 10
98.04259437653103
 20
-122.0235595398066
 30
0.0
 10
98.11425236262421
 20
-122.0276936543889
 30
0.0
 10
98.11425236262421
 20
-122.0276936543889
 30
0.0
 10
98.11425236262421
 20
-122.2309542880187
 30
0.0
 10
98.11425236262421
 20
-122.2309542880187
 30
0.0
 10
97.98953990605817
 20
-122.2223415493055
 30
0.0
 10
97.61299096952037
 20
-122.1947807854235
 30
0.0
 10
97.61299096952037
 20
-121.7379611240794
 30
0.0
 10
97.61299096952037
 20
-121.5136854079896
 30
0.0
 10
97.74011499292608
 20
-121.2725287240222
 30
0.0
 10
98.03604869510905
 20
-121.2725287240222
 30
0.0
 10
98.22242836086106
 20
-121.2725287240222
 30
0.0
 10
98.30476614295854
 20
-121.367613359415
 30
0.0
 10
98.36608884259599
 20
-121.4671766189388
 30
0.0
 10
98.39364960647798
 20
-121.4058539193013
 30
0.0
 10
98.4739203312843
 20
-121.2239528776801
 30
0.0
 10
98.75125051784691
 20
-121.2239528776801
 30
0.0
 10
99.08955889449845
 20
-121.2239528776801
 30
0.0
 10
99.25664602553306
 20
-121.4713107335211
 30
0.0
 10
99.25664602553306
 20
-121.7482964105351
 30
0.0
  0
HATCH
  5
70
330
6B
100
AcDbEntity
  8
_U+30EC_U+30A4_U+30E4_U+30FC 1
 62
   179
420
  2234388
100
AcDbHatch
 10
0.0
 20
0.0
 30
0.0
210
0.0
220
0.0
230
1.0
  2
SOLID
 70
     1
 71
     0
 91
        1
 92
        1
 93
        1
 72
     4
 94
        3
 73
     0
 74
     1
 95
       62
 96
       58
 40
0.0
 40
0.0
 40
0.0
 40
0.0
 40
1.0
 40
1.0
 40
1.0
 40
2.0
 40
2.0
 40
2.0
 40
3.0
 40
3.0
 40
3.0
 40
4.0
 40
4.0
 40
4.0
 40
5.0
 40
5.0
 40
5.0
 40
6.0
 40
6.0
 40
6.0
 40
7.0
 40
7.0
 40
7.0
 40
8.0
 40
8.0
 40
8.0
 40
9.0
 40
9.0
 40
9.0
 40
10.0
 40
10.0
 40
10.0
 40
11.0
 40
11.0
 40
11.0
 40
12.0
 40
12.0
 40
12.0
 40
13.0
 40
13.0
 40
13.0
 40
14.0
 40
14.0
 40
14.0
 40
15.0
 40
15.0
 40
15.0
 40
16.0
 40
16.0
 40
16.0
 40
17.0
 40
17.0
 40
17.0
 40
18.0
 40
18.0
 40
18.0
 40
19.0
 40
19.0
 40
19.0
 40
19.0
 10
99.25664602553306
 20
-121.7482964105351
 10
99.25664602553306
 20
-121.8437255554766
 10
99.23563094307305
 20
-122.0614555901444
 10
99.04959578686955
 20
-122.1865125562589
 10
98.9372856740504
 20
-122.2605821091918
 10
98.8380669240752
 20
-122.2647162237741
 10
98.75331757513807
 20
-122.2688503383564
 10
98.75331757513807
 20
-122.2688503383564
 10
98.75331757513807
 20
-122.0487087368489
 10
98.75331757513807
 20
-122.0487087368489
 10
98.82738712807094
 20
-122.0466416795578
 10
99.06199813061644
 20
-122.036306393102
 10
99.06199813061644
 20
-121.752775034666
 10
99.06199813061644
 20
-121.6153157248045
 10
98.9924072018144
 20
-121.4626979948079
 10
98.76399737114234
 20
-121.4626979948079
 10
98.6475531437409
 20
-121.4626979948079
 10
98.59897729739887
 20
-121.5009385546942
 10
98.56728241893457
 20
-121.5326334331585
 10
98.4932128660017
 20
-121.6067029860914
 10
98.48046601270627
 20
-121.7231472134928
 10
98.48046601270627
 20
-121.7779242317083
 10
98.48046601270627
 20
-121.7972167664257
 10
98.48253306999743
 20
-121.8330457594723
 10
98.48666718457973
 20
-121.8606065233543
 10
98.48666718457973
 20
-121.8606065233543
 10
98.29201928966312
 20
-121.8606065233543
 10
98.29201928966312
 20
-121.8606065233543
 10
98.29856497108509
 20
-121.822365963468
 10
98.30063202837624
 20
-121.780335798548
 10
98.30063202837624
 20
-121.773790117126
 10
98.30063202837624
 20
-121.7083333029063
 10
98.27927243636769
 20
-121.5095512934073
 10
98.04259437653103
 20
-121.5095512934073
 10
97.86482744949213
 20
-121.5095512934073
 10
97.80970592172814
 20
-121.6404649218468
 10
97.80970592172814
 20
-121.7507079773748
 10
97.80970592172814
 20
-122.0149468010935
 10
98.04259437653103
 20
-122.0235595398066
 10
98.11425236262421
 20
-122.0276936543889
 10
98.11425236262421
 20
-122.0276936543889
 10
98.11425236262421
 20
-122.2309542880187
 10
98.11425236262421
 20
-122.2309542880187
 10
97.98953990605817
 20
-122.2223415493055
 10
97.61299096952037
 20
-122.1947807854235
 10
97.61299096952037
 20
-121.7379611240794
 10
97.61299096952037
 20
-121.5136854079896
 10
97.74011499292608
 20
-121.2725287240222
 10
98.03604869510905
 20
-121.2725287240222
 10
98.22242836086106
 20
-121.2725287240222
 10
98.30476614295854
 20
-121.367613359415
 10
98.36608884259599
 20
-121.4671766189388
 10
98.39364960647798
 20
-121.4058539193013
 10
98.4739203312843
 20
-121.2239528776801
 10
98.75125051784691
 20
-121.2239528776801
 10
99.08955889449845
 20
-121.2239528776801
 10
99.25664602553306
 20
-121.4713107335211
 10
99.25664602553306
 20
-121.7482964105351
 97
        0
 97
        0
 75
     2
 76
     1
 98
        0
  0
ENDBLK
  5
6E
330
6B
100
AcDbEntity
  8
0
100
AcDbBlockEnd
  0
BLOCK
  5
7F
330
7D
100
AcDbEntity
  8
0
100
AcDbBlockBegin
  2
block 5
 70
     0
 10
0.0
 20
0.0
 30
0.0
  3
block 5
  1

  0
SPLINE
  5
81
330
7D
100
AcDbEntity
  8
_U+30EC_U+30A4_U+30E4_U+30FC 1
370
     0
100
AcDbSpline
210
0.0
220
0.0
230
1.0
 70
    11
 71
     3
 72
    44
 73
    40
 74
     0
 42
0.0000000001
 43
0.0000000001
 12
1.0
 22
0.0
 32
0.0
 13
1.0
 23
0.0
 33
0.0
 40
0.0
 40
0.0
 40
0.0
 40
0.0
 40
1.0
 40
1.0
 40
1.0
 40
2.0
 40
2.0
 40
2.0
 40
3.0
 40
3.0
 40
3.0
 40
4.0
 40
4.0
 40
4.0
 40
5.0
 40
5.0
 40
5.0
 40
6.0
 40
6.0
 40
6.0
 40
7.0
 40
7.0
 40
7.0
 40
8.0
 40
8.0
 40
8.0
 40
9.0
 40
9.0
 40
9.0
 40
10.0
 40
10.0
 40
10.0
 40
11.0
 40
11.0
 40
11.0
 40
12.0
 40
12.0
 40
12.0
 40
13.0
 40
13.0
 40
13.0
 40
13.0
 10
87.68319225238476
 20
-139.8684651343037
 30
0.0
 10
87.46546221771698
 20
-140.0272840361737
 30
0.0
 10
87.37244463961522
 20
-140.1013535891066
 30
0.0
 10
87.32352428372468
 20
-140.2450140708415
 30
0.0
 10
87.32352428372468
 20
-140.2450140708415
 30
0.0
 10
88.10211586339115
 20
-140.2450140708415
 30
0.0
 10
88.10211586339115
 20
-140.2450140708415
 30
0.0
 10
88.10211586339115
 20
-140.2450140708415
 30
0.0
 10
88.10211586339115
 20
-140.4503417617624
 30
0.0
 10
88.10211586339115
 20
-140.4503417617624
 30
0.0
 10
88.10211586339115
 20
-140.4503417617624
 30
0.0
 10
87.07409937059259
 20
-140.4503417617624
 30
0.0
 10
87.07409937059259
 20
-140.4503417617624
 30
0.0
 10
87.10579424905688
 20
-140.0927408503935
 30
0.0
 10
87.17125106327664
 20
-140.0145371828783
 30
0.0
 10
87.55641273852757
 20
-139.7161919138557
 30
0.0
 10
87.81238333308163
 20
-139.5174099043568
 30
0.0
 10
87.87784014730138
 20
-139.4495415232973
 30
0.0
 10
87.87784014730138
 20
-139.3120822134359
 30
0.0
 10
87.87784014730138
 20
-139.1935709287433
 30
0.0
 10
87.80583765165966
 20
-139.0626573003038
 30
0.0
 10
87.60912269945189
 20
-139.0626573003038
 30
0.0
 10
87.34901799031553
 20
-139.0626573003038
 30
0.0
 10
87.34074976115093
 20
-139.293134188267
 30
0.0
 10
87.3362711370201
 20
-139.4095784156684
 30
0.0
 10
87.3362711370201
 20
-139.4095784156684
 30
0.0
 10
87.11199542093034
 20
-139.4095784156684
 30
0.0
 10
87.11199542093034
 20
-139.4095784156684
 30
0.0
 10
87.12060815964347
 20
-139.2824543922627
 30
0.0
 10
87.13128795564774
 20
-139.1704887889921
 30
0.0
 10
87.21155868045406
 20
-139.0519775042995
 30
0.0
 10
87.32145722643352
 20
-138.8910915451384
 30
0.0
 10
87.50783689218555
 20
-138.8573296093829
 30
0.0
 10
87.62393661003847
 20
-138.8573296093829
 30
0.0
 10
87.90126679660108
 20
-138.8573296093829
 30
0.0
 10
88.10866154481312
 20
-139.0412977082952
 30
0.0
 10
88.10866154481312
 20
-139.314149270727
 30
0.0
 10
88.10866154481312
 20
-139.5429036109476
 30
0.0
 10
87.99221731741167
 20
-139.6421223609228
 30
0.0
 10
87.68319225238476
 20
-139.8684651343037
 30
0.0
  0
HATCH
  5
82
330
7D
100
AcDbEntity
  8
_U+30EC_U+30A4_U+30E4_U+30FC 1
 62
   179
420
  2234388
100
AcDbHatch
 10
0.0
 20
0.0
 30
0.0
210
0.0
220
0.0
230
1.0
  2
SOLID
 70
     1
 71
     0
 91
        1
 92
        1
 93
        1
 72
     4
 94
        3
 73
     0
 74
     1
 95
       44
 96
       40
 40
0.0
 40
0.0
 40
0.0
 40
0.0
 40
1.0
 40
1.0
 40
1.0
 40
2.0
 40
2.0
 40
2.0
 40
3.0
 40
3.0
 40
3.0
 40
4.0
 40
4.0
 40
4.0
 40
5.0
 40
5.0
 40
5.0
 40
6.0
 40
6.0
 40
6.0
 40
7.0
 40
7.0
 40
7.0
 40
8.0
 40
8.0
 40
8.0
 40
9.0
 40
9.0
 40
9.0
 40
10.0
 40
10.0
 40
10.0
 40
11.0
 40
11.0
 40
11.0
 40
12.0
 40
12.0
 40
12.0
 40
13.0
 40
13.0
 40
13.0
 40
13.0
 10
87.68319225238476
 20
-139.8684651343037
 10
87.46546221771698
 20
-140.0272840361737
 10
87.37244463961522
 20
-140.1013535891066
 10
87.32352428372468
 20
-140.2450140708415
 10
87.32352428372468
 20
-140.2450140708415
 10
88.10211586339115
 20
-140.2450140708415
 10
88.10211586339115
 20
-140.2450140708415
 10
88.10211586339115
 20
-140.2450140708415
 10
88.10211586339115
 20
-140.4503417617624
 10
88.10211586339115
 20
-140.4503417617624
 10
88.10211586339115
 20
-140.4503417617624
 10
87.07409937059259
 20
-140.4503417617624
 10
87.07409937059259
 20
-140.4503417617624
 10
87.10579424905688
 20
-140.0927408503935
 10
87.17125106327664
 20
-140.0145371828783
 10
87.55641273852757
 20
-139.7161919138557
 10
87.81238333308163
 20
-139.5174099043568
 10
87.87784014730138
 20
-139.4495415232973
 10
87.87784014730138
 20
-139.3120822134359
 10
87.87784014730138
 20
-139.1935709287433
 10
87.80583765165966
 20
-139.0626573003038
 10
87.60912269945189
 20
-139.0626573003038
 10
87.34901799031553
 20
-139.0626573003038
 10
87.34074976115093
 20
-139.293134188267
 10
87.3362711370201
 20
-139.4095784156684
 10
87.3362711370201
 20
-139.4095784156684
 10
87.11199542093034
 20
-139.4095784156684
 10
87.11199542093034
 20
-139.4095784156684
 10
87.12060815964347
 20
-139.2824543922627
 10
87.13128795564774
 20
-139.1704887889921
 10
87.21155868045406
 20
-139.0519775042995
 10
87.32145722643352
 20
-138.8910915451384
 10
87.50783689218555
 20
-138.8573296093829
 10
87.62393661003847
 20
-138.8573296093829
 10
87.90126679660108
 20
-138.8573296093829
 10
88.10866154481312
 20
-139.0412977082952
 10
88.10866154481312
 20
-139.314149270727
 10
88.10866154481312
 20
-139.5429036109476
 10
87.99221731741167
 20
-139.6421223609228
 10
87.68319225238476
 20
-139.8684651343037
 97
        0
 97
        0
 75
     2
 76
     1
 98
        0
  0
SPLINE
  5
83
330
7D
100
AcDbEntity
  8
_U+30EC_U+30A4_U+30E4_U+30FC 1
370
     0
100
AcDbSpline
210
0.0
220
0.0
230
1.0
 70
    11
 71
     3
 72
    53
 73
    49
 74
     0
 42
0.0000000001
 43
0.0000000001
 12
1.0
 22
0.0
 32
0.0
 13
1.0
 23
0.0
 33
0.0
 40
0.0
 40
0.0
 40
0.0
 40
0.0
 40
1.0
 40
1.0
 40
1.0
 40
2.0
 40
2.0
 40
2.0
 40
3.0
 40
3.0
 40
3.0
 40
4.0
 40
4.0
 40
4.0
 40
5.0
 40
5.0
 40
5.0
 40
6.0
 40
6.0
 40
6.0
 40
7.0
 40
7.0
 40
7.0
 40
8.0
 40
8.0
 40
8.0
 40
9.0
 40
9.0
 40
9.0
 40
10.0
 40
10.0
 40
10.0
 40
11.0
 40
11.0
 40
11.0
 40
12.0
 40
12.0
 40
12.0
 40
13.0
 40
13.0
 40
13.0
 40
14.0
 40
14.0
 40
14.0
 40
15.0
 40
15.0
 40
15.0
 40
16.0
 40
16.0
 40
16.0
 40
16.0
 10
88.74807126687548
 20
-140.5009846653956
 30
0.0
 10
88.66986759936032
 20
-140.5009846653956
 30
0.0
 10
88.56823728254544
 20
-140.4841036975179
 30
0.0
 10
88.46660696573058
 20
-140.4207139405893
 30
0.0
 10
88.29331866282251
 20
-140.3108153946098
 30
0.0
 10
88.27195907081396
 20
-140.1795572566218
 30
0.0
 10
88.25301104564508
 20
-140.0717257679335
 30
0.0
 10
88.25301104564508
 20
-140.0717257679335
 30
0.0
 10
88.4752197044437
 20
-140.0717257679335
 30
0.0
 10
88.4752197044437
 20
-140.0717257679335
 30
0.0
 10
88.52999672265918
 20
-140.2705077774324
 30
0.0
 10
88.65712074606489
 20
-140.3001355986055
 30
0.0
 10
88.75013832416664
 20
-140.3001355986055
 30
0.0
 10
88.88966469131925
 20
-140.3001355986055
 30
0.0
 10
89.04193791176729
 20
-140.2005723390818
 30
0.0
 10
89.04193791176729
 20
-139.9680283938274
 30
0.0
 10
89.04193791176729
 20
-139.7120577992734
 30
0.0
 10
88.86210392743726
 20
-139.6421223609228
 30
0.0
 10
88.74152558545352
 20
-139.6421223609228
 30
0.0
 10
88.70983070698921
 20
-139.6421223609228
 30
0.0
 10
88.56823728254544
 20
-139.6421223609228
 30
0.0
 10
88.479353819026
 20
-139.7713134416197
 30
0.0
 10
88.479353819026
 20
-139.7713134416197
 30
0.0
 10
88.30365394927826
 20
-139.7523654164508
 30
0.0
 10
88.30365394927826
 20
-139.7523654164508
 30
0.0
 10
88.30365394927826
 20
-139.7523654164508
 30
0.0
 10
88.424232291262
 20
-138.9059054557249
 30
0.0
 10
88.424232291262
 20
-138.9059054557249
 30
0.0
 10
88.424232291262
 20
-138.9059054557249
 30
0.0
 10
89.20282387092847
 20
-138.9059054557249
 30
0.0
 10
89.20282387092847
 20
-138.9059054557249
 30
0.0
 10
89.20282387092847
 20
-138.9059054557249
 30
0.0
 10
89.20282387092847
 20
-139.1005533506415
 30
0.0
 10
89.20282387092847
 20
-139.1005533506415
 30
0.0
 10
89.20282387092847
 20
-139.1005533506415
 30
0.0
 10
88.58718530771432
 20
-139.1005533506415
 30
0.0
 10
88.58718530771432
 20
-139.1005533506415
 30
0.0
 10
88.58718530771432
 20
-139.1005533506415
 30
0.0
 10
88.52172849349458
 20
-139.5236110762302
 30
0.0
 10
88.52172849349458
 20
-139.5236110762302
 30
0.0
 10
88.58305119313202
 20
-139.4898491404748
 30
0.0
 10
88.66538897522949
 20
-139.4495415232973
 30
0.0
 10
88.78390025992208
 20
-139.4495415232973
 30
0.0
 10
89.03780379718499
 20
-139.4495415232973
 30
0.0
 10
89.27482636657018
 20
-139.6359211890494
 30
0.0
 10
89.27482636657018
 20
-139.9490803686586
 30
0.0
 10
89.27482636657018
 20
-140.2663736628501
 30
0.0
 10
89.05055065048042
 20
-140.5009846653956
 30
0.0
 10
88.74807126687548
 20
-140.5009846653956
 30
0.0
  0
HATCH
  5
84
330
7D
100
AcDbEntity
  8
_U+30EC_U+30A4_U+30E4_U+30FC 1
 62
   179
420
  2234388
100
AcDbHatch
 10
0.0
 20
0.0
 30
0.0
210
0.0
220
0.0
230
1.0
  2
SOLID
 70
     1
 71
     0
 91
        1
 92
        1
 93
        1
 72
     4
 94
        3
 73
     0
 74
     1
 95
       53
 96
       49
 40
0.0
 40
0.0
 40
0.0
 40
0.0
 40
1.0
 40
1.0
 40
1.0
 40
2.0
 40
2.0
 40
2.0
 40
3.0
 40
3.0
 40
3.0
 40
4.0
 40
4.0
 40
4.0
 40
5.0
 40
5.0
 40
5.0
 40
6.0
 40
6.0
 40
6.0
 40
7.0
 40
7.0
 40
7.0
 40
8.0
 40
8.0
 40
8.0
 40
9.0
 40
9.0
 40
9.0
 40
10.0
 40
10.0
 40
10.0
 40
11.0
 40
11.0
 40
11.0
 40
12.0
 40
12.0
 40
12.0
 40
13.0
 40
13.0
 40
13.0
 40
14.0
 40
14.0
 40
14.0
 40
15.0
 40
15.0
 40
15.0
 40
16.0
 40
16.0
 40
16.0
 40
16.0
 10
88.74807126687548
 20
-140.5009846653956
 10
88.66986759936032
 20
-140.5009846653956
 10
88.56823728254544
 20
-140.4841036975179
 10
88.46660696573058
 20
-140.4207139405893
 10
88.29331866282251
 20
-140.3108153946098
 10
88.27195907081396
 20
-140.1795572566218
 10
88.25301104564508
 20
-140.0717257679335
 10
88.25301104564508
 20
-140.0717257679335
 10
88.4752197044437
 20
-140.0717257679335
 10
88.4752197044437
 20
-140.0717257679335
 10
88.52999672265918
 20
-140.2705077774324
 10
88.65712074606489
 20
-140.3001355986055
 10
88.75013832416664
 20
-140.3001355986055
 10
88.88966469131925
 20
-140.3001355986055
 10
89.04193791176729
 20
-140.2005723390818
 10
89.04193791176729
 20
-139.9680283938274
 10
89.04193791176729
 20
-139.7120577992734
 10
88.86210392743726
 20
-139.6421223609228
 10
88.74152558545352
 20
-139.6421223609228
 10
88.70983070698921
 20
-139.6421223609228
 10
88.56823728254544
 20
-139.6421223609228
 10
88.479353819026
 20
-139.7713134416197
 10
88.479353819026
 20
-139.7713134416197
 10
88.30365394927826
 20
-139.7523654164508
 10
88.30365394927826
 20
-139.7523654164508
 10
88.30365394927826
 20
-139.7523654164508
 10
88.424232291262
 20
-138.9059054557249
 10
88.424232291262
 20
-138.9059054557249
 10
88.424232291262
 20
-138.9059054557249
 10
89.20282387092847
 20
-138.9059054557249
 10
89.20282387092847
 20
-138.9059054557249
 10
89.20282387092847
 20
-138.9059054557249
 10
89.20282387092847
 20
-139.1005533506415
 10
89.20282387092847
 20
-139.1005533506415
 10
89.20282387092847
 20
-139.1005533506415
 10
88.58718530771432
 20
-139.1005533506415
 10
88.58718530771432
 20
-139.1005533506415
 10
88.58718530771432
 20
-139.1005533506415
 10
88.52172849349458
 20
-139.5236110762302
 10
88.52172849349458
 20
-139.5236110762302
 10
88.58305119313202
 20
-139.4898491404748
 10
88.66538897522949
 20
-139.4495415232973
 10
88.78390025992208
 20
-139.4495415232973
 10
89.03780379718499
 20
-139.4495415232973
 10
89.27482636657018
 20
-139.6359211890494
 10
89.27482636657018
 20
-139.9490803686586
 10
89.27482636657018
 20
-140.2663736628501
 10
89.05055065048042
 20
-140.5009846653956
 10
88.74807126687548
 20
-140.5009846653956
 97
        0
 97
        0
 75
     2
 76
     1
 98
        0
  0
ENDBLK
  5
80
330
7D
100
AcDbEntity
  8
0
100
AcDbBlockEnd
  0
BLOCK
  5
93
330
91
100
AcDbEntity
  8
0
100
AcDbBlockBegin
  2
block 6
 70
     0
 10
0.0
 20
0.0
 30
0.0
  3
block 6
  1

  0
SPLINE
  5
95
330
91
100
AcDbEntity
  8
_U+30EC_U+30A4_U+30E4_U+30FC 1
370
     0
100
AcDbSpline
210
0.0
220
0.0
230
1.0
 70
    11
 71
     3
 72
    26
 73
    22
 74
     0
 42
0.0000000001
 43
0.0000000001
 12
1.0
 22
0.0
 32
0.0
 13
1.0
 23
0.0
 33
0.0
 40
0.0
 40
0.0
 40
0.0
 40
0.0
 40
1.0
 40
1.0
 40
1.0
 40
2.0
 40
2.0
 40
2.0
 40
3.0
 40
3.0
 40
3.0
 40
4.0
 40
4.0
 40
4.0
 40
5.0
 40
5.0
 40
5.0
 40
6.0
 40
6.0
 40
6.0
 40
7.0
 40
7.0
 40
7.0
 40
7.0
 10
87.44203556841727
 20
-116.9895860167596
 30
0.0
 10
87.44203556841727
 20
-116.9895860167596
 30
0.0
 10
87.44203556841727
 20
-115.885432913737
 30
0.0
 10
87.44203556841727
 20
-115.885432913737
 30
0.0
 10
87.44203556841727
 20
-115.885432913737
 30
0.0
 10
87.11199542093034
 20
-115.885432913737
 30
0.0
 10
87.11199542093034
 20
-115.885432913737
 30
0.0
 10
87.11199542093034
 20
-115.885432913737
 30
0.0
 10
87.11199542093034
 20
-115.7372938078712
 30
0.0
 10
87.11199542093034
 20
-115.7372938078712
 30
0.0
 10
87.44410262570842
 20
-115.7224798972847
 30
0.0
 10
87.4906114147593
 20
-115.5595268808324
 30
0.0
 10
87.52023923593245
 20
-115.445149710722
 30
0.0
 10
87.52023923593245
 20
-115.445149710722
 30
0.0
 10
87.66631128450703
 20
-115.445149710722
 30
0.0
 10
87.66631128450703
 20
-115.445149710722
 30
0.0
 10
87.66631128450703
 20
-115.445149710722
 30
0.0
 10
87.66631128450703
 20
-116.9895860167596
 30
0.0
 10
87.66631128450703
 20
-116.9895860167596
 30
0.0
 10
87.66631128450703
 20
-116.9895860167596
 30
0.0
 10
87.44203556841727
 20
-116.9895860167596
 30
0.0
 10
87.44203556841727
 20
-116.9895860167596
 30
0.0
  0
HATCH
  5
96
330
91
100
AcDbEntity
  8
_U+30EC_U+30A4_U+30E4_U+30FC 1
 62
   179
420
  2234388
100
AcDbHatch
 10
0.0
 20
0.0
 30
0.0
210
0.0
220
0.0
230
1.0
  2
SOLID
 70
     1
 71
     0
 91
        1
 92
        1
 93
        1
 72
     4
 94
        3
 73
     0
 74
     1
 95
       26
 96
       22
 40
0.0
 40
0.0
 40
0.0
 40
0.0
 40
1.0
 40
1.0
 40
1.0
 40
2.0
 40
2.0
 40
2.0
 40
3.0
 40
3.0
 40
3.0
 40
4.0
 40
4.0
 40
4.0
 40
5.0
 40
5.0
 40
5.0
 40
6.0
 40
6.0
 40
6.0
 40
7.0
 40
7.0
 40
7.0
 40
7.0
 10
87.44203556841727
 20
-116.9895860167596
 10
87.44203556841727
 20
-116.9895860167596
 10
87.44203556841727
 20
-115.885432913737
 10
87.44203556841727
 20
-115.885432913737
 10
87.44203556841727
 20
-115.885432913737
 10
87.11199542093034
 20
-115.885432913737
 10
87.11199542093034
 20
-115.885432913737
 10
87.11199542093034
 20
-115.885432913737
 10
87.11199542093034
 20
-115.7372938078712
 10
87.11199542093034
 20
-115.7372938078712
 10
87.44410262570842
 20
-115.7224798972847
 10
87.4906114147593
 20
-115.5595268808324
 10
87.52023923593245
 20
-115.445149710722
 10
87.52023923593245
 20
-115.445149710722
 10
87.66631128450703
 20
-115.445149710722
 10
87.66631128450703
 20
-115.445149710722
 10
87.66631128450703
 20
-115.445149710722
 10
87.66631128450703
 20
-116.9895860167596
 10
87.66631128450703
 20
-116.9895860167596
 10
87.66631128450703
 20
-116.9895860167596
 10
87.44203556841727
 20
-116.9895860167596
 10
87.44203556841727
 20
-116.9895860167596
 97
        0
 97
        0
 75
     2
 76
     1
 98
        0
  0
SPLINE
  5
97
330
91
100
AcDbEntity
  8
_U+30EC_U+30A4_U+30E4_U+30FC 1
370
     0
100
AcDbSpline
210
0.0
220
0.0
230
1.0
 70
    11
 71
     3
 72
    29
 73
    25
 74
     0
 42
0.0000000001
 43
0.0000000001
 12
1.0
 22
0.0
 32
0.0
 13
1.0
 23
0.0
 33
0.0
 40
0.0
 40
0.0
 40
0.0
 40
0.0
 40
1.0
 40
1.0
 40
1.0
 40
2.0
 40
2.0
 40
2.0
 40
3.0
 40
3.0
 40
3.0
 40
4.0
 40
4.0
 40
4.0
 40
5.0
 40
5.0
 40
5.0
 40
6.0
 40
6.0
 40
6.0
 40
7.0
 40
7.0
 40
7.0
 40
8.0
 40
8.0
 40
8.0
 40
8.0
 10
89.065364561067
 20
-116.8118190897207
 30
0.0
 10
88.95718856283015
 20
-117.0212808952239
 30
0.0
 10
88.78390025992208
 20
-117.0402289203927
 30
0.0
 10
88.66745603252065
 20
-117.0402289203927
 30
0.0
 10
88.50657007335947
 20
-117.0402289203927
 30
0.0
 10
88.3649766489157
 20
-116.9937201313419
 30
0.0
 10
88.2698920135228
 20
-116.8118190897207
 30
0.0
 10
88.16619463941679
 20
-116.617171194804
 30
0.0
 10
88.14724661424792
 20
-116.3804931349674
 30
0.0
 10
88.14724661424792
 20
-116.2175401185151
 30
0.0
 10
88.14724661424792
 20
-116.0735351272316
 30
0.0
 10
88.16412758212564
 20
-115.8216986472599
 30
0.0
 10
88.2698920135228
 20
-115.6229166377609
 30
0.0
 10
88.37772350221113
 20
-115.4200005136797
 30
0.0
 10
88.5386094613723
 20
-115.39657386438
 30
0.0
 10
88.66745603252065
 20
-115.39657386438
 30
0.0
 10
88.82627493439065
 20
-115.39657386438
 30
0.0
 10
88.96993541612558
 20
-115.4410155961397
 30
0.0
 10
89.065364561067
 20
-115.6229166377609
 30
0.0
 10
89.1645833110422
 20
-115.8154974753864
 30
0.0
 10
89.18800996034189
 20
-116.0439073060585
 30
0.0
 10
89.18800996034189
 20
-116.2175401185151
 30
0.0
 10
89.18800996034189
 20
-116.388761364132
 30
0.0
 10
89.16665036833334
 20
-116.6192382520952
 30
0.0
 10
89.065364561067
 20
-116.8118190897207
 30
0.0
  0
SPLINE
  5
98
330
91
100
AcDbEntity
  8
_U+30EC_U+30A4_U+30E4_U+30FC 1
370
     0
100
AcDbSpline
210
0.0
220
0.0
230
1.0
 70
    11
 71
     3
 72
    17
 73
    13
 74
     0
 42
0.0000000001
 43
0.0000000001
 12
1.0
 22
0.0
 32
0.0
 13
1.0
 23
0.0
 33
0.0
 40
0.0
 40
0.0
 40
0.0
 40
0.0
 40
1.0
 40
1.0
 40
1.0
 40
2.0
 40
2.0
 40
2.0
 40
3.0
 40
3.0
 40
3.0
 40
4.0
 40
4.0
 40
4.0
 40
4.0
 10
88.66745603252065
 20
-115.5891547020055
 30
0.0
 10
88.41803111938856
 20
-115.5891547020055
 30
0.0
 10
88.37117782078916
 20
-115.8726860604416
 30
0.0
 10
88.37117782078916
 20
-116.2175401185151
 30
0.0
 10
88.37117782078916
 20
-116.5369004699977
 30
0.0
 10
88.40735132338428
 20
-116.8455810254761
 30
0.0
 10
88.66745603252065
 20
-116.8455810254761
 30
0.0
 10
88.9151583979101
 20
-116.8455810254761
 30
0.0
 10
88.96373424425212
 20
-116.5644612338797
 30
0.0
 10
88.96373424425212
 20
-116.2175401185151
 30
0.0
 10
88.96373424425212
 20
-115.8978352574839
 30
0.0
 10
88.92549368436585
 20
-115.5891547020055
 30
0.0
 10
88.66745603252065
 20
-115.5891547020055
 30
0.0
  0
HATCH
  5
99
330
91
100
AcDbEntity
  8
_U+30EC_U+30A4_U+30E4_U+30FC 1
 62
   179
420
  2234388
100
AcDbHatch
 10
0.0
 20
0.0
 30
0.0
210
0.0
220
0.0
230
1.0
  2
SOLID
 70
     1
 71
     0
 91
        2
 92
        1
 93
        1
 72
     4
 94
        3
 73
     0
 74
     1
 95
       29
 96
       25
 40
0.0
 40
0.0
 40
0.0
 40
0.0
 40
1.0
 40
1.0
 40
1.0
 40
2.0
 40
2.0
 40
2.0
 40
3.0
 40
3.0
 40
3.0
 40
4.0
 40
4.0
 40
4.0
 40
5.0
 40
5.0
 40
5.0
 40
6.0
 40
6.0
 40
6.0
 40
7.0
 40
7.0
 40
7.0
 40
8.0
 40
8.0
 40
8.0
 40
8.0
 10
89.065364561067
 20
-116.8118190897207
 10
88.95718856283015
 20
-117.0212808952239
 10
88.78390025992208
 20
-117.0402289203927
 10
88.66745603252065
 20
-117.0402289203927
 10
88.50657007335947
 20
-117.0402289203927
 10
88.3649766489157
 20
-116.9937201313419
 10
88.2698920135228
 20
-116.8118190897207
 10
88.16619463941679
 20
-116.617171194804
 10
88.14724661424792
 20
-116.3804931349674
 10
88.14724661424792
 20
-116.2175401185151
 10
88.14724661424792
 20
-116.0735351272316
 10
88.16412758212564
 20
-115.8216986472599
 10
88.2698920135228
 20
-115.6229166377609
 10
88.37772350221113
 20
-115.4200005136797
 10
88.5386094613723
 20
-115.39657386438
 10
88.66745603252065
 20
-115.39657386438
 10
88.82627493439065
 20
-115.39657386438
 10
88.96993541612558
 20
-115.4410155961397
 10
89.065364561067
 20
-115.6229166377609
 10
89.1645833110422
 20
-115.8154974753864
 10
89.18800996034189
 20
-116.0439073060585
 10
89.18800996034189
 20
-116.2175401185151
 10
89.18800996034189
 20
-116.388761364132
 10
89.16665036833334
 20
-116.6192382520952
 10
89.065364561067
 20
-116.8118190897207
 97
        0
 97
        0
 92
        1
 93
        1
 72
     4
 94
        3
 73
     0
 74
     1
 95
       17
 96
       13
 40
0.0
 40
0.0
 40
0.0
 40
0.0
 40
1.0
 40
1.0
 40
1.0
 40
2.0
 40
2.0
 40
2.0
 40
3.0
 40
3.0
 40
3.0
 40
4.0
 40
4.0
 40
4.0
 40
4.0
 10
88.66745603252065
 20
-115.5891547020055
 10
88.41803111938856
 20
-115.5891547020055
 10
88.37117782078916
 20
-115.8726860604416
 10
88.37117782078916
 20
-116.2175401185151
 10
88.37117782078916
 20
-116.5369004699977
 10
88.40735132338428
 20
-116.8455810254761
 10
88.66745603252065
 20
-116.8455810254761
 10
88.9151583979101
 20
-116.8455810254761
 10
88.96373424425212
 20
-116.5644612338797
 10
88.96373424425212
 20
-116.2175401185151
 10
88.96373424425212
 20
-115.8978352574839
 10
88.92549368436585
 20
-115.5891547020055
 10
88.66745603252065
 20
-115.5891547020055
 97
        0
 97
        0
 75
     2
 76
     1
 98
        0
  0
ENDBLK
  5
94
330
91
100
AcDbEntity
  8
0
100
AcDbBlockEnd
  0
ENDSEC
  0
SECTION
  2
ENTITIES
  0
SPLINE
  5
41
330
1F
100
AcDbEntity
  8
_U+30EC_U+30A4_U+30E4_U+30FC 1
 62
   179
420
  2234388
370
     9
100
AcDbSpline
210
0.0
220
0.0
230
1.0
 70
    11
 71
     3
 72
    17
 73
    13
 74
     0
 42
0.0000000001
 43
0.0000000001
 12
1.0
 22
0.0
 32
0.0
 13
1.0
 23
0.0
 33
0.0
 40
0.0
 40
0.0
 40
0.0
 40
0.0
 40
1.0
 40
1.0
 40
1.0
 40
2.0
 40
2.0
 40
2.0
 40
3.0
 40
3.0
 40
3.0
 40
4.0
 40
4.0
 40
4.0
 40
4.0
 10
105.2545634258435
 20
-137.0469346879603
 30
0.0
 10
105.2545634258435
 20
-136.9917955213079
 30
0.0
 10
105.2097606492087
 20
-136.9470280213187
 30
0.0
 10
105.1546567617256
 20
-136.9470280213187
 30
0.0
 10
105.0995175964657
 20
-136.9470280213187
 30
0.0
 10
105.054752751514
 20
-136.9917955213079
 30
0.0
 10
105.054752751514
 20
-137.0469346879603
 30
0.0
 10
105.054752751514
 20
-137.1020385768359
 30
0.0
 10
105.0995175964657
 20
-137.1468413546019
 30
0.0
 10
105.1546567617256
 20
-137.1468413546019
 30
0.0
 10
105.2097606492087
 20
-137.1468413546019
 30
0.0
 10
105.2545634258435
 20
-137.1020385768359
 30
0.0
 10
105.2545634258435
 20
-137.0469346879603
 30
0.0
  0
SPLINE
  5
42
330
1F
100
AcDbEntity
  8
_U+30EC_U+30A4_U+30E4_U+30FC 1
 62
   179
420
  2234388
370
     9
100
AcDbSpline
210
0.0
220
0.0
230
1.0
 70
    11
 71
     3
 72
    17
 73
    13
 74
     0
 42
0.0000000001
 43
0.0000000001
 12
1.0
 22
0.0
 32
0.0
 13
1.0
 23
0.0
 33
0.0
 40
0.0
 40
0.0
 40
0.0
 40
0.0
 40
1.0
 40
1.0
 40
1.0
 40
2.0
 40
2.0
 40
2.0
 40
3.0
 40
3.0
 40
3.0
 40
4.0
 40
4.0
 40
4.0
 40
4.0
 10
105.2545634258435
 20
-136.0468096882107
 30
0.0
 10
105.2545634258435
 20
-135.9917057993357
 30
0.0
 10
105.2097606492087
 20
-135.9472557993468
 30
0.0
 10
105.1546567617256
 20
-135.9472557993468
 30
0.0
 10
105.0995175964657
 20
-135.9472557993468
 30
0.0
 10
105.054752751514
 20
-135.9917057993357
 30
0.0
 10
105.054752751514
 20
-136.0468096882107
 30
0.0
 10
105.054752751514
 20
-136.1019488548637
 30
0.0
 10
105.0995175964657
 20
-136.1467163548523
 30
0.0
 10
105.1546567617256
 20
-136.1467163548523
 30
0.0
 10
105.2097606492087
 20
-136.1467163548523
 30
0.0
 10
105.2545634258435
 20
-136.1019488548637
 30
0.0
 10
105.2545634258435
 20
-136.0468096882107
 30
0.0
  0
SPLINE
  5
43
330
1F
100
AcDbEntity
  8
_U+30EC_U+30A4_U+30E4_U+30FC 1
 62
   179
420
  2234388
370
     9
100
AcDbSpline
210
0.0
220
0.0
230
1.0
 70
    11
 71
     3
 72
    17
 73
    13
 74
     0
 42
0.0000000001
 43
0.0000000001
 12
1.0
 22
0.0
 32
0.0
 13
1.0
 23
0.0
 33
0.0
 40
0.0
 40
0.0
 40
0.0
 40
0.0
 40
1.0
 40
1.0
 40
1.0
 40
2.0
 40
2.0
 40
2.0
 40
3.0
 40
3.0
 40
3.0
 40
4.0
 40
4.0
 40
4.0
 40
4.0
 10
105.2545634258435
 20
-123.0467369136827
 30
0.0
 10
105.2545634258435
 20
-122.9916330248077
 30
0.0
 10
105.2097606492087
 20
-122.946830247041
 30
0.0
 10
105.1546567617256
 20
-122.946830247041
 30
0.0
 10
105.0995175964657
 20
-122.946830247041
 30
0.0
 10
105.054752751514
 20
-122.9916330248077
 30
0.0
 10
105.054752751514
 20
-123.0467369136827
 30
0.0
 10
105.054752751514
 20
-123.1018760803357
 30
0.0
 10
105.0995175964657
 20
-123.1466435803246
 30
0.0
 10
105.1546567617256
 20
-123.1466435803246
 30
0.0
 10
105.2097606492087
 20
-123.1466435803246
 30
0.0
 10
105.2545634258435
 20
-123.1018760803357
 30
0.0
 10
105.2545634258435
 20
-123.0467369136827
 30
0.0
  0
SPLINE
  5
44
330
1F
100
AcDbEntity
  8
_U+30EC_U+30A4_U+30E4_U+30FC 1
 62
   179
420
  2234388
370
     9
100
AcDbSpline
210
0.0
220
0.0
230
1.0
 70
    11
 71
     3
 72
    17
 73
    13
 74
     0
 42
0.0000000001
 43
0.0000000001
 12
1.0
 22
0.0
 32
0.0
 13
1.0
 23
0.0
 33
0.0
 40
0.0
 40
0.0
 40
0.0
 40
0.0
 40
1.0
 40
1.0
 40
1.0
 40
2.0
 40
2.0
 40
2.0
 40
3.0
 40
3.0
 40
3.0
 40
4.0
 40
4.0
 40
4.0
 40
4.0
 10
105.2545634258435
 20
-120.0467499699883
 30
0.0
 10
105.2545634258435
 20
-119.9916460811131
 30
0.0
 10
105.2097606492087
 20
-119.9468433033467
 30
0.0
 10
105.1546567617256
 20
-119.9468433033467
 30
0.0
 10
105.0995175964657
 20
-119.9468433033467
 30
0.0
 10
105.054752751514
 20
-119.9916460811131
 30
0.0
 10
105.054752751514
 20
-120.0467499699883
 30
0.0
 10
105.054752751514
 20
-120.1018891366411
 30
0.0
 10
105.0995175964657
 20
-120.1466566366299
 30
0.0
 10
105.1546567617256
 20
-120.1466566366299
 30
0.0
 10
105.2097606492087
 20
-120.1466566366299
 30
0.0
 10
105.2545634258435
 20
-120.1018891366411
 30
0.0
 10
105.2545634258435
 20
-120.0467499699883
 30
0.0
  0
SPLINE
  5
45
330
1F
100
AcDbEntity
  8
_U+30EC_U+30A4_U+30E4_U+30FC 1
 62
   179
420
  2234388
370
     9
100
AcDbSpline
210
0.0
220
0.0
230
1.0
 70
    11
 71
     3
 72
    17
 73
    13
 74
     0
 42
0.0000000001
 43
0.0000000001
 12
1.0
 22
0.0
 32
0.0
 13
1.0
 23
0.0
 33
0.0
 40
0.0
 40
0.0
 40
0.0
 40
0.0
 40
1.0
 40
1.0
 40
1.0
 40
2.0
 40
2.0
 40
2.0
 40
3.0
 40
3.0
 40
3.0
 40
4.0
 40
4.0
 40
4.0
 40
4.0
 10
100.8551777047478
 20
-141.0473641314045
 30
0.0
 10
100.8551777047478
 20
-140.9922602425296
 30
0.0
 10
100.8103749281131
 20
-140.9474574647629
 30
0.0
 10
100.75527104063
 20
-140.9474574647629
 30
0.0
 10
100.70013187537
 20
-140.9474574647629
 30
0.0
 10
100.6553643765122
 20
-140.9922602425296
 30
0.0
 10
100.6553643765122
 20
-141.0473641314045
 30
0.0
 10
100.6553643765122
 20
-141.1025032980576
 30
0.0
 10
100.70013187537
 20
-141.1472707980468
 30
0.0
 10
100.75527104063
 20
-141.1472707980468
 30
0.0
 10
100.8103749281131
 20
-141.1472707980468
 30
0.0
 10
100.8551777047478
 20
-141.1025032980576
 30
0.0
 10
100.8551777047478
 20
-141.0473641314045
 30
0.0
  0
SPLINE
  5
46
330
1F
100
AcDbEntity
  8
_U+30EC_U+30A4_U+30E4_U+30FC 1
 62
   179
420
  2234388
370
     9
100
AcDbSpline
210
0.0
220
0.0
230
1.0
 70
    11
 71
     3
 72
    17
 73
    13
 74
     0
 42
0.0000000001
 43
0.0000000001
 12
1.0
 22
0.0
 32
0.0
 13
1.0
 23
0.0
 33
0.0
 40
0.0
 40
0.0
 40
0.0
 40
0.0
 40
1.0
 40
1.0
 40
1.0
 40
2.0
 40
2.0
 40
2.0
 40
3.0
 40
3.0
 40
3.0
 40
4.0
 40
4.0
 40
4.0
 40
4.0
 10
75.85480500922715
 20
-141.0473641314045
 30
0.0
 10
75.85480500922715
 20
-140.9922602425296
 30
0.0
 10
75.81000223259238
 20
-140.9474574647629
 30
0.0
 10
75.75489834510931
 20
-140.9474574647629
 30
0.0
 10
75.6997610921863
 20
-140.9474574647629
 30
0.0
 10
75.65499168099147
 20
-140.9922602425296
 30
0.0
 10
75.65499168099147
 20
-141.0473641314045
 30
0.0
 10
75.65499168099147
 20
-141.1025032980576
 30
0.0
 10
75.6997610921863
 20
-141.1472707980468
 30
0.0
 10
75.75489834510931
 20
-141.1472707980468
 30
0.0
 10
75.81000223259238
 20
-141.1472707980468
 30
0.0
 10
75.85480500922715
 20
-141.1025032980576
 30
0.0
 10
75.85480500922715
 20
-141.0473641314045
 30
0.0
  0
SPLINE
  5
47
330
1F
100
AcDbEntity
  8
_U+30EC_U+30A4_U+30E4_U+30FC 1
 62
   179
420
  2234388
370
     9
100
AcDbSpline
210
0.0
220
0.0
230
1.0
 70
    11
 71
     3
 72
    17
 73
    13
 74
     0
 42
0.0000000001
 43
0.0000000001
 12
1.0
 22
0.0
 32
0.0
 13
1.0
 23
0.0
 33
0.0
 40
0.0
 40
0.0
 40
0.0
 40
0.0
 40
1.0
 40
1.0
 40
1.0
 40
2.0
 40
2.0
 40
2.0
 40
3.0
 40
3.0
 40
3.0
 40
4.0
 40
4.0
 40
4.0
 40
4.0
 10
93.35484011831961
 20
-117.5862660817147
 30
0.0
 10
93.35484011831961
 20
-117.5311621928395
 30
0.0
 10
93.31007497667255
 20
-117.4863594150727
 30
0.0
 10
93.25493345420178
 20
-117.4863594150727
 30
0.0
 10
93.1998295667187
 20
-117.4863594150727
 30
0.0
 10
93.15502679008394
 20
-117.5311621928395
 30
0.0
 10
93.15502679008394
 20
-117.5862660817147
 30
0.0
 10
93.15502679008394
 20
-117.6420755261451
 30
0.0
 10
93.1998295667187
 20
-117.6868783039115
 30
0.0
 10
93.25493345420178
 20
-117.6868783039115
 30
0.0
 10
93.31007497667255
 20
-117.6868783039115
 30
0.0
 10
93.35484011831961
 20
-117.6420755261451
 30
0.0
 10
93.35484011831961
 20
-117.5862660817147
 30
0.0
  0
SPLINE
  5
48
330
1F
100
AcDbEntity
  8
_U+30EC_U+30A4_U+30E4_U+30FC 1
 62
   179
420
  2234388
370
     9
100
AcDbSpline
210
0.0
220
0.0
230
1.0
 70
    11
 71
     3
 72
    17
 73
    13
 74
     0
 42
0.0000000001
 43
0.0000000001
 12
1.0
 22
0.0
 32
0.0
 13
1.0
 23
0.0
 33
0.0
 40
0.0
 40
0.0
 40
0.0
 40
0.0
 40
1.0
 40
1.0
 40
1.0
 40
2.0
 40
2.0
 40
2.0
 40
3.0
 40
3.0
 40
3.0
 40
4.0
 40
4.0
 40
4.0
 40
4.0
 10
83.3547898178866
 20
-117.5862660817147
 30
0.0
 10
83.3547898178866
 20
-117.5311621928395
 30
0.0
 10
83.30998704125183
 20
-117.4863594150727
 30
0.0
 10
83.25484997918615
 20
-117.4863594150727
 30
0.0
 10
83.1997439885088
 20
-117.4863594150727
 30
0.0
 10
83.15494121187405
 20
-117.5311621928395
 30
0.0
 10
83.15494121187405
 20
-117.5862660817147
 30
0.0
 10
83.15494121187405
 20
-117.6420755261451
 30
0.0
 10
83.1997439885088
 20
-117.6868783039115
 30
0.0
 10
83.25484997918615
 20
-117.6868783039115
 30
0.0
 10
83.30998704125183
 20
-117.6868783039115
 30
0.0
 10
83.3547898178866
 20
-117.6420755261451
 30
0.0
 10
83.3547898178866
 20
-117.5862660817147
 30
0.0
  0
POLYLINE
  5
49
330
1F
100
AcDbEntity
  8
_U+30EC_U+30A4_U+30E4_U+30FC 1
 62
   179
420
  2234388
370
     9
100
AcDb2dPolyline
 66
     1
 10
0.0
 20
0.0
 30
0.0
  0
VERTEX
  5
4A
330
49
100
AcDbEntity
  8
_U+30EC_U+30A4_U+30E4_U+30FC 1
 62
   179
420
  2234388
370
     9
100
AcDbVertex
100
AcDb2dVertex
 10
105.1546567617256
 20
-137.0483105212932
 30
0.0
  0
VERTEX
  5
4B
330
49
100
AcDbEntity
  8
_U+30EC_U+30A4_U+30E4_U+30FC 1
 62
   179
420
  2234388
370
     9
100
AcDbVertex
100
AcDb2dVertex
 10
105.1546567617256
 20
-120.0481258033212
 30
0.0
  0
SEQEND
  5
4C
330
49
100
AcDbEntity
  8
_U+30EC_U+30A4_U+30E4_U+30FC 1
 62
   179
420
  2234388
370
     9
  0
POLYLINE
  5
4D
330
1F
100
AcDbEntity
  8
_U+30EC_U+30A4_U+30E4_U+30FC 1
 62
   179
420
  2234388
370
     9
100
AcDb2dPolyline
 66
     1
 10
0.0
 20
0.0
 30
0.0
  0
VERTEX
  5
4E
330
4D
100
AcDbEntity
  8
_U+30EC_U+30A4_U+30E4_U+30FC 1
 62
   179
420
  2234388
370
     9
100
AcDbVertex
100
AcDb2dVertex
 10
103.6946154100855
 20
-137.0469346879603
 30
0.0
  0
VERTEX
  5
4F
330
4D
100
AcDbEntity
  8
_U+30EC_U+30A4_U+30E4_U+30FC 1
 62
   179
420
  2234388
370
     9
100
AcDbVertex
100
AcDb2dVertex
 10
106.1550992362022
 20
-137.0469346879603
 30
0.0
  0
SEQEND
  5
50
330
4D
100
AcDbEntity
  8
_U+30EC_U+30A4_U+30E4_U+30FC 1
 62
   179
420
  2234388
370
     9
  0
POLYLINE
  5
51
330
1F
100
AcDbEntity
  8
_U+30EC_U+30A4_U+30E4_U+30FC 1
 62
   179
420
  2234388
370
     9
100
AcDb2dPolyline
 66
     1
 10
0.0
 20
0.0
 30
0.0
  0
VERTEX
  5
52
330
51
100
AcDbEntity
  8
_U+30EC_U+30A4_U+30E4_U+30FC 1
 62
   179
420
  2234388
370
     9
100
AcDbVertex
100
AcDb2dVertex
 10
103.6946154100855
 20
-136.0468096882107
 30
0.0
  0
VERTEX
  5
53
330
51
100
AcDbEntity
  8
_U+30EC_U+30A4_U+30E4_U+30FC 1
 62
   179
420
  2234388
370
     9
100
AcDbVertex
100
AcDb2dVertex
 10
106.1550992362022
 20
-136.0468096882107
 30
0.0
  0
SEQEND
  5
54
330
51
100
AcDbEntity
  8
_U+30EC_U+30A4_U+30E4_U+30FC 1
 62
   179
420
  2234388
370
     9
  0
POLYLINE
  5
55
330
1F
100
AcDbEntity
  8
_U+30EC_U+30A4_U+30E4_U+30FC 1
 62
   179
420
  2234388
370
     9
100
AcDb2dPolyline
 66
     1
 10
0.0
 20
0.0
 30
0.0
  0
VERTEX
  5
56
330
55
100
AcDbEntity
  8
_U+30EC_U+30A4_U+30E4_U+30FC 1
 62
   179
420
  2234388
370
     9
100
AcDbVertex
100
AcDb2dVertex
 10
99.6948563454612
 20
-123.0467369136827
 30
0.0
  0
VERTEX
  5
57
330
55
100
AcDbEntity
  8
_U+30EC_U+30A4_U+30E4_U+30FC 1
 62
   179
420
  2234388
370
     9
100
AcDbVertex
100
AcDb2dVertex
 10
106.1550992362022
 20
-123.0467369136827
 30
0.0
  0
SEQEND
  5
58
330
55
100
AcDbEntity
  8
_U+30EC_U+30A4_U+30E4_U+30FC 1
 62
   179
420
  2234388
370
     9
  0
POLYLINE
  5
59
330
1F
100
AcDbEntity
  8
_U+30EC_U+30A4_U+30E4_U+30FC 1
 62
   179
420
  2234388
370
     9
100
AcDb2dPolyline
 66
     1
 10
0.0
 20
0.0
 30
0.0
  0
VERTEX
  5
5A
330
59
100
AcDbEntity
  8
_U+30EC_U+30A4_U+30E4_U+30FC 1
 62
   179
420
  2234388
370
     9
100
AcDbVertex
100
AcDb2dVertex
 10
99.6948563454612
 20
-120.0467499699883
 30
0.0
  0
VERTEX
  5
5B
330
59
100
AcDbEntity
  8
_U+30EC_U+30A4_U+30E4_U+30FC 1
 62
   179
420
  2234388
370
     9
100
AcDbVertex
100
AcDb2dVertex
 10
106.1550992362022
 20
-120.0467499699883
 30
0.0
  0
SEQEND
  5
5C
330
59
100
AcDbEntity
  8
_U+30EC_U+30A4_U+30E4_U+30FC 1
 62
   179
420
  2234388
370
     9
  0
INSERT
  5
5E
330
1F
100
AcDbEntity
  8
_U+30EC_U+30A4_U+30E4_U+30FC 1
100
AcDbBlockReference
  2
block 2
 10
0.0
 20
0.0
 30
0.0
  0
INSERT
  5
64
330
1F
100
AcDbEntity
  8
_U+30EC_U+30A4_U+30E4_U+30FC 1
100
AcDbBlockReference
  2
block 3
 10
0.0
 20
0.0
 30
0.0
  0
INSERT
  5
6C
330
1F
100
AcDbEntity
  8
_U+30EC_U+30A4_U+30E4_U+30FC 1
100
AcDbBlockReference
  2
block 4
 10
0.0
 20
0.0
 30
0.0
  0
POLYLINE
  5
71
330
1F
100
AcDbEntity
  8
_U+30EC_U+30A4_U+30E4_U+30FC 1
 62
   179
420
  2234388
370
     9
100
AcDb2dPolyline
 66
     1
 10
0.0
 20
0.0
 30
0.0
  0
VERTEX
  5
72
330
71
100
AcDbEntity
  8
_U+30EC_U+30A4_U+30E4_U+30FC 1
 62
   179
420
  2234388
370
     9
100
AcDbVertex
100
AcDb2dVertex
 10
75.75489834510931
 20
-141.0473641314045
 30
0.0
  0
VERTEX
  5
73
330
71
100
AcDbEntity
  8
_U+30EC_U+30A4_U+30E4_U+30FC 1
 62
   179
420
  2234388
370
     9
100
AcDbVertex
100
AcDb2dVertex
 10
100.75527104063
 20
-141.0473641314045
 30
0.0
  0
SEQEND
  5
74
330
71
100
AcDbEntity
  8
_U+30EC_U+30A4_U+30E4_U+30FC 1
 62
   179
420
  2234388
370
     9
  0
POLYLINE
  5
75
330
1F
100
AcDbEntity
  8
_U+30EC_U+30A4_U+30E4_U+30FC 1
 62
   179
420
  2234388
370
     9
100
AcDb2dPolyline
 66
     1
 10
0.0
 20
0.0
 30
0.0
  0
VERTEX
  5
76
330
75
100
AcDbEntity
  8
_U+30EC_U+30A4_U+30E4_U+30FC 1
 62
   179
420
  2234388
370
     9
100
AcDbVertex
100
AcDb2dVertex
 10
75.75489834510931
 20
-139.587358020659
 30
0.0
  0
VERTEX
  5
77
330
75
100
AcDbEntity
  8
_U+30EC_U+30A4_U+30E4_U+30FC 1
 62
   179
420
  2234388
370
     9
100
AcDbVertex
100
AcDb2dVertex
 10
75.75489834510931
 20
-142.0471363533771
 30
0.0
  0
SEQEND
  5
78
330
75
100
AcDbEntity
  8
_U+30EC_U+30A4_U+30E4_U+30FC 1
 62
   179
420
  2234388
370
     9
  0
POLYLINE
  5
79
330
1F
100
AcDbEntity
  8
_U+30EC_U+30A4_U+30E4_U+30FC 1
 62
   179
420
  2234388
370
     9
100
AcDb2dPolyline
 66
     1
 10
0.0
 20
0.0
 30
0.0
  0
VERTEX
  5
7A
330
79
100
AcDbEntity
  8
_U+30EC_U+30A4_U+30E4_U+30FC 1
 62
   179
420
  2234388
370
     9
100
AcDbVertex
100
AcDb2dVertex
 10
100.75527104063
 20
-139.587358020659
 30
0.0
  0
VERTEX
  5
7B
330
79
100
AcDbEntity
  8
_U+30EC_U+30A4_U+30E4_U+30FC 1
 62
   179
420
  2234388
370
     9
100
AcDbVertex
100
AcDb2dVertex
 10
100.75527104063
 20
-142.0471363533771
 30
0.0
  0
SEQEND
  5
7C
330
79
100
AcDbEntity
  8
_U+30EC_U+30A4_U+30E4_U+30FC 1
 62
   179
420
  2234388
370
     9
  0
INSERT
  5
7E
330
1F
100
AcDbEntity
  8
_U+30EC_U+30A4_U+30E4_U+30FC 1
100
AcDbBlockReference
  2
block 5
 10
0.0
 20
0.0
 30
0.0
  0
POLYLINE
  5
85
330
1F
100
AcDbEntity
  8
_U+30EC_U+30A4_U+30E4_U+30FC 1
 62
   179
420
  2234388
370
     9
100
AcDb2dPolyline
 66
     1
 10
0.0
 20
0.0
 30
0.0
  0
VERTEX
  5
86
330
85
100
AcDbEntity
  8
_U+30EC_U+30A4_U+30E4_U+30FC 1
 62
   179
420
  2234388
370
     9
100
AcDbVertex
100
AcDb2dVertex
 10
93.25493345420178
 20
-117.5862660817147
 30
0.0
  0
VERTEX
  5
87
330
85
100
AcDbEntity
  8
_U+30EC_U+30A4_U+30E4_U+30FC 1
 62
   179
420
  2234388
370
     9
100
AcDbVertex
100
AcDb2dVertex
 10
83.25484997918615
 20
-117.5862660817147
 30
0.0
  0
SEQEND
  5
88
330
85
100
AcDbEntity
  8
_U+30EC_U+30A4_U+30E4_U+30FC 1
 62
   179
420
  2234388
370
     9
  0
POLYLINE
  5
89
330
1F
100
AcDbEntity
  8
_U+30EC_U+30A4_U+30E4_U+30FC 1
 62
   179
420
  2234388
370
     9
100
AcDb2dPolyline
 66
     1
 10
0.0
 20
0.0
 30
0.0
  0
VERTEX
  5
8A
330
89
100
AcDbEntity
  8
_U+30EC_U+30A4_U+30E4_U+30FC 1
 62
   179
420
  2234388
370
     9
100
AcDbVertex
100
AcDb2dVertex
 10
93.25493345420178
 20
-119.0463074702384
 30
0.0
  0
VERTEX
  5
8B
330
89
100
AcDbEntity
  8
_U+30EC_U+30A4_U+30E4_U+30FC 1
 62
   179
420
  2234388
370
     9
100
AcDbVertex
100
AcDb2dVertex
 10
93.25493345420178
 20
-116.5864938597421
 30
0.0
  0
SEQEND
  5
8C
330
89
100
AcDbEntity
  8
_U+30EC_U+30A4_U+30E4_U+30FC 1
 62
   179
420
  2234388
370
     9
  0
POLYLINE
  5
8D
330
1F
100
AcDbEntity
  8
_U+30EC_U+30A4_U+30E4_U+30FC 1
 62
   179
420
  2234388
370
     9
100
AcDb2dPolyline
 66
     1
 10
0.0
 20
0.0
 30
0.0
  0
VERTEX
  5
8E
330
8D
100
AcDbEntity
  8
_U+30EC_U+30A4_U+30E4_U+30FC 1
 62
   179
420
  2234388
370
     9
100
AcDbVertex
100
AcDb2dVertex
 10
83.25484997918615
 20
-119.0463074702384
 30
0.0
  0
VERTEX
  5
8F
330
8D
100
AcDbEntity
  8
_U+30EC_U+30A4_U+30E4_U+30FC 1
 62
   179
420
  2234388
370
     9
100
AcDbVertex
100
AcDb2dVertex
 10
83.25484997918615
 20
-116.5864938597421
 30
0.0
  0
SEQEND
  5
90
330
8D
100
AcDbEntity
  8
_U+30EC_U+30A4_U+30E4_U+30FC 1
 62
   179
420
  2234388
370
     9
  0
INSERT
  5
92
330
1F
100
AcDbEntity
  8
_U+30EC_U+30A4_U+30E4_U+30FC 1
100
AcDbBlockReference
  2
block 6
 10
0.0
 20
0.0
 30
0.0
  0
POLYLINE
  5
9A
330
1F
100
AcDbEntity
  8
_U+30EC_U+30A4_U+30E4_U+30FC 1
 62
   179
420
  2234388
370
    25
100
AcDb2dPolyline
 66
     1
 10
0.0
 20
0.0
 30
0.0
  0
VERTEX
  5
9B
330
9A
100
AcDbEntity
  8
_U+30EC_U+30A4_U+30E4_U+30FC 1
 62
   179
420
  2234388
370
    25
100
AcDbVertex
100
AcDb2dVertex
 10
88.75461801345882
 20
-136.0468096882107
 30
0.0
  0
VERTEX
  5
9C
330
9A
100
AcDbEntity
  8
_U+30EC_U+30A4_U+30E4_U+30FC 1
 62
   179
420
  2234388
370
    25
100
AcDbVertex
100
AcDb2dVertex
 10
88.75461801345882
 20
-121.0468749697383
 30
0.0
  0
VERTEX
  5
9D
330
9A
100
AcDbEntity
  8
_U+30EC_U+30A4_U+30E4_U+30FC 1
 62
   179
420
  2234388
370
    25
100
AcDbVertex
100
AcDb2dVertex
 10
92.25484375749396
 20
-121.0468749697383
 30
0.0
  0
VERTEX
  5
9E
330
9A
100
AcDbEntity
  8
_U+30EC_U+30A4_U+30E4_U+30FC 1
 62
   179
420
  2234388
370
    25
100
AcDbVertex
100
AcDb2dVertex
 10
92.25484375749396
 20
-123.0467369136827
 30
0.0
  0
VERTEX
  5
9F
330
9A
100
AcDbEntity
  8
_U+30EC_U+30A4_U+30E4_U+30FC 1
 62
   179
420
  2234388
370
    25
100
AcDbVertex
100
AcDb2dVertex
 10
93.25493345420178
 20
-123.0467369136827
 30
0.0
  0
VERTEX
  5
A0
330
9A
100
AcDbEntity
  8
_U+30EC_U+30A4_U+30E4_U+30FC 1
 62
   179
420
  2234388
370
    25
100
AcDbVertex
100
AcDb2dVertex
 10
93.25493345420178
 20
-120.0467499699883
 30
0.0
  0
VERTEX
  5
A1
330
9A
100
AcDbEntity
  8
_U+30EC_U+30A4_U+30E4_U+30FC 1
 62
   179
420
  2234388
370
    25
100
AcDbVertex
100
AcDb2dVertex
 10
83.25484997918615
 20
-120.0467499699883
 30
0.0
  0
VERTEX
  5
A2
330
9A
100
AcDbEntity
  8
_U+30EC_U+30A4_U+30E4_U+30FC 1
 62
   179
420
  2234388
370
    25
100
AcDbVertex
100
AcDb2dVertex
 10
83.25484997918615
 20
-123.0467369136827
 30
0.0
  0
VERTEX
  5
A3
330
9A
100
AcDbEntity
  8
_U+30EC_U+30A4_U+30E4_U+30FC 1
 62
   179
420
  2234388
370
    25
100
AcDbVertex
100
AcDb2dVertex
 10
84.25497497893613
 20
-123.0467369136827
 30
0.0
  0
VERTEX
  5
A4
330
9A
100
AcDbEntity
  8
_U+30EC_U+30A4_U+30E4_U+30FC 1
 62
   179
420
  2234388
370
    25
100
AcDbVertex
100
AcDb2dVertex
 10
84.25497497893613
 20
-121.0468749697383
 30
0.0
  0
VERTEX
  5
A5
330
9A
100
AcDbEntity
  8
_U+30EC_U+30A4_U+30E4_U+30FC 1
 62
   179
420
  2234388
370
    25
100
AcDbVertex
100
AcDb2dVertex
 10
87.75484581674291
 20
-121.0468749697383
 30
0.0
  0
VERTEX
  5
A6
330
9A
100
AcDbEntity
  8
_U+30EC_U+30A4_U+30E4_U+30FC 1
 62
   179
420
  2234388
370
    25
100
AcDbVertex
100
AcDb2dVertex
 10
87.75484581674291
 20
-136.0468096882107
 30
0.0
  0
VERTEX
  5
A7
330
9A
100
AcDbEntity
  8
_U+30EC_U+30A4_U+30E4_U+30FC 1
 62
   179
420
  2234388
370
    25
100
AcDbVertex
100
AcDb2dVertex
 10
75.75489834510931
 20
-136.0468096882107
 30
0.0
  0
VERTEX
  5
A8
330
9A
100
AcDbEntity
  8
_U+30EC_U+30A4_U+30E4_U+30FC 1
 62
   179
420
  2234388
370
    25
100
AcDbVertex
100
AcDb2dVertex
 10
75.75489834510931
 20
-137.0469346879603
 30
0.0
  0
VERTEX
  5
A9
330
9A
100
AcDbEntity
  8
_U+30EC_U+30A4_U+30E4_U+30FC 1
 62
   179
420
  2234388
370
    25
100
AcDbVertex
100
AcDb2dVertex
 10
100.7545654850924
 20
-137.0469346879603
 30
0.0
  0
VERTEX
  5
AA
330
9A
100
AcDbEntity
  8
_U+30EC_U+30A4_U+30E4_U+30FC 1
 62
   179
420
  2234388
370
    25
100
AcDbVertex
100
AcDb2dVertex
 10
100.7545654850924
 20
-136.0468096882107
 30
0.0
  0
VERTEX
  5
AB
330
9A
100
AcDbEntity
  8
_U+30EC_U+30A4_U+30E4_U+30FC 1
 62
   179
420
  2234388
370
    25
100
AcDbVertex
100
AcDb2dVertex
 10
88.75461801345882
 20
-136.0468096882107
 30
0.0
  0
SEQEND
  5
AC
330
9A
100
AcDbEntity
  8
_U+30EC_U+30A4_U+30E4_U+30FC 1
 62
   179
420
  2234388
370
    25
  0
ENDSEC
  0
SECTION
  2
OBJECTS
  0
DICTIONARY
  5
C
330
0
100
AcDbDictionary
281
     1
  3
ACAD_GROUP
350
D
  3
ACAD_LAYOUT
350
1A
  3
ACAD_MATERIAL
350
3B
  3
ACAD_MLEADERSTYLE
350
AE
  3
ACAD_MLINESTYLE
350
17
  3
ACAD_PLOTSETTINGS
350
19
  3
ACAD_PLOTSTYLENAME
350
E
  3
ACAD_TABLESTYLE
350
AD
  3
ACAD_VISUALSTYLE
350
2A
  0
SUN
  5
3F
330
29
100
AcDbSun
 90
        1
290
     0
 63
     7
421
 16777215
 40
1.0
291
     1
 91
  2455826
 92
 54000000
292
     0
 70
     2
 71
   256
280
     1
  0
DICTIONARY
  5
D
102
{ACAD_REACTORS
330
C
102
}
330
C
100
AcDbDictionary
281
     1
  0
DICTIONARY
  5
1A
102
{ACAD_REACTORS
330
C
102
}
330
C
100
AcDbDictionary
281
     1
  3
Layout1
350
1E
  3
Layout2
350
26
  3
Model
350
22
  0
DICTIONARY
  5
3B
102
{ACAD_REACTORS
330
C
102
}
330
C
100
AcDbDictionary
281
     1
  3
ByBlock
350
3D
  3
ByLayer
350
3C
  3
Global
350
3E
  0
DICTIONARY
  5
AE
102
{ACAD_REACTORS
330
C
102
}
330
C
100
AcDbDictionary
281
     1
  0
DICTIONARY
  5
17
102
{ACAD_REACTORS
330
C
102
}
330
C
100
AcDbDictionary
281
     1
  3
Standard
350
18
  0
DICTIONARY
  5
19
102
{ACAD_REACTORS
330
C
102
}
330
C
100
AcDbDictionary
281
     1
  0
ACDBDICTIONARYWDFLT
  5
E
102
{ACAD_REACTORS
330
C
102
}
330
C
100
AcDbDictionary
281
     1
  3
Normal
350
F
100
AcDbDictionaryWithDefault
340
F
  0
DICTIONARY
  5
AD
102
{ACAD_REACTORS
330
C
102
}
330
C
100
AcDbDictionary
281
     1
  0
DICTIONARY
  5
2A
102
{ACAD_REACTORS
330
C
102
}
330
C
100
AcDbDictionary
281
     1
  3
2dWireframe
350
2F
  3
3D Hidden
350
31
  3
3dWireframe
350
30
  3
Basic
350
32
  3
Brighten
350
36
  3
ColorChange
350
3A
  3
Conceptual
350
34
  3
Dim
350
35
  3
Facepattern
350
39
  3
Flat
350
2B
  3
FlatWithEdges
350
2C
  3
Gouraud
350
2D
  3
GouraudWithEdges
350
2E
  3
Linepattern
350
38
  3
Realistic
350
33
  3
Thicken
350
37
  0
LAYOUT
  5
1E
102
{ACAD_REACTORS
330
1A
102
}
330
1A
100
AcDbPlotSettings
  1

  2
none_device
  4

  6

 40
0.0
 41
0.0
 42
0.0
 43
0.0
 44
0.0
 45
0.0
 46
0.0
 47
0.0
 48
0.0
 49
0.0
140
0.0
141
0.0
142
1.0
143
1.0
 70
   688
 72
     0
 73
     0
 74
     5
  7

 75
    16
 76
     0
 77
     2
 78
   300
147
1.0
148
0.0
149
0.0
100
AcDbLayout
  1
Layout1
 70
     1
 71
     1
 10
0.0
 20
0.0
 11
12.0
 21
9.0
 12
0.0
 22
0.0
 32
0.0
 14
1.000000000000000E+20
 24
1.000000000000000E+20
 34
1.000000000000000E+20
 15
-1.000000000000000E+20
 25
-1.000000000000000E+20
 35
-1.000000000000000E+20
146
0.0
 13
0.0
 23
0.0
 33
0.0
 16
1.0
 26
0.0
 36
0.0
 17
0.0
 27
1.0
 37
0.0
 76
     0
330
1B
  0
LAYOUT
  5
26
102
{ACAD_REACTORS
330
1A
102
}
330
1A
100
AcDbPlotSettings
  1

  2
none_device
  4

  6

 40
0.0
 41
0.0
 42
0.0
 43
0.0
 44
0.0
 45
0.0
 46
0.0
 47
0.0
 48
0.0
 49
0.0
140
0.0
141
0.0
142
1.0
143
1.0
 70
   688
 72
     0
 73
     0
 74
     5
  7

 75
    16
 76
     0
 77
     2
 78
   300
147
1.0
148
0.0
149
0.0
100
AcDbLayout
  1
Layout2
 70
     1
 71
     2
 10
0.0
 20
0.0
 11
0.0
 21
0.0
 12
0.0
 22
0.0
 32
0.0
 14
0.0
 24
0.0
 34
0.0
 15
0.0
 25
0.0
 35
0.0
146
0.0
 13
0.0
 23
0.0
 33
0.0
 16
1.0
 26
0.0
 36
0.0
 17
0.0
 27
1.0
 37
0.0
 76
     0
330
23
  0
LAYOUT
  5
22
102
{ACAD_REACTORS
330
1A
102
}
330
1A
100
AcDbPlotSettings
  1

  2
none_device
  4

  6

 40
0.0
 41
0.0
 42
0.0
 43
0.0
 44
0.0
 45
0.0
 46
0.0
 47
0.0
 48
0.0
 49
0.0
140
0.0
141
0.0
142
1.0
143
1.0
 70
  1712
 72
     0
 73
     0
 74
     0
  7

 75
     0
 76
     0
 77
     2
 78
   300
147
1.0
148
0.0
149
0.0
100
AcDbLayout
  1
Model
 70
     1
 71
     0
 10
0.0
 20
0.0
 11
12.0
 21
9.0
 12
0.0
 22
0.0
 32
0.0
 14
1.000000000000000E+20
 24
1.000000000000000E+20
 34
1.000000000000000E+20
 15
-1.000000000000000E+20
 25
-1.000000000000000E+20
 35
-1.000000000000000E+20
146
0.0
 13
0.0
 23
0.0
 33
0.0
 16
1.0
 26
0.0
 36
0.0
 17
0.0
 27
1.0
 37
0.0
 76
     0
330
1F
331
29
  0
MATERIAL
  5
3D
102
{ACAD_REACTORS
330
3B
102
}
330
3B
100
AcDbMaterial
  1
ByBlock
 72
     1
 94
      127
  0
MATERIAL
  5
3C
102
{ACAD_REACTORS
330
3B
102
}
330
3B
100
AcDbMaterial
  1
ByLayer
 72
     1
 94
      127
  0
MATERIAL
  5
3E
102
{ACAD_REACTORS
330
3B
102
}
330
3B
100
AcDbMaterial
  1
Global
 72
     1
 94
      127
  0
MLINESTYLE
  5
18
102
{ACAD_REACTORS
330
17
102
}
330
17
100
AcDbMlineStyle
  2
Standard
 70
     0
  3

 62
   256
 51
90.0
 52
90.0
 71
     2
 49
0.5
 62
   256
  6
BYLAYER
 49
-0.5
 62
   256
  6
BYLAYER
  0
ACDBPLACEHOLDER
  5
F
102
{ACAD_REACTORS
330
E
102
}
330
E
  0
VISUALSTYLE
  5
2F
102
{ACAD_REACTORS
330
2A
102
}
330
2A
100
AcDbVisualStyle
  2
2dWireframe
 70
     4
177
     2
291
     0
 71
     0
176
     1
 72
     2
176
     1
 73
     0
176
     1
 90
        0
176
     1
 40
-0.6
176
     1
 41
-30.0
176
     1
 62
     5
 63
     7
421
 16777215
176
     1
 74
     1
176
     1
 91
        4
176
     1
 64
     7
176
     1
 65
   257
176
     1
 75
     1
176
     1
175
     1
176
     1
 42
1.0
176
     1
 92
        0
176
     1
 66
   257
176
     1
 43
1.0
176
     1
 76
     1
176
     1
 77
     6
176
     1
 78
     2
176
     1
 67
     7
176
     1
 79
     5
176
     1
170
     0
176
     1
171
     0
176
     1
290
     0
176
     1
 93
        1
176
     1
 44
0.0
176
     1
173
     0
176
     1
  0
VISUALSTYLE
  5
31
102
{ACAD_REACTORS
330
2A
102
}
330
2A
100
AcDbVisualStyle
  2
3D Hidden
 70
     6
177
     2
291
     0
 71
     1
176
     1
 72
     2
176
     1
 73
     2
176
     1
 90
        0
176
     1
 40
-0.6
176
     1
 41
-30.0
176
     1
 62
     5
 63
     7
421
 16777215
176
     1
 74
     2
176
     1
 91
        2
176
     1
 64
     7
176
     1
 65
   257
176
     1
 75
     2
176
     1
175
     1
176
     1
 42
40.0
176
     1
 92
        0
176
     1
 66
   257
176
     1
 43
1.0
176
     1
 76
     1
176
     1
 77
     6
176
     1
 78
     2
176
     1
 67
     7
176
     1
 79
     3
176
     1
170
     0
176
     1
171
     0
176
     1
290
     0
176
     1
 93
        1
176
     1
 44
0.0
176
     1
173
     0
176
     1
  0
VISUALSTYLE
  5
30
102
{ACAD_REACTORS
330
2A
102
}
330
2A
100
AcDbVisualStyle
  2
3dWireframe
 70
     5
177
     2
291
     0
 71
     0
176
     1
 72
     2
176
     1
 73
     0
176
     1
 90
        0
176
     1
 40
-0.6
176
     1
 41
-30.0
176
     1
 62
     5
 63
     7
421
 16777215
176
     1
 74
     1
176
     1
 91
        4
176
     1
 64
     7
176
     1
 65
   257
176
     1
 75
     1
176
     1
175
     1
176
     1
 42
1.0
176
     1
 92
        0
176
     1
 66
   257
176
     1
 43
1.0
176
     1
 76
     1
176
     1
 77
     6
176
     1
 78
     2
176
     1
 67
     7
176
     1
 79
     5
176
     1
170
     0
176
     1
171
     0
176
     1
290
     0
176
     1
 93
        1
176
     1
 44
0.0
176
     1
173
     0
176
     1
  0
VISUALSTYLE
  5
32
102
{ACAD_REACTORS
330
2A
102
}
330
2A
100
AcDbVisualStyle
  2
Basic
 70
     7
177
     2
291
     1
 71
     1
176
     1
 72
     0
176
     1
 73
     1
176
     1
 90
        0
176
     1
 40
-0.6
176
     1
 41
-30.0
176
     1
 62
     5
 63
     7
421
 16777215
176
     1
 74
     0
176
     1
 91
        4
176
     1
 64
     7
176
     1
 65
   257
176
     1
 75
     1
176
     1
175
     1
176
     1
 42
1.0
176
     1
 92
        8
176
     1
 66
     7
176
     1
 43
1.0
176
     1
 76
     1
176
     1
 77
     6
176
     1
 78
     2
176
     1
 67
     7
176
     1
 79
     5
176
     1
170
     0
176
     1
171
     0
176
     1
290
     0
176
     1
 93
        1
176
     1
 44
0.0
176
     1
173
     0
176
     1
  0
VISUALSTYLE
  5
36
102
{ACAD_REACTORS
330
2A
102
}
330
2A
100
AcDbVisualStyle
  2
Brighten
 70
    12
177
     2
291
     1
 71
     2
176
     1
 72
     2
176
     1
 73
     0
176
     1
 90
        0
176
     1
 40
-0.6
176
     1
 41
-30.0
176
     1
 62
     5
 63
     7
421
 16777215
176
     1
 74
     1
176
     1
 91
        4
176
     1
 64
     7
176
     1
 65
   257
176
     1
 75
     1
176
     1
175
     1
176
     1
 42
1.0
176
     1
 92
        8
176
     1
 66
     7
176
     1
 43
1.0
176
     1
 76
     1
176
     1
 77
     6
176
     1
 78
     2
176
     1
 67
     7
176
     1
 79
     5
176
     1
170
     0
176
     1
171
     0
176
     1
290
     0
176
     1
 93
        1
176
     1
 44
50.0
176
     1
173
     0
176
     1
  0
VISUALSTYLE
  5
3A
102
{ACAD_REACTORS
330
2A
102
}
330
2A
100
AcDbVisualStyle
  2
ColorChange
 70
    16
177
     2
291
     1
 71
     2
176
     1
 72
     2
176
     1
 73
     3
176
     1
 90
        0
176
     1
 40
-0.6
176
     1
 41
-30.0
176
     1
 62
     5
 63
     8
421
  8421504
176
     1
 74
     1
176
     1
 91
        4
176
     1
 64
     7
176
     1
 65
   257
176
     1
 75
     1
176
     1
175
     1
176
     1
 42
1.0
176
     1
 92
        8
176
     1
 66
     8
424
  8421504
176
     1
 43
1.0
176
     1
 76
     1
176
     1
 77
     6
176
     1
 78
     2
176
     1
 67
     7
176
     1
 79
     5
176
     1
170
     0
176
     1
171
     0
176
     1
290
     0
176
     1
 93
        1
176
     1
 44
0.0
176
     1
173
     0
176
     1
  0
VISUALSTYLE
  5
34
102
{ACAD_REACTORS
330
2A
102
}
330
2A
100
AcDbVisualStyle
  2
Conceptual
 70
     9
177
     2
291
     0
 71
     3
176
     1
 72
     2
176
     1
 73
     0
176
     1
 90
        0
176
     1
 40
-0.6
176
     1
 41
-30.0
176
     1
 62
     5
 63
     7
421
 16777215
176
     1
 74
     2
176
     1
 91
        2
176
     1
 64
     7
176
     1
 65
   257
176
     1
 75
     1
176
     1
175
     1
176
     1
 42
40.0
176
     1
 92
        8
176
     1
 66
     7
176
     1
 43
1.0
176
     1
 76
     1
176
     1
 77
     6
176
     1
 78
     2
176
     1
 67
     7
176
     1
 79
     3
176
     1
170
     0
176
     1
171
     0
176
     1
290
     0
176
     1
 93
        1
176
     1
 44
0.0
176
     1
173
     0
176
     1
  0
VISUALSTYLE
  5
35
102
{ACAD_REACTORS
330
2A
102
}
330
2A
100
AcDbVisualStyle
  2
Dim
 70
    11
177
     2
291
     1
 71
     2
176
     1
 72
     2
176
     1
 73
     0
176
     1
 90
        0
176
     1
 40
-0.6
176
     1
 41
-30.0
176
     1
 62
     5
 63
     7
421
 16777215
176
     1
 74
     1
176
     1
 91
        4
176
     1
 64
     7
176
     1
 65
   257
176
     1
 75
     1
176
     1
175
     1
176
     1
 42
1.0
176
     1
 92
        8
176
     1
 66
     7
176
     1
 43
1.0
176
     1
 76
     1
176
     1
 77
     6
176
     1
 78
     2
176
     1
 67
     7
176
     1
 79
     5
176
     1
170
     0
176
     1
171
     0
176
     1
290
     0
176
     1
 93
        1
176
     1
 44
-50.0
176
     1
173
     0
176
     1
  0
VISUALSTYLE
  5
39
102
{ACAD_REACTORS
330
2A
102
}
330
2A
100
AcDbVisualStyle
  2
Facepattern
 70
    15
177
     2
291
     1
 71
     2
176
     1
 72
     2
176
     1
 73
     0
176
     1
 90
        0
176
     1
 40
-0.6
176
     1
 41
-30.0
176
     1
 62
     5
 63
     7
421
 16777215
176
     1
 74
     1
176
     1
 91
        4
176
     1
 64
     7
176
     1
 65
   257
176
     1
 75
     1
176
     1
175
     1
176
     1
 42
1.0
176
     1
 92
        8
176
     1
 66
     7
176
     1
 43
1.0
176
     1
 76
     1
176
     1
 77
     6
176
     1
 78
     2
176
     1
 67
     7
176
     1
 79
     5
176
     1
170
     0
176
     1
171
     0
176
     1
290
     0
176
     1
 93
        1
176
     1
 44
0.0
176
     1
173
     0
176
     1
  0
VISUALSTYLE
  5
2B
102
{ACAD_REACTORS
330
2A
102
}
330
2A
100
AcDbVisualStyle
  2
Flat
 70
     0
177
     2
291
     1
 71
     2
176
     1
 72
     1
176
     1
 73
     1
176
     1
 90
        2
176
     1
 40
-0.6
176
     1
 41
30.0
176
     1
 62
     5
 63
     7
421
 16777215
176
     1
 74
     0
176
     1
 91
        4
176
     1
 64
     7
176
     1
 65
   257
176
     1
 75
     1
176
     1
175
     1
176
     1
 42
1.0
176
     1
 92
        8
176
     1
 66
     7
176
     1
 43
1.0
176
     1
 76
     1
176
     1
 77
     6
176
     1
 78
     2
176
     1
 67
     7
176
     1
 79
     5
176
     1
170
     0
176
     1
171
     0
176
     1
290
     0
176
     1
 93
       13
176
     1
 44
0.0
176
     1
173
     0
176
     1
  0
VISUALSTYLE
  5
2C
102
{ACAD_REACTORS
330
2A
102
}
330
2A
100
AcDbVisualStyle
  2
FlatWithEdges
 70
     1
177
     2
291
     1
 71
     2
176
     1
 72
     1
176
     1
 73
     1
176
     1
 90
        2
176
     1
 40
-0.6
176
     1
 41
30.0
176
     1
 62
     5
 63
     7
421
 16777215
176
     1
 74
     1
176
     1
 91
        4
176
     1
 64
     7
176
     1
 65
   257
176
     1
 75
     1
176
     1
175
     1
176
     1
 42
1.0
176
     1
 92
        0
176
     1
 66
   257
176
     1
 43
1.0
176
     1
 76
     1
176
     1
 77
     6
176
     1
 78
     2
176
     1
 67
     7
176
     1
 79
     5
176
     1
170
     0
176
     1
171
     0
176
     1
290
     0
176
     1
 93
       13
176
     1
 44
0.0
176
     1
173
     0
176
     1
  0
VISUALSTYLE
  5
2D
102
{ACAD_REACTORS
330
2A
102
}
330
2A
100
AcDbVisualStyle
  2
Gouraud
 70
     2
177
     2
291
     1
 71
     2
176
     1
 72
     2
176
     1
 73
     1
176
     1
 90
        2
176
     1
 40
-0.6
176
     1
 41
30.0
176
     1
 62
     5
 63
     7
421
 16777215
176
     1
 74
     0
176
     1
 91
        4
176
     1
 64
     7
176
     1
 65
   257
176
     1
 75
     1
176
     1
175
     1
176
     1
 42
1.0
176
     1
 92
        0
176
     1
 66
     7
176
     1
 43
1.0
176
     1
 76
     1
176
     1
 77
     6
176
     1
 78
     2
176
     1
 67
     7
176
     1
 79
     5
176
     1
170
     0
176
     1
171
     0
176
     1
290
     0
176
     1
 93
       13
176
     1
 44
0.0
176
     1
173
     0
176
     1
  0
VISUALSTYLE
  5
2E
102
{ACAD_REACTORS
330
2A
102
}
330
2A
100
AcDbVisualStyle
  2
GouraudWithEdges
 70
     3
177
     2
291
     1
 71
     2
176
     1
 72
     2
176
     1
 73
     1
176
     1
 90
        2
176
     1
 40
-0.6
176
     1
 41
30.0
176
     1
 62
     5
 63
     7
421
 16777215
176
     1
 74
     1
176
     1
 91
        4
176
     1
 64
     7
176
     1
 65
   257
176
     1
 75
     1
176
     1
175
     1
176
     1
 42
1.0
176
     1
 92
        0
176
     1
 66
   257
176
     1
 43
1.0
176
     1
 76
     1
176
     1
 77
     6
176
     1
 78
     2
176
     1
 67
     7
176
     1
 79
     5
176
     1
170
     0
176
     1
171
     0
176
     1
290
     0
176
     1
 93
       13
176
     1
 44
0.0
176
     1
173
     0
176
     1
  0
VISUALSTYLE
  5
38
102
{ACAD_REACTORS
330
2A
102
}
330
2A
100
AcDbVisualStyle
  2
Linepattern
 70
    14
177
     2
291
     1
 71
     2
176
     1
 72
     2
176
     1
 73
     0
176
     1
 90
        0
176
     1
 40
-0.6
176
     1
 41
-30.0
176
     1
 62
     5
 63
     7
421
 16777215
176
     1
 74
     1
176
     1
 91
        4
176
     1
 64
     7
176
     1
 65
   257
176
     1
 75
     7
176
     1
175
     7
176
     1
 42
1.0
176
     1
 92
        8
176
     1
 66
     7
176
     1
 43
1.0
176
     1
 76
     1
176
     1
 77
     6
176
     1
 78
     2
176
     1
 67
     7
176
     1
 79
     5
176
     1
170
     0
176
     1
171
     0
176
     1
290
     0
176
     1
 93
        1
176
     1
 44
0.0
176
     1
173
     0
176
     1
  0
VISUALSTYLE
  5
33
102
{ACAD_REACTORS
330
2A
102
}
330
2A
100
AcDbVisualStyle
  2
Realistic
 70
     8
177
     2
291
     0
 71
     2
176
     1
 72
     2
176
     1
 73
     0
176
     1
 90
        0
176
     1
 40
-0.6
176
     1
 41
-30.0
176
     1
 62
     5
 63
     7
421
 16777215
176
     1
 74
     1
176
     1
 91
        0
176
     1
 64
     7
176
     1
 65
   257
176
     1
 75
     1
176
     1
175
     1
176
     1
 42
1.0
176
     1
 92
        8
176
     1
 66
     8
424
  7895160
176
     1
 43
1.0
176
     1
 76
     1
176
     1
 77
     6
176
     1
 78
     2
176
     1
 67
     7
176
     1
 79
     5
176
     1
170
     0
176
     1
171
     0
176
     1
290
     0
176
     1
 93
       13
176
     1
 44
0.0
176
     1
173
     0
176
     1
  0
VISUALSTYLE
  5
37
102
{ACAD_REACTORS
330
2A
102
}
330
2A
100
AcDbVisualStyle
  2
Thicken
 70
    13
177
     2
291
     1
 71
     2
176
     1
 72
     2
176
     1
 73
     0
176
     1
 90
        0
176
     1
 40
-0.6
176
     1
 41
-30.0
176
     1
 62
     5
 63
     7
421
 16777215
176
     1
 74
     1
176
     1
 91
        4
176
     1
 64
     7
176
     1
 65
   257
176
     1
 75
     1
176
     1
175
     1
176
     1
 42
1.0
176
     1
 92
       12
176
     1
 66
     7
176
     1
 43
1.0
176
     1
 76
     1
176
     1
 77
     6
176
     1
 78
     2
176
     1
 67
     7
176
     1
 79
     5
176
     1
170
     0
176
     1
171
     0
176
     1
290
     0
176
     1
 93
        1
176
     1
 44
0.0
176
     1
173
     0
176
     1
  0
ENDSEC
  0
EOF
