  0
SECTION
  2
HEADER
  9
$ACADVER
  1
AC1024
  9
$ACADMAINTVER
 70
     6
  9
$DWGCODEPAGE
  3
UNDEFINED
  9
$INSBASE
 10
0.0
 20
0.0
 30
0.0
  9
$EXTMIN
 10
1.000000000000000E+20
 20
1.000000000000000E+20
 30
1.000000000000000E+20
  9
$EXTMAX
 10
-1.000000000000000E+20
 20
-1.000000000000000E+20
 30
-1.000000000000000E+20
  9
$LIMMIN
 10
0.0
 20
0.0
  9
$LIMMAX
 10
12.0
 20
9.0
  9
$ORTHOMODE
 70
     0
  9
$REGENMODE
 70
     1
  9
$FILLMODE
 70
     1
  9
$QTEXTMODE
 70
     0
  9
$MIRRTEXT
 70
     1
  9
$LTSCALE
 40
1.0
  9
$ATTMODE
 70
     1
  9
$TEXTSIZE
 40
0.2
  9
$TRACEWID
 40
0.05
  9
$TEXTSTYLE
  7
Standard
  9
$CLAYER
  8
0
  9
$CELTYPE
  6
ByLayer
  9
$CECOLOR
 62
   256
  9
$CELTSCALE
 40
1.0
  9
$DISPSILH
 70
     0
  9
$DIMSCALE
 40
1.0
  9
$DIMASZ
 40
0.18
  9
$DIMEXO
 40
0.0625
  9
$DIMDLI
 40
0.38
  9
$DIMRND
 40
0.0
  9
$DIMDLE
 40
0.0
  9
$DIMEXE
 40
0.18
  9
$DIMTP
 40
0.0
  9
$DIMTM
 40
0.0
  9
$DIMTXT
 40
0.18
  9
$DIMCEN
 40
0.09
  9
$DIMTSZ
 40
0.0
  9
$DIMTOL
 70
     0
  9
$DIMLIM
 70
     0
  9
$DIMTIH
 70
     1
  9
$DIMTOH
 70
     1
  9
$DIMSE1
 70
     0
  9
$DIMSE2
 70
     0
  9
$DIMTAD
 70
     0
  9
$DIMZIN
 70
     0
  9
$DIMBLK
  1

  9
$DIMASO
 70
     1
  9
$DIMSHO
 70
     1
  9
$DIMPOST
  1

  9
$DIMAPOST
  1

  9
$DIMALT
 70
     0
  9
$DIMALTD
 70
     2
  9
$DIMALTF
 40
25.4
  9
$DIMLFAC
 40
1.0
  9
$DIMTOFL
 70
     0
  9
$DIMTVP
 40
0.0
  9
$DIMTIX
 70
     0
  9
$DIMSOXD
 70
     0
  9
$DIMSAH
 70
     0
  9
$DIMBLK1
  1

  9
$DIMBLK2
  1

  9
$DIMSTYLE
  2
Standard
  9
$DIMCLRD
 70
     0
  9
$DIMCLRE
 70
     0
  9
$DIMCLRT
 70
     0
  9
$DIMTFAC
 40
1.0
  9
$DIMGAP
 40
0.09
  9
$DIMJUST
 70
     0
  9
$DIMSD1
 70
     0
  9
$DIMSD2
 70
     0
  9
$DIMTOLJ
 70
     1
  9
$DIMTZIN
 70
     0
  9
$DIMALTZ
 70
     0
  9
$DIMALTTZ
 70
     0
  9
$DIMUPT
 70
     0
  9
$DIMDEC
 70
     4
  9
$DIMTDEC
 70
     4
  9
$DIMALTU
 70
     2
  9
$DIMALTTD
 70
     2
  9
$DIMTXSTY
  7
Standard
  9
$DIMAUNIT
 70
     0
  9
$DIMADEC
 70
     0
  9
$DIMALTRND
 40
0.0
  9
$DIMAZIN
 70
     0
  9
$DIMDSEP
 70
    46
  9
$DIMATFIT
 70
     3
  9
$DIMFRAC
 70
     0
  9
$DIMLDRBLK
  1

  9
$DIMLUNIT
 70
     2
  9
$DIMLWD
 70
    -2
  9
$DIMLWE
 70
    -2
  9
$DIMTMOVE
 70
     0
  9
$DIMFXL
 40
1.0
  9
$DIMFXLON
 70
     0
  9
$DIMJOGANG
 40
0.7853981633974483
  9
$DIMTFILL
 70
     0
  9
$DIMTFILLCLR
 70
     0
  9
$DIMARCSYM
 70
     0
  9
$DIMLTYPE
  6

  9
$DIMLTEX1
  6

  9
$DIMLTEX2
  6

  9
$DIMTXTDIRECTION
 70
     0
  9
$LUNITS
 70
     2
  9
$LUPREC
 70
     4
  9
$SKETCHINC
 40
0.1
  9
$FILLETRAD
 40
0.5
  9
$AUNITS
 70
     0
  9
$AUPREC
 70
     0
  9
$MENU
  1
.
  9
$ELEVATION
 40
0.0
  9
$PELEVATION
 40
0.0
  9
$THICKNESS
 40
0.0
  9
$LIMCHECK
 70
     0
  9
$CHAMFERA
 40
0.5
  9
$CHAMFERB
 40
0.5
  9
$CHAMFERC
 40
1.0
  9
$CHAMFERD
 40
0.0
  9
$SKPOLY
 70
     0
  9
$TDCREATE
 40
2457917.593680544
  9
$TDUCREATE
 40
2457917.218680555
  9
$TDUPDATE
 40
2457917.593680544
  9
$TDUUPDATE
 40
2457917.218680555
  9
$TDINDWG
 40
0.0000000116
  9
$TDUSRTIMER
 40
0.0000000116
  9
$USRTIMER
 70
     1
  9
$ANGBASE
 50
0.0
  9
$ANGDIR
 70
     0
  9
$PDMODE
 70
     0
  9
$PDSIZE
 40
0.0
  9
$PLINEWID
 40
0.0
  9
$SPLFRAME
 70
     0
  9
$SPLINETYPE
 70
     6
  9
$SPLINESEGS
 70
     8
  9
$HANDSEED
  5
B0
  9
$SURFTAB1
 70
     6
  9
$SURFTAB2
 70
     6
  9
$SURFTYPE
 70
     6
  9
$SURFU
 70
     6
  9
$SURFV
 70
     6
  9
$UCSBASE
  2

  9
$UCSNAME
  2

  9
$UCSORG
 10
0.0
 20
0.0
 30
0.0
  9
$UCSXDIR
 10
1.0
 20
0.0
 30
0.0
  9
$UCSYDIR
 10
0.0
 20
1.0
 30
0.0
  9
$UCSORTHOREF
  2

  9
$UCSORTHOVIEW
 70
     0
  9
$UCSORGTOP
 10
0.0
 20
0.0
 30
0.0
  9
$UCSORGBOTTOM
 10
0.0
 20
0.0
 30
0.0
  9
$UCSORGLEFT
 10
0.0
 20
0.0
 30
0.0
  9
$UCSORGRIGHT
 10
0.0
 20
0.0
 30
0.0
  9
$UCSORGFRONT
 10
0.0
 20
0.0
 30
0.0
  9
$UCSORGBACK
 10
0.0
 20
0.0
 30
0.0
  9
$PUCSBASE
  2

  9
$PUCSNAME
  2

  9
$PUCSORG
 10
0.0
 20
0.0
 30
0.0
  9
$PUCSXDIR
 10
1.0
 20
0.0
 30
0.0
  9
$PUCSYDIR
 10
0.0
 20
1.0
 30
0.0
  9
$PUCSORTHOREF
  2

  9
$PUCSORTHOVIEW
 70
     0
  9
$PUCSORGTOP
 10
0.0
 20
0.0
 30
0.0
  9
$PUCSORGBOTTOM
 10
0.0
 20
0.0
 30
0.0
  9
$PUCSORGLEFT
 10
0.0
 20
0.0
 30
0.0
  9
$PUCSORGRIGHT
 10
0.0
 20
0.0
 30
0.0
  9
$PUCSORGFRONT
 10
0.0
 20
0.0
 30
0.0
  9
$PUCSORGBACK
 10
0.0
 20
0.0
 30
0.0
  9
$USERI1
 70
     0
  9
$USERI2
 70
     0
  9
$USERI3
 70
     0
  9
$USERI4
 70
     0
  9
$USERI5
 70
     0
  9
$USERR1
 40
0.0
  9
$USERR2
 40
0.0
  9
$USERR3
 40
0.0
  9
$USERR4
 40
0.0
  9
$USERR5
 40
0.0
  9
$WORLDVIEW
 70
     1
  9
$SHADEDGE
 70
     3
  9
$SHADEDIF
 70
    70
  9
$TILEMODE
 70
     1
  9
$MAXACTVP
 70
    64
  9
$PINSBASE
 10
0.0
 20
0.0
 30
0.0
  9
$PLIMCHECK
 70
     0
  9
$PEXTMIN
 10
1.000000000000000E+20
 20
1.000000000000000E+20
 30
1.000000000000000E+20
  9
$PEXTMAX
 10
-1.000000000000000E+20
 20
-1.000000000000000E+20
 30
-1.000000000000000E+20
  9
$PLIMMIN
 10
0.0
 20
0.0
  9
$PLIMMAX
 10
12.0
 20
9.0
  9
$UNITMODE
 70
     0
  9
$VISRETAIN
 70
     1
  9
$PLINEGEN
 70
     0
  9
$PSLTSCALE
 70
     1
  9
$TREEDEPTH
 70
  3020
  9
$CMLSTYLE
  2
Standard
  9
$CMLJUST
 70
     0
  9
$CMLSCALE
 40
1.0
  9
$PROXYGRAPHICS
 70
     1
  9
$MEASUREMENT
 70
     0
  9
$CELWEIGHT
370
    -1
  9
$ENDCAPS
280
     0
  9
$JOINSTYLE
280
     0
  9
$LWDISPLAY
290
     1
  9
$INSUNITS
 70
     1
  9
$HYPERLINKBASE
  1

  9
$STYLESHEET
  1

  9
$XEDIT
290
     1
  9
$CEPSNTYPE
380
     0
  9
$PSTYLEMODE
290
     1
  9
$FINGERPRINTGUID
  2
{29D62796-324B-D859-D8C5-7A3EBDB38956}
  9
$VERSIONGUID
  2
{FAEB1C32-E019-11D5-929B-00C0DF256EC4}
  9
$EXTNAMES
290
     1
  9
$PSVPSCALE
 40
0.0
  9
$OLESTARTUP
290
     0
  9
$SORTENTS
280
   127
  9
$INDEXCTL
280
     0
  9
$HIDETEXT
280
     1
  9
$XCLIPFRAME
280
     2
  9
$HALOGAP
280
     0
  9
$OBSCOLOR
 70
   257
  9
$OBSLTYPE
280
     0
  9
$INTERSECTIONDISPLAY
280
     0
  9
$INTERSECTIONCOLOR
 70
   257
  9
$DIMASSOC
280
     2
  9
$PROJECTNAME
  1

  9
$CAMERADISPLAY
290
     0
  9
$LENSLENGTH
 40
50.0
  9
$CAMERAHEIGHT
 40
0.0
  9
$STEPSPERSEC
 40
2.0
  9
$STEPSIZE
 40
6.0
  9
$3DDWFPREC
 40
2.0
  9
$PSOLWIDTH
 40
0.25
  9
$PSOLHEIGHT
 40
4.0
  9
$LOFTANG1
 40
1.570796326794897
  9
$LOFTANG2
 40
1.570796326794897
  9
$LOFTMAG1
 40
0.0
  9
$LOFTMAG2
 40
0.0
  9
$LOFTPARAM
 70
     7
  9
$LOFTNORMALS
280
     1
  9
$LATITUDE
 40
37.795
  9
$LONGITUDE
 40
-122.394
  9
$NORTHDIRECTION
 40
0.0
  9
$TIMEZONE
 70
 -8000
  9
$LIGHTGLYPHDISPLAY
280
     1
  9
$TILEMODELIGHTSYNCH
280
     1
  9
$CMATERIAL
347
3C
  9
$SOLIDHIST
280
     1
  9
$SHOWHIST
280
     1
  9
$DWFFRAME
280
     2
  9
$DGNFRAME
280
     2
  9
$REALWORLDSCALE
290
     1
  9
$INTERFERECOLOR
 62
   256
  9
$CSHADOW
280
     0
  9
$SHADOWPLANELOCATION
 40
0.0
  0
ENDSEC
  0
SECTION
  2
CLASSES
  0
CLASS
  1
ACDBDICTIONARYWDFLT
  2
AcDbDictionaryWithDefault
  3
ObjectDBX Classes
 90
        0
 91
        4
280
     0
281
     0
  0
CLASS
  1
VISUALSTYLE
  2
AcDbVisualStyle
  3
ObjectDBX Classes
 90
     4095
 91
        4
280
     0
281
     0
  0
CLASS
  1
MATERIAL
  2
AcDbMaterial
  3
ObjectDBX Classes
 90
     1153
 91
        4
280
     0
281
     0
  0
CLASS
  1
SUN
  2
AcDbSun
  3
SCENEOE
 90
     1024
 91
        4
280
     0
281
     0
  0
ENDSEC
  0
SECTION
  2
TABLES
  0
TABLE
  2
VPORT
  5
8
330
0
100
AcDbSymbolTable
 70
     1
  0
VPORT
  5
29
330
8
100
AcDbSymbolTableRecord
100
AcDbViewportTableRecord
  2
*Active
 70
     0
 10
0.0
 20
0.0
 11
1.0
 21
1.0
 12
0.0
 22
0.0
 13
0.0
 23
0.0
 14
0.5
 24
0.5
 15
0.5
 25
0.5
 16
0.0
 26
0.0
 36
1.0
 17
91.00082462281999
 27
-128.4993055234307
 37
0.0
 40
256.9986110468615
 41
0.7081814508812795
 42
50.0
 43
0.0
 44
0.0
 50
0.0
 51
0.0
 71
     0
 72
   100
 73
     1
 74
     3
 75
     0
 76
     0
 77
     0
 78
     0
281
     0
 65
     1
110
0.0
120
0.0
130
0.0
111
1.0
121
0.0
131
0.0
112
0.0
122
1.0
132
0.0
 79
     0
146
0.0
 60
     3
 61
     5
292
     1
282
     1
141
0.0
142
0.0
 63
   250
361
3F
  0
ENDTAB
  0
TABLE
  2
LTYPE
  5
5
330
0
100
AcDbSymbolTable
 70
     1
  0
LTYPE
  5
14
330
5
100
AcDbSymbolTableRecord
100
AcDbLinetypeTableRecord
  2
ByBlock
 70
     0
  3

 72
    65
 73
     0
 40
0.0
  0
LTYPE
  5
15
330
5
100
AcDbSymbolTableRecord
100
AcDbLinetypeTableRecord
  2
ByLayer
 70
     0
  3

 72
    65
 73
     0
 40
0.0
  0
LTYPE
  5
16
330
5
100
AcDbSymbolTableRecord
100
AcDbLinetypeTableRecord
  2
Continuous
 70
     0
  3
Solid line
 72
    65
 73
     0
 40
0.0
  0
ENDTAB
  0
TABLE
  2
LAYER
  5
2
330
0
100
AcDbSymbolTable
 70
     2
  0
LAYER
  5
10
330
2
100
AcDbSymbolTableRecord
100
AcDbLayerTableRecord
  2
0
 70
     0
 62
     7
  6
Continuous
370
    -3
390
F
347
3E
  0
LAYER
  5
40
330
2
100
AcDbSymbolTableRecord
100
AcDbLayerTableRecord
  2
_U+30EC_U+30A4_U+30E4_U+30FC 1
 70
     0
 62
     7
  6
Continuous
370
    -3
390
F
347
3E
  0
ENDTAB
  0
TABLE
  2
STYLE
  5
3
330
0
100
AcDbSymbolTable
 70
     1
  0
STYLE
  5
11
330
3
100
AcDbSymbolTableRecord
100
AcDbTextStyleTableRecord
  2
Standard
 70
     0
 40
0.0
 41
1.0
 50
0.0
 71
     0
 42
0.2
  3
txt
  4

  0
ENDTAB
  0
TABLE
  2
VIEW
  5
6
330
0
100
AcDbSymbolTable
 70
     0
  0
ENDTAB
  0
TABLE
  2
UCS
  5
7
330
0
100
AcDbSymbolTable
 70
     0
  0
ENDTAB
  0
TABLE
  2
APPID
  5
9
330
0
100
AcDbSymbolTable
 70
     1
  0
APPID
  5
12
330
9
100
AcDbSymbolTableRecord
100
AcDbRegAppTableRecord
  2
ACAD
 70
     0
  0
ENDTAB
  0
TABLE
  2
DIMSTYLE
  5
A
330
0
100
AcDbSymbolTable
 70
     1
100
AcDbDimStyleTable
  0
DIMSTYLE
105
27
330
A
100
AcDbSymbolTableRecord
100
AcDbDimStyleTableRecord
  2
Standard
 70
     0
178
     0
340
11
  0
ENDTAB
  0
TABLE
  2
BLOCK_RECORD
  5
1
330
0
100
AcDbSymbolTable
 70
     6
  0
BLOCK_RECORD
  5
1F
330
1
100
AcDbSymbolTableRecord
100
AcDbBlockTableRecord
  2
*Model_Space
340
22
 70
     0
280
     1
281
     0
  0
BLOCK_RECORD
  5
1B
330
1
100
AcDbSymbolTableRecord
100
AcDbBlockTableRecord
  2
*Paper_Space
340
1E
 70
     0
280
     1
281
     0
  0
BLOCK_RECORD
  5
23
330
1
100
AcDbSymbolTableRecord
100
AcDbBlockTableRecord
  2
*Paper_Space0
340
26
 70
     0
280
     1
281
     0
  0
BLOCK_RECORD
  5
5D
330
1
100
AcDbSymbolTableRecord
100
AcDbBlockTableRecord
  2
block 2
340
0
102
{BLKREFS
331
5E
102
}
 70
     0
280
     1
281
     0
  0
BLOCK_RECORD
  5
63
330
1
100
AcDbSymbolTableRecord
100
AcDbBlockTableRecord
  2
block 3
340
0
102
{BLKREFS
331
64
102
}
 70
     0
280
     1
281
     0
  0
BLOCK_RECORD
  5
6C
330
1
100
AcDbSymbolTableRecord
100
AcDbBlockTableRecord
  2
block 4
340
0
102
{BLKREFS
331
6D
102
}
 70
     0
280
     1
281
     0
  0
BLOCK_RECORD
  5
7E
330
1
100
AcDbSymbolTableRecord
100
AcDbBlockTableRecord
  2
block 5
340
0
102
{BLKREFS
331
7F
102
}
 70
     0
280
     1
281
     0
  0
BLOCK_RECORD
  5
92
330
1
100
AcDbSymbolTableRecord
100
AcDbBlockTableRecord
  2
block 6
340
0
102
{BLKREFS
331
93
102
}
 70
     0
280
     1
281
     0
  0
ENDTAB
  0
ENDSEC
  0
SECTION
  2
BLOCKS
  0
BLOCK
  5
20
330
1F
100
AcDbEntity
  8
0
100
AcDbBlockBegin
  2
*Model_Space
 70
     0
 10
0.0
 20
0.0
 30
0.0
  3
*Model_Space
  1

  0
ENDBLK
  5
21
330
1F
100
AcDbEntity
  8
0
100
AcDbBlockEnd
  0
BLOCK
  5
1C
330
1B
100
AcDbEntity
 67
     1
  8
0
100
AcDbBlockBegin
  2
*Paper_Space
 70
     0
 10
0.0
 20
0.0
 30
0.0
  3
*Paper_Space
  1

  0
ENDBLK
  5
1D
330
1B
100
AcDbEntity
 67
     1
  8
0
100
AcDbBlockEnd
  0
BLOCK
  5
24
330
23
100
AcDbEntity
  8
0
100
AcDbBlockBegin
  2
*Paper_Space0
 70
     0
 10
0.0
 20
0.0
 30
0.0
  3
*Paper_Space0
  1

  0
ENDBLK
  5
25
330
23
100
AcDbEntity
  8
0
100
AcDbBlockEnd
  0
BLOCK
  5
5F
330
5D
100
AcDbEntity
  8
0
100
AcDbBlockBegin
  2
block 2
 70
     0
 10
0.0
 20
0.0
 30
0.0
  3
block 2
  1

  0
SPLINE
  5
61
330
5D
100
AcDbEntity
  8
_U+30EC_U+30A4_U+30E4_U+30FC 1
370
     0
100
AcDbSpline
210
0.0
220
0.0
230
1.0
 70
    11
 71
     3
 72
    26
 73
    22
 74
     0
 42
0.0000000001
 43
0.0000000001
 12
1.0
 22
0.0
 32
0.0
 13
1.0
 23
0.0
 33
0.0
 40
0.0
 40
0.0
 40
0.0
 40
0.0
 40
1.0
 40
1.0
 40
1.0
 40
2.0
 40
2.0
 40
2.0
 40
3.0
 40
3.0
 40
3.0
 40
4.0
 40
4.0
 40
4.0
 40
5.0
 40
5.0
 40
5.0
 40
6.0
 40
6.0
 40
6.0
 40
7.0
 40
7.0
 40
7.0
 40
7.0
 10
103.0710557468017
 20
-135.376749640635
 30
0.0
 10
103.0710557468017
 20
-135.376749640635
 30
0.0
 10
101.9665581342306
 20
-135.376749640635
 30
0.0
 10
101.9665581342306
 20
-135.376749640635
 30
0.0
 10
101.9665581342306
 20
-135.376749640635
 30
0.0
 10
101.9665581342306
 20
-135.7067897881219
 30
0.0
 10
101.9665581342306
 20
-135.7067897881219
 30
0.0
 10
101.9665581342306
 20
-135.7067897881219
 30
0.0
 10
101.8184190283648
 20
-135.7067897881219
 30
0.0
 10
101.8184190283648
 20
-135.7067897881219
 30
0.0
 10
101.8039496273268
 20
-135.3746825833438
 30
0.0
 10
101.640652101326
 20
-135.328173794293
 30
0.0
 10
101.5262749312157
 20
-135.2985459731198
 30
0.0
 10
101.5262749312157
 20
-135.2985459731198
 30
0.0
 10
101.5262749312157
 20
-135.1524739245452
 30
0.0
 10
101.5262749312157
 20
-135.1524739245452
 30
0.0
 10
101.5262749312157
 20
-135.1524739245452
 30
0.0
 10
103.0710557468017
 20
-135.1524739245452
 30
0.0
 10
103.0710557468017
 20
-135.1524739245452
 30
0.0
 10
103.0710557468017
 20
-135.1524739245452
 30
0.0
 10
103.0710557468017
 20
-135.376749640635
 30
0.0
 10
103.0710557468017
 20
-135.376749640635
 30
0.0
  0
HATCH
  5
62
330
5D
100
AcDbEntity
  8
_U+30EC_U+30A4_U+30E4_U+30FC 1
 62
   179
420
  2234388
100
AcDbHatch
 10
0.0
 20
0.0
 30
0.0
210
0.0
220
0.0
230
1.0
  2
SOLID
 70
     1
 71
     0
 91
        1
 92
        1
 93
        1
 72
     4
 94
        3
 73
     0
 74
     1
 95
       26
 96
       22
 40
0.0
 40
0.0
 40
0.0
 40
0.0
 40
1.0
 40
1.0
 40
1.0
 40
2.0
 40
2.0
 40
2.0
 40
3.0
 40
3.0
 40
3.0
 40
4.0
 40
4.0
 40
4.0
 40
5.0
 40
5.0
 40
5.0
 40
6.0
 40
6.0
 40
6.0
 40
7.0
 40
7.0
 40
7.0
 40
7.0
 10
103.0710557468017
 20
-135.376749640635
 10
103.0710557468017
 20
-135.376749640635
 10
101.9665581342306
 20
-135.376749640635
 10
101.9665581342306
 20
-135.376749640635
 10
101.9665581342306
 20
-135.376749640635
 10
101.9665581342306
 20
-135.7067897881219
 10
101.9665581342306
 20
-135.7067897881219
 10
101.9665581342306
 20
-135.7067897881219
 10
101.8184190283648
 20
-135.7067897881219
 10
101.8184190283648
 20
-135.7067897881219
 10
101.8039496273268
 20
-135.3746825833438
 10
101.640652101326
 20
-135.328173794293
 10
101.5262749312157
 20
-135.2985459731198
 10
101.5262749312157
 20
-135.2985459731198
 10
101.5262749312157
 20
-135.1524739245452
 10
101.5262749312157
 20
-135.1524739245452
 10
101.5262749312157
 20
-135.1524739245452
 10
103.0710557468017
 20
-135.1524739245452
 10
103.0710557468017
 20
-135.1524739245452
 10
103.0710557468017
 20
-135.1524739245452
 10
103.0710557468017
 20
-135.376749640635
 10
103.0710557468017
 20
-135.376749640635
 97
        0
 97
        0
 75
     2
 76
     1
 98
        0
  0
ENDBLK
  5
60
330
5D
100
AcDbEntity
  8
0
100
AcDbBlockEnd
  0
BLOCK
  5
65
330
63
100
AcDbEntity
  8
0
100
AcDbBlockBegin
  2
block 3
 70
     0
 10
0.0
 20
0.0
 30
0.0
  3
block 3
  1

  0
SPLINE
  5
67
330
63
100
AcDbEntity
  8
_U+30EC_U+30A4_U+30E4_U+30FC 1
370
     0
100
AcDbSpline
210
0.0
220
0.0
230
1.0
 70
    11
 71
     3
 72
    26
 73
    22
 74
     0
 42
0.0000000001
 43
0.0000000001
 12
1.0
 22
0.0
 32
0.0
 13
1.0
 23
0.0
 33
0.0
 40
0.0
 40
0.0
 40
0.0
 40
0.0
 40
1.0
 40
1.0
 40
1.0
 40
2.0
 40
2.0
 40
2.0
 40
3.0
 40
3.0
 40
3.0
 40
4.0
 40
4.0
 40
4.0
 40
5.0
 40
5.0
 40
5.0
 40
6.0
 40
6.0
 40
6.0
 40
7.0
 40
7.0
 40
7.0
 40
7.0
 10
103.0710557468017
 20
-130.4767903319641
 30
0.0
 10
103.0710557468017
 20
-130.4767903319641
 30
0.0
 10
101.9665581342306
 20
-130.4767903319641
 30
0.0
 10
101.9665581342306
 20
-130.4767903319641
 30
0.0
 10
101.9665581342306
 20
-130.4767903319641
 30
0.0
 10
101.9665581342306
 20
-130.8068304794511
 30
0.0
 10
101.9665581342306
 20
-130.8068304794511
 30
0.0
 10
101.9665581342306
 20
-130.8068304794511
 30
0.0
 10
101.8184190283648
 20
-130.8068304794511
 30
0.0
 10
101.8184190283648
 20
-130.8068304794511
 30
0.0
 10
101.8039496273268
 20
-130.474723274673
 30
0.0
 10
101.640652101326
 20
-130.4282144856221
 30
0.0
 10
101.5262749312157
 20
-130.398586664449
 30
0.0
 10
101.5262749312157
 20
-130.398586664449
 30
0.0
 10
101.5262749312157
 20
-130.2525146158744
 30
0.0
 10
101.5262749312157
 20
-130.2525146158744
 30
0.0
 10
101.5262749312157
 20
-130.2525146158744
 30
0.0
 10
103.0710557468017
 20
-130.2525146158744
 30
0.0
 10
103.0710557468017
 20
-130.2525146158744
 30
0.0
 10
103.0710557468017
 20
-130.2525146158744
 30
0.0
 10
103.0710557468017
 20
-130.4767903319641
 30
0.0
 10
103.0710557468017
 20
-130.4767903319641
 30
0.0
  0
HATCH
  5
68
330
63
100
AcDbEntity
  8
_U+30EC_U+30A4_U+30E4_U+30FC 1
 62
   179
420
  2234388
100
AcDbHatch
 10
0.0
 20
0.0
 30
0.0
210
0.0
220
0.0
230
1.0
  2
SOLID
 70
     1
 71
     0
 91
        1
 92
        1
 93
        1
 72
     4
 94
        3
 73
     0
 74
     1
 95
       26
 96
       22
 40
0.0
 40
0.0
 40
0.0
 40
0.0
 40
1.0
 40
1.0
 40
1.0
 40
2.0
 40
2.0
 40
2.0
 40
3.0
 40
3.0
 40
3.0
 40
4.0
 40
4.0
 40
4.0
 40
5.0
 40
5.0
 40
5.0
 40
6.0
 40
6.0
 40
6.0
 40
7.0
 40
7.0
 40
7.0
 40
7.0
 10
103.0710557468017
 20
-130.4767903319641
 10
103.0710557468017
 20
-130.4767903319641
 10
101.9665581342306
 20
-130.4767903319641
 10
101.9665581342306
 20
-130.4767903319641
 10
101.9665581342306
 20
-130.4767903319641
 10
101.9665581342306
 20
-130.8068304794511
 10
101.9665581342306
 20
-130.8068304794511
 10
101.9665581342306
 20
-130.8068304794511
 10
101.8184190283648
 20
-130.8068304794511
 10
101.8184190283648
 20
-130.8068304794511
 10
101.8039496273268
 20
-130.474723274673
 10
101.640652101326
 20
-130.4282144856221
 10
101.5262749312157
 20
-130.398586664449
 10
101.5262749312157
 20
-130.398586664449
 10
101.5262749312157
 20
-130.2525146158744
 10
101.5262749312157
 20
-130.2525146158744
 10
101.5262749312157
 20
-130.2525146158744
 10
103.0710557468017
 20
-130.2525146158744
 10
103.0710557468017
 20
-130.2525146158744
 10
103.0710557468017
 20
-130.2525146158744
 10
103.0710557468017
 20
-130.4767903319641
 10
103.0710557468017
 20
-130.4767903319641
 97
        0
 97
        0
 75
     2
 76
     1
 98
        0
  0
SPLINE
  5
69
330
63
100
AcDbEntity
  8
_U+30EC_U+30A4_U+30E4_U+30FC 1
370
     0
100
AcDbSpline
210
0.0
220
0.0
230
1.0
 70
    11
 71
     3
 72
    29
 73
    25
 74
     0
 42
0.0000000001
 43
0.0000000001
 12
1.0
 22
0.0
 32
0.0
 13
1.0
 23
0.0
 33
0.0
 40
0.0
 40
0.0
 40
0.0
 40
0.0
 40
1.0
 40
1.0
 40
1.0
 40
2.0
 40
2.0
 40
2.0
 40
3.0
 40
3.0
 40
3.0
 40
4.0
 40
4.0
 40
4.0
 40
5.0
 40
5.0
 40
5.0
 40
6.0
 40
6.0
 40
6.0
 40
7.0
 40
7.0
 40
7.0
 40
8.0
 40
8.0
 40
8.0
 40
8.0
 10
102.8932888197628
 20
-128.8534613393144
 30
0.0
 10
103.102750625266
 20
-128.9616373375513
 30
0.0
 10
103.1213541408863
 20
-129.1349256404593
 30
0.0
 10
103.1213541408863
 20
-129.2513698678608
 30
0.0
 10
103.1213541408863
 20
-129.4122558270219
 30
0.0
 10
103.075189861384
 20
-129.5538492514657
 30
0.0
 10
102.8932888197628
 20
-129.6489338868586
 30
0.0
 10
102.6982964152976
 20
-129.7526312609646
 30
0.0
 10
102.4619628650095
 20
-129.771923795682
 30
0.0
 10
102.2986653390087
 20
-129.771923795682
 30
0.0
 10
102.1546603477252
 20
-129.771923795682
 30
0.0
 10
101.903168377302
 20
-129.7546983182558
 30
0.0
 10
101.7040418582546
 20
-129.6489338868586
 30
0.0
 10
101.5014702437219
 20
-129.5411023981703
 30
0.0
 10
101.4780435944222
 20
-129.3802164390091
 30
0.0
 10
101.4780435944222
 20
-129.2513698678608
 30
0.0
 10
101.4780435944222
 20
-129.0925509659908
 30
0.0
 10
101.5221408166334
 20
-128.9488904842558
 30
0.0
 10
101.7040418582546
 20
-128.8534613393144
 30
0.0
 10
101.8969672054285
 20
-128.7542425893392
 30
0.0
 10
102.1250325265521
 20
-128.7308159400395
 30
0.0
 10
102.2986653390087
 20
-128.7308159400395
 30
0.0
 10
102.4702310941741
 20
-128.7308159400395
 30
0.0
 10
102.7003634725888
 20
-128.7521755320481
 30
0.0
 10
102.8932888197628
 20
-128.8534613393144
 30
0.0
  0
SPLINE
  5
6A
330
63
100
AcDbEntity
  8
_U+30EC_U+30A4_U+30E4_U+30FC 1
370
     0
100
AcDbSpline
210
0.0
220
0.0
230
1.0
 70
    11
 71
     3
 72
    17
 73
    13
 74
     0
 42
0.0000000001
 43
0.0000000001
 12
1.0
 22
0.0
 32
0.0
 13
1.0
 23
0.0
 33
0.0
 40
0.0
 40
0.0
 40
0.0
 40
0.0
 40
1.0
 40
1.0
 40
1.0
 40
2.0
 40
2.0
 40
2.0
 40
3.0
 40
3.0
 40
3.0
 40
4.0
 40
4.0
 40
4.0
 40
4.0
 10
101.6702799224991
 20
-129.2513698678608
 30
0.0
 10
101.6702799224991
 20
-129.5011392905414
 30
0.0
 10
101.9541557904837
 20
-129.5476480795922
 30
0.0
 10
102.2986653390087
 20
-129.5476480795922
 30
0.0
 10
102.6183702000399
 20
-129.5476480795922
 30
0.0
 10
102.9270507555182
 20
-129.5114745769971
 30
0.0
 10
102.9270507555182
 20
-129.2513698678608
 30
0.0
 10
102.9270507555182
 20
-129.0036675024713
 30
0.0
 10
102.6459309639219
 20
-128.9550916561293
 30
0.0
 10
102.2986653390087
 20
-128.9550916561293
 30
0.0
 10
101.9789604779775
 20
-128.9550916561293
 30
0.0
 10
101.6702799224991
 20
-128.9933322160156
 30
0.0
 10
101.6702799224991
 20
-129.2513698678608
 30
0.0
  0
HATCH
  5
6B
330
63
100
AcDbEntity
  8
_U+30EC_U+30A4_U+30E4_U+30FC 1
 62
   179
420
  2234388
100
AcDbHatch
 10
0.0
 20
0.0
 30
0.0
210
0.0
220
0.0
230
1.0
  2
SOLID
 70
     1
 71
     0
 91
        2
 92
        1
 93
        1
 72
     4
 94
        3
 73
     0
 74
     1
 95
       29
 96
       25
 40
0.0
 40
0.0
 40
0.0
 40
0.0
 40
1.0
 40
1.0
 40
1.0
 40
2.0
 40
2.0
 40
2.0
 40
3.0
 40
3.0
 40
3.0
 40
4.0
 40
4.0
 40
4.0
 40
5.0
 40
5.0
 40
5.0
 40
6.0
 40
6.0
 40
6.0
 40
7.0
 40
7.0
 40
7.0
 40
8.0
 40
8.0
 40
8.0
 40
8.0
 10
102.8932888197628
 20
-128.8534613393144
 10
103.102750625266
 20
-128.9616373375513
 10
103.1213541408863
 20
-129.1349256404593
 10
103.1213541408863
 20
-129.2513698678608
 10
103.1213541408863
 20
-129.4122558270219
 10
103.075189861384
 20
-129.5538492514657
 10
102.8932888197628
 20
-129.6489338868586
 10
102.6982964152976
 20
-129.7526312609646
 10
102.4619628650095
 20
-129.771923795682
 10
102.2986653390087
 20
-129.771923795682
 10
102.1546603477252
 20
-129.771923795682
 10
101.903168377302
 20
-129.7546983182558
 10
101.7040418582546
 20
-129.6489338868586
 10
101.5014702437219
 20
-129.5411023981703
 10
101.4780435944222
 20
-129.3802164390091
 10
101.4780435944222
 20
-129.2513698678608
 10
101.4780435944222
 20
-129.0925509659908
 10
101.5221408166334
 20
-128.9488904842558
 10
101.7040418582546
 20
-128.8534613393144
 10
101.8969672054285
 20
-128.7542425893392
 10
102.1250325265521
 20
-128.7308159400395
 10
102.2986653390087
 20
-128.7308159400395
 10
102.4702310941741
 20
-128.7308159400395
 10
102.7003634725888
 20
-128.7521755320481
 10
102.8932888197628
 20
-128.8534613393144
 97
        0
 97
        0
 92
        1
 93
        1
 72
     4
 94
        3
 73
     0
 74
     1
 95
       17
 96
       13
 40
0.0
 40
0.0
 40
0.0
 40
0.0
 40
1.0
 40
1.0
 40
1.0
 40
2.0
 40
2.0
 40
2.0
 40
3.0
 40
3.0
 40
3.0
 40
4.0
 40
4.0
 40
4.0
 40
4.0
 10
101.6702799224991
 20
-129.2513698678608
 10
101.6702799224991
 20
-129.5011392905414
 10
101.9541557904837
 20
-129.5476480795922
 10
102.2986653390087
 20
-129.5476480795922
 10
102.6183702000399
 20
-129.5476480795922
 10
102.9270507555182
 20
-129.5114745769971
 10
102.9270507555182
 20
-129.2513698678608
 10
102.9270507555182
 20
-129.0036675024713
 10
102.6459309639219
 20
-128.9550916561293
 10
102.2986653390087
 20
-128.9550916561293
 10
101.9789604779775
 20
-128.9550916561293
 10
101.6702799224991
 20
-128.9933322160156
 10
101.6702799224991
 20
-129.2513698678608
 97
        0
 97
        0
 75
     2
 76
     1
 98
        0
  0
ENDBLK
  5
66
330
63
100
AcDbEntity
  8
0
100
AcDbBlockEnd
  0
BLOCK
  5
6E
330
6C
100
AcDbEntity
  8
0
100
AcDbBlockBegin
  2
block 4
 70
     0
 10
0.0
 20
0.0
 30
0.0
  3
block 4
  1

  0
SPLINE
  5
70
330
6C
100
AcDbEntity
  8
_U+30EC_U+30A4_U+30E4_U+30FC 1
370
     0
100
AcDbSpline
210
0.0
220
0.0
230
1.0
 70
    11
 71
     3
 72
    62
 73
    58
 74
     0
 42
0.0000000001
 43
0.0000000001
 12
1.0
 22
0.0
 32
0.0
 13
1.0
 23
0.0
 33
0.0
 40
0.0
 40
0.0
 40
0.0
 40
0.0
 40
1.0
 40
1.0
 40
1.0
 40
2.0
 40
2.0
 40
2.0
 40
3.0
 40
3.0
 40
3.0
 40
4.0
 40
4.0
 40
4.0
 40
5.0
 40
5.0
 40
5.0
 40
6.0
 40
6.0
 40
6.0
 40
7.0
 40
7.0
 40
7.0
 40
8.0
 40
8.0
 40
8.0
 40
9.0
 40
9.0
 40
9.0
 40
10.0
 40
10.0
 40
10.0
 40
11.0
 40
11.0
 40
11.0
 40
12.0
 40
12.0
 40
12.0
 40
13.0
 40
13.0
 40
13.0
 40
14.0
 40
14.0
 40
14.0
 40
15.0
 40
15.0
 40
15.0
 40
16.0
 40
16.0
 40
16.0
 40
17.0
 40
17.0
 40
17.0
 40
18.0
 40
18.0
 40
18.0
 40
19.0
 40
19.0
 40
19.0
 40
19.0
 10
99.12125377296275
 20
-123.3364854292353
 30
0.0
 10
99.12125377296275
 20
-123.4319145741767
 30
0.0
 10
99.10023869050272
 20
-123.6496446088445
 30
0.0
 10
98.91420353429923
 20
-123.7747015749591
 30
0.0
 10
98.80189342148009
 20
-123.848771127892
 30
0.0
 10
98.7026746715049
 20
-123.8529052424743
 30
0.0
 10
98.61792532256774
 20
-123.8570393570566
 30
0.0
 10
98.61792532256774
 20
-123.8570393570566
 30
0.0
 10
98.61792532256774
 20
-123.6368977555491
 30
0.0
 10
98.61792532256774
 20
-123.6368977555491
 30
0.0
 10
98.69199487550061
 20
-123.634830698258
 30
0.0
 10
98.92660587804613
 20
-123.6244954118022
 30
0.0
 10
98.92660587804613
 20
-123.3409640533662
 30
0.0
 10
98.92660587804613
 20
-123.2035047435047
 30
0.0
 10
98.85701494924409
 20
-123.0508870135081
 30
0.0
 10
98.62860511857203
 20
-123.0508870135081
 30
0.0
 10
98.51216089117058
 20
-123.0508870135081
 30
0.0
 10
98.46358504482855
 20
-123.0891275733944
 30
0.0
 10
98.43189016636425
 20
-123.1208224518587
 30
0.0
 10
98.35782061343139
 20
-123.1948920047916
 30
0.0
 10
98.34507376013596
 20
-123.311336232193
 30
0.0
 10
98.34507376013596
 20
-123.3661132504085
 30
0.0
 10
98.34507376013596
 20
-123.3854057851259
 30
0.0
 10
98.3471408174271
 20
-123.4212347781725
 30
0.0
 10
98.3512749320094
 20
-123.4487955420545
 30
0.0
 10
98.3512749320094
 20
-123.4487955420545
 30
0.0
 10
98.15662703709279
 20
-123.4487955420545
 30
0.0
 10
98.15662703709279
 20
-123.4487955420545
 30
0.0
 10
98.16317271851477
 20
-123.4105549821682
 30
0.0
 10
98.16523977580592
 20
-123.3685248172482
 30
0.0
 10
98.16523977580592
 20
-123.3619791358262
 30
0.0
 10
98.16523977580592
 20
-123.2965223216064
 30
0.0
 10
98.14388018379736
 20
-123.0977403121075
 30
0.0
 10
97.9072021239607
 20
-123.0977403121075
 30
0.0
 10
97.72943519692181
 20
-123.0977403121075
 30
0.0
 10
97.67431366915781
 20
-123.228653940547
 30
0.0
 10
97.67431366915781
 20
-123.338896996075
 30
0.0
 10
97.67431366915781
 20
-123.6031358197937
 30
0.0
 10
97.9072021239607
 20
-123.6117485585068
 30
0.0
 10
97.9788601100539
 20
-123.6158826730891
 30
0.0
 10
97.9788601100539
 20
-123.6158826730891
 30
0.0
 10
97.9788601100539
 20
-123.8191433067188
 30
0.0
 10
97.9788601100539
 20
-123.8191433067188
 30
0.0
 10
97.85414765348786
 20
-123.8105305680057
 30
0.0
 10
97.47759871695006
 20
-123.7829698041237
 30
0.0
 10
97.47759871695006
 20
-123.3261501427796
 30
0.0
 10
97.47759871695006
 20
-123.1018744266898
 30
0.0
 10
97.60472274035577
 20
-122.8607177427223
 30
0.0
 10
97.90065644253873
 20
-122.8607177427223
 30
0.0
 10
98.08703610829075
 20
-122.8607177427223
 30
0.0
 10
98.16937389038821
 20
-122.9558023781152
 30
0.0
 10
98.23069659002566
 20
-123.0553656376389
 30
0.0
 10
98.25825735390767
 20
-122.9940429380015
 30
0.0
 10
98.33852807871398
 20
-122.8121418963803
 30
0.0
 10
98.6158582652766
 20
-122.8121418963803
 30
0.0
 10
98.95416664192813
 20
-122.8121418963803
 30
0.0
 10
99.12125377296275
 20
-123.0594997522212
 30
0.0
 10
99.12125377296275
 20
-123.3364854292353
 30
0.0
  0
HATCH
  5
71
330
6C
100
AcDbEntity
  8
_U+30EC_U+30A4_U+30E4_U+30FC 1
 62
   179
420
  2234388
100
AcDbHatch
 10
0.0
 20
0.0
 30
0.0
210
0.0
220
0.0
230
1.0
  2
SOLID
 70
     1
 71
     0
 91
        1
 92
        1
 93
        1
 72
     4
 94
        3
 73
     0
 74
     1
 95
       62
 96
       58
 40
0.0
 40
0.0
 40
0.0
 40
0.0
 40
1.0
 40
1.0
 40
1.0
 40
2.0
 40
2.0
 40
2.0
 40
3.0
 40
3.0
 40
3.0
 40
4.0
 40
4.0
 40
4.0
 40
5.0
 40
5.0
 40
5.0
 40
6.0
 40
6.0
 40
6.0
 40
7.0
 40
7.0
 40
7.0
 40
8.0
 40
8.0
 40
8.0
 40
9.0
 40
9.0
 40
9.0
 40
10.0
 40
10.0
 40
10.0
 40
11.0
 40
11.0
 40
11.0
 40
12.0
 40
12.0
 40
12.0
 40
13.0
 40
13.0
 40
13.0
 40
14.0
 40
14.0
 40
14.0
 40
15.0
 40
15.0
 40
15.0
 40
16.0
 40
16.0
 40
16.0
 40
17.0
 40
17.0
 40
17.0
 40
18.0
 40
18.0
 40
18.0
 40
19.0
 40
19.0
 40
19.0
 40
19.0
 10
99.12125377296275
 20
-123.3364854292353
 10
99.12125377296275
 20
-123.4319145741767
 10
99.10023869050272
 20
-123.6496446088445
 10
98.91420353429923
 20
-123.7747015749591
 10
98.80189342148009
 20
-123.848771127892
 10
98.7026746715049
 20
-123.8529052424743
 10
98.61792532256774
 20
-123.8570393570566
 10
98.61792532256774
 20
-123.8570393570566
 10
98.61792532256774
 20
-123.6368977555491
 10
98.61792532256774
 20
-123.6368977555491
 10
98.69199487550061
 20
-123.634830698258
 10
98.92660587804613
 20
-123.6244954118022
 10
98.92660587804613
 20
-123.3409640533662
 10
98.92660587804613
 20
-123.2035047435047
 10
98.85701494924409
 20
-123.0508870135081
 10
98.62860511857203
 20
-123.0508870135081
 10
98.51216089117058
 20
-123.0508870135081
 10
98.46358504482855
 20
-123.0891275733944
 10
98.43189016636425
 20
-123.1208224518587
 10
98.35782061343139
 20
-123.1948920047916
 10
98.34507376013596
 20
-123.311336232193
 10
98.34507376013596
 20
-123.3661132504085
 10
98.34507376013596
 20
-123.3854057851259
 10
98.3471408174271
 20
-123.4212347781725
 10
98.3512749320094
 20
-123.4487955420545
 10
98.3512749320094
 20
-123.4487955420545
 10
98.15662703709279
 20
-123.4487955420545
 10
98.15662703709279
 20
-123.4487955420545
 10
98.16317271851477
 20
-123.4105549821682
 10
98.16523977580592
 20
-123.3685248172482
 10
98.16523977580592
 20
-123.3619791358262
 10
98.16523977580592
 20
-123.2965223216064
 10
98.14388018379736
 20
-123.0977403121075
 10
97.9072021239607
 20
-123.0977403121075
 10
97.72943519692181
 20
-123.0977403121075
 10
97.67431366915781
 20
-123.228653940547
 10
97.67431366915781
 20
-123.338896996075
 10
97.67431366915781
 20
-123.6031358197937
 10
97.9072021239607
 20
-123.6117485585068
 10
97.9788601100539
 20
-123.6158826730891
 10
97.9788601100539
 20
-123.6158826730891
 10
97.9788601100539
 20
-123.8191433067188
 10
97.9788601100539
 20
-123.8191433067188
 10
97.85414765348786
 20
-123.8105305680057
 10
97.47759871695006
 20
-123.7829698041237
 10
97.47759871695006
 20
-123.3261501427796
 10
97.47759871695006
 20
-123.1018744266898
 10
97.60472274035577
 20
-122.8607177427223
 10
97.90065644253873
 20
-122.8607177427223
 10
98.08703610829075
 20
-122.8607177427223
 10
98.16937389038821
 20
-122.9558023781152
 10
98.23069659002566
 20
-123.0553656376389
 10
98.25825735390767
 20
-122.9940429380015
 10
98.33852807871398
 20
-122.8121418963803
 10
98.6158582652766
 20
-122.8121418963803
 10
98.95416664192813
 20
-122.8121418963803
 10
99.12125377296275
 20
-123.0594997522212
 10
99.12125377296275
 20
-123.3364854292353
 97
        0
 97
        0
 75
     2
 76
     1
 98
        0
  0
ENDBLK
  5
6F
330
6C
100
AcDbEntity
  8
0
100
AcDbBlockEnd
  0
BLOCK
  5
80
330
7E
100
AcDbEntity
  8
0
100
AcDbBlockBegin
  2
block 5
 70
     0
 10
0.0
 20
0.0
 30
0.0
  3
block 5
  1

  0
SPLINE
  5
82
330
7E
100
AcDbEntity
  8
_U+30EC_U+30A4_U+30E4_U+30FC 1
370
     0
100
AcDbSpline
210
0.0
220
0.0
230
1.0
 70
    11
 71
     3
 72
    44
 73
    40
 74
     0
 42
0.0000000001
 43
0.0000000001
 12
1.0
 22
0.0
 32
0.0
 13
1.0
 23
0.0
 33
0.0
 40
0.0
 40
0.0
 40
0.0
 40
0.0
 40
1.0
 40
1.0
 40
1.0
 40
2.0
 40
2.0
 40
2.0
 40
3.0
 40
3.0
 40
3.0
 40
4.0
 40
4.0
 40
4.0
 40
5.0
 40
5.0
 40
5.0
 40
6.0
 40
6.0
 40
6.0
 40
7.0
 40
7.0
 40
7.0
 40
8.0
 40
8.0
 40
8.0
 40
9.0
 40
9.0
 40
9.0
 40
10.0
 40
10.0
 40
10.0
 40
11.0
 40
11.0
 40
11.0
 40
12.0
 40
12.0
 40
12.0
 40
13.0
 40
13.0
 40
13.0
 40
13.0
 10
87.54779999981444
 20
-138.4566650044484
 30
0.0
 10
87.33006996514665
 20
-138.6154839063184
 30
0.0
 10
87.23705238704491
 20
-138.6895534592512
 30
0.0
 10
87.18813203115435
 20
-138.8332139409862
 30
0.0
 10
87.18813203115435
 20
-138.8332139409862
 30
0.0
 10
87.96672361082082
 20
-138.8332139409862
 30
0.0
 10
87.96672361082082
 20
-138.8332139409862
 30
0.0
 10
87.96672361082082
 20
-138.8332139409862
 30
0.0
 10
87.96672361082082
 20
-139.038541631907
 30
0.0
 10
87.96672361082082
 20
-139.038541631907
 30
0.0
 10
87.96672361082082
 20
-139.038541631907
 30
0.0
 10
86.93870711802226
 20
-139.038541631907
 30
0.0
 10
86.93870711802226
 20
-139.038541631907
 30
0.0
 10
86.97040199648657
 20
-138.6809407205381
 30
0.0
 10
87.03585881070632
 20
-138.6027370530229
 30
0.0
 10
87.42102048595724
 20
-138.3043917840003
 30
0.0
 10
87.67699108051131
 20
-138.1056097745014
 30
0.0
 10
87.74244789473106
 20
-138.037741393442
 30
0.0
 10
87.74244789473106
 20
-137.9002820835805
 30
0.0
 10
87.74244789473106
 20
-137.7817707988879
 30
0.0
 10
87.67044539908933
 20
-137.6508571704484
 30
0.0
 10
87.47373044688158
 20
-137.6508571704484
 30
0.0
 10
87.2136257377452
 20
-137.6508571704484
 30
0.0
 10
87.2053575085806
 20
-137.8813340584116
 30
0.0
 10
87.20087888444978
 20
-137.9977782858131
 30
0.0
 10
87.20087888444978
 20
-137.9977782858131
 30
0.0
 10
86.97660316836001
 20
-137.9977782858131
 30
0.0
 10
86.97660316836001
 20
-137.9977782858131
 30
0.0
 10
86.98521590707314
 20
-137.8706542624074
 30
0.0
 10
86.99589570307742
 20
-137.7586886591367
 30
0.0
 10
87.07616642788373
 20
-137.6401773744441
 30
0.0
 10
87.18606497386321
 20
-137.479291415283
 30
0.0
 10
87.37244463961522
 20
-137.4455294795275
 30
0.0
 10
87.48854435746814
 20
-137.4455294795275
 30
0.0
 10
87.76587454403075
 20
-137.4455294795275
 30
0.0
 10
87.9732692922428
 20
-137.6294975784399
 30
0.0
 10
87.9732692922428
 20
-137.9023491408716
 30
0.0
 10
87.9732692922428
 20
-138.1311034810922
 30
0.0
 10
87.85682506484136
 20
-138.2303222310674
 30
0.0
 10
87.54779999981444
 20
-138.4566650044484
 30
0.0
  0
HATCH
  5
83
330
7E
100
AcDbEntity
  8
_U+30EC_U+30A4_U+30E4_U+30FC 1
 62
   179
420
  2234388
100
AcDbHatch
 10
0.0
 20
0.0
 30
0.0
210
0.0
220
0.0
230
1.0
  2
SOLID
 70
     1
 71
     0
 91
        1
 92
        1
 93
        1
 72
     4
 94
        3
 73
     0
 74
     1
 95
       44
 96
       40
 40
0.0
 40
0.0
 40
0.0
 40
0.0
 40
1.0
 40
1.0
 40
1.0
 40
2.0
 40
2.0
 40
2.0
 40
3.0
 40
3.0
 40
3.0
 40
4.0
 40
4.0
 40
4.0
 40
5.0
 40
5.0
 40
5.0
 40
6.0
 40
6.0
 40
6.0
 40
7.0
 40
7.0
 40
7.0
 40
8.0
 40
8.0
 40
8.0
 40
9.0
 40
9.0
 40
9.0
 40
10.0
 40
10.0
 40
10.0
 40
11.0
 40
11.0
 40
11.0
 40
12.0
 40
12.0
 40
12.0
 40
13.0
 40
13.0
 40
13.0
 40
13.0
 10
87.54779999981444
 20
-138.4566650044484
 10
87.33006996514665
 20
-138.6154839063184
 10
87.23705238704491
 20
-138.6895534592512
 10
87.18813203115435
 20
-138.8332139409862
 10
87.18813203115435
 20
-138.8332139409862
 10
87.96672361082082
 20
-138.8332139409862
 10
87.96672361082082
 20
-138.8332139409862
 10
87.96672361082082
 20
-138.8332139409862
 10
87.96672361082082
 20
-139.038541631907
 10
87.96672361082082
 20
-139.038541631907
 10
87.96672361082082
 20
-139.038541631907
 10
86.93870711802226
 20
-139.038541631907
 10
86.93870711802226
 20
-139.038541631907
 10
86.97040199648657
 20
-138.6809407205381
 10
87.03585881070632
 20
-138.6027370530229
 10
87.42102048595724
 20
-138.3043917840003
 10
87.67699108051131
 20
-138.1056097745014
 10
87.74244789473106
 20
-138.037741393442
 10
87.74244789473106
 20
-137.9002820835805
 10
87.74244789473106
 20
-137.7817707988879
 10
87.67044539908933
 20
-137.6508571704484
 10
87.47373044688158
 20
-137.6508571704484
 10
87.2136257377452
 20
-137.6508571704484
 10
87.2053575085806
 20
-137.8813340584116
 10
87.20087888444978
 20
-137.9977782858131
 10
87.20087888444978
 20
-137.9977782858131
 10
86.97660316836001
 20
-137.9977782858131
 10
86.97660316836001
 20
-137.9977782858131
 10
86.98521590707314
 20
-137.8706542624074
 10
86.99589570307742
 20
-137.7586886591367
 10
87.07616642788373
 20
-137.6401773744441
 10
87.18606497386321
 20
-137.479291415283
 10
87.37244463961522
 20
-137.4455294795275
 10
87.48854435746814
 20
-137.4455294795275
 10
87.76587454403075
 20
-137.4455294795275
 10
87.9732692922428
 20
-137.6294975784399
 10
87.9732692922428
 20
-137.9023491408716
 10
87.9732692922428
 20
-138.1311034810922
 10
87.85682506484136
 20
-138.2303222310674
 10
87.54779999981444
 20
-138.4566650044484
 97
        0
 97
        0
 75
     2
 76
     1
 98
        0
  0
SPLINE
  5
84
330
7E
100
AcDbEntity
  8
_U+30EC_U+30A4_U+30E4_U+30FC 1
370
     0
100
AcDbSpline
210
0.0
220
0.0
230
1.0
 70
    11
 71
     3
 72
    53
 73
    49
 74
     0
 42
0.0000000001
 43
0.0000000001
 12
1.0
 22
0.0
 32
0.0
 13
1.0
 23
0.0
 33
0.0
 40
0.0
 40
0.0
 40
0.0
 40
0.0
 40
1.0
 40
1.0
 40
1.0
 40
2.0
 40
2.0
 40
2.0
 40
3.0
 40
3.0
 40
3.0
 40
4.0
 40
4.0
 40
4.0
 40
5.0
 40
5.0
 40
5.0
 40
6.0
 40
6.0
 40
6.0
 40
7.0
 40
7.0
 40
7.0
 40
8.0
 40
8.0
 40
8.0
 40
9.0
 40
9.0
 40
9.0
 40
10.0
 40
10.0
 40
10.0
 40
11.0
 40
11.0
 40
11.0
 40
12.0
 40
12.0
 40
12.0
 40
13.0
 40
13.0
 40
13.0
 40
14.0
 40
14.0
 40
14.0
 40
15.0
 40
15.0
 40
15.0
 40
16.0
 40
16.0
 40
16.0
 40
16.0
 10
88.61267901430517
 20
-139.0891845355402
 30
0.0
 10
88.53447534679
 20
-139.0891845355402
 30
0.0
 10
88.43284502997513
 20
-139.0723035676625
 30
0.0
 10
88.33121471316025
 20
-139.0089138107339
 30
0.0
 10
88.15792641025219
 20
-138.8990152647544
 30
0.0
 10
88.13656681824364
 20
-138.7677571267664
 30
0.0
 10
88.11761879307477
 20
-138.6599256380781
 30
0.0
 10
88.11761879307477
 20
-138.6599256380781
 30
0.0
 10
88.33982745187338
 20
-138.6599256380781
 30
0.0
 10
88.33982745187338
 20
-138.6599256380781
 30
0.0
 10
88.39460447008885
 20
-138.858707647577
 30
0.0
 10
88.52172849349458
 20
-138.8883354687501
 30
0.0
 10
88.61474607159631
 20
-138.8883354687501
 30
0.0
 10
88.75427243874894
 20
-138.8883354687501
 30
0.0
 10
88.90654565919698
 20
-138.7887722092264
 30
0.0
 10
88.90654565919698
 20
-138.5562282639721
 30
0.0
 10
88.90654565919698
 20
-138.300257669418
 30
0.0
 10
88.72671167486693
 20
-138.2303222310674
 30
0.0
 10
88.60613333288319
 20
-138.2303222310674
 30
0.0
 10
88.5744384544189
 20
-138.2303222310674
 30
0.0
 10
88.43284502997513
 20
-138.2303222310674
 30
0.0
 10
88.34396156645568
 20
-138.3595133117643
 30
0.0
 10
88.34396156645568
 20
-138.3595133117643
 30
0.0
 10
88.16826169670794
 20
-138.3405652865954
 30
0.0
 10
88.16826169670794
 20
-138.3405652865954
 30
0.0
 10
88.16826169670794
 20
-138.3405652865954
 30
0.0
 10
88.28884003869169
 20
-137.4941053258695
 30
0.0
 10
88.28884003869169
 20
-137.4941053258695
 30
0.0
 10
88.28884003869169
 20
-137.4941053258695
 30
0.0
 10
89.06743161835814
 20
-137.4941053258695
 30
0.0
 10
89.06743161835814
 20
-137.4941053258695
 30
0.0
 10
89.06743161835814
 20
-137.4941053258695
 30
0.0
 10
89.06743161835814
 20
-137.6887532207861
 30
0.0
 10
89.06743161835814
 20
-137.6887532207861
 30
0.0
 10
89.06743161835814
 20
-137.6887532207861
 30
0.0
 10
88.451793055144
 20
-137.6887532207861
 30
0.0
 10
88.451793055144
 20
-137.6887532207861
 30
0.0
 10
88.451793055144
 20
-137.6887532207861
 30
0.0
 10
88.38633624092425
 20
-138.1118109463748
 30
0.0
 10
88.38633624092425
 20
-138.1118109463748
 30
0.0
 10
88.4476589405617
 20
-138.0780490106194
 30
0.0
 10
88.52999672265918
 20
-138.037741393442
 30
0.0
 10
88.64850800735177
 20
-138.037741393442
 30
0.0
 10
88.90241154461468
 20
-138.037741393442
 30
0.0
 10
89.13943411399987
 20
-138.224121059194
 30
0.0
 10
89.13943411399987
 20
-138.5372802388032
 30
0.0
 10
89.13943411399987
 20
-138.8545735329947
 30
0.0
 10
88.9151583979101
 20
-139.0891845355402
 30
0.0
 10
88.61267901430517
 20
-139.0891845355402
 30
0.0
  0
HATCH
  5
85
330
7E
100
AcDbEntity
  8
_U+30EC_U+30A4_U+30E4_U+30FC 1
 62
   179
420
  2234388
100
AcDbHatch
 10
0.0
 20
0.0
 30
0.0
210
0.0
220
0.0
230
1.0
  2
SOLID
 70
     1
 71
     0
 91
        1
 92
        1
 93
        1
 72
     4
 94
        3
 73
     0
 74
     1
 95
       53
 96
       49
 40
0.0
 40
0.0
 40
0.0
 40
0.0
 40
1.0
 40
1.0
 40
1.0
 40
2.0
 40
2.0
 40
2.0
 40
3.0
 40
3.0
 40
3.0
 40
4.0
 40
4.0
 40
4.0
 40
5.0
 40
5.0
 40
5.0
 40
6.0
 40
6.0
 40
6.0
 40
7.0
 40
7.0
 40
7.0
 40
8.0
 40
8.0
 40
8.0
 40
9.0
 40
9.0
 40
9.0
 40
10.0
 40
10.0
 40
10.0
 40
11.0
 40
11.0
 40
11.0
 40
12.0
 40
12.0
 40
12.0
 40
13.0
 40
13.0
 40
13.0
 40
14.0
 40
14.0
 40
14.0
 40
15.0
 40
15.0
 40
15.0
 40
16.0
 40
16.0
 40
16.0
 40
16.0
 10
88.61267901430517
 20
-139.0891845355402
 10
88.53447534679
 20
-139.0891845355402
 10
88.43284502997513
 20
-139.0723035676625
 10
88.33121471316025
 20
-139.0089138107339
 10
88.15792641025219
 20
-138.8990152647544
 10
88.13656681824364
 20
-138.7677571267664
 10
88.11761879307477
 20
-138.6599256380781
 10
88.11761879307477
 20
-138.6599256380781
 10
88.33982745187338
 20
-138.6599256380781
 10
88.33982745187338
 20
-138.6599256380781
 10
88.39460447008885
 20
-138.858707647577
 10
88.52172849349458
 20
-138.8883354687501
 10
88.61474607159631
 20
-138.8883354687501
 10
88.75427243874894
 20
-138.8883354687501
 10
88.90654565919698
 20
-138.7887722092264
 10
88.90654565919698
 20
-138.5562282639721
 10
88.90654565919698
 20
-138.300257669418
 10
88.72671167486693
 20
-138.2303222310674
 10
88.60613333288319
 20
-138.2303222310674
 10
88.5744384544189
 20
-138.2303222310674
 10
88.43284502997513
 20
-138.2303222310674
 10
88.34396156645568
 20
-138.3595133117643
 10
88.34396156645568
 20
-138.3595133117643
 10
88.16826169670794
 20
-138.3405652865954
 10
88.16826169670794
 20
-138.3405652865954
 10
88.16826169670794
 20
-138.3405652865954
 10
88.28884003869169
 20
-137.4941053258695
 10
88.28884003869169
 20
-137.4941053258695
 10
88.28884003869169
 20
-137.4941053258695
 10
89.06743161835814
 20
-137.4941053258695
 10
89.06743161835814
 20
-137.4941053258695
 10
89.06743161835814
 20
-137.4941053258695
 10
89.06743161835814
 20
-137.6887532207861
 10
89.06743161835814
 20
-137.6887532207861
 10
89.06743161835814
 20
-137.6887532207861
 10
88.451793055144
 20
-137.6887532207861
 10
88.451793055144
 20
-137.6887532207861
 10
88.451793055144
 20
-137.6887532207861
 10
88.38633624092425
 20
-138.1118109463748
 10
88.38633624092425
 20
-138.1118109463748
 10
88.4476589405617
 20
-138.0780490106194
 10
88.52999672265918
 20
-138.037741393442
 10
88.64850800735177
 20
-138.037741393442
 10
88.90241154461468
 20
-138.037741393442
 10
89.13943411399987
 20
-138.224121059194
 10
89.13943411399987
 20
-138.5372802388032
 10
89.13943411399987
 20
-138.8545735329947
 10
88.9151583979101
 20
-139.0891845355402
 10
88.61267901430517
 20
-139.0891845355402
 97
        0
 97
        0
 75
     2
 76
     1
 98
        0
  0
ENDBLK
  5
81
330
7E
100
AcDbEntity
  8
0
100
AcDbBlockEnd
  0
BLOCK
  5
94
330
92
100
AcDbEntity
  8
0
100
AcDbBlockBegin
  2
block 6
 70
     0
 10
0.0
 20
0.0
 30
0.0
  3
block 6
  1

  0
SPLINE
  5
96
330
92
100
AcDbEntity
  8
_U+30EC_U+30A4_U+30E4_U+30FC 1
370
     0
100
AcDbSpline
210
0.0
220
0.0
230
1.0
 70
    11
 71
     3
 72
    26
 73
    22
 74
     0
 42
0.0000000001
 43
0.0000000001
 12
1.0
 22
0.0
 32
0.0
 13
1.0
 23
0.0
 33
0.0
 40
0.0
 40
0.0
 40
0.0
 40
0.0
 40
1.0
 40
1.0
 40
1.0
 40
2.0
 40
2.0
 40
2.0
 40
3.0
 40
3.0
 40
3.0
 40
4.0
 40
4.0
 40
4.0
 40
5.0
 40
5.0
 40
5.0
 40
6.0
 40
6.0
 40
6.0
 40
7.0
 40
7.0
 40
7.0
 40
7.0
 10
87.30664331584696
 20
-118.5777750354597
 30
0.0
 10
87.30664331584696
 20
-118.5777750354597
 30
0.0
 10
87.30664331584696
 20
-117.4736219324372
 30
0.0
 10
87.30664331584696
 20
-117.4736219324372
 30
0.0
 10
87.30664331584696
 20
-117.4736219324372
 30
0.0
 10
86.97660316836001
 20
-117.4736219324372
 30
0.0
 10
86.97660316836001
 20
-117.4736219324372
 30
0.0
 10
86.97660316836001
 20
-117.4736219324372
 30
0.0
 10
86.97660316836001
 20
-117.3254828265714
 30
0.0
 10
86.97660316836001
 20
-117.3254828265714
 30
0.0
 10
87.3087103731381
 20
-117.3106689159848
 30
0.0
 10
87.35521916218897
 20
-117.1477158995325
 30
0.0
 10
87.38484698336212
 20
-117.0333387294222
 30
0.0
 10
87.38484698336212
 20
-117.0333387294222
 30
0.0
 10
87.53091903193672
 20
-117.0333387294222
 30
0.0
 10
87.53091903193672
 20
-117.0333387294222
 30
0.0
 10
87.53091903193672
 20
-117.0333387294222
 30
0.0
 10
87.53091903193672
 20
-118.5777750354597
 30
0.0
 10
87.53091903193672
 20
-118.5777750354597
 30
0.0
 10
87.53091903193672
 20
-118.5777750354597
 30
0.0
 10
87.30664331584696
 20
-118.5777750354597
 30
0.0
 10
87.30664331584696
 20
-118.5777750354597
 30
0.0
  0
HATCH
  5
97
330
92
100
AcDbEntity
  8
_U+30EC_U+30A4_U+30E4_U+30FC 1
 62
   179
420
  2234388
100
AcDbHatch
 10
0.0
 20
0.0
 30
0.0
210
0.0
220
0.0
230
1.0
  2
SOLID
 70
     1
 71
     0
 91
        1
 92
        1
 93
        1
 72
     4
 94
        3
 73
     0
 74
     1
 95
       26
 96
       22
 40
0.0
 40
0.0
 40
0.0
 40
0.0
 40
1.0
 40
1.0
 40
1.0
 40
2.0
 40
2.0
 40
2.0
 40
3.0
 40
3.0
 40
3.0
 40
4.0
 40
4.0
 40
4.0
 40
5.0
 40
5.0
 40
5.0
 40
6.0
 40
6.0
 40
6.0
 40
7.0
 40
7.0
 40
7.0
 40
7.0
 10
87.30664331584696
 20
-118.5777750354597
 10
87.30664331584696
 20
-118.5777750354597
 10
87.30664331584696
 20
-117.4736219324372
 10
87.30664331584696
 20
-117.4736219324372
 10
87.30664331584696
 20
-117.4736219324372
 10
86.97660316836001
 20
-117.4736219324372
 10
86.97660316836001
 20
-117.4736219324372
 10
86.97660316836001
 20
-117.4736219324372
 10
86.97660316836001
 20
-117.3254828265714
 10
86.97660316836001
 20
-117.3254828265714
 10
87.3087103731381
 20
-117.3106689159848
 10
87.35521916218897
 20
-117.1477158995325
 10
87.38484698336212
 20
-117.0333387294222
 10
87.38484698336212
 20
-117.0333387294222
 10
87.53091903193672
 20
-117.0333387294222
 10
87.53091903193672
 20
-117.0333387294222
 10
87.53091903193672
 20
-117.0333387294222
 10
87.53091903193672
 20
-118.5777750354597
 10
87.53091903193672
 20
-118.5777750354597
 10
87.53091903193672
 20
-118.5777750354597
 10
87.30664331584696
 20
-118.5777750354597
 10
87.30664331584696
 20
-118.5777750354597
 97
        0
 97
        0
 75
     2
 76
     1
 98
        0
  0
SPLINE
  5
98
330
92
100
AcDbEntity
  8
_U+30EC_U+30A4_U+30E4_U+30FC 1
370
     0
100
AcDbSpline
210
0.0
220
0.0
230
1.0
 70
    11
 71
     3
 72
    29
 73
    25
 74
     0
 42
0.0000000001
 43
0.0000000001
 12
1.0
 22
0.0
 32
0.0
 13
1.0
 23
0.0
 33
0.0
 40
0.0
 40
0.0
 40
0.0
 40
0.0
 40
1.0
 40
1.0
 40
1.0
 40
2.0
 40
2.0
 40
2.0
 40
3.0
 40
3.0
 40
3.0
 40
4.0
 40
4.0
 40
4.0
 40
5.0
 40
5.0
 40
5.0
 40
6.0
 40
6.0
 40
6.0
 40
7.0
 40
7.0
 40
7.0
 40
8.0
 40
8.0
 40
8.0
 40
8.0
 10
88.92997230849667
 20
-118.4000081084208
 30
0.0
 10
88.82179631025983
 20
-118.609469913924
 30
0.0
 10
88.64850800735177
 20
-118.6284179390929
 30
0.0
 10
88.53206377995032
 20
-118.6284179390929
 30
0.0
 10
88.37117782078916
 20
-118.6284179390929
 30
0.0
 10
88.22958439634539
 20
-118.581909150042
 30
0.0
 10
88.1344997609525
 20
-118.4000081084208
 30
0.0
 10
88.03080238684647
 20
-118.2053602135042
 30
0.0
 10
88.01185436167759
 20
-117.9686821536676
 30
0.0
 10
88.01185436167759
 20
-117.8057291372152
 30
0.0
 10
88.01185436167759
 20
-117.6617241459318
 30
0.0
 10
88.02873532955532
 20
-117.40988766596
 30
0.0
 10
88.1344997609525
 20
-117.2111056564611
 30
0.0
 10
88.24233124964081
 20
-117.0081895323799
 30
0.0
 10
88.40321720880198
 20
-116.9847628830802
 30
0.0
 10
88.53206377995032
 20
-116.9847628830802
 30
0.0
 10
88.69088268182034
 20
-116.9847628830802
 30
0.0
 10
88.83454316355525
 20
-117.0292046148399
 30
0.0
 10
88.92997230849667
 20
-117.2111056564611
 30
0.0
 10
89.02919105847187
 20
-117.4036864940866
 30
0.0
 10
89.05261770777157
 20
-117.6320963247586
 30
0.0
 10
89.05261770777157
 20
-117.8057291372152
 30
0.0
 10
89.05261770777157
 20
-117.9769503828322
 30
0.0
 10
89.03125811576302
 20
-118.2074272707954
 30
0.0
 10
88.92997230849667
 20
-118.4000081084208
 30
0.0
  0
SPLINE
  5
99
330
92
100
AcDbEntity
  8
_U+30EC_U+30A4_U+30E4_U+30FC 1
370
     0
100
AcDbSpline
210
0.0
220
0.0
230
1.0
 70
    11
 71
     3
 72
    17
 73
    13
 74
     0
 42
0.0000000001
 43
0.0000000001
 12
1.0
 22
0.0
 32
0.0
 13
1.0
 23
0.0
 33
0.0
 40
0.0
 40
0.0
 40
0.0
 40
0.0
 40
1.0
 40
1.0
 40
1.0
 40
2.0
 40
2.0
 40
2.0
 40
3.0
 40
3.0
 40
3.0
 40
4.0
 40
4.0
 40
4.0
 40
4.0
 10
88.53206377995032
 20
-117.1773437207057
 30
0.0
 10
88.28263886681823
 20
-117.1773437207057
 30
0.0
 10
88.23578556821883
 20
-117.4608750791417
 30
0.0
 10
88.23578556821883
 20
-117.8057291372152
 30
0.0
 10
88.23578556821883
 20
-118.1250894886979
 30
0.0
 10
88.27195907081396
 20
-118.4337700441763
 30
0.0
 10
88.53206377995032
 20
-118.4337700441763
 30
0.0
 10
88.77976614533978
 20
-118.4337700441763
 30
0.0
 10
88.82834199168181
 20
-118.1526502525799
 30
0.0
 10
88.82834199168181
 20
-117.8057291372152
 30
0.0
 10
88.82834199168181
 20
-117.4860242761841
 30
0.0
 10
88.79010143179553
 20
-117.1773437207057
 30
0.0
 10
88.53206377995032
 20
-117.1773437207057
 30
0.0
  0
HATCH
  5
9A
330
92
100
AcDbEntity
  8
_U+30EC_U+30A4_U+30E4_U+30FC 1
 62
   179
420
  2234388
100
AcDbHatch
 10
0.0
 20
0.0
 30
0.0
210
0.0
220
0.0
230
1.0
  2
SOLID
 70
     1
 71
     0
 91
        2
 92
        1
 93
        1
 72
     4
 94
        3
 73
     0
 74
     1
 95
       29
 96
       25
 40
0.0
 40
0.0
 40
0.0
 40
0.0
 40
1.0
 40
1.0
 40
1.0
 40
2.0
 40
2.0
 40
2.0
 40
3.0
 40
3.0
 40
3.0
 40
4.0
 40
4.0
 40
4.0
 40
5.0
 40
5.0
 40
5.0
 40
6.0
 40
6.0
 40
6.0
 40
7.0
 40
7.0
 40
7.0
 40
8.0
 40
8.0
 40
8.0
 40
8.0
 10
88.92997230849667
 20
-118.4000081084208
 10
88.82179631025983
 20
-118.609469913924
 10
88.64850800735177
 20
-118.6284179390929
 10
88.53206377995032
 20
-118.6284179390929
 10
88.37117782078916
 20
-118.6284179390929
 10
88.22958439634539
 20
-118.581909150042
 10
88.1344997609525
 20
-118.4000081084208
 10
88.03080238684647
 20
-118.2053602135042
 10
88.01185436167759
 20
-117.9686821536676
 10
88.01185436167759
 20
-117.8057291372152
 10
88.01185436167759
 20
-117.6617241459318
 10
88.02873532955532
 20
-117.40988766596
 10
88.1344997609525
 20
-117.2111056564611
 10
88.24233124964081
 20
-117.0081895323799
 10
88.40321720880198
 20
-116.9847628830802
 10
88.53206377995032
 20
-116.9847628830802
 10
88.69088268182034
 20
-116.9847628830802
 10
88.83454316355525
 20
-117.0292046148399
 10
88.92997230849667
 20
-117.2111056564611
 10
89.02919105847187
 20
-117.4036864940866
 10
89.05261770777157
 20
-117.6320963247586
 10
89.05261770777157
 20
-117.8057291372152
 10
89.05261770777157
 20
-117.9769503828322
 10
89.03125811576302
 20
-118.2074272707954
 10
88.92997230849667
 20
-118.4000081084208
 97
        0
 97
        0
 92
        1
 93
        1
 72
     4
 94
        3
 73
     0
 74
     1
 95
       17
 96
       13
 40
0.0
 40
0.0
 40
0.0
 40
0.0
 40
1.0
 40
1.0
 40
1.0
 40
2.0
 40
2.0
 40
2.0
 40
3.0
 40
3.0
 40
3.0
 40
4.0
 40
4.0
 40
4.0
 40
4.0
 10
88.53206377995032
 20
-117.1773437207057
 10
88.28263886681823
 20
-117.1773437207057
 10
88.23578556821883
 20
-117.4608750791417
 10
88.23578556821883
 20
-117.8057291372152
 10
88.23578556821883
 20
-118.1250894886979
 10
88.27195907081396
 20
-118.4337700441763
 10
88.53206377995032
 20
-118.4337700441763
 10
88.77976614533978
 20
-118.4337700441763
 10
88.82834199168181
 20
-118.1526502525799
 10
88.82834199168181
 20
-117.8057291372152
 10
88.82834199168181
 20
-117.4860242761841
 10
88.79010143179553
 20
-117.1773437207057
 10
88.53206377995032
 20
-117.1773437207057
 97
        0
 97
        0
 75
     2
 76
     1
 98
        0
  0
ENDBLK
  5
95
330
92
100
AcDbEntity
  8
0
100
AcDbBlockEnd
  0
ENDSEC
  0
SECTION
  2
ENTITIES
  0
SPLINE
  5
41
330
1F
100
AcDbEntity
  8
_U+30EC_U+30A4_U+30E4_U+30FC 1
 62
   179
420
  2234388
370
     9
100
AcDbSpline
210
0.0
220
0.0
230
1.0
 70
    11
 71
     3
 72
    17
 73
    13
 74
     0
 42
0.0000000001
 43
0.0000000001
 12
1.0
 22
0.0
 32
0.0
 13
1.0
 23
0.0
 33
0.0
 40
0.0
 40
0.0
 40
0.0
 40
0.0
 40
1.0
 40
1.0
 40
1.0
 40
2.0
 40
2.0
 40
2.0
 40
3.0
 40
3.0
 40
3.0
 40
4.0
 40
4.0
 40
4.0
 40
4.0
 10
105.1191673181866
 20
-135.6351180216471
 30
0.0
 10
105.1191673181866
 20
-135.5800141327715
 30
0.0
 10
105.0743645415519
 20
-135.5352113550048
 30
0.0
 10
105.0192606540688
 20
-135.5352113550048
 30
0.0
 10
104.9641214888088
 20
-135.5352113550048
 30
0.0
 10
104.9193539899509
 20
-135.5800141327715
 30
0.0
 10
104.9193539899509
 20
-135.6351180216471
 30
0.0
 10
104.9193539899509
 20
-135.6902571882995
 30
0.0
 10
104.9641214888088
 20
-135.7350246882887
 30
0.0
 10
105.0192606540688
 20
-135.7350246882887
 30
0.0
 10
105.0743645415519
 20
-135.7350246882887
 30
0.0
 10
105.1191673181866
 20
-135.6902571882995
 30
0.0
 10
105.1191673181866
 20
-135.6351180216471
 30
0.0
  0
SPLINE
  5
42
330
1F
100
AcDbEntity
  8
_U+30EC_U+30A4_U+30E4_U+30FC 1
 62
   179
420
  2234388
370
     9
100
AcDbSpline
210
0.0
220
0.0
230
1.0
 70
    11
 71
     3
 72
    17
 73
    13
 74
     0
 42
0.0000000001
 43
0.0000000001
 12
1.0
 22
0.0
 32
0.0
 13
1.0
 23
0.0
 33
0.0
 40
0.0
 40
0.0
 40
0.0
 40
0.0
 40
1.0
 40
1.0
 40
1.0
 40
2.0
 40
2.0
 40
2.0
 40
3.0
 40
3.0
 40
3.0
 40
4.0
 40
4.0
 40
4.0
 40
4.0
 10
105.1191673181866
 20
-134.6350282996743
 30
0.0
 10
105.1191673181866
 20
-134.5798891330219
 30
0.0
 10
105.0743645415519
 20
-134.5354744108104
 30
0.0
 10
105.0192606540688
 20
-134.5354744108104
 30
0.0
 10
104.9641214888088
 20
-134.5354744108104
 30
0.0
 10
104.9193539899509
 20
-134.5798891330219
 30
0.0
 10
104.9193539899509
 20
-134.6350282996743
 30
0.0
 10
104.9193539899509
 20
-134.6901321885499
 30
0.0
 10
104.9641214888088
 20
-134.7349349663166
 30
0.0
 10
105.0192606540688
 20
-134.7349349663166
 30
0.0
 10
105.0743645415519
 20
-134.7349349663166
 30
0.0
 10
105.1191673181866
 20
-134.6901321885499
 30
0.0
 10
105.1191673181866
 20
-134.6350282996743
 30
0.0
  0
SPLINE
  5
43
330
1F
100
AcDbEntity
  8
_U+30EC_U+30A4_U+30E4_U+30FC 1
 62
   179
420
  2234388
370
     9
100
AcDbSpline
210
0.0
220
0.0
230
1.0
 70
    11
 71
     3
 72
    17
 73
    13
 74
     0
 42
0.0000000001
 43
0.0000000001
 12
1.0
 22
0.0
 32
0.0
 13
1.0
 23
0.0
 33
0.0
 40
0.0
 40
0.0
 40
0.0
 40
0.0
 40
1.0
 40
1.0
 40
1.0
 40
2.0
 40
2.0
 40
2.0
 40
3.0
 40
3.0
 40
3.0
 40
4.0
 40
4.0
 40
4.0
 40
4.0
 10
105.1191673181866
 20
-124.6349424688413
 30
0.0
 10
105.1191673181866
 20
-124.5798033021885
 30
0.0
 10
105.0743645415519
 20
-124.5350358021997
 30
0.0
 10
105.0192606540688
 20
-124.5350358021997
 30
0.0
 10
104.9641214888088
 20
-124.5350358021997
 30
0.0
 10
104.9193539899509
 20
-124.5798033021885
 30
0.0
 10
104.9193539899509
 20
-124.6349424688413
 30
0.0
 10
104.9193539899509
 20
-124.6900463577165
 30
0.0
 10
104.9641214888088
 20
-124.7348491354829
 30
0.0
 10
105.0192606540688
 20
-124.7348491354829
 30
0.0
 10
105.0743645415519
 20
-124.7348491354829
 30
0.0
 10
105.1191673181866
 20
-124.6900463577165
 30
0.0
 10
105.1191673181866
 20
-124.6349424688413
 30
0.0
  0
SPLINE
  5
44
330
1F
100
AcDbEntity
  8
_U+30EC_U+30A4_U+30E4_U+30FC 1
 62
   179
420
  2234388
370
     9
100
AcDbSpline
210
0.0
220
0.0
230
1.0
 70
    11
 71
     3
 72
    17
 73
    13
 74
     0
 42
0.0000000001
 43
0.0000000001
 12
1.0
 22
0.0
 32
0.0
 13
1.0
 23
0.0
 33
0.0
 40
0.0
 40
0.0
 40
0.0
 40
0.0
 40
1.0
 40
1.0
 40
1.0
 40
2.0
 40
2.0
 40
2.0
 40
3.0
 40
3.0
 40
3.0
 40
4.0
 40
4.0
 40
4.0
 40
4.0
 10
105.1191673181866
 20
-121.6349555251469
 30
0.0
 10
105.1191673181866
 20
-121.5798163584939
 30
0.0
 10
105.0743645415519
 20
-121.535048858505
 30
0.0
 10
105.0192606540688
 20
-121.535048858505
 30
0.0
 10
104.9641214888088
 20
-121.535048858505
 30
0.0
 10
104.9193539899509
 20
-121.5798163584939
 30
0.0
 10
104.9193539899509
 20
-121.6349555251469
 30
0.0
 10
104.9193539899509
 20
-121.6900594140219
 30
0.0
 10
104.9641214888088
 20
-121.7348621917886
 30
0.0
 10
105.0192606540688
 20
-121.7348621917886
 30
0.0
 10
105.0743645415519
 20
-121.7348621917886
 30
0.0
 10
105.1191673181866
 20
-121.6900594140219
 30
0.0
 10
105.1191673181866
 20
-121.6349555251469
 30
0.0
  0
SPLINE
  5
45
330
1F
100
AcDbEntity
  8
_U+30EC_U+30A4_U+30E4_U+30FC 1
 62
   179
420
  2234388
370
     9
100
AcDbSpline
210
0.0
220
0.0
230
1.0
 70
    11
 71
     3
 72
    17
 73
    13
 74
     0
 42
0.0000000001
 43
0.0000000001
 12
1.0
 22
0.0
 32
0.0
 13
1.0
 23
0.0
 33
0.0
 40
0.0
 40
0.0
 40
0.0
 40
0.0
 40
1.0
 40
1.0
 40
1.0
 40
2.0
 40
2.0
 40
2.0
 40
3.0
 40
3.0
 40
3.0
 40
4.0
 40
4.0
 40
4.0
 40
4.0
 10
100.719781597091
 20
-139.6355827428688
 30
0.0
 10
100.719781597091
 20
-139.5804435762158
 30
0.0
 10
100.6749788204562
 20
-139.5356760762272
 30
0.0
 10
100.6198749329731
 20
-139.5356760762272
 30
0.0
 10
100.5647357677132
 20
-139.5356760762272
 30
0.0
 10
100.5199682688553
 20
-139.5804435762158
 30
0.0
 10
100.5199682688553
 20
-139.6355827428688
 30
0.0
 10
100.5199682688553
 20
-139.6906866317438
 30
0.0
 10
100.5647357677132
 20
-139.7354894095105
 30
0.0
 10
100.6198749329731
 20
-139.7354894095105
 30
0.0
 10
100.6749788204562
 20
-139.7354894095105
 30
0.0
 10
100.719781597091
 20
-139.6906866317438
 30
0.0
 10
100.719781597091
 20
-139.6355827428688
 30
0.0
  0
SPLINE
  5
46
330
1F
100
AcDbEntity
  8
_U+30EC_U+30A4_U+30E4_U+30FC 1
 62
   179
420
  2234388
370
     9
100
AcDbSpline
210
0.0
220
0.0
230
1.0
 70
    11
 71
     3
 72
    17
 73
    13
 74
     0
 42
0.0000000001
 43
0.0000000001
 12
1.0
 22
0.0
 32
0.0
 13
1.0
 23
0.0
 33
0.0
 40
0.0
 40
0.0
 40
0.0
 40
0.0
 40
1.0
 40
1.0
 40
1.0
 40
2.0
 40
2.0
 40
2.0
 40
3.0
 40
3.0
 40
3.0
 40
4.0
 40
4.0
 40
4.0
 40
4.0
 10
75.71940890157028
 20
-139.6355827428688
 30
0.0
 10
75.71940890157028
 20
-139.5804435762158
 30
0.0
 10
75.67460612493551
 20
-139.5356760762272
 30
0.0
 10
75.61950223745244
 20
-139.5356760762272
 30
0.0
 10
75.56436307219249
 20
-139.5356760762272
 30
0.0
 10
75.5195955733346
 20
-139.5804435762158
 30
0.0
 10
75.5195955733346
 20
-139.6355827428688
 30
0.0
 10
75.5195955733346
 20
-139.6906866317438
 30
0.0
 10
75.56436307219249
 20
-139.7354894095105
 30
0.0
 10
75.61950223745244
 20
-139.7354894095105
 30
0.0
 10
75.67460612493551
 20
-139.7354894095105
 30
0.0
 10
75.71940890157028
 20
-139.6906866317438
 30
0.0
 10
75.71940890157028
 20
-139.6355827428688
 30
0.0
  0
SPLINE
  5
47
330
1F
100
AcDbEntity
  8
_U+30EC_U+30A4_U+30E4_U+30FC 1
 62
   179
420
  2234388
370
     9
100
AcDbSpline
210
0.0
220
0.0
230
1.0
 70
    11
 71
     3
 72
    17
 73
    13
 74
     0
 42
0.0000000001
 43
0.0000000001
 12
1.0
 22
0.0
 32
0.0
 13
1.0
 23
0.0
 33
0.0
 40
0.0
 40
0.0
 40
0.0
 40
0.0
 40
1.0
 40
1.0
 40
1.0
 40
2.0
 40
2.0
 40
2.0
 40
3.0
 40
3.0
 40
3.0
 40
4.0
 40
4.0
 40
4.0
 40
4.0
 10
93.21944401066274
 20
-119.174471636873
 30
0.0
 10
93.21944401066274
 20
-119.1193324702203
 30
0.0
 10
93.17467651180486
 20
-119.0745649702314
 30
0.0
 10
93.1195373465449
 20
-119.0745649702314
 30
0.0
 10
93.06443345906183
 20
-119.0745649702314
 30
0.0
 10
93.01963068242706
 20
-119.1193324702203
 30
0.0
 10
93.01963068242706
 20
-119.174471636873
 30
0.0
 10
93.01963068242706
 20
-119.2302810813035
 30
0.0
 10
93.06443345906183
 20
-119.2750485812923
 30
0.0
 10
93.1195373465449
 20
-119.2750485812923
 30
0.0
 10
93.17467651180486
 20
-119.2750485812923
 30
0.0
 10
93.21944401066274
 20
-119.2302810813035
 30
0.0
 10
93.21944401066274
 20
-119.174471636873
 30
0.0
  0
SPLINE
  5
48
330
1F
100
AcDbEntity
  8
_U+30EC_U+30A4_U+30E4_U+30FC 1
 62
   179
420
  2234388
370
     9
100
AcDbSpline
210
0.0
220
0.0
230
1.0
 70
    11
 71
     3
 72
    17
 73
    13
 74
     0
 42
0.0000000001
 43
0.0000000001
 12
1.0
 22
0.0
 32
0.0
 13
1.0
 23
0.0
 33
0.0
 40
0.0
 40
0.0
 40
0.0
 40
0.0
 40
1.0
 40
1.0
 40
1.0
 40
2.0
 40
2.0
 40
2.0
 40
3.0
 40
3.0
 40
3.0
 40
4.0
 40
4.0
 40
4.0
 40
4.0
 10
83.21939371022972
 20
-119.174471636873
 30
0.0
 10
83.21939371022972
 20
-119.1193324702203
 30
0.0
 10
83.17459093359496
 20
-119.0745649702314
 30
0.0
 10
83.11948704611189
 20
-119.0745649702314
 30
0.0
 10
83.06434997923378
 20
-119.0745649702314
 30
0.0
 10
83.01958038199405
 20
-119.1193324702203
 30
0.0
 10
83.01958038199405
 20
-119.174471636873
 30
0.0
 10
83.01958038199405
 20
-119.2302810813035
 30
0.0
 10
83.06434997923378
 20
-119.2750485812923
 30
0.0
 10
83.11948704611189
 20
-119.2750485812923
 30
0.0
 10
83.17459093359496
 20
-119.2750485812923
 30
0.0
 10
83.21939371022972
 20
-119.2302810813035
 30
0.0
 10
83.21939371022972
 20
-119.174471636873
 30
0.0
  0
POLYLINE
  5
49
330
1F
100
AcDbEntity
  8
_U+30EC_U+30A4_U+30E4_U+30FC 1
 62
   179
420
  2234388
370
     9
100
AcDb2dPolyline
 66
     1
 10
0.0
 20
0.0
 30
0.0
  0
VERTEX
  5
4A
330
49
100
AcDbEntity
  8
_U+30EC_U+30A4_U+30E4_U+30FC 1
 62
   179
420
  2234388
370
     9
100
AcDbVertex
100
AcDb2dVertex
 10
105.0192606540688
 20
-135.63649385498
 30
0.0
  0
VERTEX
  5
4B
330
49
100
AcDbEntity
  8
_U+30EC_U+30A4_U+30E4_U+30FC 1
 62
   179
420
  2234388
370
     9
100
AcDbVertex
100
AcDb2dVertex
 10
105.0192606540688
 20
-121.6363313584798
 30
0.0
  0
SEQEND
  5
4C
330
49
100
AcDbEntity
  8
_U+30EC_U+30A4_U+30E4_U+30FC 1
 62
   179
420
  2234388
370
     9
  0
POLYLINE
  5
4D
330
1F
100
AcDbEntity
  8
_U+30EC_U+30A4_U+30E4_U+30FC 1
 62
   179
420
  2234388
370
     9
100
AcDb2dPolyline
 66
     1
 10
0.0
 20
0.0
 30
0.0
  0
VERTEX
  5
4E
330
4D
100
AcDbEntity
  8
_U+30EC_U+30A4_U+30E4_U+30FC 1
 62
   179
420
  2234388
370
     9
100
AcDbVertex
100
AcDb2dVertex
 10
103.5592193024287
 20
-135.6351180216471
 30
0.0
  0
VERTEX
  5
4F
330
4D
100
AcDbEntity
  8
_U+30EC_U+30A4_U+30E4_U+30FC 1
 62
   179
420
  2234388
370
     9
100
AcDbVertex
100
AcDb2dVertex
 10
106.0197031285454
 20
-135.6351180216471
 30
0.0
  0
SEQEND
  5
50
330
4D
100
AcDbEntity
  8
_U+30EC_U+30A4_U+30E4_U+30FC 1
 62
   179
420
  2234388
370
     9
  0
POLYLINE
  5
51
330
1F
100
AcDbEntity
  8
_U+30EC_U+30A4_U+30E4_U+30FC 1
 62
   179
420
  2234388
370
     9
100
AcDb2dPolyline
 66
     1
 10
0.0
 20
0.0
 30
0.0
  0
VERTEX
  5
52
330
51
100
AcDbEntity
  8
_U+30EC_U+30A4_U+30E4_U+30FC 1
 62
   179
420
  2234388
370
     9
100
AcDbVertex
100
AcDb2dVertex
 10
103.5592193024287
 20
-134.6350282996743
 30
0.0
  0
VERTEX
  5
53
330
51
100
AcDbEntity
  8
_U+30EC_U+30A4_U+30E4_U+30FC 1
 62
   179
420
  2234388
370
     9
100
AcDbVertex
100
AcDb2dVertex
 10
106.0197031285454
 20
-134.6350282996743
 30
0.0
  0
SEQEND
  5
54
330
51
100
AcDbEntity
  8
_U+30EC_U+30A4_U+30E4_U+30FC 1
 62
   179
420
  2234388
370
     9
  0
POLYLINE
  5
55
330
1F
100
AcDbEntity
  8
_U+30EC_U+30A4_U+30E4_U+30FC 1
 62
   179
420
  2234388
370
     9
100
AcDb2dPolyline
 66
     1
 10
0.0
 20
0.0
 30
0.0
  0
VERTEX
  5
56
330
55
100
AcDbEntity
  8
_U+30EC_U+30A4_U+30E4_U+30FC 1
 62
   179
420
  2234388
370
     9
100
AcDbVertex
100
AcDb2dVertex
 10
99.55946023780434
 20
-124.6349424688413
 30
0.0
  0
VERTEX
  5
57
330
55
100
AcDbEntity
  8
_U+30EC_U+30A4_U+30E4_U+30FC 1
 62
   179
420
  2234388
370
     9
100
AcDbVertex
100
AcDb2dVertex
 10
106.0197031285454
 20
-124.6349424688413
 30
0.0
  0
SEQEND
  5
58
330
55
100
AcDbEntity
  8
_U+30EC_U+30A4_U+30E4_U+30FC 1
 62
   179
420
  2234388
370
     9
  0
POLYLINE
  5
59
330
1F
100
AcDbEntity
  8
_U+30EC_U+30A4_U+30E4_U+30FC 1
 62
   179
420
  2234388
370
     9
100
AcDb2dPolyline
 66
     1
 10
0.0
 20
0.0
 30
0.0
  0
VERTEX
  5
5A
330
59
100
AcDbEntity
  8
_U+30EC_U+30A4_U+30E4_U+30FC 1
 62
   179
420
  2234388
370
     9
100
AcDbVertex
100
AcDb2dVertex
 10
99.55946023780434
 20
-121.6349555251469
 30
0.0
  0
VERTEX
  5
5B
330
59
100
AcDbEntity
  8
_U+30EC_U+30A4_U+30E4_U+30FC 1
 62
   179
420
  2234388
370
     9
100
AcDbVertex
100
AcDb2dVertex
 10
106.0197031285454
 20
-121.6349555251469
 30
0.0
  0
SEQEND
  5
5C
330
59
100
AcDbEntity
  8
_U+30EC_U+30A4_U+30E4_U+30FC 1
 62
   179
420
  2234388
370
     9
  0
INSERT
  5
5E
330
1F
100
AcDbEntity
  8
_U+30EC_U+30A4_U+30E4_U+30FC 1
100
AcDbBlockReference
  2
block 2
 10
0.0
 20
0.0
 30
0.0
  0
INSERT
  5
64
330
1F
100
AcDbEntity
  8
_U+30EC_U+30A4_U+30E4_U+30FC 1
100
AcDbBlockReference
  2
block 3
 10
0.0
 20
0.0
 30
0.0
  0
INSERT
  5
6D
330
1F
100
AcDbEntity
  8
_U+30EC_U+30A4_U+30E4_U+30FC 1
100
AcDbBlockReference
  2
block 4
 10
0.0
 20
0.0
 30
0.0
  0
POLYLINE
  5
72
330
1F
100
AcDbEntity
  8
_U+30EC_U+30A4_U+30E4_U+30FC 1
 62
   179
420
  2234388
370
     9
100
AcDb2dPolyline
 66
     1
 10
0.0
 20
0.0
 30
0.0
  0
VERTEX
  5
73
330
72
100
AcDbEntity
  8
_U+30EC_U+30A4_U+30E4_U+30FC 1
 62
   179
420
  2234388
370
     9
100
AcDbVertex
100
AcDb2dVertex
 10
75.61950223745244
 20
-139.6355827428688
 30
0.0
  0
VERTEX
  5
74
330
72
100
AcDbEntity
  8
_U+30EC_U+30A4_U+30E4_U+30FC 1
 62
   179
420
  2234388
370
     9
100
AcDbVertex
100
AcDb2dVertex
 10
100.6198749329731
 20
-139.6355827428688
 30
0.0
  0
SEQEND
  5
75
330
72
100
AcDbEntity
  8
_U+30EC_U+30A4_U+30E4_U+30FC 1
 62
   179
420
  2234388
370
     9
  0
POLYLINE
  5
76
330
1F
100
AcDbEntity
  8
_U+30EC_U+30A4_U+30E4_U+30FC 1
 62
   179
420
  2234388
370
     9
100
AcDb2dPolyline
 66
     1
 10
0.0
 20
0.0
 30
0.0
  0
VERTEX
  5
77
330
76
100
AcDbEntity
  8
_U+30EC_U+30A4_U+30E4_U+30FC 1
 62
   179
420
  2234388
370
     9
100
AcDbVertex
100
AcDb2dVertex
 10
75.61950223745244
 20
-138.1755413543451
 30
0.0
  0
VERTEX
  5
78
330
76
100
AcDbEntity
  8
_U+30EC_U+30A4_U+30E4_U+30FC 1
 62
   179
420
  2234388
370
     9
100
AcDbVertex
100
AcDb2dVertex
 10
75.61950223745244
 20
-140.6353549648414
 30
0.0
  0
SEQEND
  5
79
330
76
100
AcDbEntity
  8
_U+30EC_U+30A4_U+30E4_U+30FC 1
 62
   179
420
  2234388
370
     9
  0
POLYLINE
  5
7A
330
1F
100
AcDbEntity
  8
_U+30EC_U+30A4_U+30E4_U+30FC 1
 62
   179
420
  2234388
370
     9
100
AcDb2dPolyline
 66
     1
 10
0.0
 20
0.0
 30
0.0
  0
VERTEX
  5
7B
330
7A
100
AcDbEntity
  8
_U+30EC_U+30A4_U+30E4_U+30FC 1
 62
   179
420
  2234388
370
     9
100
AcDbVertex
100
AcDb2dVertex
 10
100.6198749329731
 20
-138.1755413543451
 30
0.0
  0
VERTEX
  5
7C
330
7A
100
AcDbEntity
  8
_U+30EC_U+30A4_U+30E4_U+30FC 1
 62
   179
420
  2234388
370
     9
100
AcDbVertex
100
AcDb2dVertex
 10
100.6198749329731
 20
-140.6353549648414
 30
0.0
  0
SEQEND
  5
7D
330
7A
100
AcDbEntity
  8
_U+30EC_U+30A4_U+30E4_U+30FC 1
 62
   179
420
  2234388
370
     9
  0
INSERT
  5
7F
330
1F
100
AcDbEntity
  8
_U+30EC_U+30A4_U+30E4_U+30FC 1
100
AcDbBlockReference
  2
block 5
 10
0.0
 20
0.0
 30
0.0
  0
POLYLINE
  5
86
330
1F
100
AcDbEntity
  8
_U+30EC_U+30A4_U+30E4_U+30FC 1
 62
   179
420
  2234388
370
     9
100
AcDb2dPolyline
 66
     1
 10
0.0
 20
0.0
 30
0.0
  0
VERTEX
  5
87
330
86
100
AcDbEntity
  8
_U+30EC_U+30A4_U+30E4_U+30FC 1
 62
   179
420
  2234388
370
     9
100
AcDbVertex
100
AcDb2dVertex
 10
93.1195373465449
 20
-119.174471636873
 30
0.0
  0
VERTEX
  5
88
330
86
100
AcDbEntity
  8
_U+30EC_U+30A4_U+30E4_U+30FC 1
 62
   179
420
  2234388
370
     9
100
AcDbVertex
100
AcDb2dVertex
 10
83.11948704611189
 20
-119.174471636873
 30
0.0
  0
SEQEND
  5
89
330
86
100
AcDbEntity
  8
_U+30EC_U+30A4_U+30E4_U+30FC 1
 62
   179
420
  2234388
370
     9
  0
POLYLINE
  5
8A
330
1F
100
AcDbEntity
  8
_U+30EC_U+30A4_U+30E4_U+30FC 1
 62
   179
420
  2234388
370
     9
100
AcDb2dPolyline
 66
     1
 10
0.0
 20
0.0
 30
0.0
  0
VERTEX
  5
8B
330
8A
100
AcDbEntity
  8
_U+30EC_U+30A4_U+30E4_U+30FC 1
 62
   179
420
  2234388
370
     9
100
AcDbVertex
100
AcDb2dVertex
 10
93.1195373465449
 20
-120.6345130253971
 30
0.0
  0
VERTEX
  5
8C
330
8A
100
AcDbEntity
  8
_U+30EC_U+30A4_U+30E4_U+30FC 1
 62
   179
420
  2234388
370
     9
100
AcDbVertex
100
AcDb2dVertex
 10
93.1195373465449
 20
-118.1746994149008
 30
0.0
  0
SEQEND
  5
8D
330
8A
100
AcDbEntity
  8
_U+30EC_U+30A4_U+30E4_U+30FC 1
 62
   179
420
  2234388
370
     9
  0
POLYLINE
  5
8E
330
1F
100
AcDbEntity
  8
_U+30EC_U+30A4_U+30E4_U+30FC 1
 62
   179
420
  2234388
370
     9
100
AcDb2dPolyline
 66
     1
 10
0.0
 20
0.0
 30
0.0
  0
VERTEX
  5
8F
330
8E
100
AcDbEntity
  8
_U+30EC_U+30A4_U+30E4_U+30FC 1
 62
   179
420
  2234388
370
     9
100
AcDbVertex
100
AcDb2dVertex
 10
83.11948704611189
 20
-120.6345130253971
 30
0.0
  0
VERTEX
  5
90
330
8E
100
AcDbEntity
  8
_U+30EC_U+30A4_U+30E4_U+30FC 1
 62
   179
420
  2234388
370
     9
100
AcDbVertex
100
AcDb2dVertex
 10
83.11948704611189
 20
-118.1746994149008
 30
0.0
  0
SEQEND
  5
91
330
8E
100
AcDbEntity
  8
_U+30EC_U+30A4_U+30E4_U+30FC 1
 62
   179
420
  2234388
370
     9
  0
INSERT
  5
93
330
1F
100
AcDbEntity
  8
_U+30EC_U+30A4_U+30E4_U+30FC 1
100
AcDbBlockReference
  2
block 6
 10
0.0
 20
0.0
 30
0.0
  0
POLYLINE
  5
9B
330
1F
100
AcDbEntity
  8
_U+30EC_U+30A4_U+30E4_U+30FC 1
 62
   179
420
  2234388
370
    25
100
AcDb2dPolyline
 66
     1
 10
0.0
 20
0.0
 30
0.0
  0
VERTEX
  5
9C
330
9B
100
AcDbEntity
  8
_U+30EC_U+30A4_U+30E4_U+30FC 1
 62
   179
420
  2234388
370
    25
100
AcDbVertex
100
AcDb2dVertex
 10
88.61922190580196
 20
-134.6350282996743
 30
0.0
  0
VERTEX
  5
9D
330
9B
100
AcDbEntity
  8
_U+30EC_U+30A4_U+30E4_U+30FC 1
 62
   179
420
  2234388
370
    25
100
AcDbVertex
100
AcDb2dVertex
 10
88.61922190580196
 20
-122.6350805248969
 30
0.0
  0
VERTEX
  5
9E
330
9B
100
AcDbEntity
  8
_U+30EC_U+30A4_U+30E4_U+30FC 1
 62
   179
420
  2234388
370
    25
100
AcDbVertex
100
AcDb2dVertex
 10
92.11944997697022
 20
-122.6350805248969
 30
0.0
  0
VERTEX
  5
9F
330
9B
100
AcDbEntity
  8
_U+30EC_U+30A4_U+30E4_U+30FC 1
 62
   179
420
  2234388
370
    25
100
AcDbVertex
100
AcDb2dVertex
 10
92.11944997697022
 20
-124.6349424688413
 30
0.0
  0
VERTEX
  5
A0
330
9B
100
AcDbEntity
  8
_U+30EC_U+30A4_U+30E4_U+30FC 1
 62
   179
420
  2234388
370
    25
100
AcDbVertex
100
AcDb2dVertex
 10
93.1195373465449
 20
-124.6349424688413
 30
0.0
  0
VERTEX
  5
A1
330
9B
100
AcDbEntity
  8
_U+30EC_U+30A4_U+30E4_U+30FC 1
 62
   179
420
  2234388
370
    25
100
AcDbVertex
100
AcDb2dVertex
 10
93.1195373465449
 20
-121.6349555251469
 30
0.0
  0
VERTEX
  5
A2
330
9B
100
AcDbEntity
  8
_U+30EC_U+30A4_U+30E4_U+30FC 1
 62
   179
420
  2234388
370
    25
100
AcDbVertex
100
AcDb2dVertex
 10
83.11948704611189
 20
-121.6349555251469
 30
0.0
  0
VERTEX
  5
A3
330
9B
100
AcDbEntity
  8
_U+30EC_U+30A4_U+30E4_U+30FC 1
 62
   179
420
  2234388
370
    25
100
AcDbVertex
100
AcDb2dVertex
 10
83.11948704611189
 20
-124.6349424688413
 30
0.0
  0
VERTEX
  5
A4
330
9B
100
AcDbEntity
  8
_U+30EC_U+30A4_U+30E4_U+30FC 1
 62
   179
420
  2234388
370
    25
100
AcDbVertex
100
AcDb2dVertex
 10
84.11957674281969
 20
-124.6349424688413
 30
0.0
  0
VERTEX
  5
A5
330
9B
100
AcDbEntity
  8
_U+30EC_U+30A4_U+30E4_U+30FC 1
 62
   179
420
  2234388
370
    25
100
AcDbVertex
100
AcDb2dVertex
 10
84.11957674281969
 20
-122.6350805248969
 30
0.0
  0
VERTEX
  5
A6
330
9B
100
AcDbEntity
  8
_U+30EC_U+30A4_U+30E4_U+30FC 1
 62
   179
420
  2234388
370
    25
100
AcDbVertex
100
AcDb2dVertex
 10
87.61944970908606
 20
-122.6350805248969
 30
0.0
  0
VERTEX
  5
A7
330
9B
100
AcDbEntity
  8
_U+30EC_U+30A4_U+30E4_U+30FC 1
 62
   179
420
  2234388
370
    25
100
AcDbVertex
100
AcDb2dVertex
 10
87.61944970908606
 20
-134.6350282996743
 30
0.0
  0
VERTEX
  5
A8
330
9B
100
AcDbEntity
  8
_U+30EC_U+30A4_U+30E4_U+30FC 1
 62
   179
420
  2234388
370
    25
100
AcDbVertex
100
AcDb2dVertex
 10
75.61950223745244
 20
-134.6350282996743
 30
0.0
  0
VERTEX
  5
A9
330
9B
100
AcDbEntity
  8
_U+30EC_U+30A4_U+30E4_U+30FC 1
 62
   179
420
  2234388
370
    25
100
AcDbVertex
100
AcDb2dVertex
 10
75.61950223745244
 20
-135.6351180216471
 30
0.0
  0
VERTEX
  5
AA
330
9B
100
AcDbEntity
  8
_U+30EC_U+30A4_U+30E4_U+30FC 1
 62
   179
420
  2234388
370
    25
100
AcDbVertex
100
AcDb2dVertex
 10
100.6195221552044
 20
-135.6351180216471
 30
0.0
  0
VERTEX
  5
AB
330
9B
100
AcDbEntity
  8
_U+30EC_U+30A4_U+30E4_U+30FC 1
 62
   179
420
  2234388
370
    25
100
AcDbVertex
100
AcDb2dVertex
 10
100.6195221552044
 20
-134.6350282996743
 30
0.0
  0
VERTEX
  5
AC
330
9B
100
AcDbEntity
  8
_U+30EC_U+30A4_U+30E4_U+30FC 1
 62
   179
420
  2234388
370
    25
100
AcDbVertex
100
AcDb2dVertex
 10
88.61922190580196
 20
-134.6350282996743
 30
0.0
  0
SEQEND
  5
AD
330
9B
100
AcDbEntity
  8
_U+30EC_U+30A4_U+30E4_U+30FC 1
 62
   179
420
  2234388
370
    25
  0
ENDSEC
  0
SECTION
  2
OBJECTS
  0
DICTIONARY
  5
C
330
0
100
AcDbDictionary
281
     1
  3
ACAD_GROUP
350
D
  3
ACAD_LAYOUT
350
1A
  3
ACAD_MATERIAL
350
3B
  3
ACAD_MLEADERSTYLE
350
AF
  3
ACAD_MLINESTYLE
350
17
  3
ACAD_PLOTSETTINGS
350
19
  3
ACAD_PLOTSTYLENAME
350
E
  3
ACAD_TABLESTYLE
350
AE
  3
ACAD_VISUALSTYLE
350
2A
  0
SUN
  5
3F
330
29
100
AcDbSun
 90
        1
290
     0
 63
     7
421
 16777215
 40
1.0
291
     1
 91
  2455826
 92
 54000000
292
     0
 70
     2
 71
   256
280
     1
  0
DICTIONARY
  5
D
102
{ACAD_REACTORS
330
C
102
}
330
C
100
AcDbDictionary
281
     1
  0
DICTIONARY
  5
1A
102
{ACAD_REACTORS
330
C
102
}
330
C
100
AcDbDictionary
281
     1
  3
Layout1
350
1E
  3
Layout2
350
26
  3
Model
350
22
  0
DICTIONARY
  5
3B
102
{ACAD_REACTORS
330
C
102
}
330
C
100
AcDbDictionary
281
     1
  3
ByBlock
350
3D
  3
ByLayer
350
3C
  3
Global
350
3E
  0
DICTIONARY
  5
AF
102
{ACAD_REACTORS
330
C
102
}
330
C
100
AcDbDictionary
281
     1
  0
DICTIONARY
  5
17
102
{ACAD_REACTORS
330
C
102
}
330
C
100
AcDbDictionary
281
     1
  3
Standard
350
18
  0
DICTIONARY
  5
19
102
{ACAD_REACTORS
330
C
102
}
330
C
100
AcDbDictionary
281
     1
  0
ACDBDICTIONARYWDFLT
  5
E
102
{ACAD_REACTORS
330
C
102
}
330
C
100
AcDbDictionary
281
     1
  3
Normal
350
F
100
AcDbDictionaryWithDefault
340
F
  0
DICTIONARY
  5
AE
102
{ACAD_REACTORS
330
C
102
}
330
C
100
AcDbDictionary
281
     1
  0
DICTIONARY
  5
2A
102
{ACAD_REACTORS
330
C
102
}
330
C
100
AcDbDictionary
281
     1
  3
2dWireframe
350
2F
  3
3D Hidden
350
31
  3
3dWireframe
350
30
  3
Basic
350
32
  3
Brighten
350
36
  3
ColorChange
350
3A
  3
Conceptual
350
34
  3
Dim
350
35
  3
Facepattern
350
39
  3
Flat
350
2B
  3
FlatWithEdges
350
2C
  3
Gouraud
350
2D
  3
GouraudWithEdges
350
2E
  3
Linepattern
350
38
  3
Realistic
350
33
  3
Thicken
350
37
  0
LAYOUT
  5
1E
102
{ACAD_REACTORS
330
1A
102
}
330
1A
100
AcDbPlotSettings
  1

  2
none_device
  4

  6

 40
0.0
 41
0.0
 42
0.0
 43
0.0
 44
0.0
 45
0.0
 46
0.0
 47
0.0
 48
0.0
 49
0.0
140
0.0
141
0.0
142
1.0
143
1.0
 70
   688
 72
     0
 73
     0
 74
     5
  7

 75
    16
 76
     0
 77
     2
 78
   300
147
1.0
148
0.0
149
0.0
100
AcDbLayout
  1
Layout1
 70
     1
 71
     1
 10
0.0
 20
0.0
 11
12.0
 21
9.0
 12
0.0
 22
0.0
 32
0.0
 14
1.000000000000000E+20
 24
1.000000000000000E+20
 34
1.000000000000000E+20
 15
-1.000000000000000E+20
 25
-1.000000000000000E+20
 35
-1.000000000000000E+20
146
0.0
 13
0.0
 23
0.0
 33
0.0
 16
1.0
 26
0.0
 36
0.0
 17
0.0
 27
1.0
 37
0.0
 76
     0
330
1B
  0
LAYOUT
  5
26
102
{ACAD_REACTORS
330
1A
102
}
330
1A
100
AcDbPlotSettings
  1

  2
none_device
  4

  6

 40
0.0
 41
0.0
 42
0.0
 43
0.0
 44
0.0
 45
0.0
 46
0.0
 47
0.0
 48
0.0
 49
0.0
140
0.0
141
0.0
142
1.0
143
1.0
 70
   688
 72
     0
 73
     0
 74
     5
  7

 75
    16
 76
     0
 77
     2
 78
   300
147
1.0
148
0.0
149
0.0
100
AcDbLayout
  1
Layout2
 70
     1
 71
     2
 10
0.0
 20
0.0
 11
0.0
 21
0.0
 12
0.0
 22
0.0
 32
0.0
 14
0.0
 24
0.0
 34
0.0
 15
0.0
 25
0.0
 35
0.0
146
0.0
 13
0.0
 23
0.0
 33
0.0
 16
1.0
 26
0.0
 36
0.0
 17
0.0
 27
1.0
 37
0.0
 76
     0
330
23
  0
LAYOUT
  5
22
102
{ACAD_REACTORS
330
1A
102
}
330
1A
100
AcDbPlotSettings
  1

  2
none_device
  4

  6

 40
0.0
 41
0.0
 42
0.0
 43
0.0
 44
0.0
 45
0.0
 46
0.0
 47
0.0
 48
0.0
 49
0.0
140
0.0
141
0.0
142
1.0
143
1.0
 70
  1712
 72
     0
 73
     0
 74
     0
  7

 75
     0
 76
     0
 77
     2
 78
   300
147
1.0
148
0.0
149
0.0
100
AcDbLayout
  1
Model
 70
     1
 71
     0
 10
0.0
 20
0.0
 11
12.0
 21
9.0
 12
0.0
 22
0.0
 32
0.0
 14
1.000000000000000E+20
 24
1.000000000000000E+20
 34
1.000000000000000E+20
 15
-1.000000000000000E+20
 25
-1.000000000000000E+20
 35
-1.000000000000000E+20
146
0.0
 13
0.0
 23
0.0
 33
0.0
 16
1.0
 26
0.0
 36
0.0
 17
0.0
 27
1.0
 37
0.0
 76
     0
330
1F
331
29
  0
MATERIAL
  5
3D
102
{ACAD_REACTORS
330
3B
102
}
330
3B
100
AcDbMaterial
  1
ByBlock
 72
     1
 94
      127
  0
MATERIAL
  5
3C
102
{ACAD_REACTORS
330
3B
102
}
330
3B
100
AcDbMaterial
  1
ByLayer
 72
     1
 94
      127
  0
MATERIAL
  5
3E
102
{ACAD_REACTORS
330
3B
102
}
330
3B
100
AcDbMaterial
  1
Global
 72
     1
 94
      127
  0
MLINESTYLE
  5
18
102
{ACAD_REACTORS
330
17
102
}
330
17
100
AcDbMlineStyle
  2
Standard
 70
     0
  3

 62
   256
 51
90.0
 52
90.0
 71
     2
 49
0.5
 62
   256
  6
BYLAYER
 49
-0.5
 62
   256
  6
BYLAYER
  0
ACDBPLACEHOLDER
  5
F
102
{ACAD_REACTORS
330
E
102
}
330
E
  0
VISUALSTYLE
  5
2F
102
{ACAD_REACTORS
330
2A
102
}
330
2A
100
AcDbVisualStyle
  2
2dWireframe
 70
     4
177
     2
291
     0
 71
     0
176
     1
 72
     2
176
     1
 73
     0
176
     1
 90
        0
176
     1
 40
-0.6
176
     1
 41
-30.0
176
     1
 62
     5
 63
     7
421
 16777215
176
     1
 74
     1
176
     1
 91
        4
176
     1
 64
     7
176
     1
 65
   257
176
     1
 75
     1
176
     1
175
     1
176
     1
 42
1.0
176
     1
 92
        0
176
     1
 66
   257
176
     1
 43
1.0
176
     1
 76
     1
176
     1
 77
     6
176
     1
 78
     2
176
     1
 67
     7
176
     1
 79
     5
176
     1
170
     0
176
     1
171
     0
176
     1
290
     0
176
     1
 93
        1
176
     1
 44
0.0
176
     1
173
     0
176
     1
  0
VISUALSTYLE
  5
31
102
{ACAD_REACTORS
330
2A
102
}
330
2A
100
AcDbVisualStyle
  2
3D Hidden
 70
     6
177
     2
291
     0
 71
     1
176
     1
 72
     2
176
     1
 73
     2
176
     1
 90
        0
176
     1
 40
-0.6
176
     1
 41
-30.0
176
     1
 62
     5
 63
     7
421
 16777215
176
     1
 74
     2
176
     1
 91
        2
176
     1
 64
     7
176
     1
 65
   257
176
     1
 75
     2
176
     1
175
     1
176
     1
 42
40.0
176
     1
 92
        0
176
     1
 66
   257
176
     1
 43
1.0
176
     1
 76
     1
176
     1
 77
     6
176
     1
 78
     2
176
     1
 67
     7
176
     1
 79
     3
176
     1
170
     0
176
     1
171
     0
176
     1
290
     0
176
     1
 93
        1
176
     1
 44
0.0
176
     1
173
     0
176
     1
  0
VISUALSTYLE
  5
30
102
{ACAD_REACTORS
330
2A
102
}
330
2A
100
AcDbVisualStyle
  2
3dWireframe
 70
     5
177
     2
291
     0
 71
     0
176
     1
 72
     2
176
     1
 73
     0
176
     1
 90
        0
176
     1
 40
-0.6
176
     1
 41
-30.0
176
     1
 62
     5
 63
     7
421
 16777215
176
     1
 74
     1
176
     1
 91
        4
176
     1
 64
     7
176
     1
 65
   257
176
     1
 75
     1
176
     1
175
     1
176
     1
 42
1.0
176
     1
 92
        0
176
     1
 66
   257
176
     1
 43
1.0
176
     1
 76
     1
176
     1
 77
     6
176
     1
 78
     2
176
     1
 67
     7
176
     1
 79
     5
176
     1
170
     0
176
     1
171
     0
176
     1
290
     0
176
     1
 93
        1
176
     1
 44
0.0
176
     1
173
     0
176
     1
  0
VISUALSTYLE
  5
32
102
{ACAD_REACTORS
330
2A
102
}
330
2A
100
AcDbVisualStyle
  2
Basic
 70
     7
177
     2
291
     1
 71
     1
176
     1
 72
     0
176
     1
 73
     1
176
     1
 90
        0
176
     1
 40
-0.6
176
     1
 41
-30.0
176
     1
 62
     5
 63
     7
421
 16777215
176
     1
 74
     0
176
     1
 91
        4
176
     1
 64
     7
176
     1
 65
   257
176
     1
 75
     1
176
     1
175
     1
176
     1
 42
1.0
176
     1
 92
        8
176
     1
 66
     7
176
     1
 43
1.0
176
     1
 76
     1
176
     1
 77
     6
176
     1
 78
     2
176
     1
 67
     7
176
     1
 79
     5
176
     1
170
     0
176
     1
171
     0
176
     1
290
     0
176
     1
 93
        1
176
     1
 44
0.0
176
     1
173
     0
176
     1
  0
VISUALSTYLE
  5
36
102
{ACAD_REACTORS
330
2A
102
}
330
2A
100
AcDbVisualStyle
  2
Brighten
 70
    12
177
     2
291
     1
 71
     2
176
     1
 72
     2
176
     1
 73
     0
176
     1
 90
        0
176
     1
 40
-0.6
176
     1
 41
-30.0
176
     1
 62
     5
 63
     7
421
 16777215
176
     1
 74
     1
176
     1
 91
        4
176
     1
 64
     7
176
     1
 65
   257
176
     1
 75
     1
176
     1
175
     1
176
     1
 42
1.0
176
     1
 92
        8
176
     1
 66
     7
176
     1
 43
1.0
176
     1
 76
     1
176
     1
 77
     6
176
     1
 78
     2
176
     1
 67
     7
176
     1
 79
     5
176
     1
170
     0
176
     1
171
     0
176
     1
290
     0
176
     1
 93
        1
176
     1
 44
50.0
176
     1
173
     0
176
     1
  0
VISUALSTYLE
  5
3A
102
{ACAD_REACTORS
330
2A
102
}
330
2A
100
AcDbVisualStyle
  2
ColorChange
 70
    16
177
     2
291
     1
 71
     2
176
     1
 72
     2
176
     1
 73
     3
176
     1
 90
        0
176
     1
 40
-0.6
176
     1
 41
-30.0
176
     1
 62
     5
 63
     8
421
  8421504
176
     1
 74
     1
176
     1
 91
        4
176
     1
 64
     7
176
     1
 65
   257
176
     1
 75
     1
176
     1
175
     1
176
     1
 42
1.0
176
     1
 92
        8
176
     1
 66
     8
424
  8421504
176
     1
 43
1.0
176
     1
 76
     1
176
     1
 77
     6
176
     1
 78
     2
176
     1
 67
     7
176
     1
 79
     5
176
     1
170
     0
176
     1
171
     0
176
     1
290
     0
176
     1
 93
        1
176
     1
 44
0.0
176
     1
173
     0
176
     1
  0
VISUALSTYLE
  5
34
102
{ACAD_REACTORS
330
2A
102
}
330
2A
100
AcDbVisualStyle
  2
Conceptual
 70
     9
177
     2
291
     0
 71
     3
176
     1
 72
     2
176
     1
 73
     0
176
     1
 90
        0
176
     1
 40
-0.6
176
     1
 41
-30.0
176
     1
 62
     5
 63
     7
421
 16777215
176
     1
 74
     2
176
     1
 91
        2
176
     1
 64
     7
176
     1
 65
   257
176
     1
 75
     1
176
     1
175
     1
176
     1
 42
40.0
176
     1
 92
        8
176
     1
 66
     7
176
     1
 43
1.0
176
     1
 76
     1
176
     1
 77
     6
176
     1
 78
     2
176
     1
 67
     7
176
     1
 79
     3
176
     1
170
     0
176
     1
171
     0
176
     1
290
     0
176
     1
 93
        1
176
     1
 44
0.0
176
     1
173
     0
176
     1
  0
VISUALSTYLE
  5
35
102
{ACAD_REACTORS
330
2A
102
}
330
2A
100
AcDbVisualStyle
  2
Dim
 70
    11
177
     2
291
     1
 71
     2
176
     1
 72
     2
176
     1
 73
     0
176
     1
 90
        0
176
     1
 40
-0.6
176
     1
 41
-30.0
176
     1
 62
     5
 63
     7
421
 16777215
176
     1
 74
     1
176
     1
 91
        4
176
     1
 64
     7
176
     1
 65
   257
176
     1
 75
     1
176
     1
175
     1
176
     1
 42
1.0
176
     1
 92
        8
176
     1
 66
     7
176
     1
 43
1.0
176
     1
 76
     1
176
     1
 77
     6
176
     1
 78
     2
176
     1
 67
     7
176
     1
 79
     5
176
     1
170
     0
176
     1
171
     0
176
     1
290
     0
176
     1
 93
        1
176
     1
 44
-50.0
176
     1
173
     0
176
     1
  0
VISUALSTYLE
  5
39
102
{ACAD_REACTORS
330
2A
102
}
330
2A
100
AcDbVisualStyle
  2
Facepattern
 70
    15
177
     2
291
     1
 71
     2
176
     1
 72
     2
176
     1
 73
     0
176
     1
 90
        0
176
     1
 40
-0.6
176
     1
 41
-30.0
176
     1
 62
     5
 63
     7
421
 16777215
176
     1
 74
     1
176
     1
 91
        4
176
     1
 64
     7
176
     1
 65
   257
176
     1
 75
     1
176
     1
175
     1
176
     1
 42
1.0
176
     1
 92
        8
176
     1
 66
     7
176
     1
 43
1.0
176
     1
 76
     1
176
     1
 77
     6
176
     1
 78
     2
176
     1
 67
     7
176
     1
 79
     5
176
     1
170
     0
176
     1
171
     0
176
     1
290
     0
176
     1
 93
        1
176
     1
 44
0.0
176
     1
173
     0
176
     1
  0
VISUALSTYLE
  5
2B
102
{ACAD_REACTORS
330
2A
102
}
330
2A
100
AcDbVisualStyle
  2
Flat
 70
     0
177
     2
291
     1
 71
     2
176
     1
 72
     1
176
     1
 73
     1
176
     1
 90
        2
176
     1
 40
-0.6
176
     1
 41
30.0
176
     1
 62
     5
 63
     7
421
 16777215
176
     1
 74
     0
176
     1
 91
        4
176
     1
 64
     7
176
     1
 65
   257
176
     1
 75
     1
176
     1
175
     1
176
     1
 42
1.0
176
     1
 92
        8
176
     1
 66
     7
176
     1
 43
1.0
176
     1
 76
     1
176
     1
 77
     6
176
     1
 78
     2
176
     1
 67
     7
176
     1
 79
     5
176
     1
170
     0
176
     1
171
     0
176
     1
290
     0
176
     1
 93
       13
176
     1
 44
0.0
176
     1
173
     0
176
     1
  0
VISUALSTYLE
  5
2C
102
{ACAD_REACTORS
330
2A
102
}
330
2A
100
AcDbVisualStyle
  2
FlatWithEdges
 70
     1
177
     2
291
     1
 71
     2
176
     1
 72
     1
176
     1
 73
     1
176
     1
 90
        2
176
     1
 40
-0.6
176
     1
 41
30.0
176
     1
 62
     5
 63
     7
421
 16777215
176
     1
 74
     1
176
     1
 91
        4
176
     1
 64
     7
176
     1
 65
   257
176
     1
 75
     1
176
     1
175
     1
176
     1
 42
1.0
176
     1
 92
        0
176
     1
 66
   257
176
     1
 43
1.0
176
     1
 76
     1
176
     1
 77
     6
176
     1
 78
     2
176
     1
 67
     7
176
     1
 79
     5
176
     1
170
     0
176
     1
171
     0
176
     1
290
     0
176
     1
 93
       13
176
     1
 44
0.0
176
     1
173
     0
176
     1
  0
VISUALSTYLE
  5
2D
102
{ACAD_REACTORS
330
2A
102
}
330
2A
100
AcDbVisualStyle
  2
Gouraud
 70
     2
177
     2
291
     1
 71
     2
176
     1
 72
     2
176
     1
 73
     1
176
     1
 90
        2
176
     1
 40
-0.6
176
     1
 41
30.0
176
     1
 62
     5
 63
     7
421
 16777215
176
     1
 74
     0
176
     1
 91
        4
176
     1
 64
     7
176
     1
 65
   257
176
     1
 75
     1
176
     1
175
     1
176
     1
 42
1.0
176
     1
 92
        0
176
     1
 66
     7
176
     1
 43
1.0
176
     1
 76
     1
176
     1
 77
     6
176
     1
 78
     2
176
     1
 67
     7
176
     1
 79
     5
176
     1
170
     0
176
     1
171
     0
176
     1
290
     0
176
     1
 93
       13
176
     1
 44
0.0
176
     1
173
     0
176
     1
  0
VISUALSTYLE
  5
2E
102
{ACAD_REACTORS
330
2A
102
}
330
2A
100
AcDbVisualStyle
  2
GouraudWithEdges
 70
     3
177
     2
291
     1
 71
     2
176
     1
 72
     2
176
     1
 73
     1
176
     1
 90
        2
176
     1
 40
-0.6
176
     1
 41
30.0
176
     1
 62
     5
 63
     7
421
 16777215
176
     1
 74
     1
176
     1
 91
        4
176
     1
 64
     7
176
     1
 65
   257
176
     1
 75
     1
176
     1
175
     1
176
     1
 42
1.0
176
     1
 92
        0
176
     1
 66
   257
176
     1
 43
1.0
176
     1
 76
     1
176
     1
 77
     6
176
     1
 78
     2
176
     1
 67
     7
176
     1
 79
     5
176
     1
170
     0
176
     1
171
     0
176
     1
290
     0
176
     1
 93
       13
176
     1
 44
0.0
176
     1
173
     0
176
     1
  0
VISUALSTYLE
  5
38
102
{ACAD_REACTORS
330
2A
102
}
330
2A
100
AcDbVisualStyle
  2
Linepattern
 70
    14
177
     2
291
     1
 71
     2
176
     1
 72
     2
176
     1
 73
     0
176
     1
 90
        0
176
     1
 40
-0.6
176
     1
 41
-30.0
176
     1
 62
     5
 63
     7
421
 16777215
176
     1
 74
     1
176
     1
 91
        4
176
     1
 64
     7
176
     1
 65
   257
176
     1
 75
     7
176
     1
175
     7
176
     1
 42
1.0
176
     1
 92
        8
176
     1
 66
     7
176
     1
 43
1.0
176
     1
 76
     1
176
     1
 77
     6
176
     1
 78
     2
176
     1
 67
     7
176
     1
 79
     5
176
     1
170
     0
176
     1
171
     0
176
     1
290
     0
176
     1
 93
        1
176
     1
 44
0.0
176
     1
173
     0
176
     1
  0
VISUALSTYLE
  5
33
102
{ACAD_REACTORS
330
2A
102
}
330
2A
100
AcDbVisualStyle
  2
Realistic
 70
     8
177
     2
291
     0
 71
     2
176
     1
 72
     2
176
     1
 73
     0
176
     1
 90
        0
176
     1
 40
-0.6
176
     1
 41
-30.0
176
     1
 62
     5
 63
     7
421
 16777215
176
     1
 74
     1
176
     1
 91
        0
176
     1
 64
     7
176
     1
 65
   257
176
     1
 75
     1
176
     1
175
     1
176
     1
 42
1.0
176
     1
 92
        8
176
     1
 66
     8
424
  7895160
176
     1
 43
1.0
176
     1
 76
     1
176
     1
 77
     6
176
     1
 78
     2
176
     1
 67
     7
176
     1
 79
     5
176
     1
170
     0
176
     1
171
     0
176
     1
290
     0
176
     1
 93
       13
176
     1
 44
0.0
176
     1
173
     0
176
     1
  0
VISUALSTYLE
  5
37
102
{ACAD_REACTORS
330
2A
102
}
330
2A
100
AcDbVisualStyle
  2
Thicken
 70
    13
177
     2
291
     1
 71
     2
176
     1
 72
     2
176
     1
 73
     0
176
     1
 90
        0
176
     1
 40
-0.6
176
     1
 41
-30.0
176
     1
 62
     5
 63
     7
421
 16777215
176
     1
 74
     1
176
     1
 91
        4
176
     1
 64
     7
176
     1
 65
   257
176
     1
 75
     1
176
     1
175
     1
176
     1
 42
1.0
176
     1
 92
       12
176
     1
 66
     7
176
     1
 43
1.0
176
     1
 76
     1
176
     1
 77
     6
176
     1
 78
     2
176
     1
 67
     7
176
     1
 79
     5
176
     1
170
     0
176
     1
171
     0
176
     1
290
     0
176
     1
 93
        1
176
     1
 44
0.0
176
     1
173
     0
176
     1
  0
ENDSEC
  0
EOF
