  0
SECTION
  2
HEADER
  9
$ACADVER
  1
AC1024
  9
$ACADMAINTVER
 70
     6
  9
$DWGCODEPAGE
  3
UNDEFINED
  9
$INSBASE
 10
0.0
 20
0.0
 30
0.0
  9
$EXTMIN
 10
1.000000000000000E+20
 20
1.000000000000000E+20
 30
1.000000000000000E+20
  9
$EXTMAX
 10
-1.000000000000000E+20
 20
-1.000000000000000E+20
 30
-1.000000000000000E+20
  9
$LIMMIN
 10
0.0
 20
0.0
  9
$LIMMAX
 10
12.0
 20
9.0
  9
$ORTHOMODE
 70
     0
  9
$REGENMODE
 70
     1
  9
$FILLMODE
 70
     1
  9
$QTEXTMODE
 70
     0
  9
$MIRRTEXT
 70
     1
  9
$LTSCALE
 40
1.0
  9
$ATTMODE
 70
     1
  9
$TEXTSIZE
 40
0.2
  9
$TRACEWID
 40
0.05
  9
$TEXTSTYLE
  7
Standard
  9
$CLAYER
  8
0
  9
$CELTYPE
  6
ByLayer
  9
$CECOLOR
 62
   256
  9
$CELTSCALE
 40
1.0
  9
$DISPSILH
 70
     0
  9
$DIMSCALE
 40
1.0
  9
$DIMASZ
 40
0.18
  9
$DIMEXO
 40
0.0625
  9
$DIMDLI
 40
0.38
  9
$DIMRND
 40
0.0
  9
$DIMDLE
 40
0.0
  9
$DIMEXE
 40
0.18
  9
$DIMTP
 40
0.0
  9
$DIMTM
 40
0.0
  9
$DIMTXT
 40
0.18
  9
$DIMCEN
 40
0.09
  9
$DIMTSZ
 40
0.0
  9
$DIMTOL
 70
     0
  9
$DIMLIM
 70
     0
  9
$DIMTIH
 70
     1
  9
$DIMTOH
 70
     1
  9
$DIMSE1
 70
     0
  9
$DIMSE2
 70
     0
  9
$DIMTAD
 70
     0
  9
$DIMZIN
 70
     0
  9
$DIMBLK
  1

  9
$DIMASO
 70
     1
  9
$DIMSHO
 70
     1
  9
$DIMPOST
  1

  9
$DIMAPOST
  1

  9
$DIMALT
 70
     0
  9
$DIMALTD
 70
     2
  9
$DIMALTF
 40
25.4
  9
$DIMLFAC
 40
1.0
  9
$DIMTOFL
 70
     0
  9
$DIMTVP
 40
0.0
  9
$DIMTIX
 70
     0
  9
$DIMSOXD
 70
     0
  9
$DIMSAH
 70
     0
  9
$DIMBLK1
  1

  9
$DIMBLK2
  1

  9
$DIMSTYLE
  2
Standard
  9
$DIMCLRD
 70
     0
  9
$DIMCLRE
 70
     0
  9
$DIMCLRT
 70
     0
  9
$DIMTFAC
 40
1.0
  9
$DIMGAP
 40
0.09
  9
$DIMJUST
 70
     0
  9
$DIMSD1
 70
     0
  9
$DIMSD2
 70
     0
  9
$DIMTOLJ
 70
     1
  9
$DIMTZIN
 70
     0
  9
$DIMALTZ
 70
     0
  9
$DIMALTTZ
 70
     0
  9
$DIMUPT
 70
     0
  9
$DIMDEC
 70
     4
  9
$DIMTDEC
 70
     4
  9
$DIMALTU
 70
     2
  9
$DIMALTTD
 70
     2
  9
$DIMTXSTY
  7
Standard
  9
$DIMAUNIT
 70
     0
  9
$DIMADEC
 70
     0
  9
$DIMALTRND
 40
0.0
  9
$DIMAZIN
 70
     0
  9
$DIMDSEP
 70
    46
  9
$DIMATFIT
 70
     3
  9
$DIMFRAC
 70
     0
  9
$DIMLDRBLK
  1

  9
$DIMLUNIT
 70
     2
  9
$DIMLWD
 70
    -2
  9
$DIMLWE
 70
    -2
  9
$DIMTMOVE
 70
     0
  9
$DIMFXL
 40
1.0
  9
$DIMFXLON
 70
     0
  9
$DIMJOGANG
 40
0.7853981633974483
  9
$DIMTFILL
 70
     0
  9
$DIMTFILLCLR
 70
     0
  9
$DIMARCSYM
 70
     0
  9
$DIMLTYPE
  6

  9
$DIMLTEX1
  6

  9
$DIMLTEX2
  6

  9
$DIMTXTDIRECTION
 70
     0
  9
$LUNITS
 70
     2
  9
$LUPREC
 70
     4
  9
$SKETCHINC
 40
0.1
  9
$FILLETRAD
 40
0.5
  9
$AUNITS
 70
     0
  9
$AUPREC
 70
     0
  9
$MENU
  1
.
  9
$ELEVATION
 40
0.0
  9
$PELEVATION
 40
0.0
  9
$THICKNESS
 40
0.0
  9
$LIMCHECK
 70
     0
  9
$CHAMFERA
 40
0.5
  9
$CHAMFERB
 40
0.5
  9
$CHAMFERC
 40
1.0
  9
$CHAMFERD
 40
0.0
  9
$SKPOLY
 70
     0
  9
$TDCREATE
 40
2457917.593472222
  9
$TDUCREATE
 40
2457917.218472222
  9
$TDUPDATE
 40
2457917.593472222
  9
$TDUUPDATE
 40
2457917.218472222
  9
$TDINDWG
 40
0.0000000116
  9
$TDUSRTIMER
 40
0.0000000116
  9
$USRTIMER
 70
     1
  9
$ANGBASE
 50
0.0
  9
$ANGDIR
 70
     0
  9
$PDMODE
 70
     0
  9
$PDSIZE
 40
0.0
  9
$PLINEWID
 40
0.0
  9
$SPLFRAME
 70
     0
  9
$SPLINETYPE
 70
     6
  9
$SPLINESEGS
 70
     8
  9
$HANDSEED
  5
AF
  9
$SURFTAB1
 70
     6
  9
$SURFTAB2
 70
     6
  9
$SURFTYPE
 70
     6
  9
$SURFU
 70
     6
  9
$SURFV
 70
     6
  9
$UCSBASE
  2

  9
$UCSNAME
  2

  9
$UCSORG
 10
0.0
 20
0.0
 30
0.0
  9
$UCSXDIR
 10
1.0
 20
0.0
 30
0.0
  9
$UCSYDIR
 10
0.0
 20
1.0
 30
0.0
  9
$UCSORTHOREF
  2

  9
$UCSORTHOVIEW
 70
     0
  9
$UCSORGTOP
 10
0.0
 20
0.0
 30
0.0
  9
$UCSORGBOTTOM
 10
0.0
 20
0.0
 30
0.0
  9
$UCSORGLEFT
 10
0.0
 20
0.0
 30
0.0
  9
$UCSORGRIGHT
 10
0.0
 20
0.0
 30
0.0
  9
$UCSORGFRONT
 10
0.0
 20
0.0
 30
0.0
  9
$UCSORGBACK
 10
0.0
 20
0.0
 30
0.0
  9
$PUCSBASE
  2

  9
$PUCSNAME
  2

  9
$PUCSORG
 10
0.0
 20
0.0
 30
0.0
  9
$PUCSXDIR
 10
1.0
 20
0.0
 30
0.0
  9
$PUCSYDIR
 10
0.0
 20
1.0
 30
0.0
  9
$PUCSORTHOREF
  2

  9
$PUCSORTHOVIEW
 70
     0
  9
$PUCSORGTOP
 10
0.0
 20
0.0
 30
0.0
  9
$PUCSORGBOTTOM
 10
0.0
 20
0.0
 30
0.0
  9
$PUCSORGLEFT
 10
0.0
 20
0.0
 30
0.0
  9
$PUCSORGRIGHT
 10
0.0
 20
0.0
 30
0.0
  9
$PUCSORGFRONT
 10
0.0
 20
0.0
 30
0.0
  9
$PUCSORGBACK
 10
0.0
 20
0.0
 30
0.0
  9
$USERI1
 70
     0
  9
$USERI2
 70
     0
  9
$USERI3
 70
     0
  9
$USERI4
 70
     0
  9
$USERI5
 70
     0
  9
$USERR1
 40
0.0
  9
$USERR2
 40
0.0
  9
$USERR3
 40
0.0
  9
$USERR4
 40
0.0
  9
$USERR5
 40
0.0
  9
$WORLDVIEW
 70
     1
  9
$SHADEDGE
 70
     3
  9
$SHADEDIF
 70
    70
  9
$TILEMODE
 70
     1
  9
$MAXACTVP
 70
    64
  9
$PINSBASE
 10
0.0
 20
0.0
 30
0.0
  9
$PLIMCHECK
 70
     0
  9
$PEXTMIN
 10
1.000000000000000E+20
 20
1.000000000000000E+20
 30
1.000000000000000E+20
  9
$PEXTMAX
 10
-1.000000000000000E+20
 20
-1.000000000000000E+20
 30
-1.000000000000000E+20
  9
$PLIMMIN
 10
0.0
 20
0.0
  9
$PLIMMAX
 10
12.0
 20
9.0
  9
$UNITMODE
 70
     0
  9
$VISRETAIN
 70
     1
  9
$PLINEGEN
 70
     0
  9
$PSLTSCALE
 70
     1
  9
$TREEDEPTH
 70
  3020
  9
$CMLSTYLE
  2
Standard
  9
$CMLJUST
 70
     0
  9
$CMLSCALE
 40
1.0
  9
$PROXYGRAPHICS
 70
     1
  9
$MEASUREMENT
 70
     0
  9
$CELWEIGHT
370
    -1
  9
$ENDCAPS
280
     0
  9
$JOINSTYLE
280
     0
  9
$LWDISPLAY
290
     1
  9
$INSUNITS
 70
     1
  9
$HYPERLINKBASE
  1

  9
$STYLESHEET
  1

  9
$XEDIT
290
     1
  9
$CEPSNTYPE
380
     0
  9
$PSTYLEMODE
290
     1
  9
$FINGERPRINTGUID
  2
{24A078FC-8728-A7DB-A14B-FD10FFC45B8A}
  9
$VERSIONGUID
  2
{FAEB1C32-E019-11D5-929B-00C0DF256EC4}
  9
$EXTNAMES
290
     1
  9
$PSVPSCALE
 40
0.0
  9
$OLESTARTUP
290
     0
  9
$SORTENTS
280
   127
  9
$INDEXCTL
280
     0
  9
$HIDETEXT
280
     1
  9
$XCLIPFRAME
280
     2
  9
$HALOGAP
280
     0
  9
$OBSCOLOR
 70
   257
  9
$OBSLTYPE
280
     0
  9
$INTERSECTIONDISPLAY
280
     0
  9
$INTERSECTIONCOLOR
 70
   257
  9
$DIMASSOC
280
     2
  9
$PROJECTNAME
  1

  9
$CAMERADISPLAY
290
     0
  9
$LENSLENGTH
 40
50.0
  9
$CAMERAHEIGHT
 40
0.0
  9
$STEPSPERSEC
 40
2.0
  9
$STEPSIZE
 40
6.0
  9
$3DDWFPREC
 40
2.0
  9
$PSOLWIDTH
 40
0.25
  9
$PSOLHEIGHT
 40
4.0
  9
$LOFTANG1
 40
1.570796326794897
  9
$LOFTANG2
 40
1.570796326794897
  9
$LOFTMAG1
 40
0.0
  9
$LOFTMAG2
 40
0.0
  9
$LOFTPARAM
 70
     7
  9
$LOFTNORMALS
280
     1
  9
$LATITUDE
 40
37.795
  9
$LONGITUDE
 40
-122.394
  9
$NORTHDIRECTION
 40
0.0
  9
$TIMEZONE
 70
 -8000
  9
$LIGHTGLYPHDISPLAY
280
     1
  9
$TILEMODELIGHTSYNCH
280
     1
  9
$CMATERIAL
347
3C
  9
$SOLIDHIST
280
     1
  9
$SHOWHIST
280
     1
  9
$DWFFRAME
280
     2
  9
$DGNFRAME
280
     2
  9
$REALWORLDSCALE
290
     1
  9
$INTERFERECOLOR
 62
   256
  9
$CSHADOW
280
     0
  9
$SHADOWPLANELOCATION
 40
0.0
  0
ENDSEC
  0
SECTION
  2
CLASSES
  0
CLASS
  1
ACDBDICTIONARYWDFLT
  2
AcDbDictionaryWithDefault
  3
ObjectDBX Classes
 90
        0
 91
        4
280
     0
281
     0
  0
CLASS
  1
VISUALSTYLE
  2
AcDbVisualStyle
  3
ObjectDBX Classes
 90
     4095
 91
        4
280
     0
281
     0
  0
CLASS
  1
MATERIAL
  2
AcDbMaterial
  3
ObjectDBX Classes
 90
     1153
 91
        4
280
     0
281
     0
  0
CLASS
  1
SUN
  2
AcDbSun
  3
SCENEOE
 90
     1024
 91
        4
280
     0
281
     0
  0
ENDSEC
  0
SECTION
  2
TABLES
  0
TABLE
  2
VPORT
  5
8
330
0
100
AcDbSymbolTable
 70
     1
  0
VPORT
  5
29
330
8
100
AcDbSymbolTableRecord
100
AcDbViewportTableRecord
  2
*Active
 70
     0
 10
0.0
 20
0.0
 11
1.0
 21
1.0
 12
0.0
 22
0.0
 13
0.0
 23
0.0
 14
0.5
 24
0.5
 15
0.5
 25
0.5
 16
0.0
 26
0.0
 36
1.0
 17
91.00082462281999
 27
-128.4993055234307
 37
0.0
 40
256.9986110468615
 41
0.7081814508812795
 42
50.0
 43
0.0
 44
0.0
 50
0.0
 51
0.0
 71
     0
 72
   100
 73
     1
 74
     3
 75
     0
 76
     0
 77
     0
 78
     0
281
     0
 65
     1
110
0.0
120
0.0
130
0.0
111
1.0
121
0.0
131
0.0
112
0.0
122
1.0
132
0.0
 79
     0
146
0.0
 60
     3
 61
     5
292
     1
282
     1
141
0.0
142
0.0
 63
   250
361
3F
  0
ENDTAB
  0
TABLE
  2
LTYPE
  5
5
330
0
100
AcDbSymbolTable
 70
     1
  0
LTYPE
  5
14
330
5
100
AcDbSymbolTableRecord
100
AcDbLinetypeTableRecord
  2
ByBlock
 70
     0
  3

 72
    65
 73
     0
 40
0.0
  0
LTYPE
  5
15
330
5
100
AcDbSymbolTableRecord
100
AcDbLinetypeTableRecord
  2
ByLayer
 70
     0
  3

 72
    65
 73
     0
 40
0.0
  0
LTYPE
  5
16
330
5
100
AcDbSymbolTableRecord
100
AcDbLinetypeTableRecord
  2
Continuous
 70
     0
  3
Solid line
 72
    65
 73
     0
 40
0.0
  0
ENDTAB
  0
TABLE
  2
LAYER
  5
2
330
0
100
AcDbSymbolTable
 70
     2
  0
LAYER
  5
10
330
2
100
AcDbSymbolTableRecord
100
AcDbLayerTableRecord
  2
0
 70
     0
 62
     7
  6
Continuous
370
    -3
390
F
347
3E
  0
LAYER
  5
40
330
2
100
AcDbSymbolTableRecord
100
AcDbLayerTableRecord
  2
_U+30EC_U+30A4_U+30E4_U+30FC 1
 70
     0
 62
     7
  6
Continuous
370
    -3
390
F
347
3E
  0
ENDTAB
  0
TABLE
  2
STYLE
  5
3
330
0
100
AcDbSymbolTable
 70
     1
  0
STYLE
  5
11
330
3
100
AcDbSymbolTableRecord
100
AcDbTextStyleTableRecord
  2
Standard
 70
     0
 40
0.0
 41
1.0
 50
0.0
 71
     0
 42
0.2
  3
txt
  4

  0
ENDTAB
  0
TABLE
  2
VIEW
  5
6
330
0
100
AcDbSymbolTable
 70
     0
  0
ENDTAB
  0
TABLE
  2
UCS
  5
7
330
0
100
AcDbSymbolTable
 70
     0
  0
ENDTAB
  0
TABLE
  2
APPID
  5
9
330
0
100
AcDbSymbolTable
 70
     1
  0
APPID
  5
12
330
9
100
AcDbSymbolTableRecord
100
AcDbRegAppTableRecord
  2
ACAD
 70
     0
  0
ENDTAB
  0
TABLE
  2
DIMSTYLE
  5
A
330
0
100
AcDbSymbolTable
 70
     1
100
AcDbDimStyleTable
  0
DIMSTYLE
105
27
330
A
100
AcDbSymbolTableRecord
100
AcDbDimStyleTableRecord
  2
Standard
 70
     0
178
     0
340
11
  0
ENDTAB
  0
TABLE
  2
BLOCK_RECORD
  5
1
330
0
100
AcDbSymbolTable
 70
     7
  0
BLOCK_RECORD
  5
1F
330
1
100
AcDbSymbolTableRecord
100
AcDbBlockTableRecord
  2
*Model_Space
340
22
 70
     0
280
     1
281
     0
  0
BLOCK_RECORD
  5
1B
330
1
100
AcDbSymbolTableRecord
100
AcDbBlockTableRecord
  2
*Paper_Space
340
1E
 70
     0
280
     1
281
     0
  0
BLOCK_RECORD
  5
23
330
1
100
AcDbSymbolTableRecord
100
AcDbBlockTableRecord
  2
*Paper_Space0
340
26
 70
     0
280
     1
281
     0
  0
BLOCK_RECORD
  5
64
330
1
100
AcDbSymbolTableRecord
100
AcDbBlockTableRecord
  2
block 2
340
0
102
{BLKREFS
331
65
102
}
 70
     0
280
     1
281
     0
  0
BLOCK_RECORD
  5
6C
330
1
100
AcDbSymbolTableRecord
100
AcDbBlockTableRecord
  2
block 3
340
0
102
{BLKREFS
331
6D
102
}
 70
     0
280
     1
281
     0
  0
BLOCK_RECORD
  5
75
330
1
100
AcDbSymbolTableRecord
100
AcDbBlockTableRecord
  2
block 4
340
0
102
{BLKREFS
331
76
102
}
 70
     0
280
     1
281
     0
  0
BLOCK_RECORD
  5
92
330
1
100
AcDbSymbolTableRecord
100
AcDbBlockTableRecord
  2
block 5
340
0
102
{BLKREFS
331
93
102
}
 70
     0
280
     1
281
     0
  0
BLOCK_RECORD
  5
9A
330
1
100
AcDbSymbolTableRecord
100
AcDbBlockTableRecord
  2
block 6
340
0
102
{BLKREFS
331
9B
102
}
 70
     0
280
     1
281
     0
  0
BLOCK_RECORD
  5
A6
330
1
100
AcDbSymbolTableRecord
100
AcDbBlockTableRecord
  2
block 7
340
0
102
{BLKREFS
331
A7
102
}
 70
     0
280
     1
281
     0
  0
ENDTAB
  0
ENDSEC
  0
SECTION
  2
BLOCKS
  0
BLOCK
  5
20
330
1F
100
AcDbEntity
  8
0
100
AcDbBlockBegin
  2
*Model_Space
 70
     0
 10
0.0
 20
0.0
 30
0.0
  3
*Model_Space
  1

  0
ENDBLK
  5
21
330
1F
100
AcDbEntity
  8
0
100
AcDbBlockEnd
  0
BLOCK
  5
1C
330
1B
100
AcDbEntity
 67
     1
  8
0
100
AcDbBlockBegin
  2
*Paper_Space
 70
     0
 10
0.0
 20
0.0
 30
0.0
  3
*Paper_Space
  1

  0
ENDBLK
  5
1D
330
1B
100
AcDbEntity
 67
     1
  8
0
100
AcDbBlockEnd
  0
BLOCK
  5
24
330
23
100
AcDbEntity
  8
0
100
AcDbBlockBegin
  2
*Paper_Space0
 70
     0
 10
0.0
 20
0.0
 30
0.0
  3
*Paper_Space0
  1

  0
ENDBLK
  5
25
330
23
100
AcDbEntity
  8
0
100
AcDbBlockEnd
  0
BLOCK
  5
66
330
64
100
AcDbEntity
  8
0
100
AcDbBlockBegin
  2
block 2
 70
     0
 10
0.0
 20
0.0
 30
0.0
  3
block 2
  1

  0
SPLINE
  5
68
330
64
100
AcDbEntity
  8
_U+30EC_U+30A4_U+30E4_U+30FC 1
370
     0
100
AcDbSpline
210
0.0
220
0.0
230
1.0
 70
    11
 71
     3
 72
    29
 73
    25
 74
     0
 42
0.0000000001
 43
0.0000000001
 12
1.0
 22
0.0
 32
0.0
 13
1.0
 23
0.0
 33
0.0
 40
0.0
 40
0.0
 40
0.0
 40
0.0
 40
1.0
 40
1.0
 40
1.0
 40
2.0
 40
2.0
 40
2.0
 40
3.0
 40
3.0
 40
3.0
 40
4.0
 40
4.0
 40
4.0
 40
5.0
 40
5.0
 40
5.0
 40
6.0
 40
6.0
 40
6.0
 40
7.0
 40
7.0
 40
7.0
 40
8.0
 40
8.0
 40
8.0
 40
8.0
 10
88.30778806386056
 20
-119.3804822835229
 30
0.0
 10
88.04113767330222
 20
-119.3804822835229
 30
0.0
 10
87.7872341360393
 20
-119.2430229736615
 30
0.0
 10
87.7872341360393
 20
-118.8940348010057
 30
0.0
 10
87.7872341360393
 20
-118.6380642064516
 30
0.0
 10
87.9291720700316
 20
-118.5429795710587
 30
0.0
 10
88.03493650142877
 20
-118.4816568714213
 30
0.0
 10
87.91022404486273
 20
-118.422401229075
 30
0.0
 10
87.8340874346387
 20
-118.3080240589647
 30
0.0
 10
87.8340874346387
 20
-118.1471380998035
 30
0.0
 10
87.8340874346387
 20
-117.8722194800806
 30
0.0
 10
88.03286944413762
 20
-117.7368272275102
 30
0.0
 10
88.30778806386056
 20
-117.7368272275102
 30
0.0
 10
88.59131942229662
 20
-117.7368272275102
 30
0.0
 10
88.78183320263093
 20
-117.8808322187937
 30
0.0
 10
88.78183320263093
 20
-118.1471380998035
 30
0.0
 10
88.78183320263093
 20
-118.3080240589647
 30
0.0
 10
88.70328502556724
 20
-118.422401229075
 30
0.0
 10
88.5785725690012
 20
-118.4816568714213
 30
0.0
 10
88.66745603252065
 20
-118.5322997750544
 30
0.0
 10
88.82627493439065
 20
-118.6273844104473
 30
0.0
 10
88.82627493439065
 20
-118.8899006864234
 30
0.0
 10
88.82627493439065
 20
-119.26438256567
 30
0.0
 10
88.5468776905369
 20
-119.3804822835229
 30
0.0
 10
88.30778806386056
 20
-119.3804822835229
 30
0.0
  0
SPLINE
  5
69
330
64
100
AcDbEntity
  8
_U+30EC_U+30A4_U+30E4_U+30FC 1
370
     0
100
AcDbSpline
210
0.0
220
0.0
230
1.0
 70
    11
 71
     3
 72
    17
 73
    13
 74
     0
 42
0.0000000001
 43
0.0000000001
 12
1.0
 22
0.0
 32
0.0
 13
1.0
 23
0.0
 33
0.0
 40
0.0
 40
0.0
 40
0.0
 40
0.0
 40
1.0
 40
1.0
 40
1.0
 40
2.0
 40
2.0
 40
2.0
 40
3.0
 40
3.0
 40
3.0
 40
4.0
 40
4.0
 40
4.0
 40
4.0
 10
88.30778806386056
 20
-118.5894883601096
 30
0.0
 10
88.16412758212564
 20
-118.5894883601096
 30
0.0
 10
88.01150985212907
 20
-118.6763047663379
 30
0.0
 10
88.01150985212907
 20
-118.8792208904191
 30
0.0
 10
88.01150985212907
 20
-119.08454858134
 30
0.0
 10
88.1386338755348
 20
-119.1858343886063
 30
0.0
 10
88.30778806386056
 20
-119.1858343886063
 30
0.0
 10
88.49382322006404
 20
-119.1858343886063
 30
0.0
 10
88.60406627559205
 20
-119.0631889893314
 30
0.0
 10
88.60406627559205
 20
-118.8854220622925
 30
0.0
 10
88.60406627559205
 20
-118.6635579130425
 30
0.0
 10
88.44111325913973
 20
-118.5894883601096
 30
0.0
 10
88.30778806386056
 20
-118.5894883601096
 30
0.0
  0
SPLINE
  5
6A
330
64
100
AcDbEntity
  8
_U+30EC_U+30A4_U+30E4_U+30FC 1
370
     0
100
AcDbSpline
210
0.0
220
0.0
230
1.0
 70
    11
 71
     3
 72
    17
 73
    13
 74
     0
 42
0.0000000001
 43
0.0000000001
 12
1.0
 22
0.0
 32
0.0
 13
1.0
 23
0.0
 33
0.0
 40
0.0
 40
0.0
 40
0.0
 40
0.0
 40
1.0
 40
1.0
 40
1.0
 40
2.0
 40
2.0
 40
2.0
 40
3.0
 40
3.0
 40
3.0
 40
4.0
 40
4.0
 40
4.0
 40
4.0
 10
88.30778806386056
 20
-117.9294080651357
 30
0.0
 10
88.1427679901171
 20
-117.9294080651357
 30
0.0
 10
88.05801864117994
 20
-118.0244927005286
 30
0.0
 10
88.05801864117994
 20
-118.1598849530989
 30
0.0
 10
88.05801864117994
 20
-118.2825303523738
 30
0.0
 10
88.13002113682167
 20
-118.4010416370664
 30
0.0
 10
88.30778806386056
 20
-118.4010416370664
 30
0.0
 10
88.48555499089944
 20
-118.4010416370664
 30
0.0
 10
88.55755748654117
 20
-118.2825303523738
 30
0.0
 10
88.55755748654117
 20
-118.1598849530989
 30
0.0
 10
88.55755748654117
 20
-118.0244927005286
 30
0.0
 10
88.47074108031288
 20
-117.9294080651357
 30
0.0
 10
88.30778806386056
 20
-117.9294080651357
 30
0.0
  0
HATCH
  5
6B
330
64
100
AcDbEntity
  8
_U+30EC_U+30A4_U+30E4_U+30FC 1
 62
     7
420
 16777215
100
AcDbHatch
 10
0.0
 20
0.0
 30
0.0
210
0.0
220
0.0
230
1.0
  2
SOLID
 70
     1
 71
     0
 91
        3
 92
        1
 93
        1
 72
     4
 94
        3
 73
     0
 74
     1
 95
       29
 96
       25
 40
0.0
 40
0.0
 40
0.0
 40
0.0
 40
1.0
 40
1.0
 40
1.0
 40
2.0
 40
2.0
 40
2.0
 40
3.0
 40
3.0
 40
3.0
 40
4.0
 40
4.0
 40
4.0
 40
5.0
 40
5.0
 40
5.0
 40
6.0
 40
6.0
 40
6.0
 40
7.0
 40
7.0
 40
7.0
 40
8.0
 40
8.0
 40
8.0
 40
8.0
 10
88.30778806386056
 20
-119.3804822835229
 10
88.04113767330222
 20
-119.3804822835229
 10
87.7872341360393
 20
-119.2430229736615
 10
87.7872341360393
 20
-118.8940348010057
 10
87.7872341360393
 20
-118.6380642064516
 10
87.9291720700316
 20
-118.5429795710587
 10
88.03493650142877
 20
-118.4816568714213
 10
87.91022404486273
 20
-118.422401229075
 10
87.8340874346387
 20
-118.3080240589647
 10
87.8340874346387
 20
-118.1471380998035
 10
87.8340874346387
 20
-117.8722194800806
 10
88.03286944413762
 20
-117.7368272275102
 10
88.30778806386056
 20
-117.7368272275102
 10
88.59131942229662
 20
-117.7368272275102
 10
88.78183320263093
 20
-117.8808322187937
 10
88.78183320263093
 20
-118.1471380998035
 10
88.78183320263093
 20
-118.3080240589647
 10
88.70328502556724
 20
-118.422401229075
 10
88.5785725690012
 20
-118.4816568714213
 10
88.66745603252065
 20
-118.5322997750544
 10
88.82627493439065
 20
-118.6273844104473
 10
88.82627493439065
 20
-118.8899006864234
 10
88.82627493439065
 20
-119.26438256567
 10
88.5468776905369
 20
-119.3804822835229
 10
88.30778806386056
 20
-119.3804822835229
 97
        0
 97
        0
 92
        1
 93
        1
 72
     4
 94
        3
 73
     0
 74
     1
 95
       17
 96
       13
 40
0.0
 40
0.0
 40
0.0
 40
0.0
 40
1.0
 40
1.0
 40
1.0
 40
2.0
 40
2.0
 40
2.0
 40
3.0
 40
3.0
 40
3.0
 40
4.0
 40
4.0
 40
4.0
 40
4.0
 10
88.30778806386056
 20
-118.5894883601096
 10
88.16412758212564
 20
-118.5894883601096
 10
88.01150985212907
 20
-118.6763047663379
 10
88.01150985212907
 20
-118.8792208904191
 10
88.01150985212907
 20
-119.08454858134
 10
88.1386338755348
 20
-119.1858343886063
 10
88.30778806386056
 20
-119.1858343886063
 10
88.49382322006404
 20
-119.1858343886063
 10
88.60406627559205
 20
-119.0631889893314
 10
88.60406627559205
 20
-118.8854220622925
 10
88.60406627559205
 20
-118.6635579130425
 10
88.44111325913973
 20
-118.5894883601096
 10
88.30778806386056
 20
-118.5894883601096
 97
        0
 97
        0
 92
        1
 93
        1
 72
     4
 94
        3
 73
     0
 74
     1
 95
       17
 96
       13
 40
0.0
 40
0.0
 40
0.0
 40
0.0
 40
1.0
 40
1.0
 40
1.0
 40
2.0
 40
2.0
 40
2.0
 40
3.0
 40
3.0
 40
3.0
 40
4.0
 40
4.0
 40
4.0
 40
4.0
 10
88.30778806386056
 20
-117.9294080651357
 10
88.1427679901171
 20
-117.9294080651357
 10
88.05801864117994
 20
-118.0244927005286
 10
88.05801864117994
 20
-118.1598849530989
 10
88.05801864117994
 20
-118.2825303523738
 10
88.13002113682167
 20
-118.4010416370664
 10
88.30778806386056
 20
-118.4010416370664
 10
88.48555499089944
 20
-118.4010416370664
 10
88.55755748654117
 20
-118.2825303523738
 10
88.55755748654117
 20
-118.1598849530989
 10
88.55755748654117
 20
-118.0244927005286
 10
88.47074108031288
 20
-117.9294080651357
 10
88.30778806386056
 20
-117.9294080651357
 97
        0
 97
        0
 75
     2
 76
     1
 98
        0
  0
ENDBLK
  5
67
330
64
100
AcDbEntity
  8
0
100
AcDbBlockEnd
  0
BLOCK
  5
6E
330
6C
100
AcDbEntity
  8
0
100
AcDbBlockBegin
  2
block 3
 70
     0
 10
0.0
 20
0.0
 30
0.0
  3
block 3
  1

  0
SPLINE
  5
70
330
6C
100
AcDbEntity
  8
_U+30EC_U+30A4_U+30E4_U+30FC 1
370
     0
100
AcDbSpline
210
0.0
220
0.0
230
1.0
 70
    11
 71
     3
 72
    26
 73
    22
 74
     0
 42
0.0000000001
 43
0.0000000001
 12
1.0
 22
0.0
 32
0.0
 13
1.0
 23
0.0
 33
0.0
 40
0.0
 40
0.0
 40
0.0
 40
0.0
 40
1.0
 40
1.0
 40
1.0
 40
2.0
 40
2.0
 40
2.0
 40
3.0
 40
3.0
 40
3.0
 40
4.0
 40
4.0
 40
4.0
 40
5.0
 40
5.0
 40
5.0
 40
6.0
 40
6.0
 40
6.0
 40
7.0
 40
7.0
 40
7.0
 40
7.0
 10
78.67099471774544
 20
-119.3298393798898
 30
0.0
 10
78.67099471774544
 20
-119.3298393798898
 30
0.0
 10
78.67099471774544
 20
-118.2256862768672
 30
0.0
 10
78.67099471774544
 20
-118.2256862768672
 30
0.0
 10
78.67099471774544
 20
-118.2256862768672
 30
0.0
 10
78.34095457025852
 20
-118.2256862768672
 30
0.0
 10
78.34095457025852
 20
-118.2256862768672
 30
0.0
 10
78.34095457025852
 20
-118.2256862768672
 30
0.0
 10
78.34095457025852
 20
-118.0775471710015
 30
0.0
 10
78.34095457025852
 20
-118.0775471710015
 30
0.0
 10
78.6730617750366
 20
-118.0627332604149
 30
0.0
 10
78.71957056408748
 20
-117.8997802439626
 30
0.0
 10
78.74919838526063
 20
-117.7854030738523
 30
0.0
 10
78.74919838526063
 20
-117.7854030738523
 30
0.0
 10
78.89527043383521
 20
-117.7854030738523
 30
0.0
 10
78.89527043383521
 20
-117.7854030738523
 30
0.0
 10
78.89527043383521
 20
-117.7854030738523
 30
0.0
 10
78.89527043383521
 20
-119.3298393798898
 30
0.0
 10
78.89527043383521
 20
-119.3298393798898
 30
0.0
 10
78.89527043383521
 20
-119.3298393798898
 30
0.0
 10
78.67099471774544
 20
-119.3298393798898
 30
0.0
 10
78.67099471774544
 20
-119.3298393798898
 30
0.0
  0
HATCH
  5
71
330
6C
100
AcDbEntity
  8
_U+30EC_U+30A4_U+30E4_U+30FC 1
 62
     7
420
 16777215
100
AcDbHatch
 10
0.0
 20
0.0
 30
0.0
210
0.0
220
0.0
230
1.0
  2
SOLID
 70
     1
 71
     0
 91
        1
 92
        1
 93
        1
 72
     4
 94
        3
 73
     0
 74
     1
 95
       26
 96
       22
 40
0.0
 40
0.0
 40
0.0
 40
0.0
 40
1.0
 40
1.0
 40
1.0
 40
2.0
 40
2.0
 40
2.0
 40
3.0
 40
3.0
 40
3.0
 40
4.0
 40
4.0
 40
4.0
 40
5.0
 40
5.0
 40
5.0
 40
6.0
 40
6.0
 40
6.0
 40
7.0
 40
7.0
 40
7.0
 40
7.0
 10
78.67099471774544
 20
-119.3298393798898
 10
78.67099471774544
 20
-119.3298393798898
 10
78.67099471774544
 20
-118.2256862768672
 10
78.67099471774544
 20
-118.2256862768672
 10
78.67099471774544
 20
-118.2256862768672
 10
78.34095457025852
 20
-118.2256862768672
 10
78.34095457025852
 20
-118.2256862768672
 10
78.34095457025852
 20
-118.2256862768672
 10
78.34095457025852
 20
-118.0775471710015
 10
78.34095457025852
 20
-118.0775471710015
 10
78.6730617750366
 20
-118.0627332604149
 10
78.71957056408748
 20
-117.8997802439626
 10
78.74919838526063
 20
-117.7854030738523
 10
78.74919838526063
 20
-117.7854030738523
 10
78.89527043383521
 20
-117.7854030738523
 10
78.89527043383521
 20
-117.7854030738523
 10
78.89527043383521
 20
-117.7854030738523
 10
78.89527043383521
 20
-119.3298393798898
 10
78.89527043383521
 20
-119.3298393798898
 10
78.89527043383521
 20
-119.3298393798898
 10
78.67099471774544
 20
-119.3298393798898
 10
78.67099471774544
 20
-119.3298393798898
 97
        0
 97
        0
 75
     2
 76
     1
 98
        0
  0
SPLINE
  5
72
330
6C
100
AcDbEntity
  8
_U+30EC_U+30A4_U+30E4_U+30FC 1
370
     0
100
AcDbSpline
210
0.0
220
0.0
230
1.0
 70
    11
 71
     3
 72
    29
 73
    25
 74
     0
 42
0.0000000001
 43
0.0000000001
 12
1.0
 22
0.0
 32
0.0
 13
1.0
 23
0.0
 33
0.0
 40
0.0
 40
0.0
 40
0.0
 40
0.0
 40
1.0
 40
1.0
 40
1.0
 40
2.0
 40
2.0
 40
2.0
 40
3.0
 40
3.0
 40
3.0
 40
4.0
 40
4.0
 40
4.0
 40
5.0
 40
5.0
 40
5.0
 40
6.0
 40
6.0
 40
6.0
 40
7.0
 40
7.0
 40
7.0
 40
8.0
 40
8.0
 40
8.0
 40
8.0
 10
80.29432371039518
 20
-119.1520724528509
 30
0.0
 10
80.18614771215833
 20
-119.3615342583541
 30
0.0
 10
80.01285940925027
 20
-119.3804822835229
 30
0.0
 10
79.89641518184882
 20
-119.3804822835229
 30
0.0
 10
79.73552922268765
 20
-119.3804822835229
 30
0.0
 10
79.59393579824388
 20
-119.3339734944721
 30
0.0
 10
79.49885116285098
 20
-119.1520724528509
 30
0.0
 10
79.39515378874496
 20
-118.9574245579343
 30
0.0
 10
79.37586125402757
 20
-118.7204019885491
 30
0.0
 10
79.37586125402757
 20
-118.5577934816453
 30
0.0
 10
79.37586125402757
 20
-118.4137884903618
 30
0.0
 10
79.39308673145382
 20
-118.1619520103901
 30
0.0
 10
79.49885116285098
 20
-117.9631700008912
 30
0.0
 10
79.6066826515393
 20
-117.7602538768099
 30
0.0
 10
79.76756861070048
 20
-117.7368272275102
 30
0.0
 10
79.89641518184882
 20
-117.7368272275102
 30
0.0
 10
80.05523408371883
 20
-117.7368272275102
 30
0.0
 10
80.19889456545376
 20
-117.78126895927
 30
0.0
 10
80.29432371039518
 20
-117.9631700008912
 30
0.0
 10
80.39354246037037
 20
-118.1557508385166
 30
0.0
 10
80.41696910967006
 20
-118.3841606691887
 30
0.0
 10
80.41696910967006
 20
-118.5577934816453
 30
0.0
 10
80.41696910967006
 20
-118.7290147272622
 30
0.0
 10
80.39560951766151
 20
-118.9594916152254
 30
0.0
 10
80.29432371039518
 20
-119.1520724528509
 30
0.0
  0
SPLINE
  5
73
330
6C
100
AcDbEntity
  8
_U+30EC_U+30A4_U+30E4_U+30FC 1
370
     0
100
AcDbSpline
210
0.0
220
0.0
230
1.0
 70
    11
 71
     3
 72
    17
 73
    13
 74
     0
 42
0.0000000001
 43
0.0000000001
 12
1.0
 22
0.0
 32
0.0
 13
1.0
 23
0.0
 33
0.0
 40
0.0
 40
0.0
 40
0.0
 40
0.0
 40
1.0
 40
1.0
 40
1.0
 40
2.0
 40
2.0
 40
2.0
 40
3.0
 40
3.0
 40
3.0
 40
4.0
 40
4.0
 40
4.0
 40
4.0
 10
79.89641518184882
 20
-117.9294080651357
 30
0.0
 10
79.64664575916821
 20
-117.9294080651357
 30
0.0
 10
79.60013697011733
 20
-118.2129394235718
 30
0.0
 10
79.60013697011733
 20
-118.5577934816453
 30
0.0
 10
79.60013697011733
 20
-118.8771538331279
 30
0.0
 10
79.63631047271245
 20
-119.1858343886063
 30
0.0
 10
79.89641518184882
 20
-119.1858343886063
 30
0.0
 10
80.14411754723828
 20
-119.1858343886063
 30
0.0
 10
80.1926933935803
 20
-118.9047145970099
 30
0.0
 10
80.1926933935803
 20
-118.5577934816453
 30
0.0
 10
80.1926933935803
 20
-118.2380886206141
 30
0.0
 10
80.15445283369402
 20
-117.9294080651357
 30
0.0
 10
79.89641518184882
 20
-117.9294080651357
 30
0.0
  0
HATCH
  5
74
330
6C
100
AcDbEntity
  8
_U+30EC_U+30A4_U+30E4_U+30FC 1
 62
     7
420
 16777215
100
AcDbHatch
 10
0.0
 20
0.0
 30
0.0
210
0.0
220
0.0
230
1.0
  2
SOLID
 70
     1
 71
     0
 91
        2
 92
        1
 93
        1
 72
     4
 94
        3
 73
     0
 74
     1
 95
       29
 96
       25
 40
0.0
 40
0.0
 40
0.0
 40
0.0
 40
1.0
 40
1.0
 40
1.0
 40
2.0
 40
2.0
 40
2.0
 40
3.0
 40
3.0
 40
3.0
 40
4.0
 40
4.0
 40
4.0
 40
5.0
 40
5.0
 40
5.0
 40
6.0
 40
6.0
 40
6.0
 40
7.0
 40
7.0
 40
7.0
 40
8.0
 40
8.0
 40
8.0
 40
8.0
 10
80.29432371039518
 20
-119.1520724528509
 10
80.18614771215833
 20
-119.3615342583541
 10
80.01285940925027
 20
-119.3804822835229
 10
79.89641518184882
 20
-119.3804822835229
 10
79.73552922268765
 20
-119.3804822835229
 10
79.59393579824388
 20
-119.3339734944721
 10
79.49885116285098
 20
-119.1520724528509
 10
79.39515378874496
 20
-118.9574245579343
 10
79.37586125402757
 20
-118.7204019885491
 10
79.37586125402757
 20
-118.5577934816453
 10
79.37586125402757
 20
-118.4137884903618
 10
79.39308673145382
 20
-118.1619520103901
 10
79.49885116285098
 20
-117.9631700008912
 10
79.6066826515393
 20
-117.7602538768099
 10
79.76756861070048
 20
-117.7368272275102
 10
79.89641518184882
 20
-117.7368272275102
 10
80.05523408371883
 20
-117.7368272275102
 10
80.19889456545376
 20
-117.78126895927
 10
80.29432371039518
 20
-117.9631700008912
 10
80.39354246037037
 20
-118.1557508385166
 10
80.41696910967006
 20
-118.3841606691887
 10
80.41696910967006
 20
-118.5577934816453
 10
80.41696910967006
 20
-118.7290147272622
 10
80.39560951766151
 20
-118.9594916152254
 10
80.29432371039518
 20
-119.1520724528509
 97
        0
 97
        0
 92
        1
 93
        1
 72
     4
 94
        3
 73
     0
 74
     1
 95
       17
 96
       13
 40
0.0
 40
0.0
 40
0.0
 40
0.0
 40
1.0
 40
1.0
 40
1.0
 40
2.0
 40
2.0
 40
2.0
 40
3.0
 40
3.0
 40
3.0
 40
4.0
 40
4.0
 40
4.0
 40
4.0
 10
79.89641518184882
 20
-117.9294080651357
 10
79.64664575916821
 20
-117.9294080651357
 10
79.60013697011733
 20
-118.2129394235718
 10
79.60013697011733
 20
-118.5577934816453
 10
79.60013697011733
 20
-118.8771538331279
 10
79.63631047271245
 20
-119.1858343886063
 10
79.89641518184882
 20
-119.1858343886063
 10
80.14411754723828
 20
-119.1858343886063
 10
80.1926933935803
 20
-118.9047145970099
 10
80.1926933935803
 20
-118.5577934816453
 10
80.1926933935803
 20
-118.2380886206141
 10
80.15445283369402
 20
-117.9294080651357
 10
79.89641518184882
 20
-117.9294080651357
 97
        0
 97
        0
 75
     2
 76
     1
 98
        0
  0
ENDBLK
  5
6F
330
6C
100
AcDbEntity
  8
0
100
AcDbBlockEnd
  0
BLOCK
  5
77
330
75
100
AcDbEntity
  8
0
100
AcDbBlockBegin
  2
block 4
 70
     0
 10
0.0
 20
0.0
 30
0.0
  3
block 4
  1

  0
SPLINE
  5
79
330
75
100
AcDbEntity
  8
_U+30EC_U+30A4_U+30E4_U+30FC 1
370
     0
100
AcDbSpline
210
0.0
220
0.0
230
1.0
 70
    11
 71
     3
 72
    26
 73
    22
 74
     0
 42
0.0000000001
 43
0.0000000001
 12
1.0
 22
0.0
 32
0.0
 13
1.0
 23
0.0
 33
0.0
 40
0.0
 40
0.0
 40
0.0
 40
0.0
 40
1.0
 40
1.0
 40
1.0
 40
2.0
 40
2.0
 40
2.0
 40
3.0
 40
3.0
 40
3.0
 40
4.0
 40
4.0
 40
4.0
 40
5.0
 40
5.0
 40
5.0
 40
6.0
 40
6.0
 40
6.0
 40
7.0
 40
7.0
 40
7.0
 40
7.0
 10
96.67075735430454
 20
-119.3298393798898
 30
0.0
 10
96.67075735430454
 20
-119.3298393798898
 30
0.0
 10
96.67075735430454
 20
-118.2256862768672
 30
0.0
 10
96.67075735430454
 20
-118.2256862768672
 30
0.0
 10
96.67075735430454
 20
-118.2256862768672
 30
0.0
 10
96.3407172068176
 20
-118.2256862768672
 30
0.0
 10
96.3407172068176
 20
-118.2256862768672
 30
0.0
 10
96.3407172068176
 20
-118.2256862768672
 30
0.0
 10
96.3407172068176
 20
-118.0775471710015
 30
0.0
 10
96.3407172068176
 20
-118.0775471710015
 30
0.0
 10
96.67282441159568
 20
-118.0627332604149
 30
0.0
 10
96.71933320064656
 20
-117.8997802439626
 30
0.0
 10
96.74896102181971
 20
-117.7854030738523
 30
0.0
 10
96.74896102181971
 20
-117.7854030738523
 30
0.0
 10
96.8950330703943
 20
-117.7854030738523
 30
0.0
 10
96.8950330703943
 20
-117.7854030738523
 30
0.0
 10
96.8950330703943
 20
-117.7854030738523
 30
0.0
 10
96.8950330703943
 20
-119.3298393798898
 30
0.0
 10
96.8950330703943
 20
-119.3298393798898
 30
0.0
 10
96.8950330703943
 20
-119.3298393798898
 30
0.0
 10
96.67075735430454
 20
-119.3298393798898
 30
0.0
 10
96.67075735430454
 20
-119.3298393798898
 30
0.0
  0
HATCH
  5
7A
330
75
100
AcDbEntity
  8
_U+30EC_U+30A4_U+30E4_U+30FC 1
 62
     7
420
 16777215
100
AcDbHatch
 10
0.0
 20
0.0
 30
0.0
210
0.0
220
0.0
230
1.0
  2
SOLID
 70
     1
 71
     0
 91
        1
 92
        1
 93
        1
 72
     4
 94
        3
 73
     0
 74
     1
 95
       26
 96
       22
 40
0.0
 40
0.0
 40
0.0
 40
0.0
 40
1.0
 40
1.0
 40
1.0
 40
2.0
 40
2.0
 40
2.0
 40
3.0
 40
3.0
 40
3.0
 40
4.0
 40
4.0
 40
4.0
 40
5.0
 40
5.0
 40
5.0
 40
6.0
 40
6.0
 40
6.0
 40
7.0
 40
7.0
 40
7.0
 40
7.0
 10
96.67075735430454
 20
-119.3298393798898
 10
96.67075735430454
 20
-119.3298393798898
 10
96.67075735430454
 20
-118.2256862768672
 10
96.67075735430454
 20
-118.2256862768672
 10
96.67075735430454
 20
-118.2256862768672
 10
96.3407172068176
 20
-118.2256862768672
 10
96.3407172068176
 20
-118.2256862768672
 10
96.3407172068176
 20
-118.2256862768672
 10
96.3407172068176
 20
-118.0775471710015
 10
96.3407172068176
 20
-118.0775471710015
 10
96.67282441159568
 20
-118.0627332604149
 10
96.71933320064656
 20
-117.8997802439626
 10
96.74896102181971
 20
-117.7854030738523
 10
96.74896102181971
 20
-117.7854030738523
 10
96.8950330703943
 20
-117.7854030738523
 10
96.8950330703943
 20
-117.7854030738523
 10
96.8950330703943
 20
-117.7854030738523
 10
96.8950330703943
 20
-119.3298393798898
 10
96.8950330703943
 20
-119.3298393798898
 10
96.8950330703943
 20
-119.3298393798898
 10
96.67075735430454
 20
-119.3298393798898
 10
96.67075735430454
 20
-119.3298393798898
 97
        0
 97
        0
 75
     2
 76
     1
 98
        0
  0
SPLINE
  5
7B
330
75
100
AcDbEntity
  8
_U+30EC_U+30A4_U+30E4_U+30FC 1
370
     0
100
AcDbSpline
210
0.0
220
0.0
230
1.0
 70
    11
 71
     3
 72
    29
 73
    25
 74
     0
 42
0.0000000001
 43
0.0000000001
 12
1.0
 22
0.0
 32
0.0
 13
1.0
 23
0.0
 33
0.0
 40
0.0
 40
0.0
 40
0.0
 40
0.0
 40
1.0
 40
1.0
 40
1.0
 40
2.0
 40
2.0
 40
2.0
 40
3.0
 40
3.0
 40
3.0
 40
4.0
 40
4.0
 40
4.0
 40
5.0
 40
5.0
 40
5.0
 40
6.0
 40
6.0
 40
6.0
 40
7.0
 40
7.0
 40
7.0
 40
8.0
 40
8.0
 40
8.0
 40
8.0
 10
98.29408634695426
 20
-119.1520724528509
 30
0.0
 10
98.18591034871741
 20
-119.3615342583541
 30
0.0
 10
98.01262204580935
 20
-119.3804822835229
 30
0.0
 10
97.8961778184079
 20
-119.3804822835229
 30
0.0
 10
97.73529185924674
 20
-119.3804822835229
 30
0.0
 10
97.59369843480297
 20
-119.3339734944721
 30
0.0
 10
97.49861379941008
 20
-119.1520724528509
 30
0.0
 10
97.39491642530405
 20
-118.9574245579343
 30
0.0
 10
97.37562389058665
 20
-118.7204019885491
 30
0.0
 10
97.37562389058665
 20
-118.5577934816453
 30
0.0
 10
97.37562389058665
 20
-118.4137884903618
 30
0.0
 10
97.3928493680129
 20
-118.1619520103901
 30
0.0
 10
97.49861379941008
 20
-117.9631700008912
 30
0.0
 10
97.6064452880984
 20
-117.7602538768099
 30
0.0
 10
97.76733124725956
 20
-117.7368272275102
 30
0.0
 10
97.8961778184079
 20
-117.7368272275102
 30
0.0
 10
98.05499672027793
 20
-117.7368272275102
 30
0.0
 10
98.19865720201284
 20
-117.78126895927
 30
0.0
 10
98.29408634695426
 20
-117.9631700008912
 30
0.0
 10
98.39330509692945
 20
-118.1557508385166
 30
0.0
 10
98.41673174622916
 20
-118.3841606691887
 30
0.0
 10
98.41673174622916
 20
-118.5577934816453
 30
0.0
 10
98.41673174622916
 20
-118.7290147272622
 30
0.0
 10
98.39537215422061
 20
-118.9594916152254
 30
0.0
 10
98.29408634695426
 20
-119.1520724528509
 30
0.0
  0
SPLINE
  5
7C
330
75
100
AcDbEntity
  8
_U+30EC_U+30A4_U+30E4_U+30FC 1
370
     0
100
AcDbSpline
210
0.0
220
0.0
230
1.0
 70
    11
 71
     3
 72
    17
 73
    13
 74
     0
 42
0.0000000001
 43
0.0000000001
 12
1.0
 22
0.0
 32
0.0
 13
1.0
 23
0.0
 33
0.0
 40
0.0
 40
0.0
 40
0.0
 40
0.0
 40
1.0
 40
1.0
 40
1.0
 40
2.0
 40
2.0
 40
2.0
 40
3.0
 40
3.0
 40
3.0
 40
4.0
 40
4.0
 40
4.0
 40
4.0
 10
97.8961778184079
 20
-117.9294080651357
 30
0.0
 10
97.64640839572729
 20
-117.9294080651357
 30
0.0
 10
97.59989960667642
 20
-118.2129394235718
 30
0.0
 10
97.59989960667642
 20
-118.5577934816453
 30
0.0
 10
97.59989960667642
 20
-118.8771538331279
 30
0.0
 10
97.63607310927154
 20
-119.1858343886063
 30
0.0
 10
97.8961778184079
 20
-119.1858343886063
 30
0.0
 10
98.14388018379736
 20
-119.1858343886063
 30
0.0
 10
98.1924560301394
 20
-118.9047145970099
 30
0.0
 10
98.1924560301394
 20
-118.5577934816453
 30
0.0
 10
98.1924560301394
 20
-118.2380886206141
 30
0.0
 10
98.15421547025312
 20
-117.9294080651357
 30
0.0
 10
97.8961778184079
 20
-117.9294080651357
 30
0.0
  0
HATCH
  5
7D
330
75
100
AcDbEntity
  8
_U+30EC_U+30A4_U+30E4_U+30FC 1
 62
     7
420
 16777215
100
AcDbHatch
 10
0.0
 20
0.0
 30
0.0
210
0.0
220
0.0
230
1.0
  2
SOLID
 70
     1
 71
     0
 91
        2
 92
        1
 93
        1
 72
     4
 94
        3
 73
     0
 74
     1
 95
       29
 96
       25
 40
0.0
 40
0.0
 40
0.0
 40
0.0
 40
1.0
 40
1.0
 40
1.0
 40
2.0
 40
2.0
 40
2.0
 40
3.0
 40
3.0
 40
3.0
 40
4.0
 40
4.0
 40
4.0
 40
5.0
 40
5.0
 40
5.0
 40
6.0
 40
6.0
 40
6.0
 40
7.0
 40
7.0
 40
7.0
 40
8.0
 40
8.0
 40
8.0
 40
8.0
 10
98.29408634695426
 20
-119.1520724528509
 10
98.18591034871741
 20
-119.3615342583541
 10
98.01262204580935
 20
-119.3804822835229
 10
97.8961778184079
 20
-119.3804822835229
 10
97.73529185924674
 20
-119.3804822835229
 10
97.59369843480297
 20
-119.3339734944721
 10
97.49861379941008
 20
-119.1520724528509
 10
97.39491642530405
 20
-118.9574245579343
 10
97.37562389058665
 20
-118.7204019885491
 10
97.37562389058665
 20
-118.5577934816453
 10
97.37562389058665
 20
-118.4137884903618
 10
97.3928493680129
 20
-118.1619520103901
 10
97.49861379941008
 20
-117.9631700008912
 10
97.6064452880984
 20
-117.7602538768099
 10
97.76733124725956
 20
-117.7368272275102
 10
97.8961778184079
 20
-117.7368272275102
 10
98.05499672027793
 20
-117.7368272275102
 10
98.19865720201284
 20
-117.78126895927
 10
98.29408634695426
 20
-117.9631700008912
 10
98.39330509692945
 20
-118.1557508385166
 10
98.41673174622916
 20
-118.3841606691887
 10
98.41673174622916
 20
-118.5577934816453
 10
98.41673174622916
 20
-118.7290147272622
 10
98.39537215422061
 20
-118.9594916152254
 10
98.29408634695426
 20
-119.1520724528509
 97
        0
 97
        0
 92
        1
 93
        1
 72
     4
 94
        3
 73
     0
 74
     1
 95
       17
 96
       13
 40
0.0
 40
0.0
 40
0.0
 40
0.0
 40
1.0
 40
1.0
 40
1.0
 40
2.0
 40
2.0
 40
2.0
 40
3.0
 40
3.0
 40
3.0
 40
4.0
 40
4.0
 40
4.0
 40
4.0
 10
97.8961778184079
 20
-117.9294080651357
 10
97.64640839572729
 20
-117.9294080651357
 10
97.59989960667642
 20
-118.2129394235718
 10
97.59989960667642
 20
-118.5577934816453
 10
97.59989960667642
 20
-118.8771538331279
 10
97.63607310927154
 20
-119.1858343886063
 10
97.8961778184079
 20
-119.1858343886063
 10
98.14388018379736
 20
-119.1858343886063
 10
98.1924560301394
 20
-118.9047145970099
 10
98.1924560301394
 20
-118.5577934816453
 10
98.1924560301394
 20
-118.2380886206141
 10
98.15421547025312
 20
-117.9294080651357
 10
97.8961778184079
 20
-117.9294080651357
 97
        0
 97
        0
 75
     2
 76
     1
 98
        0
  0
ENDBLK
  5
78
330
75
100
AcDbEntity
  8
0
100
AcDbBlockEnd
  0
BLOCK
  5
94
330
92
100
AcDbEntity
  8
0
100
AcDbBlockBegin
  2
block 5
 70
     0
 10
0.0
 20
0.0
 30
0.0
  3
block 5
  1

  0
SPLINE
  5
96
330
92
100
AcDbEntity
  8
_U+30EC_U+30A4_U+30E4_U+30FC 1
370
     0
100
AcDbSpline
210
0.0
220
0.0
230
1.0
 70
    11
 71
     3
 72
    26
 73
    22
 74
     0
 42
0.0000000001
 43
0.0000000001
 12
1.0
 22
0.0
 32
0.0
 13
1.0
 23
0.0
 33
0.0
 40
0.0
 40
0.0
 40
0.0
 40
0.0
 40
1.0
 40
1.0
 40
1.0
 40
2.0
 40
2.0
 40
2.0
 40
3.0
 40
3.0
 40
3.0
 40
4.0
 40
4.0
 40
4.0
 40
5.0
 40
5.0
 40
5.0
 40
6.0
 40
6.0
 40
6.0
 40
7.0
 40
7.0
 40
7.0
 40
7.0
 10
106.0055880811375
 20
-133.0085910040742
 30
0.0
 10
106.0055880811375
 20
-133.0085910040742
 30
0.0
 10
104.9010904685664
 20
-133.0085910040742
 30
0.0
 10
104.9010904685664
 20
-133.0085910040742
 30
0.0
 10
104.9010904685664
 20
-133.0085910040742
 30
0.0
 10
104.9010904685664
 20
-133.3386311515612
 30
0.0
 10
104.9010904685664
 20
-133.3386311515612
 30
0.0
 10
104.9010904685664
 20
-133.3386311515612
 30
0.0
 10
104.7532958722492
 20
-133.3386311515612
 30
0.0
 10
104.7532958722492
 20
-133.3386311515612
 30
0.0
 10
104.7384819616626
 20
-133.0065239467831
 30
0.0
 10
104.5755289452103
 20
-132.9600151577322
 30
0.0
 10
104.4614962846485
 20
-132.9303873365591
 30
0.0
 10
104.4614962846485
 20
-132.9303873365591
 30
0.0
 10
104.4614962846485
 20
-132.7843152879845
 30
0.0
 10
104.4614962846485
 20
-132.7843152879845
 30
0.0
 10
104.4614962846485
 20
-132.7843152879845
 30
0.0
 10
106.0055880811375
 20
-132.7843152879845
 30
0.0
 10
106.0055880811375
 20
-132.7843152879845
 30
0.0
 10
106.0055880811375
 20
-132.7843152879845
 30
0.0
 10
106.0055880811375
 20
-133.0085910040742
 30
0.0
 10
106.0055880811375
 20
-133.0085910040742
 30
0.0
  0
HATCH
  5
97
330
92
100
AcDbEntity
  8
_U+30EC_U+30A4_U+30E4_U+30FC 1
 62
     7
420
 16777215
100
AcDbHatch
 10
0.0
 20
0.0
 30
0.0
210
0.0
220
0.0
230
1.0
  2
SOLID
 70
     1
 71
     0
 91
        1
 92
        1
 93
        1
 72
     4
 94
        3
 73
     0
 74
     1
 95
       26
 96
       22
 40
0.0
 40
0.0
 40
0.0
 40
0.0
 40
1.0
 40
1.0
 40
1.0
 40
2.0
 40
2.0
 40
2.0
 40
3.0
 40
3.0
 40
3.0
 40
4.0
 40
4.0
 40
4.0
 40
5.0
 40
5.0
 40
5.0
 40
6.0
 40
6.0
 40
6.0
 40
7.0
 40
7.0
 40
7.0
 40
7.0
 10
106.0055880811375
 20
-133.0085910040742
 10
106.0055880811375
 20
-133.0085910040742
 10
104.9010904685664
 20
-133.0085910040742
 10
104.9010904685664
 20
-133.0085910040742
 10
104.9010904685664
 20
-133.0085910040742
 10
104.9010904685664
 20
-133.3386311515612
 10
104.9010904685664
 20
-133.3386311515612
 10
104.9010904685664
 20
-133.3386311515612
 10
104.7532958722492
 20
-133.3386311515612
 10
104.7532958722492
 20
-133.3386311515612
 10
104.7384819616626
 20
-133.0065239467831
 10
104.5755289452103
 20
-132.9600151577322
 10
104.4614962846485
 20
-132.9303873365591
 10
104.4614962846485
 20
-132.9303873365591
 10
104.4614962846485
 20
-132.7843152879845
 10
104.4614962846485
 20
-132.7843152879845
 10
104.4614962846485
 20
-132.7843152879845
 10
106.0055880811375
 20
-132.7843152879845
 10
106.0055880811375
 20
-132.7843152879845
 10
106.0055880811375
 20
-132.7843152879845
 10
106.0055880811375
 20
-133.0085910040742
 10
106.0055880811375
 20
-133.0085910040742
 97
        0
 97
        0
 75
     2
 76
     1
 98
        0
  0
SPLINE
  5
98
330
92
100
AcDbEntity
  8
_U+30EC_U+30A4_U+30E4_U+30FC 1
370
     0
100
AcDbSpline
210
0.0
220
0.0
230
1.0
 70
    11
 71
     3
 72
    53
 73
    49
 74
     0
 42
0.0000000001
 43
0.0000000001
 12
1.0
 22
0.0
 32
0.0
 13
1.0
 23
0.0
 33
0.0
 40
0.0
 40
0.0
 40
0.0
 40
0.0
 40
1.0
 40
1.0
 40
1.0
 40
2.0
 40
2.0
 40
2.0
 40
3.0
 40
3.0
 40
3.0
 40
4.0
 40
4.0
 40
4.0
 40
5.0
 40
5.0
 40
5.0
 40
6.0
 40
6.0
 40
6.0
 40
7.0
 40
7.0
 40
7.0
 40
8.0
 40
8.0
 40
8.0
 40
9.0
 40
9.0
 40
9.0
 40
10.0
 40
10.0
 40
10.0
 40
11.0
 40
11.0
 40
11.0
 40
12.0
 40
12.0
 40
12.0
 40
13.0
 40
13.0
 40
13.0
 40
14.0
 40
14.0
 40
14.0
 40
15.0
 40
15.0
 40
15.0
 40
16.0
 40
16.0
 40
16.0
 40
16.0
 10
106.0565754943192
 20
-131.8021185651398
 30
0.0
 10
106.0565754943192
 20
-131.8803222326549
 30
0.0
 10
106.0393500168929
 20
-131.9819525494698
 30
0.0
 10
105.9759602599644
 20
-132.0835828662847
 30
0.0
 10
105.8657172044364
 20
-132.2568711691927
 30
0.0
 10
105.7348035759969
 20
-132.2782307612013
 30
0.0
 10
105.6269720873085
 20
-132.2971787863702
 30
0.0
 10
105.6269720873085
 20
-132.2971787863702
 30
0.0
 10
105.6269720873085
 20
-132.0749701275715
 30
0.0
 10
105.6269720873085
 20
-132.0749701275715
 30
0.0
 10
105.8257540968075
 20
-132.0201931093561
 30
0.0
 10
105.8553819179806
 20
-131.8930690859503
 30
0.0
 10
105.8553819179806
 20
-131.8000515078486
 30
0.0
 10
105.8553819179806
 20
-131.660525140696
 30
0.0
 10
105.7561631680054
 20
-131.5082519202479
 30
0.0
 10
105.5232747132025
 20
-131.5082519202479
 30
0.0
 10
105.2673041186485
 20
-131.5082519202479
 30
0.0
 10
105.1973686802979
 20
-131.688085904578
 30
0.0
 10
105.1973686802979
 20
-131.8086642465617
 30
0.0
 10
105.1973686802979
 20
-131.840359125026
 30
0.0
 10
105.1973686802979
 20
-131.9819525494698
 30
0.0
 10
105.3265597609948
 20
-132.0708360129892
 30
0.0
 10
105.3265597609948
 20
-132.0708360129892
 30
0.0
 10
105.3076117358259
 20
-132.246535882737
 30
0.0
 10
105.3076117358259
 20
-132.246535882737
 30
0.0
 10
105.3076117358259
 20
-132.246535882737
 30
0.0
 10
104.4614962846485
 20
-132.1259575407532
 30
0.0
 10
104.4614962846485
 20
-132.1259575407532
 30
0.0
 10
104.4614962846485
 20
-132.1259575407532
 30
0.0
 10
104.4614962846485
 20
-131.3473659610868
 30
0.0
 10
104.4614962846485
 20
-131.3473659610868
 30
0.0
 10
104.4614962846485
 20
-131.3473659610868
 30
0.0
 10
104.6557996700166
 20
-131.3473659610868
 30
0.0
 10
104.6557996700166
 20
-131.3473659610868
 30
0.0
 10
104.6557996700166
 20
-131.3473659610868
 30
0.0
 10
104.6557996700166
 20
-131.9630045243009
 30
0.0
 10
104.6557996700166
 20
-131.9630045243009
 30
0.0
 10
104.6557996700166
 20
-131.9630045243009
 30
0.0
 10
105.0788573956053
 20
-132.0284613385207
 30
0.0
 10
105.0788573956053
 20
-132.0284613385207
 30
0.0
 10
105.0450954598498
 20
-131.9671386388832
 30
0.0
 10
105.0051323522209
 20
-131.8848008567857
 30
0.0
 10
105.0051323522209
 20
-131.7662895720931
 30
0.0
 10
105.0051323522209
 20
-131.5123860348302
 30
0.0
 10
105.1911675084244
 20
-131.2753634654451
 30
0.0
 10
105.5039821784851
 20
-131.2753634654451
 30
0.0
 10
105.8216199822252
 20
-131.2753634654451
 30
0.0
 10
106.0565754943192
 20
-131.4996391815348
 30
0.0
 10
106.0565754943192
 20
-131.8021185651398
 30
0.0
  0
HATCH
  5
99
330
92
100
AcDbEntity
  8
_U+30EC_U+30A4_U+30E4_U+30FC 1
 62
     7
420
 16777215
100
AcDbHatch
 10
0.0
 20
0.0
 30
0.0
210
0.0
220
0.0
230
1.0
  2
SOLID
 70
     1
 71
     0
 91
        1
 92
        1
 93
        1
 72
     4
 94
        3
 73
     0
 74
     1
 95
       53
 96
       49
 40
0.0
 40
0.0
 40
0.0
 40
0.0
 40
1.0
 40
1.0
 40
1.0
 40
2.0
 40
2.0
 40
2.0
 40
3.0
 40
3.0
 40
3.0
 40
4.0
 40
4.0
 40
4.0
 40
5.0
 40
5.0
 40
5.0
 40
6.0
 40
6.0
 40
6.0
 40
7.0
 40
7.0
 40
7.0
 40
8.0
 40
8.0
 40
8.0
 40
9.0
 40
9.0
 40
9.0
 40
10.0
 40
10.0
 40
10.0
 40
11.0
 40
11.0
 40
11.0
 40
12.0
 40
12.0
 40
12.0
 40
13.0
 40
13.0
 40
13.0
 40
14.0
 40
14.0
 40
14.0
 40
15.0
 40
15.0
 40
15.0
 40
16.0
 40
16.0
 40
16.0
 40
16.0
 10
106.0565754943192
 20
-131.8021185651398
 10
106.0565754943192
 20
-131.8803222326549
 10
106.0393500168929
 20
-131.9819525494698
 10
105.9759602599644
 20
-132.0835828662847
 10
105.8657172044364
 20
-132.2568711691927
 10
105.7348035759969
 20
-132.2782307612013
 10
105.6269720873085
 20
-132.2971787863702
 10
105.6269720873085
 20
-132.2971787863702
 10
105.6269720873085
 20
-132.0749701275715
 10
105.6269720873085
 20
-132.0749701275715
 10
105.8257540968075
 20
-132.0201931093561
 10
105.8553819179806
 20
-131.8930690859503
 10
105.8553819179806
 20
-131.8000515078486
 10
105.8553819179806
 20
-131.660525140696
 10
105.7561631680054
 20
-131.5082519202479
 10
105.5232747132025
 20
-131.5082519202479
 10
105.2673041186485
 20
-131.5082519202479
 10
105.1973686802979
 20
-131.688085904578
 10
105.1973686802979
 20
-131.8086642465617
 10
105.1973686802979
 20
-131.840359125026
 10
105.1973686802979
 20
-131.9819525494698
 10
105.3265597609948
 20
-132.0708360129892
 10
105.3265597609948
 20
-132.0708360129892
 10
105.3076117358259
 20
-132.246535882737
 10
105.3076117358259
 20
-132.246535882737
 10
105.3076117358259
 20
-132.246535882737
 10
104.4614962846485
 20
-132.1259575407532
 10
104.4614962846485
 20
-132.1259575407532
 10
104.4614962846485
 20
-132.1259575407532
 10
104.4614962846485
 20
-131.3473659610868
 10
104.4614962846485
 20
-131.3473659610868
 10
104.4614962846485
 20
-131.3473659610868
 10
104.6557996700166
 20
-131.3473659610868
 10
104.6557996700166
 20
-131.3473659610868
 10
104.6557996700166
 20
-131.3473659610868
 10
104.6557996700166
 20
-131.9630045243009
 10
104.6557996700166
 20
-131.9630045243009
 10
104.6557996700166
 20
-131.9630045243009
 10
105.0788573956053
 20
-132.0284613385207
 10
105.0788573956053
 20
-132.0284613385207
 10
105.0450954598498
 20
-131.9671386388832
 10
105.0051323522209
 20
-131.8848008567857
 10
105.0051323522209
 20
-131.7662895720931
 10
105.0051323522209
 20
-131.5123860348302
 10
105.1911675084244
 20
-131.2753634654451
 10
105.5039821784851
 20
-131.2753634654451
 10
105.8216199822252
 20
-131.2753634654451
 10
106.0565754943192
 20
-131.4996391815348
 10
106.0565754943192
 20
-131.8021185651398
 97
        0
 97
        0
 75
     2
 76
     1
 98
        0
  0
ENDBLK
  5
95
330
92
100
AcDbEntity
  8
0
100
AcDbBlockEnd
  0
BLOCK
  5
9C
330
9A
100
AcDbEntity
  8
0
100
AcDbBlockBegin
  2
block 6
 70
     0
 10
0.0
 20
0.0
 30
0.0
  3
block 6
  1

  0
SPLINE
  5
9E
330
9A
100
AcDbEntity
  8
_U+30EC_U+30A4_U+30E4_U+30FC 1
370
     0
100
AcDbSpline
210
0.0
220
0.0
230
1.0
 70
    11
 71
     3
 72
    44
 73
    40
 74
     0
 42
0.0000000001
 43
0.0000000001
 12
1.0
 22
0.0
 32
0.0
 13
1.0
 23
0.0
 33
0.0
 40
0.0
 40
0.0
 40
0.0
 40
0.0
 40
1.0
 40
1.0
 40
1.0
 40
2.0
 40
2.0
 40
2.0
 40
3.0
 40
3.0
 40
3.0
 40
4.0
 40
4.0
 40
4.0
 40
5.0
 40
5.0
 40
5.0
 40
6.0
 40
6.0
 40
6.0
 40
7.0
 40
7.0
 40
7.0
 40
8.0
 40
8.0
 40
8.0
 40
9.0
 40
9.0
 40
9.0
 40
10.0
 40
10.0
 40
10.0
 40
11.0
 40
11.0
 40
11.0
 40
12.0
 40
12.0
 40
12.0
 40
13.0
 40
13.0
 40
13.0
 40
13.0
 10
105.4433484979447
 20
-120.7905598656357
 30
0.0
 10
105.6021673998147
 20
-121.0082899003035
 30
0.0
 10
105.6762369527476
 20
-121.1013074784052
 30
0.0
 10
105.8202419440311
 20
-121.1502278342958
 30
0.0
 10
105.8202419440311
 20
-121.1502278342958
 30
0.0
 10
105.8202419440311
 20
-120.3716362546293
 30
0.0
 10
105.8202419440311
 20
-120.3716362546293
 30
0.0
 10
105.8202419440311
 20
-120.3716362546293
 30
0.0
 10
106.0252251254034
 20
-120.3716362546293
 30
0.0
 10
106.0252251254034
 20
-120.3716362546293
 30
0.0
 10
106.0252251254034
 20
-120.3716362546293
 30
0.0
 10
106.0252251254034
 20
-121.3996527474279
 30
0.0
 10
106.0252251254034
 20
-121.3996527474279
 30
0.0
 10
105.6676242140345
 20
-121.3679578689636
 30
0.0
 10
105.5894205465193
 20
-121.3025010547438
 30
0.0
 10
105.2910752774967
 20
-120.9173393794929
 30
0.0
 10
105.0922932679978
 20
-120.6613687849388
 30
0.0
 10
105.0244248869383
 20
-120.5959119707191
 30
0.0
 10
104.8873100866254
 20
-120.5959119707191
 30
0.0
 10
104.7687988019328
 20
-120.5959119707191
 30
0.0
 10
104.6375406639448
 20
-120.6679144663608
 30
0.0
 10
104.6375406639448
 20
-120.8646294185686
 30
0.0
 10
104.6375406639448
 20
-121.1247341277049
 30
0.0
 10
104.868017551908
 20
-121.1333468664181
 30
0.0
 10
104.9844617793094
 20
-121.1374809810004
 30
0.0
 10
104.9844617793094
 20
-121.1374809810004
 30
0.0
 10
104.9844617793094
 20
-121.3617566970901
 30
0.0
 10
104.9844617793094
 20
-121.3617566970901
 30
0.0
 10
104.8576822654523
 20
-121.353143958377
 30
0.0
 10
104.7453721526331
 20
-121.3424641623727
 30
0.0
 10
104.6268608679405
 20
-121.2621934375664
 30
0.0
 10
104.4663194183279
 20
-121.1522948915869
 30
0.0
 10
104.4322129730239
 20
-120.9659152258349
 30
0.0
 10
104.4322129730239
 20
-120.849815507982
 30
0.0
 10
104.4322129730239
 20
-120.5724853214194
 30
0.0
 10
104.6165255814848
 20
-120.3650905732073
 30
0.0
 10
104.8893771439165
 20
-120.3650905732073
 30
0.0
 10
105.1174424650401
 20
-120.3650905732073
 30
0.0
 10
105.2173502341123
 20
-120.4815348006088
 30
0.0
 10
105.4433484979447
 20
-120.7905598656357
 30
0.0
  0
HATCH
  5
9F
330
9A
100
AcDbEntity
  8
_U+30EC_U+30A4_U+30E4_U+30FC 1
 62
     7
420
 16777215
100
AcDbHatch
 10
0.0
 20
0.0
 30
0.0
210
0.0
220
0.0
230
1.0
  2
SOLID
 70
     1
 71
     0
 91
        1
 92
        1
 93
        1
 72
     4
 94
        3
 73
     0
 74
     1
 95
       44
 96
       40
 40
0.0
 40
0.0
 40
0.0
 40
0.0
 40
1.0
 40
1.0
 40
1.0
 40
2.0
 40
2.0
 40
2.0
 40
3.0
 40
3.0
 40
3.0
 40
4.0
 40
4.0
 40
4.0
 40
5.0
 40
5.0
 40
5.0
 40
6.0
 40
6.0
 40
6.0
 40
7.0
 40
7.0
 40
7.0
 40
8.0
 40
8.0
 40
8.0
 40
9.0
 40
9.0
 40
9.0
 40
10.0
 40
10.0
 40
10.0
 40
11.0
 40
11.0
 40
11.0
 40
12.0
 40
12.0
 40
12.0
 40
13.0
 40
13.0
 40
13.0
 40
13.0
 10
105.4433484979447
 20
-120.7905598656357
 10
105.6021673998147
 20
-121.0082899003035
 10
105.6762369527476
 20
-121.1013074784052
 10
105.8202419440311
 20
-121.1502278342958
 10
105.8202419440311
 20
-121.1502278342958
 10
105.8202419440311
 20
-120.3716362546293
 10
105.8202419440311
 20
-120.3716362546293
 10
105.8202419440311
 20
-120.3716362546293
 10
106.0252251254034
 20
-120.3716362546293
 10
106.0252251254034
 20
-120.3716362546293
 10
106.0252251254034
 20
-120.3716362546293
 10
106.0252251254034
 20
-121.3996527474279
 10
106.0252251254034
 20
-121.3996527474279
 10
105.6676242140345
 20
-121.3679578689636
 10
105.5894205465193
 20
-121.3025010547438
 10
105.2910752774967
 20
-120.9173393794929
 10
105.0922932679978
 20
-120.6613687849388
 10
105.0244248869383
 20
-120.5959119707191
 10
104.8873100866254
 20
-120.5959119707191
 10
104.7687988019328
 20
-120.5959119707191
 10
104.6375406639448
 20
-120.6679144663608
 10
104.6375406639448
 20
-120.8646294185686
 10
104.6375406639448
 20
-121.1247341277049
 10
104.868017551908
 20
-121.1333468664181
 10
104.9844617793094
 20
-121.1374809810004
 10
104.9844617793094
 20
-121.1374809810004
 10
104.9844617793094
 20
-121.3617566970901
 10
104.9844617793094
 20
-121.3617566970901
 10
104.8576822654523
 20
-121.353143958377
 10
104.7453721526331
 20
-121.3424641623727
 10
104.6268608679405
 20
-121.2621934375664
 10
104.4663194183279
 20
-121.1522948915869
 10
104.4322129730239
 20
-120.9659152258349
 10
104.4322129730239
 20
-120.849815507982
 10
104.4322129730239
 20
-120.5724853214194
 10
104.6165255814848
 20
-120.3650905732073
 10
104.8893771439165
 20
-120.3650905732073
 10
105.1174424650401
 20
-120.3650905732073
 10
105.2173502341123
 20
-120.4815348006088
 10
105.4433484979447
 20
-120.7905598656357
 97
        0
 97
        0
 75
     2
 76
     1
 98
        0
  0
ENDBLK
  5
9D
330
9A
100
AcDbEntity
  8
0
100
AcDbBlockEnd
  0
BLOCK
  5
A8
330
A6
100
AcDbEntity
  8
0
100
AcDbBlockBegin
  2
block 7
 70
     0
 10
0.0
 20
0.0
 30
0.0
  3
block 7
  1

  0
SPLINE
  5
AA
330
A6
100
AcDbEntity
  8
_U+30EC_U+30A4_U+30E4_U+30FC 1
370
     0
100
AcDbSpline
210
0.0
220
0.0
230
1.0
 70
    11
 71
     3
 72
    26
 73
    22
 74
     0
 42
0.0000000001
 43
0.0000000001
 12
1.0
 22
0.0
 32
0.0
 13
1.0
 23
0.0
 33
0.0
 40
0.0
 40
0.0
 40
0.0
 40
0.0
 40
1.0
 40
1.0
 40
1.0
 40
2.0
 40
2.0
 40
2.0
 40
3.0
 40
3.0
 40
3.0
 40
4.0
 40
4.0
 40
4.0
 40
5.0
 40
5.0
 40
5.0
 40
6.0
 40
6.0
 40
6.0
 40
7.0
 40
7.0
 40
7.0
 40
7.0
 10
85.59339733103221
 20
-124.7393283108291
 30
0.0
 10
85.59339733103221
 20
-124.7393283108291
 30
0.0
 10
85.59339733103221
 20
-123.6351752078065
 30
0.0
 10
85.59339733103221
 20
-123.6351752078065
 30
0.0
 10
85.59339733103221
 20
-123.6351752078065
 30
0.0
 10
85.26335718354528
 20
-123.6351752078065
 30
0.0
 10
85.26335718354528
 20
-123.6351752078065
 30
0.0
 10
85.26335718354528
 20
-123.6351752078065
 30
0.0
 10
85.26335718354528
 20
-123.4870361019407
 30
0.0
 10
85.26335718354528
 20
-123.4870361019407
 30
0.0
 10
85.59546438832336
 20
-123.4722221913542
 30
0.0
 10
85.64197317737424
 20
-123.3092691749019
 30
0.0
 10
85.67160099854738
 20
-123.1948920047916
 30
0.0
 10
85.67160099854738
 20
-123.1948920047916
 30
0.0
 10
85.81767304712197
 20
-123.1948920047916
 30
0.0
 10
85.81767304712197
 20
-123.1948920047916
 30
0.0
 10
85.81767304712197
 20
-123.1948920047916
 30
0.0
 10
85.81767304712197
 20
-124.7393283108291
 30
0.0
 10
85.81767304712197
 20
-124.7393283108291
 30
0.0
 10
85.81767304712197
 20
-124.7393283108291
 30
0.0
 10
85.59339733103221
 20
-124.7393283108291
 30
0.0
 10
85.59339733103221
 20
-124.7393283108291
 30
0.0
  0
HATCH
  5
AB
330
A6
100
AcDbEntity
  8
_U+30EC_U+30A4_U+30E4_U+30FC 1
 62
     7
420
 16777215
100
AcDbHatch
 10
0.0
 20
0.0
 30
0.0
210
0.0
220
0.0
230
1.0
  2
SOLID
 70
     1
 71
     0
 91
        1
 92
        1
 93
        1
 72
     4
 94
        3
 73
     0
 74
     1
 95
       26
 96
       22
 40
0.0
 40
0.0
 40
0.0
 40
0.0
 40
1.0
 40
1.0
 40
1.0
 40
2.0
 40
2.0
 40
2.0
 40
3.0
 40
3.0
 40
3.0
 40
4.0
 40
4.0
 40
4.0
 40
5.0
 40
5.0
 40
5.0
 40
6.0
 40
6.0
 40
6.0
 40
7.0
 40
7.0
 40
7.0
 40
7.0
 10
85.59339733103221
 20
-124.7393283108291
 10
85.59339733103221
 20
-124.7393283108291
 10
85.59339733103221
 20
-123.6351752078065
 10
85.59339733103221
 20
-123.6351752078065
 10
85.59339733103221
 20
-123.6351752078065
 10
85.26335718354528
 20
-123.6351752078065
 10
85.26335718354528
 20
-123.6351752078065
 10
85.26335718354528
 20
-123.6351752078065
 10
85.26335718354528
 20
-123.4870361019407
 10
85.26335718354528
 20
-123.4870361019407
 10
85.59546438832336
 20
-123.4722221913542
 10
85.64197317737424
 20
-123.3092691749019
 10
85.67160099854738
 20
-123.1948920047916
 10
85.67160099854738
 20
-123.1948920047916
 10
85.81767304712197
 20
-123.1948920047916
 10
85.81767304712197
 20
-123.1948920047916
 10
85.81767304712197
 20
-123.1948920047916
 10
85.81767304712197
 20
-124.7393283108291
 10
85.81767304712197
 20
-124.7393283108291
 10
85.81767304712197
 20
-124.7393283108291
 10
85.59339733103221
 20
-124.7393283108291
 10
85.59339733103221
 20
-124.7393283108291
 97
        0
 97
        0
 75
     2
 76
     1
 98
        0
  0
ENDBLK
  5
A9
330
A6
100
AcDbEntity
  8
0
100
AcDbBlockEnd
  0
ENDSEC
  0
SECTION
  2
ENTITIES
  0
SPLINE
  5
41
330
1F
100
AcDbEntity
  8
_U+30EC_U+30A4_U+30E4_U+30FC 1
 62
     7
420
 16777215
370
     9
100
AcDbSpline
210
0.0
220
0.0
230
1.0
 70
    11
 71
     3
 72
    17
 73
    13
 74
     0
 42
0.0000000001
 43
0.0000000001
 12
1.0
 22
0.0
 32
0.0
 13
1.0
 23
0.0
 33
0.0
 40
0.0
 40
0.0
 40
0.0
 40
0.0
 40
1.0
 40
1.0
 40
1.0
 40
2.0
 40
2.0
 40
2.0
 40
3.0
 40
3.0
 40
3.0
 40
4.0
 40
4.0
 40
4.0
 40
4.0
 10
102.4120212761405
 20
-120.0422696922116
 30
0.0
 10
102.4120212761405
 20
-119.9871658033367
 30
0.0
 10
102.3672184995058
 20
-119.9423630255699
 30
0.0
 10
102.3121146120227
 20
-119.9423630255699
 30
0.0
 10
102.2569754467628
 20
-119.9423630255699
 30
0.0
 10
102.2122079479049
 20
-119.9871658033367
 30
0.0
 10
102.2122079479049
 20
-120.0422696922116
 30
0.0
 10
102.2122079479049
 20
-120.0974088588647
 30
0.0
 10
102.2569754467628
 20
-120.1421763588532
 30
0.0
 10
102.3121146120227
 20
-120.1421763588532
 30
0.0
 10
102.3672184995058
 20
-120.1421763588532
 30
0.0
 10
102.4120212761405
 20
-120.0974088588647
 30
0.0
 10
102.4120212761405
 20
-120.0422696922116
 30
0.0
  0
SPLINE
  5
42
330
1F
100
AcDbEntity
  8
_U+30EC_U+30A4_U+30E4_U+30FC 1
 62
     7
420
 16777215
370
     9
100
AcDbSpline
210
0.0
220
0.0
230
1.0
 70
    11
 71
     3
 72
    17
 73
    13
 74
     0
 42
0.0000000001
 43
0.0000000001
 12
1.0
 22
0.0
 32
0.0
 13
1.0
 23
0.0
 33
0.0
 40
0.0
 40
0.0
 40
0.0
 40
0.0
 40
1.0
 40
1.0
 40
1.0
 40
2.0
 40
2.0
 40
2.0
 40
3.0
 40
3.0
 40
3.0
 40
4.0
 40
4.0
 40
4.0
 40
4.0
 10
106.5833388622431
 20
-139.8708855205876
 30
0.0
 10
106.5833388622431
 20
-139.8150760761572
 30
0.0
 10
106.5385360844764
 20
-139.770978853946
 30
0.0
 10
106.4834295056036
 20
-139.770978853946
 30
0.0
 10
106.4282903403437
 20
-139.770978853946
 30
0.0
 10
106.3835228414858
 20
-139.8150760761572
 30
0.0
 10
106.3835228414858
 20
-139.8708855205876
 30
0.0
 10
106.3835228414858
 20
-139.9259894094632
 30
0.0
 10
106.4282903403437
 20
-139.9707921872293
 30
0.0
 10
106.4834295056036
 20
-139.9707921872293
 30
0.0
 10
106.5385360844764
 20
-139.9707921872293
 30
0.0
 10
106.5833388622431
 20
-139.9259894094632
 30
0.0
 10
106.5833388622431
 20
-139.8708855205876
 30
0.0
  0
SPLINE
  5
43
330
1F
100
AcDbEntity
  8
_U+30EC_U+30A4_U+30E4_U+30FC 1
 62
     7
420
 16777215
370
     9
100
AcDbSpline
210
0.0
220
0.0
230
1.0
 70
    11
 71
     3
 72
    17
 73
    13
 74
     0
 42
0.0000000001
 43
0.0000000001
 12
1.0
 22
0.0
 32
0.0
 13
1.0
 23
0.0
 33
0.0
 40
0.0
 40
0.0
 40
0.0
 40
0.0
 40
1.0
 40
1.0
 40
1.0
 40
2.0
 40
2.0
 40
2.0
 40
3.0
 40
3.0
 40
3.0
 40
4.0
 40
4.0
 40
4.0
 40
4.0
 10
106.5833388622431
 20
-124.8716210798933
 30
0.0
 10
106.5833388622431
 20
-124.8158116354628
 30
0.0
 10
106.5385360844764
 20
-124.7717144132516
 30
0.0
 10
106.4834295056036
 20
-124.7717144132516
 30
0.0
 10
106.4282903403437
 20
-124.7717144132516
 30
0.0
 10
106.3835228414858
 20
-124.8158116354628
 30
0.0
 10
106.3835228414858
 20
-124.8716210798933
 30
0.0
 10
106.3835228414858
 20
-124.9267249687682
 30
0.0
 10
106.4282903403437
 20
-124.9715277465349
 30
0.0
 10
106.4834295056036
 20
-124.9715277465349
 30
0.0
 10
106.5385360844764
 20
-124.9715277465349
 30
0.0
 10
106.5833388622431
 20
-124.9267249687682
 30
0.0
 10
106.5833388622431
 20
-124.8716210798933
 30
0.0
  0
SPLINE
  5
44
330
1F
100
AcDbEntity
  8
_U+30EC_U+30A4_U+30E4_U+30FC 1
 62
     7
420
 16777215
370
     9
100
AcDbSpline
210
0.0
220
0.0
230
1.0
 70
    11
 71
     3
 72
    17
 73
    13
 74
     0
 42
0.0000000001
 43
0.0000000001
 12
1.0
 22
0.0
 32
0.0
 13
1.0
 23
0.0
 33
0.0
 40
0.0
 40
0.0
 40
0.0
 40
0.0
 40
1.0
 40
1.0
 40
1.0
 40
2.0
 40
2.0
 40
2.0
 40
3.0
 40
3.0
 40
3.0
 40
4.0
 40
4.0
 40
4.0
 40
4.0
 10
74.41303754600969
 20
-120.0422696922116
 30
0.0
 10
74.41303754600969
 20
-119.9871658033367
 30
0.0
 10
74.36823476937494
 20
-119.9423630255699
 30
0.0
 10
74.31313088189187
 20
-119.9423630255699
 30
0.0
 10
74.2579917166319
 20
-119.9423630255699
 30
0.0
 10
74.21322421777403
 20
-119.9871658033367
 30
0.0
 10
74.21322421777403
 20
-120.0422696922116
 30
0.0
 10
74.21322421777403
 20
-120.0974088588647
 30
0.0
 10
74.2579917166319
 20
-120.1421763588532
 30
0.0
 10
74.31313088189187
 20
-120.1421763588532
 30
0.0
 10
74.36823476937494
 20
-120.1421763588532
 30
0.0
 10
74.41303754600969
 20
-120.0974088588647
 30
0.0
 10
74.41303754600969
 20
-120.0422696922116
 30
0.0
  0
SPLINE
  5
45
330
1F
100
AcDbEntity
  8
_U+30EC_U+30A4_U+30E4_U+30FC 1
 62
     7
420
 16777215
370
     9
100
AcDbSpline
210
0.0
220
0.0
230
1.0
 70
    11
 71
     3
 72
    17
 73
    13
 74
     0
 42
0.0000000001
 43
0.0000000001
 12
1.0
 22
0.0
 32
0.0
 13
1.0
 23
0.0
 33
0.0
 40
0.0
 40
0.0
 40
0.0
 40
0.0
 40
1.0
 40
1.0
 40
1.0
 40
2.0
 40
2.0
 40
2.0
 40
3.0
 40
3.0
 40
3.0
 40
4.0
 40
4.0
 40
4.0
 40
4.0
 10
106.5833388622431
 20
-122.9134221914939
 30
0.0
 10
106.5833388622431
 20
-122.8579655248409
 30
0.0
 10
106.5385360844764
 20
-122.8131627470745
 30
0.0
 10
106.4834295056036
 20
-122.8131627470745
 30
0.0
 10
106.4282903403437
 20
-122.8131627470745
 30
0.0
 10
106.3835228414858
 20
-122.8579655248409
 30
0.0
 10
106.3835228414858
 20
-122.9134221914939
 30
0.0
 10
106.3835228414858
 20
-122.9685613581467
 30
0.0
 10
106.4282903403437
 20
-123.0133288581356
 30
0.0
 10
106.4834295056036
 20
-123.0133288581356
 30
0.0
 10
106.5385360844764
 20
-123.0133288581356
 30
0.0
 10
106.5833388622431
 20
-122.9685613581467
 30
0.0
 10
106.5833388622431
 20
-122.9134221914939
 30
0.0
  0
POLYLINE
  5
46
330
1F
100
AcDbEntity
  8
_U+30EC_U+30A4_U+30E4_U+30FC 1
 62
     7
420
 16777215
370
     9
100
AcDb2dPolyline
 66
     1
 10
0.0
 20
0.0
 30
0.0
  0
VERTEX
  5
47
330
46
100
AcDbEntity
  8
_U+30EC_U+30A4_U+30E4_U+30FC 1
 62
     7
420
 16777215
370
     9
100
AcDbVertex
100
AcDb2dVertex
 10
74.31313088189187
 20
-120.0422696922116
 30
0.0
  0
VERTEX
  5
48
330
46
100
AcDbEntity
  8
_U+30EC_U+30A4_U+30E4_U+30FC 1
 62
     7
420
 16777215
370
     9
100
AcDbVertex
100
AcDb2dVertex
 10
84.31318331225489
 20
-120.0422696922116
 30
0.0
  0
SEQEND
  5
49
330
46
100
AcDbEntity
  8
_U+30EC_U+30A4_U+30E4_U+30FC 1
 62
     7
420
 16777215
370
     9
  0
POLYLINE
  5
4A
330
1F
100
AcDbEntity
  8
_U+30EC_U+30A4_U+30E4_U+30FC 1
 62
     7
420
 16777215
370
     9
100
AcDb2dPolyline
 66
     1
 10
0.0
 20
0.0
 30
0.0
  0
VERTEX
  5
4B
330
4A
100
AcDbEntity
  8
_U+30EC_U+30A4_U+30E4_U+30FC 1
 62
     7
420
 16777215
370
     9
100
AcDbVertex
100
AcDb2dVertex
 10
92.31305208934228
 20
-120.0422696922116
 30
0.0
  0
VERTEX
  5
4C
330
4A
100
AcDbEntity
  8
_U+30EC_U+30A4_U+30E4_U+30FC 1
 62
     7
420
 16777215
370
     9
100
AcDbVertex
100
AcDb2dVertex
 10
102.3127848897834
 20
-120.0422696922116
 30
0.0
  0
SEQEND
  5
4D
330
4A
100
AcDbEntity
  8
_U+30EC_U+30A4_U+30E4_U+30FC 1
 62
     7
420
 16777215
370
     9
  0
POLYLINE
  5
4E
330
1F
100
AcDbEntity
  8
_U+30EC_U+30A4_U+30E4_U+30FC 1
 62
     7
420
 16777215
370
     9
100
AcDb2dPolyline
 66
     1
 10
0.0
 20
0.0
 30
0.0
  0
VERTEX
  5
4F
330
4E
100
AcDbEntity
  8
_U+30EC_U+30A4_U+30E4_U+30FC 1
 62
     7
420
 16777215
370
     9
100
AcDbVertex
100
AcDb2dVertex
 10
84.31318331225489
 20
-120.0422696922116
 30
0.0
  0
VERTEX
  5
50
330
4E
100
AcDbEntity
  8
_U+30EC_U+30A4_U+30E4_U+30FC 1
 62
     7
420
 16777215
370
     9
100
AcDbVertex
100
AcDb2dVertex
 10
92.31305208934228
 20
-120.0422696922116
 30
0.0
  0
SEQEND
  5
51
330
4E
100
AcDbEntity
  8
_U+30EC_U+30A4_U+30E4_U+30FC 1
 62
     7
420
 16777215
370
     9
  0
POLYLINE
  5
52
330
1F
100
AcDbEntity
  8
_U+30EC_U+30A4_U+30E4_U+30FC 1
 62
     7
420
 16777215
370
     9
100
AcDb2dPolyline
 66
     1
 10
0.0
 20
0.0
 30
0.0
  0
VERTEX
  5
53
330
52
100
AcDbEntity
  8
_U+30EC_U+30A4_U+30E4_U+30FC 1
 62
     7
420
 16777215
370
     9
100
AcDbVertex
100
AcDb2dVertex
 10
74.31313088189187
 20
-117.7823046927768
 30
0.0
  0
VERTEX
  5
54
330
52
100
AcDbEntity
  8
_U+30EC_U+30A4_U+30E4_U+30FC 1
 62
     7
420
 16777215
370
     9
100
AcDbVertex
100
AcDb2dVertex
 10
74.31313088189187
 20
-121.0420419141841
 30
0.0
  0
SEQEND
  5
55
330
52
100
AcDbEntity
  8
_U+30EC_U+30A4_U+30E4_U+30FC 1
 62
     7
420
 16777215
370
     9
  0
SPLINE
  5
56
330
1F
100
AcDbEntity
  8
_U+30EC_U+30A4_U+30E4_U+30FC 1
 62
     7
420
 16777215
370
     9
100
AcDbSpline
210
0.0
220
0.0
230
1.0
 70
    11
 71
     3
 72
    17
 73
    13
 74
     0
 42
0.0000000001
 43
0.0000000001
 12
1.0
 22
0.0
 32
0.0
 13
1.0
 23
0.0
 33
0.0
 40
0.0
 40
0.0
 40
0.0
 40
0.0
 40
1.0
 40
1.0
 40
1.0
 40
2.0
 40
2.0
 40
2.0
 40
3.0
 40
3.0
 40
3.0
 40
4.0
 40
4.0
 40
4.0
 40
4.0
 10
84.41277034645081
 20
-120.0422696922116
 30
0.0
 10
84.41277034645081
 20
-119.9871658033367
 30
0.0
 10
84.36796756981605
 20
-119.9423630255699
 30
0.0
 10
84.31286368233297
 20
-119.9423630255699
 30
0.0
 10
84.25772451707303
 20
-119.9423630255699
 30
0.0
 10
84.21295701821515
 20
-119.9871658033367
 30
0.0
 10
84.21295701821515
 20
-120.0422696922116
 30
0.0
 10
84.21295701821515
 20
-120.0974088588647
 30
0.0
 10
84.25772451707303
 20
-120.1421763588532
 30
0.0
 10
84.31286368233297
 20
-120.1421763588532
 30
0.0
 10
84.36796756981605
 20
-120.1421763588532
 30
0.0
 10
84.41277034645081
 20
-120.0974088588647
 30
0.0
 10
84.41277034645081
 20
-120.0422696922116
 30
0.0
  0
POLYLINE
  5
57
330
1F
100
AcDbEntity
  8
_U+30EC_U+30A4_U+30E4_U+30FC 1
 62
     7
420
 16777215
370
     9
100
AcDb2dPolyline
 66
     1
 10
0.0
 20
0.0
 30
0.0
  0
VERTEX
  5
58
330
57
100
AcDbEntity
  8
_U+30EC_U+30A4_U+30E4_U+30FC 1
 62
     7
420
 16777215
370
     9
100
AcDbVertex
100
AcDb2dVertex
 10
84.31286368233297
 20
-117.7823046927768
 30
0.0
  0
VERTEX
  5
59
330
57
100
AcDbEntity
  8
_U+30EC_U+30A4_U+30E4_U+30FC 1
 62
     7
420
 16777215
370
     9
100
AcDbVertex
100
AcDb2dVertex
 10
84.31286368233297
 20
-121.0420419141841
 30
0.0
  0
SEQEND
  5
5A
330
57
100
AcDbEntity
  8
_U+30EC_U+30A4_U+30E4_U+30FC 1
 62
     7
420
 16777215
370
     9
  0
SPLINE
  5
5B
330
1F
100
AcDbEntity
  8
_U+30EC_U+30A4_U+30E4_U+30FC 1
 62
     7
420
 16777215
370
     9
100
AcDbSpline
210
0.0
220
0.0
230
1.0
 70
    11
 71
     3
 72
    17
 73
    13
 74
     0
 42
0.0000000001
 43
0.0000000001
 12
1.0
 22
0.0
 32
0.0
 13
1.0
 23
0.0
 33
0.0
 40
0.0
 40
0.0
 40
0.0
 40
0.0
 40
1.0
 40
1.0
 40
1.0
 40
2.0
 40
2.0
 40
2.0
 40
3.0
 40
3.0
 40
3.0
 40
4.0
 40
4.0
 40
4.0
 40
4.0
 10
92.41296108800806
 20
-120.0422696922116
 30
0.0
 10
92.41296108800806
 20
-119.9871658033367
 30
0.0
 10
92.36819125460222
 20
-119.9423630255699
 30
0.0
 10
92.31305208934228
 20
-119.9423630255699
 30
0.0
 10
92.25794820185921
 20
-119.9423630255699
 30
0.0
 10
92.21314542522444
 20
-119.9871658033367
 30
0.0
 10
92.21314542522444
 20
-120.0422696922116
 30
0.0
 10
92.21314542522444
 20
-120.0974088588647
 30
0.0
 10
92.25794820185921
 20
-120.1421763588532
 30
0.0
 10
92.31305208934228
 20
-120.1421763588532
 30
0.0
 10
92.36819125460222
 20
-120.1421763588532
 30
0.0
 10
92.41296108800806
 20
-120.0974088588647
 30
0.0
 10
92.41296108800806
 20
-120.0422696922116
 30
0.0
  0
POLYLINE
  5
5C
330
1F
100
AcDbEntity
  8
_U+30EC_U+30A4_U+30E4_U+30FC 1
 62
     7
420
 16777215
370
     9
100
AcDb2dPolyline
 66
     1
 10
0.0
 20
0.0
 30
0.0
  0
VERTEX
  5
5D
330
5C
100
AcDbEntity
  8
_U+30EC_U+30A4_U+30E4_U+30FC 1
 62
     7
420
 16777215
370
     9
100
AcDbVertex
100
AcDb2dVertex
 10
92.31305208934228
 20
-117.7823046927768
 30
0.0
  0
VERTEX
  5
5E
330
5C
100
AcDbEntity
  8
_U+30EC_U+30A4_U+30E4_U+30FC 1
 62
     7
420
 16777215
370
     9
100
AcDbVertex
100
AcDb2dVertex
 10
92.31305208934228
 20
-121.0420419141841
 30
0.0
  0
SEQEND
  5
5F
330
5C
100
AcDbEntity
  8
_U+30EC_U+30A4_U+30E4_U+30FC 1
 62
     7
420
 16777215
370
     9
  0
POLYLINE
  5
60
330
1F
100
AcDbEntity
  8
_U+30EC_U+30A4_U+30E4_U+30FC 1
 62
     7
420
 16777215
370
     9
100
AcDb2dPolyline
 66
     1
 10
0.0
 20
0.0
 30
0.0
  0
VERTEX
  5
61
330
60
100
AcDbEntity
  8
_U+30EC_U+30A4_U+30E4_U+30FC 1
 62
     7
420
 16777215
370
     9
100
AcDbVertex
100
AcDb2dVertex
 10
102.3121146120227
 20
-118.0820246927017
 30
0.0
  0
VERTEX
  5
62
330
60
100
AcDbEntity
  8
_U+30EC_U+30A4_U+30E4_U+30FC 1
 62
     7
420
 16777215
370
     9
100
AcDbVertex
100
AcDb2dVertex
 10
102.3121146120227
 20
-121.0420419141841
 30
0.0
  0
SEQEND
  5
63
330
60
100
AcDbEntity
  8
_U+30EC_U+30A4_U+30E4_U+30FC 1
 62
     7
420
 16777215
370
     9
  0
INSERT
  5
65
330
1F
100
AcDbEntity
  8
_U+30EC_U+30A4_U+30E4_U+30FC 1
100
AcDbBlockReference
  2
block 2
 10
0.0
 20
0.0
 30
0.0
  0
INSERT
  5
6D
330
1F
100
AcDbEntity
  8
_U+30EC_U+30A4_U+30E4_U+30FC 1
100
AcDbBlockReference
  2
block 3
 10
0.0
 20
0.0
 30
0.0
  0
INSERT
  5
76
330
1F
100
AcDbEntity
  8
_U+30EC_U+30A4_U+30E4_U+30FC 1
100
AcDbBlockReference
  2
block 4
 10
0.0
 20
0.0
 30
0.0
  0
POLYLINE
  5
7E
330
1F
100
AcDbEntity
  8
_U+30EC_U+30A4_U+30E4_U+30FC 1
 62
     7
420
 16777215
370
     9
100
AcDb2dPolyline
 66
     1
 10
0.0
 20
0.0
 30
0.0
  0
VERTEX
  5
7F
330
7E
100
AcDbEntity
  8
_U+30EC_U+30A4_U+30E4_U+30FC 1
 62
     7
420
 16777215
370
     9
100
AcDbVertex
100
AcDb2dVertex
 10
106.4834295056036
 20
-124.8661177465614
 30
0.0
  0
VERTEX
  5
80
330
7E
100
AcDbEntity
  8
_U+30EC_U+30A4_U+30E4_U+30FC 1
 62
     7
420
 16777215
370
     9
100
AcDbVertex
100
AcDb2dVertex
 10
106.4834295056036
 20
-139.8656996872557
 30
0.0
  0
SEQEND
  5
81
330
7E
100
AcDbEntity
  8
_U+30EC_U+30A4_U+30E4_U+30FC 1
 62
     7
420
 16777215
370
     9
  0
POLYLINE
  5
82
330
1F
100
AcDbEntity
  8
_U+30EC_U+30A4_U+30E4_U+30FC 1
 62
     7
420
 16777215
370
     9
100
AcDb2dPolyline
 66
     1
 10
0.0
 20
0.0
 30
0.0
  0
VERTEX
  5
83
330
82
100
AcDbEntity
  8
_U+30EC_U+30A4_U+30E4_U+30FC 1
 62
     7
420
 16777215
370
     9
100
AcDbVertex
100
AcDb2dVertex
 10
106.4834295056036
 20
-119.3381252479431
 30
0.0
  0
VERTEX
  5
84
330
82
100
AcDbEntity
  8
_U+30EC_U+30A4_U+30E4_U+30FC 1
 62
     7
420
 16777215
370
     9
100
AcDbVertex
100
AcDb2dVertex
 10
106.4834295056036
 20
-124.8605791354514
 30
0.0
  0
SEQEND
  5
85
330
82
100
AcDbEntity
  8
_U+30EC_U+30A4_U+30E4_U+30FC 1
 62
     7
420
 16777215
370
     9
  0
POLYLINE
  5
86
330
1F
100
AcDbEntity
  8
_U+30EC_U+30A4_U+30E4_U+30FC 1
 62
     7
420
 16777215
370
     9
100
AcDb2dPolyline
 66
     1
 10
0.0
 20
0.0
 30
0.0
  0
VERTEX
  5
87
330
86
100
AcDbEntity
  8
_U+30EC_U+30A4_U+30E4_U+30FC 1
 62
     7
420
 16777215
370
     9
100
AcDbVertex
100
AcDb2dVertex
 10
107.4508194175814
 20
-122.8817427470575
 30
0.0
  0
VERTEX
  5
88
330
86
100
AcDbEntity
  8
_U+30EC_U+30A4_U+30E4_U+30FC 1
 62
     7
420
 16777215
370
     9
100
AcDbVertex
100
AcDb2dVertex
 10
104.490764278663
 20
-122.8817427470575
 30
0.0
  0
SEQEND
  5
89
330
86
100
AcDbEntity
  8
_U+30EC_U+30A4_U+30E4_U+30FC 1
 62
     7
420
 16777215
370
     9
  0
POLYLINE
  5
8A
330
1F
100
AcDbEntity
  8
_U+30EC_U+30A4_U+30E4_U+30FC 1
 62
     7
420
 16777215
370
     9
100
AcDb2dPolyline
 66
     1
 10
0.0
 20
0.0
 30
0.0
  0
VERTEX
  5
8B
330
8A
100
AcDbEntity
  8
_U+30EC_U+30A4_U+30E4_U+30FC 1
 62
     7
420
 16777215
370
     9
100
AcDbVertex
100
AcDb2dVertex
 10
107.4508194175814
 20
-139.8708855205876
 30
0.0
  0
VERTEX
  5
8C
330
8A
100
AcDbEntity
  8
_U+30EC_U+30A4_U+30E4_U+30FC 1
 62
     7
420
 16777215
370
     9
100
AcDbVertex
100
AcDb2dVertex
 10
101.3116368597693
 20
-139.8708855205876
 30
0.0
  0
SEQEND
  5
8D
330
8A
100
AcDbEntity
  8
_U+30EC_U+30A4_U+30E4_U+30FC 1
 62
     7
420
 16777215
370
     9
  0
POLYLINE
  5
8E
330
1F
100
AcDbEntity
  8
_U+30EC_U+30A4_U+30E4_U+30FC 1
 62
     7
420
 16777215
370
     9
100
AcDb2dPolyline
 66
     1
 10
0.0
 20
0.0
 30
0.0
  0
VERTEX
  5
8F
330
8E
100
AcDbEntity
  8
_U+30EC_U+30A4_U+30E4_U+30FC 1
 62
     7
420
 16777215
370
     9
100
AcDbVertex
100
AcDb2dVertex
 10
107.4508194175814
 20
-124.8716210798933
 30
0.0
  0
VERTEX
  5
90
330
8E
100
AcDbEntity
  8
_U+30EC_U+30A4_U+30E4_U+30FC 1
 62
     7
420
 16777215
370
     9
100
AcDbVertex
100
AcDb2dVertex
 10
104.490764278663
 20
-124.8716210798933
 30
0.0
  0
SEQEND
  5
91
330
8E
100
AcDbEntity
  8
_U+30EC_U+30A4_U+30E4_U+30FC 1
 62
     7
420
 16777215
370
     9
  0
INSERT
  5
93
330
1F
100
AcDbEntity
  8
_U+30EC_U+30A4_U+30E4_U+30FC 1
100
AcDbBlockReference
  2
block 5
 10
0.0
 20
0.0
 30
0.0
  0
INSERT
  5
9B
330
1F
100
AcDbEntity
  8
_U+30EC_U+30A4_U+30E4_U+30FC 1
100
AcDbBlockReference
  2
block 6
 10
0.0
 20
0.0
 30
0.0
  0
POLYLINE
  5
A0
330
1F
100
AcDbEntity
  8
_U+30EC_U+30A4_U+30E4_U+30FC 1
 62
     7
420
 16777215
370
     9
100
AcDb2dPolyline
 66
     1
 10
0.0
 20
0.0
 30
0.0
  0
VERTEX
  5
A1
330
A0
100
AcDbEntity
  8
_U+30EC_U+30A4_U+30E4_U+30FC 1
 62
     7
420
 16777215
370
     9
100
AcDbVertex
100
AcDb2dVertex
 10
86.64931084494746
 20
-125.592346079713
 30
0.0
  0
VERTEX
  5
A2
330
A0
100
AcDbEntity
  8
_U+30EC_U+30A4_U+30E4_U+30FC 1
 62
     7
420
 16777215
370
     9
100
AcDbVertex
100
AcDb2dVertex
 10
81.49889653190104
 20
-125.592346079713
 30
0.0
  0
SEQEND
  5
A3
330
A0
100
AcDbEntity
  8
_U+30EC_U+30A4_U+30E4_U+30FC 1
 62
     7
420
 16777215
370
     9
  0
SPLINE
  5
A4
330
1F
100
AcDbEntity
  8
_U+30EC_U+30A4_U+30E4_U+30FC 1
 62
     7
420
 16777215
370
     9
100
AcDbSpline
210
0.0
220
0.0
230
1.0
 70
    11
 71
     3
 72
    17
 73
    13
 74
     0
 42
0.0000000001
 43
0.0000000001
 12
1.0
 22
0.0
 32
0.0
 13
1.0
 23
0.0
 33
0.0
 40
0.0
 40
0.0
 40
0.0
 40
0.0
 40
1.0
 40
1.0
 40
1.0
 40
2.0
 40
2.0
 40
2.0
 40
3.0
 40
3.0
 40
3.0
 40
4.0
 40
4.0
 40
4.0
 40
4.0
 10
82.4090984531243
 20
-125.592346079713
 30
0.0
 10
82.4090984531243
 20
-125.5365366352825
 30
0.0
 10
82.36429567648953
 20
-125.4924394130713
 30
0.0
 10
82.30919178900646
 20
-125.4924394130713
 30
0.0
 10
82.25405262374652
 20
-125.4924394130713
 30
0.0
 10
82.20928512488862
 20
-125.5365366352825
 30
0.0
 10
82.20928512488862
 20
-125.592346079713
 30
0.0
 10
82.20928512488862
 20
-125.6474499685882
 30
0.0
 10
82.25405262374652
 20
-125.6922527463546
 30
0.0
 10
82.30919178900646
 20
-125.6922527463546
 30
0.0
 10
82.36429567648953
 20
-125.6922527463546
 30
0.0
 10
82.4090984531243
 20
-125.6474499685882
 30
0.0
 10
82.4090984531243
 20
-125.592346079713
 30
0.0
  0
SPLINE
  5
A5
330
1F
100
AcDbEntity
  8
_U+30EC_U+30A4_U+30E4_U+30FC 1
 62
     7
420
 16777215
370
     9
100
AcDbSpline
210
0.0
220
0.0
230
1.0
 70
    11
 71
     3
 72
    17
 73
    13
 74
     0
 42
0.0000000001
 43
0.0000000001
 12
1.0
 22
0.0
 32
0.0
 13
1.0
 23
0.0
 33
0.0
 40
0.0
 40
0.0
 40
0.0
 40
0.0
 40
1.0
 40
1.0
 40
1.0
 40
2.0
 40
2.0
 40
2.0
 40
3.0
 40
3.0
 40
3.0
 40
4.0
 40
4.0
 40
4.0
 40
4.0
 10
83.40954092760089
 20
-125.592346079713
 30
0.0
 10
83.40954092760089
 20
-125.5365366352825
 30
0.0
 10
83.36477342874299
 20
-125.4924394130713
 30
0.0
 10
83.30963426348305
 20
-125.4924394130713
 30
0.0
 10
83.25382482046243
 20
-125.4924394130713
 30
0.0
 10
83.20905732160453
 20
-125.5365366352825
 30
0.0
 10
83.20905732160453
 20
-125.592346079713
 30
0.0
 10
83.20905732160453
 20
-125.6474499685882
 30
0.0
 10
83.25382482046243
 20
-125.6922527463546
 30
0.0
 10
83.30963426348305
 20
-125.6922527463546
 30
0.0
 10
83.36477342874299
 20
-125.6922527463546
 30
0.0
 10
83.40954092760089
 20
-125.6474499685882
 30
0.0
 10
83.40954092760089
 20
-125.592346079713
 30
0.0
  0
INSERT
  5
A7
330
1F
100
AcDbEntity
  8
_U+30EC_U+30A4_U+30E4_U+30FC 1
100
AcDbBlockReference
  2
block 7
 10
0.0
 20
0.0
 30
0.0
  0
SPLINE
  5
AC
330
1F
100
AcDbEntity
  8
_U+30EC_U+30A4_U+30E4_U+30FC 1
 62
   179
420
  2234388
370
    25
100
AcDbSpline
210
0.0
220
0.0
230
1.0
 70
    11
 71
     3
 72
   113
 73
   109
 74
     0
 42
0.0000000001
 43
0.0000000001
 12
1.0
 22
0.0
 32
0.0
 13
1.0
 23
0.0
 33
0.0
 40
0.0
 40
0.0
 40
0.0
 40
0.0
 40
1.0
 40
1.0
 40
1.0
 40
2.0
 40
2.0
 40
2.0
 40
3.0
 40
3.0
 40
3.0
 40
4.0
 40
4.0
 40
4.0
 40
5.0
 40
5.0
 40
5.0
 40
6.0
 40
6.0
 40
6.0
 40
7.0
 40
7.0
 40
7.0
 40
8.0
 40
8.0
 40
8.0
 40
9.0
 40
9.0
 40
9.0
 40
10.0
 40
10.0
 40
10.0
 40
11.0
 40
11.0
 40
11.0
 40
12.0
 40
12.0
 40
12.0
 40
13.0
 40
13.0
 40
13.0
 40
14.0
 40
14.0
 40
14.0
 40
15.0
 40
15.0
 40
15.0
 40
16.0
 40
16.0
 40
16.0
 40
17.0
 40
17.0
 40
17.0
 40
18.0
 40
18.0
 40
18.0
 40
19.0
 40
19.0
 40
19.0
 40
20.0
 40
20.0
 40
20.0
 40
21.0
 40
21.0
 40
21.0
 40
22.0
 40
22.0
 40
22.0
 40
23.0
 40
23.0
 40
23.0
 40
24.0
 40
24.0
 40
24.0
 40
25.0
 40
25.0
 40
25.0
 40
26.0
 40
26.0
 40
26.0
 40
27.0
 40
27.0
 40
27.0
 40
28.0
 40
28.0
 40
28.0
 40
29.0
 40
29.0
 40
29.0
 40
30.0
 40
30.0
 40
30.0
 40
31.0
 40
31.0
 40
31.0
 40
32.0
 40
32.0
 40
32.0
 40
33.0
 40
33.0
 40
33.0
 40
34.0
 40
34.0
 40
34.0
 40
35.0
 40
35.0
 40
35.0
 40
36.0
 40
36.0
 40
36.0
 40
36.0
 10
83.30928148571427
 20
-138.8728419097264
 30
0.0
 10
83.30928148571427
 20
-138.8728419097264
 30
0.0
 10
88.01322025459568
 20
-138.8728419097264
 30
0.0
 10
88.01322025459568
 20
-138.8728419097264
 30
0.0
 10
88.01322025459568
 20
-138.8728419097264
 30
0.0
 10
88.3129402469492
 20
-139.172914687429
 30
0.0
 10
88.3129402469492
 20
-139.172914687429
 30
0.0
 10
88.3129402469492
 20
-139.172914687429
 30
0.0
 10
88.61301301707148
 20
-138.8728419097264
 30
0.0
 10
88.61301301707148
 20
-138.8728419097264
 30
0.0
 10
88.61301301707148
 20
-138.8728419097264
 30
0.0
 10
93.31349456381886
 20
-138.8728419097264
 30
0.0
 10
93.31349456381886
 20
-138.8728419097264
 30
0.0
 10
93.31349456381886
 20
-138.8728419097264
 30
0.0
 10
93.31349456381886
 20
-138.8731946875041
 30
0.0
 10
93.31349456381886
 20
-138.8731946875041
 30
0.0
 10
93.31349456381886
 20
-138.8731946875041
 30
0.0
 10
93.31349456381886
 20
-124.1274716356348
 30
0.0
 10
93.31349456381886
 20
-124.1274716356348
 30
0.0
 10
93.31349456381886
 20
-124.1274716356348
 30
0.0
 10
92.31305208934228
 20
-124.1274716356348
 30
0.0
 10
92.31305208934228
 20
-124.1274716356348
 30
0.0
 10
92.31305208934228
 20
-123.4370855246964
 30
0.0
 10
92.87287513061555
 20
-122.8772624692808
 30
0.0
 10
93.56329650189033
 20
-122.8772624692808
 30
0.0
 10
93.56329650189033
 20
-122.8772624692808
 30
0.0
 10
93.59187150116132
 20
-122.8762041359475
 30
0.0
 10
93.59187150116132
 20
-122.8762041359475
 30
0.0
 10
93.59187150116132
 20
-122.8762041359475
 30
0.0
 10
101.6031018523334
 20
-122.8762041359475
 30
0.0
 10
101.6031018523334
 20
-122.8762041359475
 30
0.0
 10
101.6031018523334
 20
-122.8762041359475
 30
0.0
 10
102.3121146120227
 20
-124.1419355245201
 30
0.0
 10
102.3121146120227
 20
-124.1419355245201
 30
0.0
 10
102.3121146120227
 20
-124.1419355245201
 30
0.0
 10
102.3121146120227
 20
-124.1405596911872
 30
0.0
 10
102.3121146120227
 20
-124.1405596911872
 30
0.0
 10
102.3121146120227
 20
-124.1405596911872
 30
0.0
 10
102.3121146120227
 20
-124.8716210798933
 30
0.0
 10
102.3121146120227
 20
-124.8716210798933
 30
0.0
 10
102.3121146120227
 20
-124.8716210798933
 30
0.0
 10
101.3116368597693
 20
-124.8716210798933
 30
0.0
 10
101.3116368597693
 20
-124.8716210798933
 30
0.0
 10
101.3116368597693
 20
-124.8716210798933
 30
0.0
 10
100.8954649259422
 20
-124.1274716356348
 30
0.0
 10
100.8954649259422
 20
-124.1274716356348
 30
0.0
 10
100.8954649259422
 20
-124.1274716356348
 30
0.0
 10
100.8954649259422
 20
-124.1257430245241
 30
0.0
 10
100.8954649259422
 20
-124.1257430245241
 30
0.0
 10
100.8954649259422
 20
-124.1257430245241
 30
0.0
 10
94.31326676053477
 20
-124.1257430245241
 30
0.0
 10
94.31326676053477
 20
-124.1257430245241
 30
0.0
 10
94.31326676053477
 20
-124.1257430245241
 30
0.0
 10
94.31326676053477
 20
-124.1274716356348
 30
0.0
 10
94.31326676053477
 20
-124.1274716356348
 30
0.0
 10
94.31326676053477
 20
-124.1274716356348
 30
0.0
 10
94.31326676053477
 20
-139.8732844094763
 30
0.0
 10
94.31326676053477
 20
-139.8732844094763
 30
0.0
 10
94.31326676053477
 20
-139.8732844094763
 30
0.0
 10
82.30919178900646
 20
-139.8732844094763
 30
0.0
 10
82.30919178900646
 20
-139.8732844094763
 30
0.0
 10
82.30919178900646
 20
-139.8732844094763
 30
0.0
 10
82.30919178900646
 20
-139.8732844094763
 30
0.0
 10
82.30919178900646
 20
-139.8732844094763
 30
0.0
 10
82.30919178900646
 20
-139.8732844094763
 30
0.0
 10
82.30919178900646
 20
-124.1274716356348
 30
0.0
 10
82.30919178900646
 20
-124.1274716356348
 30
0.0
 10
82.30919178900646
 20
-124.1274716356348
 30
0.0
 10
82.30919178900646
 20
-124.1257430245241
 30
0.0
 10
82.30919178900646
 20
-124.1257430245241
 30
0.0
 10
82.30919178900646
 20
-124.1257430245241
 30
0.0
 10
75.8978791747949
 20
-124.1257430245241
 30
0.0
 10
75.8978791747949
 20
-124.1257430245241
 30
0.0
 10
75.8978791747949
 20
-124.1257430245241
 30
0.0
 10
75.8978791747949
 20
-124.1274716356348
 30
0.0
 10
75.8978791747949
 20
-124.1274716356348
 30
0.0
 10
75.8978791747949
 20
-124.1274716356348
 30
0.0
 10
75.31322057859967
 20
-124.8716210798933
 30
0.0
 10
75.31322057859967
 20
-124.8716210798933
 30
0.0
 10
75.31322057859967
 20
-124.8716210798933
 30
0.0
 10
74.31313088189187
 20
-124.8716210798933
 30
0.0
 10
74.31313088189187
 20
-124.8716210798933
 30
0.0
 10
74.31313088189187
 20
-124.8716210798933
 30
0.0
 10
74.31313088189187
 20
-124.1367849689657
 30
0.0
 10
74.31313088189187
 20
-124.1367849689657
 30
0.0
 10
74.31313088189187
 20
-124.1367849689657
 30
0.0
 10
75.31322057859967
 20
-122.8745108026147
 30
0.0
 10
75.31322057859967
 20
-122.8745108026147
 30
0.0
 10
75.31322057859967
 20
-122.8745108026147
 30
0.0
 10
75.31322057859967
 20
-122.8762041359475
 30
0.0
 10
75.31322057859967
 20
-122.8762041359475
 30
0.0
 10
75.31322057859967
 20
-122.8762041359475
 30
0.0
 10
83.12982343473708
 20
-122.8762041359475
 30
0.0
 10
83.12982343473708
 20
-122.8762041359475
 30
0.0
 10
83.12982343473708
 20
-122.8762041359475
 30
0.0
 10
83.05951482541968
 20
-122.8772624692808
 30
0.0
 10
83.05951482541968
 20
-122.8772624692808
 30
0.0
 10
83.74993619669445
 20
-122.8772624692808
 30
0.0
 10
84.30940646019896
 20
-123.4367327469187
 30
0.0
 10
84.30940646019896
 20
-124.1274716356348
 30
0.0
 10
84.30940646019896
 20
-124.1274716356348
 30
0.0
 10
83.30928148571427
 20
-124.1274716356348
 30
0.0
 10
83.30928148571427
 20
-124.1274716356348
 30
0.0
 10
83.30928148571427
 20
-124.1274716356348
 30
0.0
 10
83.30928148571427
 20
-138.8731946875041
 30
0.0
 10
83.30928148571427
 20
-138.8731946875041
 30
0.0
 10
83.30928148571427
 20
-138.8731946875041
 30
0.0
 10
83.30928148571427
 20
-138.8728419097264
 30
0.0
 10
83.30928148571427
 20
-138.8728419097264
 30
0.0
  0
ENDSEC
  0
SECTION
  2
OBJECTS
  0
DICTIONARY
  5
C
330
0
100
AcDbDictionary
281
     1
  3
ACAD_GROUP
350
D
  3
ACAD_LAYOUT
350
1A
  3
ACAD_MATERIAL
350
3B
  3
ACAD_MLEADERSTYLE
350
AE
  3
ACAD_MLINESTYLE
350
17
  3
ACAD_PLOTSETTINGS
350
19
  3
ACAD_PLOTSTYLENAME
350
E
  3
ACAD_TABLESTYLE
350
AD
  3
ACAD_VISUALSTYLE
350
2A
  0
SUN
  5
3F
330
29
100
AcDbSun
 90
        1
290
     0
 63
     7
421
 16777215
 40
1.0
291
     1
 91
  2455826
 92
 54000000
292
     0
 70
     2
 71
   256
280
     1
  0
DICTIONARY
  5
D
102
{ACAD_REACTORS
330
C
102
}
330
C
100
AcDbDictionary
281
     1
  0
DICTIONARY
  5
1A
102
{ACAD_REACTORS
330
C
102
}
330
C
100
AcDbDictionary
281
     1
  3
Layout1
350
1E
  3
Layout2
350
26
  3
Model
350
22
  0
DICTIONARY
  5
3B
102
{ACAD_REACTORS
330
C
102
}
330
C
100
AcDbDictionary
281
     1
  3
ByBlock
350
3D
  3
ByLayer
350
3C
  3
Global
350
3E
  0
DICTIONARY
  5
AE
102
{ACAD_REACTORS
330
C
102
}
330
C
100
AcDbDictionary
281
     1
  0
DICTIONARY
  5
17
102
{ACAD_REACTORS
330
C
102
}
330
C
100
AcDbDictionary
281
     1
  3
Standard
350
18
  0
DICTIONARY
  5
19
102
{ACAD_REACTORS
330
C
102
}
330
C
100
AcDbDictionary
281
     1
  0
ACDBDICTIONARYWDFLT
  5
E
102
{ACAD_REACTORS
330
C
102
}
330
C
100
AcDbDictionary
281
     1
  3
Normal
350
F
100
AcDbDictionaryWithDefault
340
F
  0
DICTIONARY
  5
AD
102
{ACAD_REACTORS
330
C
102
}
330
C
100
AcDbDictionary
281
     1
  0
DICTIONARY
  5
2A
102
{ACAD_REACTORS
330
C
102
}
330
C
100
AcDbDictionary
281
     1
  3
2dWireframe
350
2F
  3
3D Hidden
350
31
  3
3dWireframe
350
30
  3
Basic
350
32
  3
Brighten
350
36
  3
ColorChange
350
3A
  3
Conceptual
350
34
  3
Dim
350
35
  3
Facepattern
350
39
  3
Flat
350
2B
  3
FlatWithEdges
350
2C
  3
Gouraud
350
2D
  3
GouraudWithEdges
350
2E
  3
Linepattern
350
38
  3
Realistic
350
33
  3
Thicken
350
37
  0
LAYOUT
  5
1E
102
{ACAD_REACTORS
330
1A
102
}
330
1A
100
AcDbPlotSettings
  1

  2
none_device
  4

  6

 40
0.0
 41
0.0
 42
0.0
 43
0.0
 44
0.0
 45
0.0
 46
0.0
 47
0.0
 48
0.0
 49
0.0
140
0.0
141
0.0
142
1.0
143
1.0
 70
   688
 72
     0
 73
     0
 74
     5
  7

 75
    16
 76
     0
 77
     2
 78
   300
147
1.0
148
0.0
149
0.0
100
AcDbLayout
  1
Layout1
 70
     1
 71
     1
 10
0.0
 20
0.0
 11
12.0
 21
9.0
 12
0.0
 22
0.0
 32
0.0
 14
1.000000000000000E+20
 24
1.000000000000000E+20
 34
1.000000000000000E+20
 15
-1.000000000000000E+20
 25
-1.000000000000000E+20
 35
-1.000000000000000E+20
146
0.0
 13
0.0
 23
0.0
 33
0.0
 16
1.0
 26
0.0
 36
0.0
 17
0.0
 27
1.0
 37
0.0
 76
     0
330
1B
  0
LAYOUT
  5
26
102
{ACAD_REACTORS
330
1A
102
}
330
1A
100
AcDbPlotSettings
  1

  2
none_device
  4

  6

 40
0.0
 41
0.0
 42
0.0
 43
0.0
 44
0.0
 45
0.0
 46
0.0
 47
0.0
 48
0.0
 49
0.0
140
0.0
141
0.0
142
1.0
143
1.0
 70
   688
 72
     0
 73
     0
 74
     5
  7

 75
    16
 76
     0
 77
     2
 78
   300
147
1.0
148
0.0
149
0.0
100
AcDbLayout
  1
Layout2
 70
     1
 71
     2
 10
0.0
 20
0.0
 11
0.0
 21
0.0
 12
0.0
 22
0.0
 32
0.0
 14
0.0
 24
0.0
 34
0.0
 15
0.0
 25
0.0
 35
0.0
146
0.0
 13
0.0
 23
0.0
 33
0.0
 16
1.0
 26
0.0
 36
0.0
 17
0.0
 27
1.0
 37
0.0
 76
     0
330
23
  0
LAYOUT
  5
22
102
{ACAD_REACTORS
330
1A
102
}
330
1A
100
AcDbPlotSettings
  1

  2
none_device
  4

  6

 40
0.0
 41
0.0
 42
0.0
 43
0.0
 44
0.0
 45
0.0
 46
0.0
 47
0.0
 48
0.0
 49
0.0
140
0.0
141
0.0
142
1.0
143
1.0
 70
  1712
 72
     0
 73
     0
 74
     0
  7

 75
     0
 76
     0
 77
     2
 78
   300
147
1.0
148
0.0
149
0.0
100
AcDbLayout
  1
Model
 70
     1
 71
     0
 10
0.0
 20
0.0
 11
12.0
 21
9.0
 12
0.0
 22
0.0
 32
0.0
 14
1.000000000000000E+20
 24
1.000000000000000E+20
 34
1.000000000000000E+20
 15
-1.000000000000000E+20
 25
-1.000000000000000E+20
 35
-1.000000000000000E+20
146
0.0
 13
0.0
 23
0.0
 33
0.0
 16
1.0
 26
0.0
 36
0.0
 17
0.0
 27
1.0
 37
0.0
 76
     0
330
1F
331
29
  0
MATERIAL
  5
3D
102
{ACAD_REACTORS
330
3B
102
}
330
3B
100
AcDbMaterial
  1
ByBlock
 72
     1
 94
      127
  0
MATERIAL
  5
3C
102
{ACAD_REACTORS
330
3B
102
}
330
3B
100
AcDbMaterial
  1
ByLayer
 72
     1
 94
      127
  0
MATERIAL
  5
3E
102
{ACAD_REACTORS
330
3B
102
}
330
3B
100
AcDbMaterial
  1
Global
 72
     1
 94
      127
  0
MLINESTYLE
  5
18
102
{ACAD_REACTORS
330
17
102
}
330
17
100
AcDbMlineStyle
  2
Standard
 70
     0
  3

 62
   256
 51
90.0
 52
90.0
 71
     2
 49
0.5
 62
   256
  6
BYLAYER
 49
-0.5
 62
   256
  6
BYLAYER
  0
ACDBPLACEHOLDER
  5
F
102
{ACAD_REACTORS
330
E
102
}
330
E
  0
VISUALSTYLE
  5
2F
102
{ACAD_REACTORS
330
2A
102
}
330
2A
100
AcDbVisualStyle
  2
2dWireframe
 70
     4
177
     2
291
     0
 71
     0
176
     1
 72
     2
176
     1
 73
     0
176
     1
 90
        0
176
     1
 40
-0.6
176
     1
 41
-30.0
176
     1
 62
     5
 63
     7
421
 16777215
176
     1
 74
     1
176
     1
 91
        4
176
     1
 64
     7
176
     1
 65
   257
176
     1
 75
     1
176
     1
175
     1
176
     1
 42
1.0
176
     1
 92
        0
176
     1
 66
   257
176
     1
 43
1.0
176
     1
 76
     1
176
     1
 77
     6
176
     1
 78
     2
176
     1
 67
     7
176
     1
 79
     5
176
     1
170
     0
176
     1
171
     0
176
     1
290
     0
176
     1
 93
        1
176
     1
 44
0.0
176
     1
173
     0
176
     1
  0
VISUALSTYLE
  5
31
102
{ACAD_REACTORS
330
2A
102
}
330
2A
100
AcDbVisualStyle
  2
3D Hidden
 70
     6
177
     2
291
     0
 71
     1
176
     1
 72
     2
176
     1
 73
     2
176
     1
 90
        0
176
     1
 40
-0.6
176
     1
 41
-30.0
176
     1
 62
     5
 63
     7
421
 16777215
176
     1
 74
     2
176
     1
 91
        2
176
     1
 64
     7
176
     1
 65
   257
176
     1
 75
     2
176
     1
175
     1
176
     1
 42
40.0
176
     1
 92
        0
176
     1
 66
   257
176
     1
 43
1.0
176
     1
 76
     1
176
     1
 77
     6
176
     1
 78
     2
176
     1
 67
     7
176
     1
 79
     3
176
     1
170
     0
176
     1
171
     0
176
     1
290
     0
176
     1
 93
        1
176
     1
 44
0.0
176
     1
173
     0
176
     1
  0
VISUALSTYLE
  5
30
102
{ACAD_REACTORS
330
2A
102
}
330
2A
100
AcDbVisualStyle
  2
3dWireframe
 70
     5
177
     2
291
     0
 71
     0
176
     1
 72
     2
176
     1
 73
     0
176
     1
 90
        0
176
     1
 40
-0.6
176
     1
 41
-30.0
176
     1
 62
     5
 63
     7
421
 16777215
176
     1
 74
     1
176
     1
 91
        4
176
     1
 64
     7
176
     1
 65
   257
176
     1
 75
     1
176
     1
175
     1
176
     1
 42
1.0
176
     1
 92
        0
176
     1
 66
   257
176
     1
 43
1.0
176
     1
 76
     1
176
     1
 77
     6
176
     1
 78
     2
176
     1
 67
     7
176
     1
 79
     5
176
     1
170
     0
176
     1
171
     0
176
     1
290
     0
176
     1
 93
        1
176
     1
 44
0.0
176
     1
173
     0
176
     1
  0
VISUALSTYLE
  5
32
102
{ACAD_REACTORS
330
2A
102
}
330
2A
100
AcDbVisualStyle
  2
Basic
 70
     7
177
     2
291
     1
 71
     1
176
     1
 72
     0
176
     1
 73
     1
176
     1
 90
        0
176
     1
 40
-0.6
176
     1
 41
-30.0
176
     1
 62
     5
 63
     7
421
 16777215
176
     1
 74
     0
176
     1
 91
        4
176
     1
 64
     7
176
     1
 65
   257
176
     1
 75
     1
176
     1
175
     1
176
     1
 42
1.0
176
     1
 92
        8
176
     1
 66
     7
176
     1
 43
1.0
176
     1
 76
     1
176
     1
 77
     6
176
     1
 78
     2
176
     1
 67
     7
176
     1
 79
     5
176
     1
170
     0
176
     1
171
     0
176
     1
290
     0
176
     1
 93
        1
176
     1
 44
0.0
176
     1
173
     0
176
     1
  0
VISUALSTYLE
  5
36
102
{ACAD_REACTORS
330
2A
102
}
330
2A
100
AcDbVisualStyle
  2
Brighten
 70
    12
177
     2
291
     1
 71
     2
176
     1
 72
     2
176
     1
 73
     0
176
     1
 90
        0
176
     1
 40
-0.6
176
     1
 41
-30.0
176
     1
 62
     5
 63
     7
421
 16777215
176
     1
 74
     1
176
     1
 91
        4
176
     1
 64
     7
176
     1
 65
   257
176
     1
 75
     1
176
     1
175
     1
176
     1
 42
1.0
176
     1
 92
        8
176
     1
 66
     7
176
     1
 43
1.0
176
     1
 76
     1
176
     1
 77
     6
176
     1
 78
     2
176
     1
 67
     7
176
     1
 79
     5
176
     1
170
     0
176
     1
171
     0
176
     1
290
     0
176
     1
 93
        1
176
     1
 44
50.0
176
     1
173
     0
176
     1
  0
VISUALSTYLE
  5
3A
102
{ACAD_REACTORS
330
2A
102
}
330
2A
100
AcDbVisualStyle
  2
ColorChange
 70
    16
177
     2
291
     1
 71
     2
176
     1
 72
     2
176
     1
 73
     3
176
     1
 90
        0
176
     1
 40
-0.6
176
     1
 41
-30.0
176
     1
 62
     5
 63
     8
421
  8421504
176
     1
 74
     1
176
     1
 91
        4
176
     1
 64
     7
176
     1
 65
   257
176
     1
 75
     1
176
     1
175
     1
176
     1
 42
1.0
176
     1
 92
        8
176
     1
 66
     8
424
  8421504
176
     1
 43
1.0
176
     1
 76
     1
176
     1
 77
     6
176
     1
 78
     2
176
     1
 67
     7
176
     1
 79
     5
176
     1
170
     0
176
     1
171
     0
176
     1
290
     0
176
     1
 93
        1
176
     1
 44
0.0
176
     1
173
     0
176
     1
  0
VISUALSTYLE
  5
34
102
{ACAD_REACTORS
330
2A
102
}
330
2A
100
AcDbVisualStyle
  2
Conceptual
 70
     9
177
     2
291
     0
 71
     3
176
     1
 72
     2
176
     1
 73
     0
176
     1
 90
        0
176
     1
 40
-0.6
176
     1
 41
-30.0
176
     1
 62
     5
 63
     7
421
 16777215
176
     1
 74
     2
176
     1
 91
        2
176
     1
 64
     7
176
     1
 65
   257
176
     1
 75
     1
176
     1
175
     1
176
     1
 42
40.0
176
     1
 92
        8
176
     1
 66
     7
176
     1
 43
1.0
176
     1
 76
     1
176
     1
 77
     6
176
     1
 78
     2
176
     1
 67
     7
176
     1
 79
     3
176
     1
170
     0
176
     1
171
     0
176
     1
290
     0
176
     1
 93
        1
176
     1
 44
0.0
176
     1
173
     0
176
     1
  0
VISUALSTYLE
  5
35
102
{ACAD_REACTORS
330
2A
102
}
330
2A
100
AcDbVisualStyle
  2
Dim
 70
    11
177
     2
291
     1
 71
     2
176
     1
 72
     2
176
     1
 73
     0
176
     1
 90
        0
176
     1
 40
-0.6
176
     1
 41
-30.0
176
     1
 62
     5
 63
     7
421
 16777215
176
     1
 74
     1
176
     1
 91
        4
176
     1
 64
     7
176
     1
 65
   257
176
     1
 75
     1
176
     1
175
     1
176
     1
 42
1.0
176
     1
 92
        8
176
     1
 66
     7
176
     1
 43
1.0
176
     1
 76
     1
176
     1
 77
     6
176
     1
 78
     2
176
     1
 67
     7
176
     1
 79
     5
176
     1
170
     0
176
     1
171
     0
176
     1
290
     0
176
     1
 93
        1
176
     1
 44
-50.0
176
     1
173
     0
176
     1
  0
VISUALSTYLE
  5
39
102
{ACAD_REACTORS
330
2A
102
}
330
2A
100
AcDbVisualStyle
  2
Facepattern
 70
    15
177
     2
291
     1
 71
     2
176
     1
 72
     2
176
     1
 73
     0
176
     1
 90
        0
176
     1
 40
-0.6
176
     1
 41
-30.0
176
     1
 62
     5
 63
     7
421
 16777215
176
     1
 74
     1
176
     1
 91
        4
176
     1
 64
     7
176
     1
 65
   257
176
     1
 75
     1
176
     1
175
     1
176
     1
 42
1.0
176
     1
 92
        8
176
     1
 66
     7
176
     1
 43
1.0
176
     1
 76
     1
176
     1
 77
     6
176
     1
 78
     2
176
     1
 67
     7
176
     1
 79
     5
176
     1
170
     0
176
     1
171
     0
176
     1
290
     0
176
     1
 93
        1
176
     1
 44
0.0
176
     1
173
     0
176
     1
  0
VISUALSTYLE
  5
2B
102
{ACAD_REACTORS
330
2A
102
}
330
2A
100
AcDbVisualStyle
  2
Flat
 70
     0
177
     2
291
     1
 71
     2
176
     1
 72
     1
176
     1
 73
     1
176
     1
 90
        2
176
     1
 40
-0.6
176
     1
 41
30.0
176
     1
 62
     5
 63
     7
421
 16777215
176
     1
 74
     0
176
     1
 91
        4
176
     1
 64
     7
176
     1
 65
   257
176
     1
 75
     1
176
     1
175
     1
176
     1
 42
1.0
176
     1
 92
        8
176
     1
 66
     7
176
     1
 43
1.0
176
     1
 76
     1
176
     1
 77
     6
176
     1
 78
     2
176
     1
 67
     7
176
     1
 79
     5
176
     1
170
     0
176
     1
171
     0
176
     1
290
     0
176
     1
 93
       13
176
     1
 44
0.0
176
     1
173
     0
176
     1
  0
VISUALSTYLE
  5
2C
102
{ACAD_REACTORS
330
2A
102
}
330
2A
100
AcDbVisualStyle
  2
FlatWithEdges
 70
     1
177
     2
291
     1
 71
     2
176
     1
 72
     1
176
     1
 73
     1
176
     1
 90
        2
176
     1
 40
-0.6
176
     1
 41
30.0
176
     1
 62
     5
 63
     7
421
 16777215
176
     1
 74
     1
176
     1
 91
        4
176
     1
 64
     7
176
     1
 65
   257
176
     1
 75
     1
176
     1
175
     1
176
     1
 42
1.0
176
     1
 92
        0
176
     1
 66
   257
176
     1
 43
1.0
176
     1
 76
     1
176
     1
 77
     6
176
     1
 78
     2
176
     1
 67
     7
176
     1
 79
     5
176
     1
170
     0
176
     1
171
     0
176
     1
290
     0
176
     1
 93
       13
176
     1
 44
0.0
176
     1
173
     0
176
     1
  0
VISUALSTYLE
  5
2D
102
{ACAD_REACTORS
330
2A
102
}
330
2A
100
AcDbVisualStyle
  2
Gouraud
 70
     2
177
     2
291
     1
 71
     2
176
     1
 72
     2
176
     1
 73
     1
176
     1
 90
        2
176
     1
 40
-0.6
176
     1
 41
30.0
176
     1
 62
     5
 63
     7
421
 16777215
176
     1
 74
     0
176
     1
 91
        4
176
     1
 64
     7
176
     1
 65
   257
176
     1
 75
     1
176
     1
175
     1
176
     1
 42
1.0
176
     1
 92
        0
176
     1
 66
     7
176
     1
 43
1.0
176
     1
 76
     1
176
     1
 77
     6
176
     1
 78
     2
176
     1
 67
     7
176
     1
 79
     5
176
     1
170
     0
176
     1
171
     0
176
     1
290
     0
176
     1
 93
       13
176
     1
 44
0.0
176
     1
173
     0
176
     1
  0
VISUALSTYLE
  5
2E
102
{ACAD_REACTORS
330
2A
102
}
330
2A
100
AcDbVisualStyle
  2
GouraudWithEdges
 70
     3
177
     2
291
     1
 71
     2
176
     1
 72
     2
176
     1
 73
     1
176
     1
 90
        2
176
     1
 40
-0.6
176
     1
 41
30.0
176
     1
 62
     5
 63
     7
421
 16777215
176
     1
 74
     1
176
     1
 91
        4
176
     1
 64
     7
176
     1
 65
   257
176
     1
 75
     1
176
     1
175
     1
176
     1
 42
1.0
176
     1
 92
        0
176
     1
 66
   257
176
     1
 43
1.0
176
     1
 76
     1
176
     1
 77
     6
176
     1
 78
     2
176
     1
 67
     7
176
     1
 79
     5
176
     1
170
     0
176
     1
171
     0
176
     1
290
     0
176
     1
 93
       13
176
     1
 44
0.0
176
     1
173
     0
176
     1
  0
VISUALSTYLE
  5
38
102
{ACAD_REACTORS
330
2A
102
}
330
2A
100
AcDbVisualStyle
  2
Linepattern
 70
    14
177
     2
291
     1
 71
     2
176
     1
 72
     2
176
     1
 73
     0
176
     1
 90
        0
176
     1
 40
-0.6
176
     1
 41
-30.0
176
     1
 62
     5
 63
     7
421
 16777215
176
     1
 74
     1
176
     1
 91
        4
176
     1
 64
     7
176
     1
 65
   257
176
     1
 75
     7
176
     1
175
     7
176
     1
 42
1.0
176
     1
 92
        8
176
     1
 66
     7
176
     1
 43
1.0
176
     1
 76
     1
176
     1
 77
     6
176
     1
 78
     2
176
     1
 67
     7
176
     1
 79
     5
176
     1
170
     0
176
     1
171
     0
176
     1
290
     0
176
     1
 93
        1
176
     1
 44
0.0
176
     1
173
     0
176
     1
  0
VISUALSTYLE
  5
33
102
{ACAD_REACTORS
330
2A
102
}
330
2A
100
AcDbVisualStyle
  2
Realistic
 70
     8
177
     2
291
     0
 71
     2
176
     1
 72
     2
176
     1
 73
     0
176
     1
 90
        0
176
     1
 40
-0.6
176
     1
 41
-30.0
176
     1
 62
     5
 63
     7
421
 16777215
176
     1
 74
     1
176
     1
 91
        0
176
     1
 64
     7
176
     1
 65
   257
176
     1
 75
     1
176
     1
175
     1
176
     1
 42
1.0
176
     1
 92
        8
176
     1
 66
     8
424
  7895160
176
     1
 43
1.0
176
     1
 76
     1
176
     1
 77
     6
176
     1
 78
     2
176
     1
 67
     7
176
     1
 79
     5
176
     1
170
     0
176
     1
171
     0
176
     1
290
     0
176
     1
 93
       13
176
     1
 44
0.0
176
     1
173
     0
176
     1
  0
VISUALSTYLE
  5
37
102
{ACAD_REACTORS
330
2A
102
}
330
2A
100
AcDbVisualStyle
  2
Thicken
 70
    13
177
     2
291
     1
 71
     2
176
     1
 72
     2
176
     1
 73
     0
176
     1
 90
        0
176
     1
 40
-0.6
176
     1
 41
-30.0
176
     1
 62
     5
 63
     7
421
 16777215
176
     1
 74
     1
176
     1
 91
        4
176
     1
 64
     7
176
     1
 65
   257
176
     1
 75
     1
176
     1
175
     1
176
     1
 42
1.0
176
     1
 92
       12
176
     1
 66
     7
176
     1
 43
1.0
176
     1
 76
     1
176
     1
 77
     6
176
     1
 78
     2
176
     1
 67
     7
176
     1
 79
     5
176
     1
170
     0
176
     1
171
     0
176
     1
290
     0
176
     1
 93
        1
176
     1
 44
0.0
176
     1
173
     0
176
     1
  0
ENDSEC
  0
EOF
