  0
SECTION
  2
HEADER
  9
$ACADVER
  1
AC1024
  9
$ACADMAINTVER
 70
     6
  9
$DWGCODEPAGE
  3
UNDEFINED
  9
$INSBASE
 10
0.0
 20
0.0
 30
0.0
  9
$EXTMIN
 10
1.000000000000000E+20
 20
1.000000000000000E+20
 30
1.000000000000000E+20
  9
$EXTMAX
 10
-1.000000000000000E+20
 20
-1.000000000000000E+20
 30
-1.000000000000000E+20
  9
$LIMMIN
 10
0.0
 20
0.0
  9
$LIMMAX
 10
12.0
 20
9.0
  9
$ORTHOMODE
 70
     0
  9
$REGENMODE
 70
     1
  9
$FILLMODE
 70
     1
  9
$QTEXTMODE
 70
     0
  9
$MIRRTEXT
 70
     1
  9
$LTSCALE
 40
1.0
  9
$ATTMODE
 70
     1
  9
$TEXTSIZE
 40
0.2
  9
$TRACEWID
 40
0.05
  9
$TEXTSTYLE
  7
Standard
  9
$CLAYER
  8
0
  9
$CELTYPE
  6
ByLayer
  9
$CECOLOR
 62
   256
  9
$CELTSCALE
 40
1.0
  9
$DISPSILH
 70
     0
  9
$DIMSCALE
 40
1.0
  9
$DIMASZ
 40
0.18
  9
$DIMEXO
 40
0.0625
  9
$DIMDLI
 40
0.38
  9
$DIMRND
 40
0.0
  9
$DIMDLE
 40
0.0
  9
$DIMEXE
 40
0.18
  9
$DIMTP
 40
0.0
  9
$DIMTM
 40
0.0
  9
$DIMTXT
 40
0.18
  9
$DIMCEN
 40
0.09
  9
$DIMTSZ
 40
0.0
  9
$DIMTOL
 70
     0
  9
$DIMLIM
 70
     0
  9
$DIMTIH
 70
     1
  9
$DIMTOH
 70
     1
  9
$DIMSE1
 70
     0
  9
$DIMSE2
 70
     0
  9
$DIMTAD
 70
     0
  9
$DIMZIN
 70
     0
  9
$DIMBLK
  1

  9
$DIMASO
 70
     1
  9
$DIMSHO
 70
     1
  9
$DIMPOST
  1

  9
$DIMAPOST
  1

  9
$DIMALT
 70
     0
  9
$DIMALTD
 70
     2
  9
$DIMALTF
 40
25.4
  9
$DIMLFAC
 40
1.0
  9
$DIMTOFL
 70
     0
  9
$DIMTVP
 40
0.0
  9
$DIMTIX
 70
     0
  9
$DIMSOXD
 70
     0
  9
$DIMSAH
 70
     0
  9
$DIMBLK1
  1

  9
$DIMBLK2
  1

  9
$DIMSTYLE
  2
Standard
  9
$DIMCLRD
 70
     0
  9
$DIMCLRE
 70
     0
  9
$DIMCLRT
 70
     0
  9
$DIMTFAC
 40
1.0
  9
$DIMGAP
 40
0.09
  9
$DIMJUST
 70
     0
  9
$DIMSD1
 70
     0
  9
$DIMSD2
 70
     0
  9
$DIMTOLJ
 70
     1
  9
$DIMTZIN
 70
     0
  9
$DIMALTZ
 70
     0
  9
$DIMALTTZ
 70
     0
  9
$DIMUPT
 70
     0
  9
$DIMDEC
 70
     4
  9
$DIMTDEC
 70
     4
  9
$DIMALTU
 70
     2
  9
$DIMALTTD
 70
     2
  9
$DIMTXSTY
  7
Standard
  9
$DIMAUNIT
 70
     0
  9
$DIMADEC
 70
     0
  9
$DIMALTRND
 40
0.0
  9
$DIMAZIN
 70
     0
  9
$DIMDSEP
 70
    46
  9
$DIMATFIT
 70
     3
  9
$DIMFRAC
 70
     0
  9
$DIMLDRBLK
  1

  9
$DIMLUNIT
 70
     2
  9
$DIMLWD
 70
    -2
  9
$DIMLWE
 70
    -2
  9
$DIMTMOVE
 70
     0
  9
$DIMFXL
 40
1.0
  9
$DIMFXLON
 70
     0
  9
$DIMJOGANG
 40
0.7853981633974483
  9
$DIMTFILL
 70
     0
  9
$DIMTFILLCLR
 70
     0
  9
$DIMARCSYM
 70
     0
  9
$DIMLTYPE
  6

  9
$DIMLTEX1
  6

  9
$DIMLTEX2
  6

  9
$DIMTXTDIRECTION
 70
     0
  9
$LUNITS
 70
     2
  9
$LUPREC
 70
     4
  9
$SKETCHINC
 40
0.1
  9
$FILLETRAD
 40
0.5
  9
$AUNITS
 70
     0
  9
$AUPREC
 70
     0
  9
$MENU
  1
.
  9
$ELEVATION
 40
0.0
  9
$PELEVATION
 40
0.0
  9
$THICKNESS
 40
0.0
  9
$LIMCHECK
 70
     0
  9
$CHAMFERA
 40
0.5
  9
$CHAMFERB
 40
0.5
  9
$CHAMFERC
 40
1.0
  9
$CHAMFERD
 40
0.0
  9
$SKPOLY
 70
     0
  9
$TDCREATE
 40
2457917.593344896
  9
$TDUCREATE
 40
2457917.218344907
  9
$TDUPDATE
 40
2457917.593344896
  9
$TDUUPDATE
 40
2457917.218344907
  9
$TDINDWG
 40
0.0000000116
  9
$TDUSRTIMER
 40
0.0000000116
  9
$USRTIMER
 70
     1
  9
$ANGBASE
 50
0.0
  9
$ANGDIR
 70
     0
  9
$PDMODE
 70
     0
  9
$PDSIZE
 40
0.0
  9
$PLINEWID
 40
0.0
  9
$SPLFRAME
 70
     0
  9
$SPLINETYPE
 70
     6
  9
$SPLINESEGS
 70
     8
  9
$HANDSEED
  5
B9
  9
$SURFTAB1
 70
     6
  9
$SURFTAB2
 70
     6
  9
$SURFTYPE
 70
     6
  9
$SURFU
 70
     6
  9
$SURFV
 70
     6
  9
$UCSBASE
  2

  9
$UCSNAME
  2

  9
$UCSORG
 10
0.0
 20
0.0
 30
0.0
  9
$UCSXDIR
 10
1.0
 20
0.0
 30
0.0
  9
$UCSYDIR
 10
0.0
 20
1.0
 30
0.0
  9
$UCSORTHOREF
  2

  9
$UCSORTHOVIEW
 70
     0
  9
$UCSORGTOP
 10
0.0
 20
0.0
 30
0.0
  9
$UCSORGBOTTOM
 10
0.0
 20
0.0
 30
0.0
  9
$UCSORGLEFT
 10
0.0
 20
0.0
 30
0.0
  9
$UCSORGRIGHT
 10
0.0
 20
0.0
 30
0.0
  9
$UCSORGFRONT
 10
0.0
 20
0.0
 30
0.0
  9
$UCSORGBACK
 10
0.0
 20
0.0
 30
0.0
  9
$PUCSBASE
  2

  9
$PUCSNAME
  2

  9
$PUCSORG
 10
0.0
 20
0.0
 30
0.0
  9
$PUCSXDIR
 10
1.0
 20
0.0
 30
0.0
  9
$PUCSYDIR
 10
0.0
 20
1.0
 30
0.0
  9
$PUCSORTHOREF
  2

  9
$PUCSORTHOVIEW
 70
     0
  9
$PUCSORGTOP
 10
0.0
 20
0.0
 30
0.0
  9
$PUCSORGBOTTOM
 10
0.0
 20
0.0
 30
0.0
  9
$PUCSORGLEFT
 10
0.0
 20
0.0
 30
0.0
  9
$PUCSORGRIGHT
 10
0.0
 20
0.0
 30
0.0
  9
$PUCSORGFRONT
 10
0.0
 20
0.0
 30
0.0
  9
$PUCSORGBACK
 10
0.0
 20
0.0
 30
0.0
  9
$USERI1
 70
     0
  9
$USERI2
 70
     0
  9
$USERI3
 70
     0
  9
$USERI4
 70
     0
  9
$USERI5
 70
     0
  9
$USERR1
 40
0.0
  9
$USERR2
 40
0.0
  9
$USERR3
 40
0.0
  9
$USERR4
 40
0.0
  9
$USERR5
 40
0.0
  9
$WORLDVIEW
 70
     1
  9
$SHADEDGE
 70
     3
  9
$SHADEDIF
 70
    70
  9
$TILEMODE
 70
     1
  9
$MAXACTVP
 70
    64
  9
$PINSBASE
 10
0.0
 20
0.0
 30
0.0
  9
$PLIMCHECK
 70
     0
  9
$PEXTMIN
 10
1.000000000000000E+20
 20
1.000000000000000E+20
 30
1.000000000000000E+20
  9
$PEXTMAX
 10
-1.000000000000000E+20
 20
-1.000000000000000E+20
 30
-1.000000000000000E+20
  9
$PLIMMIN
 10
0.0
 20
0.0
  9
$PLIMMAX
 10
12.0
 20
9.0
  9
$UNITMODE
 70
     0
  9
$VISRETAIN
 70
     1
  9
$PLINEGEN
 70
     0
  9
$PSLTSCALE
 70
     1
  9
$TREEDEPTH
 70
  3020
  9
$CMLSTYLE
  2
Standard
  9
$CMLJUST
 70
     0
  9
$CMLSCALE
 40
1.0
  9
$PROXYGRAPHICS
 70
     1
  9
$MEASUREMENT
 70
     0
  9
$CELWEIGHT
370
    -1
  9
$ENDCAPS
280
     0
  9
$JOINSTYLE
280
     0
  9
$LWDISPLAY
290
     1
  9
$INSUNITS
 70
     1
  9
$HYPERLINKBASE
  1

  9
$STYLESHEET
  1

  9
$XEDIT
290
     1
  9
$CEPSNTYPE
380
     0
  9
$PSTYLEMODE
290
     1
  9
$FINGERPRINTGUID
  2
{FEB71403-4E7D-EC88-0EC2-F05E93BA745C}
  9
$VERSIONGUID
  2
{FAEB1C32-E019-11D5-929B-00C0DF256EC4}
  9
$EXTNAMES
290
     1
  9
$PSVPSCALE
 40
0.0
  9
$OLESTARTUP
290
     0
  9
$SORTENTS
280
   127
  9
$INDEXCTL
280
     0
  9
$HIDETEXT
280
     1
  9
$XCLIPFRAME
280
     2
  9
$HALOGAP
280
     0
  9
$OBSCOLOR
 70
   257
  9
$OBSLTYPE
280
     0
  9
$INTERSECTIONDISPLAY
280
     0
  9
$INTERSECTIONCOLOR
 70
   257
  9
$DIMASSOC
280
     2
  9
$PROJECTNAME
  1

  9
$CAMERADISPLAY
290
     0
  9
$LENSLENGTH
 40
50.0
  9
$CAMERAHEIGHT
 40
0.0
  9
$STEPSPERSEC
 40
2.0
  9
$STEPSIZE
 40
6.0
  9
$3DDWFPREC
 40
2.0
  9
$PSOLWIDTH
 40
0.25
  9
$PSOLHEIGHT
 40
4.0
  9
$LOFTANG1
 40
1.570796326794897
  9
$LOFTANG2
 40
1.570796326794897
  9
$LOFTMAG1
 40
0.0
  9
$LOFTMAG2
 40
0.0
  9
$LOFTPARAM
 70
     7
  9
$LOFTNORMALS
280
     1
  9
$LATITUDE
 40
37.795
  9
$LONGITUDE
 40
-122.394
  9
$NORTHDIRECTION
 40
0.0
  9
$TIMEZONE
 70
 -8000
  9
$LIGHTGLYPHDISPLAY
280
     1
  9
$TILEMODELIGHTSYNCH
280
     1
  9
$CMATERIAL
347
3C
  9
$SOLIDHIST
280
     1
  9
$SHOWHIST
280
     1
  9
$DWFFRAME
280
     2
  9
$DGNFRAME
280
     2
  9
$REALWORLDSCALE
290
     1
  9
$INTERFERECOLOR
 62
   256
  9
$CSHADOW
280
     0
  9
$SHADOWPLANELOCATION
 40
0.0
  0
ENDSEC
  0
SECTION
  2
CLASSES
  0
CLASS
  1
ACDBDICTIONARYWDFLT
  2
AcDbDictionaryWithDefault
  3
ObjectDBX Classes
 90
        0
 91
        4
280
     0
281
     0
  0
CLASS
  1
VISUALSTYLE
  2
AcDbVisualStyle
  3
ObjectDBX Classes
 90
     4095
 91
        4
280
     0
281
     0
  0
CLASS
  1
MATERIAL
  2
AcDbMaterial
  3
ObjectDBX Classes
 90
     1153
 91
        4
280
     0
281
     0
  0
CLASS
  1
SUN
  2
AcDbSun
  3
SCENEOE
 90
     1024
 91
        4
280
     0
281
     0
  0
ENDSEC
  0
SECTION
  2
TABLES
  0
TABLE
  2
VPORT
  5
8
330
0
100
AcDbSymbolTable
 70
     1
  0
VPORT
  5
29
330
8
100
AcDbSymbolTableRecord
100
AcDbViewportTableRecord
  2
*Active
 70
     0
 10
0.0
 20
0.0
 11
1.0
 21
1.0
 12
0.0
 22
0.0
 13
0.0
 23
0.0
 14
0.5
 24
0.5
 15
0.5
 25
0.5
 16
0.0
 26
0.0
 36
1.0
 17
91.00082462281999
 27
-128.4993055234307
 37
0.0
 40
256.9986110468615
 41
0.7081814508812795
 42
50.0
 43
0.0
 44
0.0
 50
0.0
 51
0.0
 71
     0
 72
   100
 73
     1
 74
     3
 75
     0
 76
     0
 77
     0
 78
     0
281
     0
 65
     1
110
0.0
120
0.0
130
0.0
111
1.0
121
0.0
131
0.0
112
0.0
122
1.0
132
0.0
 79
     0
146
0.0
 60
     3
 61
     5
292
     1
282
     1
141
0.0
142
0.0
 63
   250
361
3F
  0
ENDTAB
  0
TABLE
  2
LTYPE
  5
5
330
0
100
AcDbSymbolTable
 70
     1
  0
LTYPE
  5
14
330
5
100
AcDbSymbolTableRecord
100
AcDbLinetypeTableRecord
  2
ByBlock
 70
     0
  3

 72
    65
 73
     0
 40
0.0
  0
LTYPE
  5
15
330
5
100
AcDbSymbolTableRecord
100
AcDbLinetypeTableRecord
  2
ByLayer
 70
     0
  3

 72
    65
 73
     0
 40
0.0
  0
LTYPE
  5
16
330
5
100
AcDbSymbolTableRecord
100
AcDbLinetypeTableRecord
  2
Continuous
 70
     0
  3
Solid line
 72
    65
 73
     0
 40
0.0
  0
ENDTAB
  0
TABLE
  2
LAYER
  5
2
330
0
100
AcDbSymbolTable
 70
     2
  0
LAYER
  5
10
330
2
100
AcDbSymbolTableRecord
100
AcDbLayerTableRecord
  2
0
 70
     0
 62
     7
  6
Continuous
370
    -3
390
F
347
3E
  0
LAYER
  5
40
330
2
100
AcDbSymbolTableRecord
100
AcDbLayerTableRecord
  2
_U+30EC_U+30A4_U+30E4_U+30FC 1
 70
     0
 62
     7
  6
Continuous
370
    -3
390
F
347
3E
  0
ENDTAB
  0
TABLE
  2
STYLE
  5
3
330
0
100
AcDbSymbolTable
 70
     1
  0
STYLE
  5
11
330
3
100
AcDbSymbolTableRecord
100
AcDbTextStyleTableRecord
  2
Standard
 70
     0
 40
0.0
 41
1.0
 50
0.0
 71
     0
 42
0.2
  3
txt
  4

  0
ENDTAB
  0
TABLE
  2
VIEW
  5
6
330
0
100
AcDbSymbolTable
 70
     0
  0
ENDTAB
  0
TABLE
  2
UCS
  5
7
330
0
100
AcDbSymbolTable
 70
     0
  0
ENDTAB
  0
TABLE
  2
APPID
  5
9
330
0
100
AcDbSymbolTable
 70
     1
  0
APPID
  5
12
330
9
100
AcDbSymbolTableRecord
100
AcDbRegAppTableRecord
  2
ACAD
 70
     0
  0
ENDTAB
  0
TABLE
  2
DIMSTYLE
  5
A
330
0
100
AcDbSymbolTable
 70
     1
100
AcDbDimStyleTable
  0
DIMSTYLE
105
27
330
A
100
AcDbSymbolTableRecord
100
AcDbDimStyleTableRecord
  2
Standard
 70
     0
178
     0
340
11
  0
ENDTAB
  0
TABLE
  2
BLOCK_RECORD
  5
1
330
0
100
AcDbSymbolTable
 70
     7
  0
BLOCK_RECORD
  5
1F
330
1
100
AcDbSymbolTableRecord
100
AcDbBlockTableRecord
  2
*Model_Space
340
22
 70
     0
280
     1
281
     0
  0
BLOCK_RECORD
  5
1B
330
1
100
AcDbSymbolTableRecord
100
AcDbBlockTableRecord
  2
*Paper_Space
340
1E
 70
     0
280
     1
281
     0
  0
BLOCK_RECORD
  5
23
330
1
100
AcDbSymbolTableRecord
100
AcDbBlockTableRecord
  2
*Paper_Space0
340
26
 70
     0
280
     1
281
     0
  0
BLOCK_RECORD
  5
64
330
1
100
AcDbSymbolTableRecord
100
AcDbBlockTableRecord
  2
block 2
340
0
102
{BLKREFS
331
65
102
}
 70
     0
280
     1
281
     0
  0
BLOCK_RECORD
  5
6C
330
1
100
AcDbSymbolTableRecord
100
AcDbBlockTableRecord
  2
block 3
340
0
102
{BLKREFS
331
6D
102
}
 70
     0
280
     1
281
     0
  0
BLOCK_RECORD
  5
75
330
1
100
AcDbSymbolTableRecord
100
AcDbBlockTableRecord
  2
block 4
340
0
102
{BLKREFS
331
76
102
}
 70
     0
280
     1
281
     0
  0
BLOCK_RECORD
  5
92
330
1
100
AcDbSymbolTableRecord
100
AcDbBlockTableRecord
  2
block 5
340
0
102
{BLKREFS
331
93
102
}
 70
     0
280
     1
281
     0
  0
BLOCK_RECORD
  5
A4
330
1
100
AcDbSymbolTableRecord
100
AcDbBlockTableRecord
  2
block 6
340
0
102
{BLKREFS
331
A5
102
}
 70
     0
280
     1
281
     0
  0
BLOCK_RECORD
  5
B0
330
1
100
AcDbSymbolTableRecord
100
AcDbBlockTableRecord
  2
block 7
340
0
102
{BLKREFS
331
B1
102
}
 70
     0
280
     1
281
     0
  0
ENDTAB
  0
ENDSEC
  0
SECTION
  2
BLOCKS
  0
BLOCK
  5
20
330
1F
100
AcDbEntity
  8
0
100
AcDbBlockBegin
  2
*Model_Space
 70
     0
 10
0.0
 20
0.0
 30
0.0
  3
*Model_Space
  1

  0
ENDBLK
  5
21
330
1F
100
AcDbEntity
  8
0
100
AcDbBlockEnd
  0
BLOCK
  5
1C
330
1B
100
AcDbEntity
 67
     1
  8
0
100
AcDbBlockBegin
  2
*Paper_Space
 70
     0
 10
0.0
 20
0.0
 30
0.0
  3
*Paper_Space
  1

  0
ENDBLK
  5
1D
330
1B
100
AcDbEntity
 67
     1
  8
0
100
AcDbBlockEnd
  0
BLOCK
  5
24
330
23
100
AcDbEntity
  8
0
100
AcDbBlockBegin
  2
*Paper_Space0
 70
     0
 10
0.0
 20
0.0
 30
0.0
  3
*Paper_Space0
  1

  0
ENDBLK
  5
25
330
23
100
AcDbEntity
  8
0
100
AcDbBlockEnd
  0
BLOCK
  5
66
330
64
100
AcDbEntity
  8
0
100
AcDbBlockBegin
  2
block 2
 70
     0
 10
0.0
 20
0.0
 30
0.0
  3
block 2
  1

  0
SPLINE
  5
68
330
64
100
AcDbEntity
  8
_U+30EC_U+30A4_U+30E4_U+30FC 1
370
     0
100
AcDbSpline
210
0.0
220
0.0
230
1.0
 70
    11
 71
     3
 72
    29
 73
    25
 74
     0
 42
0.0000000001
 43
0.0000000001
 12
1.0
 22
0.0
 32
0.0
 13
1.0
 23
0.0
 33
0.0
 40
0.0
 40
0.0
 40
0.0
 40
0.0
 40
1.0
 40
1.0
 40
1.0
 40
2.0
 40
2.0
 40
2.0
 40
3.0
 40
3.0
 40
3.0
 40
4.0
 40
4.0
 40
4.0
 40
5.0
 40
5.0
 40
5.0
 40
6.0
 40
6.0
 40
6.0
 40
7.0
 40
7.0
 40
7.0
 40
8.0
 40
8.0
 40
8.0
 40
8.0
 10
88.42543807468184
 20
-120.3742200762433
 30
0.0
 10
88.1587876841235
 20
-120.3742200762433
 30
0.0
 10
87.90488414686058
 20
-120.2367607663818
 30
0.0
 10
87.90488414686058
 20
-119.887772593726
 30
0.0
 10
87.90488414686058
 20
-119.6318019991719
 30
0.0
 10
88.04682208085288
 20
-119.536717363779
 30
0.0
 10
88.15258651225005
 20
-119.4753946641416
 30
0.0
 10
88.02787405568401
 20
-119.4161390217953
 30
0.0
 10
87.95173744545998
 20
-119.301761851685
 30
0.0
 10
87.95173744545998
 20
-119.1408758925238
 30
0.0
 10
87.95173744545998
 20
-118.8659572728009
 30
0.0
 10
88.1505194549589
 20
-118.7305650202306
 30
0.0
 10
88.42543807468184
 20
-118.7305650202306
 30
0.0
 10
88.7089694331179
 20
-118.7305650202306
 30
0.0
 10
88.89948321345221
 20
-118.874570011514
 30
0.0
 10
88.89948321345221
 20
-119.1408758925238
 30
0.0
 10
88.89948321345221
 20
-119.301761851685
 30
0.0
 10
88.82093503638852
 20
-119.4161390217953
 30
0.0
 10
88.69622257982248
 20
-119.4753946641416
 30
0.0
 10
88.78510604334193
 20
-119.5260375677748
 30
0.0
 10
88.94392494521193
 20
-119.6211222031676
 30
0.0
 10
88.94392494521193
 20
-119.8836384791437
 30
0.0
 10
88.94392494521193
 20
-120.2581203583903
 30
0.0
 10
88.66452770135818
 20
-120.3742200762433
 30
0.0
 10
88.42543807468184
 20
-120.3742200762433
 30
0.0
  0
SPLINE
  5
69
330
64
100
AcDbEntity
  8
_U+30EC_U+30A4_U+30E4_U+30FC 1
370
     0
100
AcDbSpline
210
0.0
220
0.0
230
1.0
 70
    11
 71
     3
 72
    17
 73
    13
 74
     0
 42
0.0000000001
 43
0.0000000001
 12
1.0
 22
0.0
 32
0.0
 13
1.0
 23
0.0
 33
0.0
 40
0.0
 40
0.0
 40
0.0
 40
0.0
 40
1.0
 40
1.0
 40
1.0
 40
2.0
 40
2.0
 40
2.0
 40
3.0
 40
3.0
 40
3.0
 40
4.0
 40
4.0
 40
4.0
 40
4.0
 10
88.42543807468184
 20
-119.5832261528299
 30
0.0
 10
88.28177759294692
 20
-119.5832261528299
 30
0.0
 10
88.12915986295036
 20
-119.6700425590582
 30
0.0
 10
88.12915986295036
 20
-119.8729586831394
 30
0.0
 10
88.12915986295036
 20
-120.0782863740603
 30
0.0
 10
88.25628388635607
 20
-120.1795721813266
 30
0.0
 10
88.42543807468184
 20
-120.1795721813266
 30
0.0
 10
88.61147323088532
 20
-120.1795721813266
 30
0.0
 10
88.72171628641333
 20
-120.0569267820517
 30
0.0
 10
88.72171628641333
 20
-119.8791598550129
 30
0.0
 10
88.72171628641333
 20
-119.6572957057628
 30
0.0
 10
88.558763269961
 20
-119.5832261528299
 30
0.0
 10
88.42543807468184
 20
-119.5832261528299
 30
0.0
  0
SPLINE
  5
6A
330
64
100
AcDbEntity
  8
_U+30EC_U+30A4_U+30E4_U+30FC 1
370
     0
100
AcDbSpline
210
0.0
220
0.0
230
1.0
 70
    11
 71
     3
 72
    17
 73
    13
 74
     0
 42
0.0000000001
 43
0.0000000001
 12
1.0
 22
0.0
 32
0.0
 13
1.0
 23
0.0
 33
0.0
 40
0.0
 40
0.0
 40
0.0
 40
0.0
 40
1.0
 40
1.0
 40
1.0
 40
2.0
 40
2.0
 40
2.0
 40
3.0
 40
3.0
 40
3.0
 40
4.0
 40
4.0
 40
4.0
 40
4.0
 10
88.42543807468184
 20
-118.923145857856
 30
0.0
 10
88.26041800093837
 20
-118.923145857856
 30
0.0
 10
88.17566865200122
 20
-119.0182304932489
 30
0.0
 10
88.17566865200122
 20
-119.1536227458192
 30
0.0
 10
88.17566865200122
 20
-119.2762681450941
 30
0.0
 10
88.24767114764295
 20
-119.3947794297867
 30
0.0
 10
88.42543807468184
 20
-119.3947794297867
 30
0.0
 10
88.60320500172072
 20
-119.3947794297867
 30
0.0
 10
88.67520749736245
 20
-119.2762681450941
 30
0.0
 10
88.67520749736245
 20
-119.1536227458192
 30
0.0
 10
88.67520749736245
 20
-119.0182304932489
 30
0.0
 10
88.58839109113416
 20
-118.923145857856
 30
0.0
 10
88.42543807468184
 20
-118.923145857856
 30
0.0
  0
HATCH
  5
6B
330
64
100
AcDbEntity
  8
_U+30EC_U+30A4_U+30E4_U+30FC 1
 62
     7
420
 16777215
100
AcDbHatch
 10
0.0
 20
0.0
 30
0.0
210
0.0
220
0.0
230
1.0
  2
SOLID
 70
     1
 71
     0
 91
        3
 92
        1
 93
        1
 72
     4
 94
        3
 73
     0
 74
     1
 95
       29
 96
       25
 40
0.0
 40
0.0
 40
0.0
 40
0.0
 40
1.0
 40
1.0
 40
1.0
 40
2.0
 40
2.0
 40
2.0
 40
3.0
 40
3.0
 40
3.0
 40
4.0
 40
4.0
 40
4.0
 40
5.0
 40
5.0
 40
5.0
 40
6.0
 40
6.0
 40
6.0
 40
7.0
 40
7.0
 40
7.0
 40
8.0
 40
8.0
 40
8.0
 40
8.0
 10
88.42543807468184
 20
-120.3742200762433
 10
88.1587876841235
 20
-120.3742200762433
 10
87.90488414686058
 20
-120.2367607663818
 10
87.90488414686058
 20
-119.887772593726
 10
87.90488414686058
 20
-119.6318019991719
 10
88.04682208085288
 20
-119.536717363779
 10
88.15258651225005
 20
-119.4753946641416
 10
88.02787405568401
 20
-119.4161390217953
 10
87.95173744545998
 20
-119.301761851685
 10
87.95173744545998
 20
-119.1408758925238
 10
87.95173744545998
 20
-118.8659572728009
 10
88.1505194549589
 20
-118.7305650202306
 10
88.42543807468184
 20
-118.7305650202306
 10
88.7089694331179
 20
-118.7305650202306
 10
88.89948321345221
 20
-118.874570011514
 10
88.89948321345221
 20
-119.1408758925238
 10
88.89948321345221
 20
-119.301761851685
 10
88.82093503638852
 20
-119.4161390217953
 10
88.69622257982248
 20
-119.4753946641416
 10
88.78510604334193
 20
-119.5260375677748
 10
88.94392494521193
 20
-119.6211222031676
 10
88.94392494521193
 20
-119.8836384791437
 10
88.94392494521193
 20
-120.2581203583903
 10
88.66452770135818
 20
-120.3742200762433
 10
88.42543807468184
 20
-120.3742200762433
 97
        0
 97
        0
 92
        1
 93
        1
 72
     4
 94
        3
 73
     0
 74
     1
 95
       17
 96
       13
 40
0.0
 40
0.0
 40
0.0
 40
0.0
 40
1.0
 40
1.0
 40
1.0
 40
2.0
 40
2.0
 40
2.0
 40
3.0
 40
3.0
 40
3.0
 40
4.0
 40
4.0
 40
4.0
 40
4.0
 10
88.42543807468184
 20
-119.5832261528299
 10
88.28177759294692
 20
-119.5832261528299
 10
88.12915986295036
 20
-119.6700425590582
 10
88.12915986295036
 20
-119.8729586831394
 10
88.12915986295036
 20
-120.0782863740603
 10
88.25628388635607
 20
-120.1795721813266
 10
88.42543807468184
 20
-120.1795721813266
 10
88.61147323088532
 20
-120.1795721813266
 10
88.72171628641333
 20
-120.0569267820517
 10
88.72171628641333
 20
-119.8791598550129
 10
88.72171628641333
 20
-119.6572957057628
 10
88.558763269961
 20
-119.5832261528299
 10
88.42543807468184
 20
-119.5832261528299
 97
        0
 97
        0
 92
        1
 93
        1
 72
     4
 94
        3
 73
     0
 74
     1
 95
       17
 96
       13
 40
0.0
 40
0.0
 40
0.0
 40
0.0
 40
1.0
 40
1.0
 40
1.0
 40
2.0
 40
2.0
 40
2.0
 40
3.0
 40
3.0
 40
3.0
 40
4.0
 40
4.0
 40
4.0
 40
4.0
 10
88.42543807468184
 20
-118.923145857856
 10
88.26041800093837
 20
-118.923145857856
 10
88.17566865200122
 20
-119.0182304932489
 10
88.17566865200122
 20
-119.1536227458192
 10
88.17566865200122
 20
-119.2762681450941
 10
88.24767114764295
 20
-119.3947794297867
 10
88.42543807468184
 20
-119.3947794297867
 10
88.60320500172072
 20
-119.3947794297867
 10
88.67520749736245
 20
-119.2762681450941
 10
88.67520749736245
 20
-119.1536227458192
 10
88.67520749736245
 20
-119.0182304932489
 10
88.58839109113416
 20
-118.923145857856
 10
88.42543807468184
 20
-118.923145857856
 97
        0
 97
        0
 75
     2
 76
     1
 98
        0
  0
ENDBLK
  5
67
330
64
100
AcDbEntity
  8
0
100
AcDbBlockEnd
  0
BLOCK
  5
6E
330
6C
100
AcDbEntity
  8
0
100
AcDbBlockBegin
  2
block 3
 70
     0
 10
0.0
 20
0.0
 30
0.0
  3
block 3
  1

  0
SPLINE
  5
70
330
6C
100
AcDbEntity
  8
_U+30EC_U+30A4_U+30E4_U+30FC 1
370
     0
100
AcDbSpline
210
0.0
220
0.0
230
1.0
 70
    11
 71
     3
 72
    26
 73
    22
 74
     0
 42
0.0000000001
 43
0.0000000001
 12
1.0
 22
0.0
 32
0.0
 13
1.0
 23
0.0
 33
0.0
 40
0.0
 40
0.0
 40
0.0
 40
0.0
 40
1.0
 40
1.0
 40
1.0
 40
2.0
 40
2.0
 40
2.0
 40
3.0
 40
3.0
 40
3.0
 40
4.0
 40
4.0
 40
4.0
 40
5.0
 40
5.0
 40
5.0
 40
6.0
 40
6.0
 40
6.0
 40
7.0
 40
7.0
 40
7.0
 40
7.0
 10
78.78847247379247
 20
-120.3235771726101
 30
0.0
 10
78.78847247379247
 20
-120.3235771726101
 30
0.0
 10
78.78847247379247
 20
-119.2194240695875
 30
0.0
 10
78.78847247379247
 20
-119.2194240695875
 30
0.0
 10
78.78847247379247
 20
-119.2194240695875
 30
0.0
 10
78.45843232630554
 20
-119.2194240695875
 30
0.0
 10
78.45843232630554
 20
-119.2194240695875
 30
0.0
 10
78.45843232630554
 20
-119.2194240695875
 30
0.0
 10
78.45843232630554
 20
-119.0712849637218
 30
0.0
 10
78.45843232630554
 20
-119.0712849637218
 30
0.0
 10
78.79053953108362
 20
-119.0564710531352
 30
0.0
 10
78.83704832013449
 20
-118.8935180366829
 30
0.0
 10
78.86667614130764
 20
-118.7791408665726
 30
0.0
 10
78.86667614130764
 20
-118.7791408665726
 30
0.0
 10
79.01274818988223
 20
-118.7791408665726
 30
0.0
 10
79.01274818988223
 20
-118.7791408665726
 30
0.0
 10
79.01274818988223
 20
-118.7791408665726
 30
0.0
 10
79.01274818988223
 20
-120.3235771726101
 30
0.0
 10
79.01274818988223
 20
-120.3235771726101
 30
0.0
 10
79.01274818988223
 20
-120.3235771726101
 30
0.0
 10
78.78847247379247
 20
-120.3235771726101
 30
0.0
 10
78.78847247379247
 20
-120.3235771726101
 30
0.0
  0
HATCH
  5
71
330
6C
100
AcDbEntity
  8
_U+30EC_U+30A4_U+30E4_U+30FC 1
 62
     7
420
 16777215
100
AcDbHatch
 10
0.0
 20
0.0
 30
0.0
210
0.0
220
0.0
230
1.0
  2
SOLID
 70
     1
 71
     0
 91
        1
 92
        1
 93
        1
 72
     4
 94
        3
 73
     0
 74
     1
 95
       26
 96
       22
 40
0.0
 40
0.0
 40
0.0
 40
0.0
 40
1.0
 40
1.0
 40
1.0
 40
2.0
 40
2.0
 40
2.0
 40
3.0
 40
3.0
 40
3.0
 40
4.0
 40
4.0
 40
4.0
 40
5.0
 40
5.0
 40
5.0
 40
6.0
 40
6.0
 40
6.0
 40
7.0
 40
7.0
 40
7.0
 40
7.0
 10
78.78847247379247
 20
-120.3235771726101
 10
78.78847247379247
 20
-120.3235771726101
 10
78.78847247379247
 20
-119.2194240695875
 10
78.78847247379247
 20
-119.2194240695875
 10
78.78847247379247
 20
-119.2194240695875
 10
78.45843232630554
 20
-119.2194240695875
 10
78.45843232630554
 20
-119.2194240695875
 10
78.45843232630554
 20
-119.2194240695875
 10
78.45843232630554
 20
-119.0712849637218
 10
78.45843232630554
 20
-119.0712849637218
 10
78.79053953108362
 20
-119.0564710531352
 10
78.83704832013449
 20
-118.8935180366829
 10
78.86667614130764
 20
-118.7791408665726
 10
78.86667614130764
 20
-118.7791408665726
 10
79.01274818988223
 20
-118.7791408665726
 10
79.01274818988223
 20
-118.7791408665726
 10
79.01274818988223
 20
-118.7791408665726
 10
79.01274818988223
 20
-120.3235771726101
 10
79.01274818988223
 20
-120.3235771726101
 10
79.01274818988223
 20
-120.3235771726101
 10
78.78847247379247
 20
-120.3235771726101
 10
78.78847247379247
 20
-120.3235771726101
 97
        0
 97
        0
 75
     2
 76
     1
 98
        0
  0
SPLINE
  5
72
330
6C
100
AcDbEntity
  8
_U+30EC_U+30A4_U+30E4_U+30FC 1
370
     0
100
AcDbSpline
210
0.0
220
0.0
230
1.0
 70
    11
 71
     3
 72
    29
 73
    25
 74
     0
 42
0.0000000001
 43
0.0000000001
 12
1.0
 22
0.0
 32
0.0
 13
1.0
 23
0.0
 33
0.0
 40
0.0
 40
0.0
 40
0.0
 40
0.0
 40
1.0
 40
1.0
 40
1.0
 40
2.0
 40
2.0
 40
2.0
 40
3.0
 40
3.0
 40
3.0
 40
4.0
 40
4.0
 40
4.0
 40
5.0
 40
5.0
 40
5.0
 40
6.0
 40
6.0
 40
6.0
 40
7.0
 40
7.0
 40
7.0
 40
8.0
 40
8.0
 40
8.0
 40
8.0
 10
80.4118014664422
 20
-120.1458102455712
 30
0.0
 10
80.30362546820535
 20
-120.3552720510744
 30
0.0
 10
80.13033716529728
 20
-120.3742200762433
 30
0.0
 10
80.01389293789583
 20
-120.3742200762433
 30
0.0
 10
79.85300697873467
 20
-120.3742200762433
 30
0.0
 10
79.7114135542909
 20
-120.3277112871924
 30
0.0
 10
79.616328918898
 20
-120.1458102455712
 30
0.0
 10
79.51263154479199
 20
-119.9511623506546
 30
0.0
 10
79.49333901007459
 20
-119.7141397812694
 30
0.0
 10
79.49333901007459
 20
-119.5515312743656
 30
0.0
 10
79.49333901007459
 20
-119.4075262830821
 30
0.0
 10
79.51056448750083
 20
-119.1556898031104
 30
0.0
 10
79.616328918898
 20
-118.9569077936115
 30
0.0
 10
79.72416040758633
 20
-118.7539916695303
 30
0.0
 10
79.88504636674749
 20
-118.7305650202306
 30
0.0
 10
80.01389293789583
 20
-118.7305650202306
 30
0.0
 10
80.17271183976585
 20
-118.7305650202306
 30
0.0
 10
80.31637232150076
 20
-118.7750067519903
 30
0.0
 10
80.4118014664422
 20
-118.9569077936115
 30
0.0
 10
80.51102021641739
 20
-119.1494886312369
 30
0.0
 10
80.53444686571709
 20
-119.377898461909
 30
0.0
 10
80.53444686571709
 20
-119.5515312743656
 30
0.0
 10
80.53444686571709
 20
-119.7227525199825
 30
0.0
 10
80.51308727370854
 20
-119.9532294079457
 30
0.0
 10
80.4118014664422
 20
-120.1458102455712
 30
0.0
  0
SPLINE
  5
73
330
6C
100
AcDbEntity
  8
_U+30EC_U+30A4_U+30E4_U+30FC 1
370
     0
100
AcDbSpline
210
0.0
220
0.0
230
1.0
 70
    11
 71
     3
 72
    17
 73
    13
 74
     0
 42
0.0000000001
 43
0.0000000001
 12
1.0
 22
0.0
 32
0.0
 13
1.0
 23
0.0
 33
0.0
 40
0.0
 40
0.0
 40
0.0
 40
0.0
 40
1.0
 40
1.0
 40
1.0
 40
2.0
 40
2.0
 40
2.0
 40
3.0
 40
3.0
 40
3.0
 40
4.0
 40
4.0
 40
4.0
 40
4.0
 10
80.01389293789583
 20
-118.923145857856
 30
0.0
 10
79.76412351521522
 20
-118.923145857856
 30
0.0
 10
79.71761472616436
 20
-119.2066772162921
 30
0.0
 10
79.71761472616436
 20
-119.5515312743656
 30
0.0
 10
79.71761472616436
 20
-119.8708916258483
 30
0.0
 10
79.75378822875948
 20
-120.1795721813266
 30
0.0
 10
80.01389293789583
 20
-120.1795721813266
 30
0.0
 10
80.2615953032853
 20
-120.1795721813266
 30
0.0
 10
80.31017114962732
 20
-119.8984523897303
 30
0.0
 10
80.31017114962732
 20
-119.5515312743656
 30
0.0
 10
80.31017114962732
 20
-119.2318264133344
 30
0.0
 10
80.27193058974105
 20
-118.923145857856
 30
0.0
 10
80.01389293789583
 20
-118.923145857856
 30
0.0
  0
HATCH
  5
74
330
6C
100
AcDbEntity
  8
_U+30EC_U+30A4_U+30E4_U+30FC 1
 62
     7
420
 16777215
100
AcDbHatch
 10
0.0
 20
0.0
 30
0.0
210
0.0
220
0.0
230
1.0
  2
SOLID
 70
     1
 71
     0
 91
        2
 92
        1
 93
        1
 72
     4
 94
        3
 73
     0
 74
     1
 95
       29
 96
       25
 40
0.0
 40
0.0
 40
0.0
 40
0.0
 40
1.0
 40
1.0
 40
1.0
 40
2.0
 40
2.0
 40
2.0
 40
3.0
 40
3.0
 40
3.0
 40
4.0
 40
4.0
 40
4.0
 40
5.0
 40
5.0
 40
5.0
 40
6.0
 40
6.0
 40
6.0
 40
7.0
 40
7.0
 40
7.0
 40
8.0
 40
8.0
 40
8.0
 40
8.0
 10
80.4118014664422
 20
-120.1458102455712
 10
80.30362546820535
 20
-120.3552720510744
 10
80.13033716529728
 20
-120.3742200762433
 10
80.01389293789583
 20
-120.3742200762433
 10
79.85300697873467
 20
-120.3742200762433
 10
79.7114135542909
 20
-120.3277112871924
 10
79.616328918898
 20
-120.1458102455712
 10
79.51263154479199
 20
-119.9511623506546
 10
79.49333901007459
 20
-119.7141397812694
 10
79.49333901007459
 20
-119.5515312743656
 10
79.49333901007459
 20
-119.4075262830821
 10
79.51056448750083
 20
-119.1556898031104
 10
79.616328918898
 20
-118.9569077936115
 10
79.72416040758633
 20
-118.7539916695303
 10
79.88504636674749
 20
-118.7305650202306
 10
80.01389293789583
 20
-118.7305650202306
 10
80.17271183976585
 20
-118.7305650202306
 10
80.31637232150076
 20
-118.7750067519903
 10
80.4118014664422
 20
-118.9569077936115
 10
80.51102021641739
 20
-119.1494886312369
 10
80.53444686571709
 20
-119.377898461909
 10
80.53444686571709
 20
-119.5515312743656
 10
80.53444686571709
 20
-119.7227525199825
 10
80.51308727370854
 20
-119.9532294079457
 10
80.4118014664422
 20
-120.1458102455712
 97
        0
 97
        0
 92
        1
 93
        1
 72
     4
 94
        3
 73
     0
 74
     1
 95
       17
 96
       13
 40
0.0
 40
0.0
 40
0.0
 40
0.0
 40
1.0
 40
1.0
 40
1.0
 40
2.0
 40
2.0
 40
2.0
 40
3.0
 40
3.0
 40
3.0
 40
4.0
 40
4.0
 40
4.0
 40
4.0
 10
80.01389293789583
 20
-118.923145857856
 10
79.76412351521522
 20
-118.923145857856
 10
79.71761472616436
 20
-119.2066772162921
 10
79.71761472616436
 20
-119.5515312743656
 10
79.71761472616436
 20
-119.8708916258483
 10
79.75378822875948
 20
-120.1795721813266
 10
80.01389293789583
 20
-120.1795721813266
 10
80.2615953032853
 20
-120.1795721813266
 10
80.31017114962732
 20
-119.8984523897303
 10
80.31017114962732
 20
-119.5515312743656
 10
80.31017114962732
 20
-119.2318264133344
 10
80.27193058974105
 20
-118.923145857856
 10
80.01389293789583
 20
-118.923145857856
 97
        0
 97
        0
 75
     2
 76
     1
 98
        0
  0
ENDBLK
  5
6F
330
6C
100
AcDbEntity
  8
0
100
AcDbBlockEnd
  0
BLOCK
  5
77
330
75
100
AcDbEntity
  8
0
100
AcDbBlockBegin
  2
block 4
 70
     0
 10
0.0
 20
0.0
 30
0.0
  3
block 4
  1

  0
SPLINE
  5
79
330
75
100
AcDbEntity
  8
_U+30EC_U+30A4_U+30E4_U+30FC 1
370
     0
100
AcDbSpline
210
0.0
220
0.0
230
1.0
 70
    11
 71
     3
 72
    26
 73
    22
 74
     0
 42
0.0000000001
 43
0.0000000001
 12
1.0
 22
0.0
 32
0.0
 13
1.0
 23
0.0
 33
0.0
 40
0.0
 40
0.0
 40
0.0
 40
0.0
 40
1.0
 40
1.0
 40
1.0
 40
2.0
 40
2.0
 40
2.0
 40
3.0
 40
3.0
 40
3.0
 40
4.0
 40
4.0
 40
4.0
 40
5.0
 40
5.0
 40
5.0
 40
6.0
 40
6.0
 40
6.0
 40
7.0
 40
7.0
 40
7.0
 40
7.0
 10
96.78823511035155
 20
-120.3235771726101
 30
0.0
 10
96.78823511035155
 20
-120.3235771726101
 30
0.0
 10
96.78823511035155
 20
-119.2194240695875
 30
0.0
 10
96.78823511035155
 20
-119.2194240695875
 30
0.0
 10
96.78823511035155
 20
-119.2194240695875
 30
0.0
 10
96.45819496286462
 20
-119.2194240695875
 30
0.0
 10
96.45819496286462
 20
-119.2194240695875
 30
0.0
 10
96.45819496286462
 20
-119.2194240695875
 30
0.0
 10
96.45819496286462
 20
-119.0712849637218
 30
0.0
 10
96.45819496286462
 20
-119.0712849637218
 30
0.0
 10
96.79030216764271
 20
-119.0564710531352
 30
0.0
 10
96.83681095669358
 20
-118.8935180366829
 30
0.0
 10
96.86643877786673
 20
-118.7791408665726
 30
0.0
 10
96.86643877786673
 20
-118.7791408665726
 30
0.0
 10
97.01251082644131
 20
-118.7791408665726
 30
0.0
 10
97.01251082644131
 20
-118.7791408665726
 30
0.0
 10
97.01251082644131
 20
-118.7791408665726
 30
0.0
 10
97.01251082644131
 20
-120.3235771726101
 30
0.0
 10
97.01251082644131
 20
-120.3235771726101
 30
0.0
 10
97.01251082644131
 20
-120.3235771726101
 30
0.0
 10
96.78823511035155
 20
-120.3235771726101
 30
0.0
 10
96.78823511035155
 20
-120.3235771726101
 30
0.0
  0
HATCH
  5
7A
330
75
100
AcDbEntity
  8
_U+30EC_U+30A4_U+30E4_U+30FC 1
 62
     7
420
 16777215
100
AcDbHatch
 10
0.0
 20
0.0
 30
0.0
210
0.0
220
0.0
230
1.0
  2
SOLID
 70
     1
 71
     0
 91
        1
 92
        1
 93
        1
 72
     4
 94
        3
 73
     0
 74
     1
 95
       26
 96
       22
 40
0.0
 40
0.0
 40
0.0
 40
0.0
 40
1.0
 40
1.0
 40
1.0
 40
2.0
 40
2.0
 40
2.0
 40
3.0
 40
3.0
 40
3.0
 40
4.0
 40
4.0
 40
4.0
 40
5.0
 40
5.0
 40
5.0
 40
6.0
 40
6.0
 40
6.0
 40
7.0
 40
7.0
 40
7.0
 40
7.0
 10
96.78823511035155
 20
-120.3235771726101
 10
96.78823511035155
 20
-120.3235771726101
 10
96.78823511035155
 20
-119.2194240695875
 10
96.78823511035155
 20
-119.2194240695875
 10
96.78823511035155
 20
-119.2194240695875
 10
96.45819496286462
 20
-119.2194240695875
 10
96.45819496286462
 20
-119.2194240695875
 10
96.45819496286462
 20
-119.2194240695875
 10
96.45819496286462
 20
-119.0712849637218
 10
96.45819496286462
 20
-119.0712849637218
 10
96.79030216764271
 20
-119.0564710531352
 10
96.83681095669358
 20
-118.8935180366829
 10
96.86643877786673
 20
-118.7791408665726
 10
96.86643877786673
 20
-118.7791408665726
 10
97.01251082644131
 20
-118.7791408665726
 10
97.01251082644131
 20
-118.7791408665726
 10
97.01251082644131
 20
-118.7791408665726
 10
97.01251082644131
 20
-120.3235771726101
 10
97.01251082644131
 20
-120.3235771726101
 10
97.01251082644131
 20
-120.3235771726101
 10
96.78823511035155
 20
-120.3235771726101
 10
96.78823511035155
 20
-120.3235771726101
 97
        0
 97
        0
 75
     2
 76
     1
 98
        0
  0
SPLINE
  5
7B
330
75
100
AcDbEntity
  8
_U+30EC_U+30A4_U+30E4_U+30FC 1
370
     0
100
AcDbSpline
210
0.0
220
0.0
230
1.0
 70
    11
 71
     3
 72
    29
 73
    25
 74
     0
 42
0.0000000001
 43
0.0000000001
 12
1.0
 22
0.0
 32
0.0
 13
1.0
 23
0.0
 33
0.0
 40
0.0
 40
0.0
 40
0.0
 40
0.0
 40
1.0
 40
1.0
 40
1.0
 40
2.0
 40
2.0
 40
2.0
 40
3.0
 40
3.0
 40
3.0
 40
4.0
 40
4.0
 40
4.0
 40
5.0
 40
5.0
 40
5.0
 40
6.0
 40
6.0
 40
6.0
 40
7.0
 40
7.0
 40
7.0
 40
8.0
 40
8.0
 40
8.0
 40
8.0
 10
98.41156410300128
 20
-120.1458102455712
 30
0.0
 10
98.30338810476444
 20
-120.3552720510744
 30
0.0
 10
98.13009980185637
 20
-120.3742200762433
 30
0.0
 10
98.01365557445493
 20
-120.3742200762433
 30
0.0
 10
97.85276961529375
 20
-120.3742200762433
 30
0.0
 10
97.71117619084998
 20
-120.3277112871924
 30
0.0
 10
97.61609155545709
 20
-120.1458102455712
 30
0.0
 10
97.51239418135107
 20
-119.9511623506546
 30
0.0
 10
97.49310164663368
 20
-119.7141397812694
 30
0.0
 10
97.49310164663368
 20
-119.5515312743656
 30
0.0
 10
97.49310164663368
 20
-119.4075262830821
 30
0.0
 10
97.51032712405993
 20
-119.1556898031104
 30
0.0
 10
97.61609155545709
 20
-118.9569077936115
 30
0.0
 10
97.72392304414541
 20
-118.7539916695303
 30
0.0
 10
97.88480900330659
 20
-118.7305650202306
 30
0.0
 10
98.01365557445493
 20
-118.7305650202306
 30
0.0
 10
98.17247447632494
 20
-118.7305650202306
 30
0.0
 10
98.31613495805986
 20
-118.7750067519903
 30
0.0
 10
98.41156410300128
 20
-118.9569077936115
 30
0.0
 10
98.51078285297648
 20
-119.1494886312369
 30
0.0
 10
98.53420950227617
 20
-119.377898461909
 30
0.0
 10
98.53420950227617
 20
-119.5515312743656
 30
0.0
 10
98.53420950227617
 20
-119.7227525199825
 30
0.0
 10
98.51284991026762
 20
-119.9532294079457
 30
0.0
 10
98.41156410300128
 20
-120.1458102455712
 30
0.0
  0
SPLINE
  5
7C
330
75
100
AcDbEntity
  8
_U+30EC_U+30A4_U+30E4_U+30FC 1
370
     0
100
AcDbSpline
210
0.0
220
0.0
230
1.0
 70
    11
 71
     3
 72
    17
 73
    13
 74
     0
 42
0.0000000001
 43
0.0000000001
 12
1.0
 22
0.0
 32
0.0
 13
1.0
 23
0.0
 33
0.0
 40
0.0
 40
0.0
 40
0.0
 40
0.0
 40
1.0
 40
1.0
 40
1.0
 40
2.0
 40
2.0
 40
2.0
 40
3.0
 40
3.0
 40
3.0
 40
4.0
 40
4.0
 40
4.0
 40
4.0
 10
98.01365557445493
 20
-118.923145857856
 30
0.0
 10
97.76388615177432
 20
-118.923145857856
 30
0.0
 10
97.71737736272344
 20
-119.2066772162921
 30
0.0
 10
97.71737736272344
 20
-119.5515312743656
 30
0.0
 10
97.71737736272344
 20
-119.8708916258483
 30
0.0
 10
97.75355086531856
 20
-120.1795721813266
 30
0.0
 10
98.01365557445493
 20
-120.1795721813266
 30
0.0
 10
98.26135793984439
 20
-120.1795721813266
 30
0.0
 10
98.3099337861864
 20
-119.8984523897303
 30
0.0
 10
98.3099337861864
 20
-119.5515312743656
 30
0.0
 10
98.3099337861864
 20
-119.2318264133344
 30
0.0
 10
98.27169322630013
 20
-118.923145857856
 30
0.0
 10
98.01365557445493
 20
-118.923145857856
 30
0.0
  0
HATCH
  5
7D
330
75
100
AcDbEntity
  8
_U+30EC_U+30A4_U+30E4_U+30FC 1
 62
     7
420
 16777215
100
AcDbHatch
 10
0.0
 20
0.0
 30
0.0
210
0.0
220
0.0
230
1.0
  2
SOLID
 70
     1
 71
     0
 91
        2
 92
        1
 93
        1
 72
     4
 94
        3
 73
     0
 74
     1
 95
       29
 96
       25
 40
0.0
 40
0.0
 40
0.0
 40
0.0
 40
1.0
 40
1.0
 40
1.0
 40
2.0
 40
2.0
 40
2.0
 40
3.0
 40
3.0
 40
3.0
 40
4.0
 40
4.0
 40
4.0
 40
5.0
 40
5.0
 40
5.0
 40
6.0
 40
6.0
 40
6.0
 40
7.0
 40
7.0
 40
7.0
 40
8.0
 40
8.0
 40
8.0
 40
8.0
 10
98.41156410300128
 20
-120.1458102455712
 10
98.30338810476444
 20
-120.3552720510744
 10
98.13009980185637
 20
-120.3742200762433
 10
98.01365557445493
 20
-120.3742200762433
 10
97.85276961529375
 20
-120.3742200762433
 10
97.71117619084998
 20
-120.3277112871924
 10
97.61609155545709
 20
-120.1458102455712
 10
97.51239418135107
 20
-119.9511623506546
 10
97.49310164663368
 20
-119.7141397812694
 10
97.49310164663368
 20
-119.5515312743656
 10
97.49310164663368
 20
-119.4075262830821
 10
97.51032712405993
 20
-119.1556898031104
 10
97.61609155545709
 20
-118.9569077936115
 10
97.72392304414541
 20
-118.7539916695303
 10
97.88480900330659
 20
-118.7305650202306
 10
98.01365557445493
 20
-118.7305650202306
 10
98.17247447632494
 20
-118.7305650202306
 10
98.31613495805986
 20
-118.7750067519903
 10
98.41156410300128
 20
-118.9569077936115
 10
98.51078285297648
 20
-119.1494886312369
 10
98.53420950227617
 20
-119.377898461909
 10
98.53420950227617
 20
-119.5515312743656
 10
98.53420950227617
 20
-119.7227525199825
 10
98.51284991026762
 20
-119.9532294079457
 10
98.41156410300128
 20
-120.1458102455712
 97
        0
 97
        0
 92
        1
 93
        1
 72
     4
 94
        3
 73
     0
 74
     1
 95
       17
 96
       13
 40
0.0
 40
0.0
 40
0.0
 40
0.0
 40
1.0
 40
1.0
 40
1.0
 40
2.0
 40
2.0
 40
2.0
 40
3.0
 40
3.0
 40
3.0
 40
4.0
 40
4.0
 40
4.0
 40
4.0
 10
98.01365557445493
 20
-118.923145857856
 10
97.76388615177432
 20
-118.923145857856
 10
97.71737736272344
 20
-119.2066772162921
 10
97.71737736272344
 20
-119.5515312743656
 10
97.71737736272344
 20
-119.8708916258483
 10
97.75355086531856
 20
-120.1795721813266
 10
98.01365557445493
 20
-120.1795721813266
 10
98.26135793984439
 20
-120.1795721813266
 10
98.3099337861864
 20
-119.8984523897303
 10
98.3099337861864
 20
-119.5515312743656
 10
98.3099337861864
 20
-119.2318264133344
 10
98.27169322630013
 20
-118.923145857856
 10
98.01365557445493
 20
-118.923145857856
 97
        0
 97
        0
 75
     2
 76
     1
 98
        0
  0
ENDBLK
  5
78
330
75
100
AcDbEntity
  8
0
100
AcDbBlockEnd
  0
BLOCK
  5
94
330
92
100
AcDbEntity
  8
0
100
AcDbBlockBegin
  2
block 5
 70
     0
 10
0.0
 20
0.0
 30
0.0
  3
block 5
  1

  0
SPLINE
  5
96
330
92
100
AcDbEntity
  8
_U+30EC_U+30A4_U+30E4_U+30FC 1
370
     0
100
AcDbSpline
210
0.0
220
0.0
230
1.0
 70
    11
 71
     3
 72
    26
 73
    22
 74
     0
 42
0.0000000001
 43
0.0000000001
 12
1.0
 22
0.0
 32
0.0
 13
1.0
 23
0.0
 33
0.0
 40
0.0
 40
0.0
 40
0.0
 40
0.0
 40
1.0
 40
1.0
 40
1.0
 40
2.0
 40
2.0
 40
2.0
 40
3.0
 40
3.0
 40
3.0
 40
4.0
 40
4.0
 40
4.0
 40
5.0
 40
5.0
 40
5.0
 40
6.0
 40
6.0
 40
6.0
 40
7.0
 40
7.0
 40
7.0
 40
7.0
 10
106.123410346733
 20
-133.6152723190267
 30
0.0
 10
106.123410346733
 20
-133.6152723190267
 30
0.0
 10
105.0189127341619
 20
-133.6152723190267
 30
0.0
 10
105.0189127341619
 20
-133.6152723190267
 30
0.0
 10
105.0189127341619
 20
-133.6152723190267
 30
0.0
 10
105.0189127341619
 20
-133.9453124665137
 30
0.0
 10
105.0189127341619
 20
-133.9453124665137
 30
0.0
 10
105.0189127341619
 20
-133.9453124665137
 30
0.0
 10
104.8707736282962
 20
-133.9453124665137
 30
0.0
 10
104.8707736282962
 20
-133.9453124665137
 30
0.0
 10
104.8563042272581
 20
-133.6132052617356
 30
0.0
 10
104.6930067012573
 20
-133.5666964726847
 30
0.0
 10
104.5789740406955
 20
-133.5370686515116
 30
0.0
 10
104.5789740406955
 20
-133.5370686515116
 30
0.0
 10
104.5789740406955
 20
-133.390996602937
 30
0.0
 10
104.5789740406955
 20
-133.390996602937
 30
0.0
 10
104.5789740406955
 20
-133.390996602937
 30
0.0
 10
106.123410346733
 20
-133.390996602937
 30
0.0
 10
106.123410346733
 20
-133.390996602937
 30
0.0
 10
106.123410346733
 20
-133.390996602937
 30
0.0
 10
106.123410346733
 20
-133.6152723190267
 30
0.0
 10
106.123410346733
 20
-133.6152723190267
 30
0.0
  0
HATCH
  5
97
330
92
100
AcDbEntity
  8
_U+30EC_U+30A4_U+30E4_U+30FC 1
 62
     7
420
 16777215
100
AcDbHatch
 10
0.0
 20
0.0
 30
0.0
210
0.0
220
0.0
230
1.0
  2
SOLID
 70
     1
 71
     0
 91
        1
 92
        1
 93
        1
 72
     4
 94
        3
 73
     0
 74
     1
 95
       26
 96
       22
 40
0.0
 40
0.0
 40
0.0
 40
0.0
 40
1.0
 40
1.0
 40
1.0
 40
2.0
 40
2.0
 40
2.0
 40
3.0
 40
3.0
 40
3.0
 40
4.0
 40
4.0
 40
4.0
 40
5.0
 40
5.0
 40
5.0
 40
6.0
 40
6.0
 40
6.0
 40
7.0
 40
7.0
 40
7.0
 40
7.0
 10
106.123410346733
 20
-133.6152723190267
 10
106.123410346733
 20
-133.6152723190267
 10
105.0189127341619
 20
-133.6152723190267
 10
105.0189127341619
 20
-133.6152723190267
 10
105.0189127341619
 20
-133.6152723190267
 10
105.0189127341619
 20
-133.9453124665137
 10
105.0189127341619
 20
-133.9453124665137
 10
105.0189127341619
 20
-133.9453124665137
 10
104.8707736282962
 20
-133.9453124665137
 10
104.8707736282962
 20
-133.9453124665137
 10
104.8563042272581
 20
-133.6132052617356
 10
104.6930067012573
 20
-133.5666964726847
 10
104.5789740406955
 20
-133.5370686515116
 10
104.5789740406955
 20
-133.5370686515116
 10
104.5789740406955
 20
-133.390996602937
 10
104.5789740406955
 20
-133.390996602937
 10
104.5789740406955
 20
-133.390996602937
 10
106.123410346733
 20
-133.390996602937
 10
106.123410346733
 20
-133.390996602937
 10
106.123410346733
 20
-133.390996602937
 10
106.123410346733
 20
-133.6152723190267
 10
106.123410346733
 20
-133.6152723190267
 97
        0
 97
        0
 75
     2
 76
     1
 98
        0
  0
SPLINE
  5
98
330
92
100
AcDbEntity
  8
_U+30EC_U+30A4_U+30E4_U+30FC 1
370
     0
100
AcDbSpline
210
0.0
220
0.0
230
1.0
 70
    11
 71
     3
 72
    44
 73
    40
 74
     0
 42
0.0000000001
 43
0.0000000001
 12
1.0
 22
0.0
 32
0.0
 13
1.0
 23
0.0
 33
0.0
 40
0.0
 40
0.0
 40
0.0
 40
0.0
 40
1.0
 40
1.0
 40
1.0
 40
2.0
 40
2.0
 40
2.0
 40
3.0
 40
3.0
 40
3.0
 40
4.0
 40
4.0
 40
4.0
 40
5.0
 40
5.0
 40
5.0
 40
6.0
 40
6.0
 40
6.0
 40
7.0
 40
7.0
 40
7.0
 40
8.0
 40
8.0
 40
8.0
 40
9.0
 40
9.0
 40
9.0
 40
10.0
 40
10.0
 40
10.0
 40
11.0
 40
11.0
 40
11.0
 40
12.0
 40
12.0
 40
12.0
 40
13.0
 40
13.0
 40
13.0
 40
13.0
 10
105.5415337192743
 20
-132.2968342768216
 30
0.0
 10
105.7003526211444
 20
-132.5145643114894
 30
0.0
 10
105.7740776645287
 20
-132.6075818895912
 30
0.0
 10
105.9180826558122
 20
-132.6565022454817
 30
0.0
 10
105.9180826558122
 20
-132.6565022454817
 30
0.0
 10
105.9180826558122
 20
-131.8779106658153
 30
0.0
 10
105.9180826558122
 20
-131.8779106658153
 30
0.0
 10
105.9180826558122
 20
-131.8779106658153
 30
0.0
 10
106.123410346733
 20
-131.8779106658153
 30
0.0
 10
106.123410346733
 20
-131.8779106658153
 30
0.0
 10
106.123410346733
 20
-131.8779106658153
 30
0.0
 10
106.123410346733
 20
-132.9059271586138
 30
0.0
 10
106.123410346733
 20
-132.9059271586138
 30
0.0
 10
105.7658094353641
 20
-132.8742322801495
 30
0.0
 10
105.6872612583004
 20
-132.8087754659298
 30
0.0
 10
105.3889159892778
 20
-132.4236137906788
 30
0.0
 10
105.1904784893274
 20
-132.1676431961248
 30
0.0
 10
105.122610108268
 20
-132.102186381905
 30
0.0
 10
104.9851507984065
 20
-132.102186381905
 30
0.0
 10
104.8666395137139
 20
-132.102186381905
 30
0.0
 10
104.7357258852744
 20
-132.1741888775467
 30
0.0
 10
104.7357258852744
 20
-132.3709038297545
 30
0.0
 10
104.7357258852744
 20
-132.6310085388909
 30
0.0
 10
104.9658582636891
 20
-132.639621277604
 30
0.0
 10
105.0823024910905
 20
-132.6437553921863
 30
0.0
 10
105.0823024910905
 20
-132.6437553921863
 30
0.0
 10
105.0823024910905
 20
-132.8680311082761
 30
0.0
 10
105.0823024910905
 20
-132.8680311082761
 30
0.0
 10
104.9555229772333
 20
-132.8594183695629
 30
0.0
 10
104.8432128644142
 20
-132.8487385735586
 30
0.0
 10
104.7247015797216
 20
-132.7684678487523
 30
0.0
 10
104.564160130109
 20
-132.6585693027729
 30
0.0
 10
104.5303981943535
 20
-132.4721896370208
 30
0.0
 10
104.5303981943535
 20
-132.3560899191679
 30
0.0
 10
104.5303981943535
 20
-132.0787597326053
 30
0.0
 10
104.7143662932659
 20
-131.8713649843933
 30
0.0
 10
104.9872178556977
 20
-131.8713649843933
 30
0.0
 10
105.2156276863697
 20
-131.8713649843933
 30
0.0
 10
105.3151909458934
 20
-131.9878092117947
 30
0.0
 10
105.5415337192743
 20
-132.2968342768216
 30
0.0
  0
HATCH
  5
99
330
92
100
AcDbEntity
  8
_U+30EC_U+30A4_U+30E4_U+30FC 1
 62
     7
420
 16777215
100
AcDbHatch
 10
0.0
 20
0.0
 30
0.0
210
0.0
220
0.0
230
1.0
  2
SOLID
 70
     1
 71
     0
 91
        1
 92
        1
 93
        1
 72
     4
 94
        3
 73
     0
 74
     1
 95
       44
 96
       40
 40
0.0
 40
0.0
 40
0.0
 40
0.0
 40
1.0
 40
1.0
 40
1.0
 40
2.0
 40
2.0
 40
2.0
 40
3.0
 40
3.0
 40
3.0
 40
4.0
 40
4.0
 40
4.0
 40
5.0
 40
5.0
 40
5.0
 40
6.0
 40
6.0
 40
6.0
 40
7.0
 40
7.0
 40
7.0
 40
8.0
 40
8.0
 40
8.0
 40
9.0
 40
9.0
 40
9.0
 40
10.0
 40
10.0
 40
10.0
 40
11.0
 40
11.0
 40
11.0
 40
12.0
 40
12.0
 40
12.0
 40
13.0
 40
13.0
 40
13.0
 40
13.0
 10
105.5415337192743
 20
-132.2968342768216
 10
105.7003526211444
 20
-132.5145643114894
 10
105.7740776645287
 20
-132.6075818895912
 10
105.9180826558122
 20
-132.6565022454817
 10
105.9180826558122
 20
-132.6565022454817
 10
105.9180826558122
 20
-131.8779106658153
 10
105.9180826558122
 20
-131.8779106658153
 10
105.9180826558122
 20
-131.8779106658153
 10
106.123410346733
 20
-131.8779106658153
 10
106.123410346733
 20
-131.8779106658153
 10
106.123410346733
 20
-131.8779106658153
 10
106.123410346733
 20
-132.9059271586138
 10
106.123410346733
 20
-132.9059271586138
 10
105.7658094353641
 20
-132.8742322801495
 10
105.6872612583004
 20
-132.8087754659298
 10
105.3889159892778
 20
-132.4236137906788
 10
105.1904784893274
 20
-132.1676431961248
 10
105.122610108268
 20
-132.102186381905
 10
104.9851507984065
 20
-132.102186381905
 10
104.8666395137139
 20
-132.102186381905
 10
104.7357258852744
 20
-132.1741888775467
 10
104.7357258852744
 20
-132.3709038297545
 10
104.7357258852744
 20
-132.6310085388909
 10
104.9658582636891
 20
-132.639621277604
 10
105.0823024910905
 20
-132.6437553921863
 10
105.0823024910905
 20
-132.6437553921863
 10
105.0823024910905
 20
-132.8680311082761
 10
105.0823024910905
 20
-132.8680311082761
 10
104.9555229772333
 20
-132.8594183695629
 10
104.8432128644142
 20
-132.8487385735586
 10
104.7247015797216
 20
-132.7684678487523
 10
104.564160130109
 20
-132.6585693027729
 10
104.5303981943535
 20
-132.4721896370208
 10
104.5303981943535
 20
-132.3560899191679
 10
104.5303981943535
 20
-132.0787597326053
 10
104.7143662932659
 20
-131.8713649843933
 10
104.9872178556977
 20
-131.8713649843933
 10
105.2156276863697
 20
-131.8713649843933
 10
105.3151909458934
 20
-131.9878092117947
 10
105.5415337192743
 20
-132.2968342768216
 97
        0
 97
        0
 75
     2
 76
     1
 98
        0
  0
POLYLINE
  5
9A
330
92
100
AcDbEntity
  8
_U+30EC_U+30A4_U+30E4_U+30FC 1
370
     0
100
AcDb2dPolyline
 66
     1
 10
0.0
 20
0.0
 30
0.0
  0
VERTEX
  5
9B
330
9A
100
AcDbEntity
  8
_U+30EC_U+30A4_U+30E4_U+30FC 1
370
     0
100
AcDbVertex
100
AcDb2dVertex
 10
106.123410346733
 20
-131.6529459306284
 30
0.0
  0
VERTEX
  5
9C
330
9A
100
AcDbEntity
  8
_U+30EC_U+30A4_U+30E4_U+30FC 1
370
     0
100
AcDbVertex
100
AcDb2dVertex
 10
105.8715738667613
 20
-131.6529459306284
 30
0.0
  0
VERTEX
  5
9D
330
9A
100
AcDbEntity
  8
_U+30EC_U+30A4_U+30E4_U+30FC 1
370
     0
100
AcDbVertex
100
AcDb2dVertex
 10
105.8715738667613
 20
-131.4011094506567
 30
0.0
  0
VERTEX
  5
9E
330
9A
100
AcDbEntity
  8
_U+30EC_U+30A4_U+30E4_U+30FC 1
370
     0
100
AcDbVertex
100
AcDb2dVertex
 10
106.123410346733
 20
-131.4011094506567
 30
0.0
  0
VERTEX
  5
9F
330
9A
100
AcDbEntity
  8
_U+30EC_U+30A4_U+30E4_U+30FC 1
370
     0
100
AcDbVertex
100
AcDb2dVertex
 10
106.123410346733
 20
-131.6529459306284
 30
0.0
  0
SEQEND
  5
A0
330
9A
100
AcDbEntity
  8
_U+30EC_U+30A4_U+30E4_U+30FC 1
370
     0
  0
HATCH
  5
A1
330
92
100
AcDbEntity
  8
_U+30EC_U+30A4_U+30E4_U+30FC 1
 62
     7
420
 16777215
100
AcDbHatch
 10
0.0
 20
0.0
 30
0.0
210
0.0
220
0.0
230
1.0
  2
SOLID
 70
     1
 71
     0
 91
        1
 92
        1
 93
        4
 72
     1
 10
106.123410346733
 20
-131.6529459306284
 11
105.8715738667613
 21
-131.6529459306284
 72
     1
 10
105.8715738667613
 20
-131.6529459306284
 11
105.8715738667613
 21
-131.4011094506567
 72
     1
 10
105.8715738667613
 20
-131.4011094506567
 11
106.123410346733
 21
-131.4011094506567
 72
     1
 10
106.123410346733
 20
-131.4011094506567
 11
106.123410346733
 21
-131.6529459306284
 97
        0
 75
     2
 76
     1
 98
        0
  0
SPLINE
  5
A2
330
92
100
AcDbEntity
  8
_U+30EC_U+30A4_U+30E4_U+30FC 1
370
     0
100
AcDbSpline
210
0.0
220
0.0
230
1.0
 70
    11
 71
     3
 72
    53
 73
    49
 74
     0
 42
0.0000000001
 43
0.0000000001
 12
1.0
 22
0.0
 32
0.0
 13
1.0
 23
0.0
 33
0.0
 40
0.0
 40
0.0
 40
0.0
 40
0.0
 40
1.0
 40
1.0
 40
1.0
 40
2.0
 40
2.0
 40
2.0
 40
3.0
 40
3.0
 40
3.0
 40
4.0
 40
4.0
 40
4.0
 40
5.0
 40
5.0
 40
5.0
 40
6.0
 40
6.0
 40
6.0
 40
7.0
 40
7.0
 40
7.0
 40
8.0
 40
8.0
 40
8.0
 40
9.0
 40
9.0
 40
9.0
 40
10.0
 40
10.0
 40
10.0
 40
11.0
 40
11.0
 40
11.0
 40
12.0
 40
12.0
 40
12.0
 40
13.0
 40
13.0
 40
13.0
 40
14.0
 40
14.0
 40
14.0
 40
15.0
 40
15.0
 40
15.0
 40
16.0
 40
16.0
 40
16.0
 40
16.0
 10
106.1740532503662
 20
-130.6838405706277
 30
0.0
 10
106.1740532503662
 20
-130.7620442381428
 30
0.0
 10
106.1571722824885
 20
-130.8636745549577
 30
0.0
 10
106.0937825255599
 20
-130.9653048717726
 30
0.0
 10
105.9835394700319
 20
-131.1385931746806
 30
0.0
 10
105.8526258415924
 20
-131.1599527666892
 30
0.0
 10
105.7444498433556
 20
-131.1789007918581
 30
0.0
 10
105.7444498433556
 20
-131.1789007918581
 30
0.0
 10
105.7444498433556
 20
-130.9566921330594
 30
0.0
 10
105.7444498433556
 20
-130.9566921330594
 30
0.0
 10
105.943576362403
 20
-130.901915114844
 30
0.0
 10
105.9732041835761
 20
-130.7747910914383
 30
0.0
 10
105.9732041835761
 20
-130.6817735133365
 30
0.0
 10
105.9732041835761
 20
-130.5422471461839
 30
0.0
 10
105.8736409240524
 20
-130.3899739257359
 30
0.0
 10
105.6410969787981
 20
-130.3899739257359
 30
0.0
 10
105.3847818746955
 20
-130.3899739257359
 30
0.0
 10
105.3151909458934
 20
-130.5698079100659
 30
0.0
 10
105.3151909458934
 20
-130.6903862520496
 30
0.0
 10
105.3151909458934
 20
-130.7220811305139
 30
0.0
 10
105.3151909458934
 20
-130.8636745549577
 30
0.0
 10
105.4440375170418
 20
-130.9525580184771
 30
0.0
 10
105.4440375170418
 20
-130.9525580184771
 30
0.0
 10
105.4250894918729
 20
-131.1282578882249
 30
0.0
 10
105.4250894918729
 20
-131.1282578882249
 30
0.0
 10
105.4250894918729
 20
-131.1282578882249
 30
0.0
 10
104.5789740406955
 20
-131.0076795462411
 30
0.0
 10
104.5789740406955
 20
-131.0076795462411
 30
0.0
 10
104.5789740406955
 20
-131.0076795462411
 30
0.0
 10
104.5789740406955
 20
-130.2290879665747
 30
0.0
 10
104.5789740406955
 20
-130.2290879665747
 30
0.0
 10
104.5789740406955
 20
-130.2290879665747
 30
0.0
 10
104.7736219356122
 20
-130.2290879665747
 30
0.0
 10
104.7736219356122
 20
-130.2290879665747
 30
0.0
 10
104.7736219356122
 20
-130.2290879665747
 30
0.0
 10
104.7736219356122
 20
-130.8447265297888
 30
0.0
 10
104.7736219356122
 20
-130.8447265297888
 30
0.0
 10
104.7736219356122
 20
-130.8447265297888
 30
0.0
 10
105.1966796612008
 20
-130.9101833440086
 30
0.0
 10
105.1966796612008
 20
-130.9101833440086
 30
0.0
 10
105.1629177254454
 20
-130.8488606443711
 30
0.0
 10
105.122610108268
 20
-130.7665228622737
 30
0.0
 10
105.122610108268
 20
-130.6480115775811
 30
0.0
 10
105.122610108268
 20
-130.3941080403181
 30
0.0
 10
105.30898977402
 20
-130.157085470933
 30
0.0
 10
105.6218044440807
 20
-130.157085470933
 30
0.0
 10
105.9394422478207
 20
-130.157085470933
 30
0.0
 10
106.1740532503662
 20
-130.3813611870227
 30
0.0
 10
106.1740532503662
 20
-130.6838405706277
 30
0.0
  0
HATCH
  5
A3
330
92
100
AcDbEntity
  8
_U+30EC_U+30A4_U+30E4_U+30FC 1
 62
     7
420
 16777215
100
AcDbHatch
 10
0.0
 20
0.0
 30
0.0
210
0.0
220
0.0
230
1.0
  2
SOLID
 70
     1
 71
     0
 91
        1
 92
        1
 93
        1
 72
     4
 94
        3
 73
     0
 74
     1
 95
       53
 96
       49
 40
0.0
 40
0.0
 40
0.0
 40
0.0
 40
1.0
 40
1.0
 40
1.0
 40
2.0
 40
2.0
 40
2.0
 40
3.0
 40
3.0
 40
3.0
 40
4.0
 40
4.0
 40
4.0
 40
5.0
 40
5.0
 40
5.0
 40
6.0
 40
6.0
 40
6.0
 40
7.0
 40
7.0
 40
7.0
 40
8.0
 40
8.0
 40
8.0
 40
9.0
 40
9.0
 40
9.0
 40
10.0
 40
10.0
 40
10.0
 40
11.0
 40
11.0
 40
11.0
 40
12.0
 40
12.0
 40
12.0
 40
13.0
 40
13.0
 40
13.0
 40
14.0
 40
14.0
 40
14.0
 40
15.0
 40
15.0
 40
15.0
 40
16.0
 40
16.0
 40
16.0
 40
16.0
 10
106.1740532503662
 20
-130.6838405706277
 10
106.1740532503662
 20
-130.7620442381428
 10
106.1571722824885
 20
-130.8636745549577
 10
106.0937825255599
 20
-130.9653048717726
 10
105.9835394700319
 20
-131.1385931746806
 10
105.8526258415924
 20
-131.1599527666892
 10
105.7444498433556
 20
-131.1789007918581
 10
105.7444498433556
 20
-131.1789007918581
 10
105.7444498433556
 20
-130.9566921330594
 10
105.7444498433556
 20
-130.9566921330594
 10
105.943576362403
 20
-130.901915114844
 10
105.9732041835761
 20
-130.7747910914383
 10
105.9732041835761
 20
-130.6817735133365
 10
105.9732041835761
 20
-130.5422471461839
 10
105.8736409240524
 20
-130.3899739257359
 10
105.6410969787981
 20
-130.3899739257359
 10
105.3847818746955
 20
-130.3899739257359
 10
105.3151909458934
 20
-130.5698079100659
 10
105.3151909458934
 20
-130.6903862520496
 10
105.3151909458934
 20
-130.7220811305139
 10
105.3151909458934
 20
-130.8636745549577
 10
105.4440375170418
 20
-130.9525580184771
 10
105.4440375170418
 20
-130.9525580184771
 10
105.4250894918729
 20
-131.1282578882249
 10
105.4250894918729
 20
-131.1282578882249
 10
105.4250894918729
 20
-131.1282578882249
 10
104.5789740406955
 20
-131.0076795462411
 10
104.5789740406955
 20
-131.0076795462411
 10
104.5789740406955
 20
-131.0076795462411
 10
104.5789740406955
 20
-130.2290879665747
 10
104.5789740406955
 20
-130.2290879665747
 10
104.5789740406955
 20
-130.2290879665747
 10
104.7736219356122
 20
-130.2290879665747
 10
104.7736219356122
 20
-130.2290879665747
 10
104.7736219356122
 20
-130.2290879665747
 10
104.7736219356122
 20
-130.8447265297888
 10
104.7736219356122
 20
-130.8447265297888
 10
104.7736219356122
 20
-130.8447265297888
 10
105.1966796612008
 20
-130.9101833440086
 10
105.1966796612008
 20
-130.9101833440086
 10
105.1629177254454
 20
-130.8488606443711
 10
105.122610108268
 20
-130.7665228622737
 10
105.122610108268
 20
-130.6480115775811
 10
105.122610108268
 20
-130.3941080403181
 10
105.30898977402
 20
-130.157085470933
 10
105.6218044440807
 20
-130.157085470933
 10
105.9394422478207
 20
-130.157085470933
 10
106.1740532503662
 20
-130.3813611870227
 10
106.1740532503662
 20
-130.6838405706277
 97
        0
 97
        0
 75
     2
 76
     1
 98
        0
  0
ENDBLK
  5
95
330
92
100
AcDbEntity
  8
0
100
AcDbBlockEnd
  0
BLOCK
  5
A6
330
A4
100
AcDbEntity
  8
0
100
AcDbBlockBegin
  2
block 6
 70
     0
 10
0.0
 20
0.0
 30
0.0
  3
block 6
  1

  0
SPLINE
  5
A8
330
A4
100
AcDbEntity
  8
_U+30EC_U+30A4_U+30E4_U+30FC 1
370
     0
100
AcDbSpline
210
0.0
220
0.0
230
1.0
 70
    11
 71
     3
 72
    44
 73
    40
 74
     0
 42
0.0000000001
 43
0.0000000001
 12
1.0
 22
0.0
 32
0.0
 13
1.0
 23
0.0
 33
0.0
 40
0.0
 40
0.0
 40
0.0
 40
0.0
 40
1.0
 40
1.0
 40
1.0
 40
2.0
 40
2.0
 40
2.0
 40
3.0
 40
3.0
 40
3.0
 40
4.0
 40
4.0
 40
4.0
 40
5.0
 40
5.0
 40
5.0
 40
6.0
 40
6.0
 40
6.0
 40
7.0
 40
7.0
 40
7.0
 40
8.0
 40
8.0
 40
8.0
 40
9.0
 40
9.0
 40
9.0
 40
10.0
 40
10.0
 40
10.0
 40
11.0
 40
11.0
 40
11.0
 40
12.0
 40
12.0
 40
12.0
 40
13.0
 40
13.0
 40
13.0
 40
13.0
 10
105.5611707635403
 20
-121.784297658356
 30
0.0
 10
105.7196451558618
 20
-122.0020276930238
 30
0.0
 10
105.7940592183432
 20
-122.0950452711256
 30
0.0
 10
105.9377197000781
 20
-122.1439656270161
 30
0.0
 10
105.9377197000781
 20
-122.1439656270161
 30
0.0
 10
105.9377197000781
 20
-121.3653740473496
 30
0.0
 10
105.9377197000781
 20
-121.3653740473496
 30
0.0
 10
105.9377197000781
 20
-121.3653740473496
 30
0.0
 10
106.1427028814504
 20
-121.3653740473496
 30
0.0
 10
106.1427028814504
 20
-121.3653740473496
 30
0.0
 10
106.1427028814504
 20
-121.3653740473496
 30
0.0
 10
106.1427028814504
 20
-122.3933905401482
 30
0.0
 10
106.1427028814504
 20
-122.3933905401482
 30
0.0
 10
105.7851019700815
 20
-122.3616956616839
 30
0.0
 10
105.7072428121149
 20
-122.2962388474641
 30
0.0
 10
105.4088975430922
 20
-121.9110771722132
 30
0.0
 10
105.2097710240448
 20
-121.6551065776591
 30
0.0
 10
105.1422471525339
 20
-121.5896497634394
 30
0.0
 10
105.0047878426724
 20
-121.5896497634394
 30
0.0
 10
104.8862765579798
 20
-121.5896497634394
 30
0.0
 10
104.7550184199918
 20
-121.6616522590811
 30
0.0
 10
104.7550184199918
 20
-121.8583672112889
 30
0.0
 10
104.7550184199918
 20
-122.1184719204253
 30
0.0
 10
104.9858398175035
 20
-122.1270846591384
 30
0.0
 10
105.102284044905
 20
-122.1312187737207
 30
0.0
 10
105.102284044905
 20
-122.1312187737207
 30
0.0
 10
105.102284044905
 20
-122.3554944898104
 30
0.0
 10
105.102284044905
 20
-122.3554944898104
 30
0.0
 10
104.9751600214993
 20
-122.3468817510973
 30
0.0
 10
104.8631944182286
 20
-122.336201955093
 30
0.0
 10
104.7446831335361
 20
-122.2559312302867
 30
0.0
 10
104.5837971743749
 20
-122.1460326843072
 30
0.0
 10
104.5496907290709
 20
-121.9596530185552
 30
0.0
 10
104.5496907290709
 20
-121.8435533007023
 30
0.0
 10
104.5496907290709
 20
-121.5662231141397
 30
0.0
 10
104.7340033375318
 20
-121.3588283659277
 30
0.0
 10
105.0068548999636
 20
-121.3588283659277
 30
0.0
 10
105.2352647306356
 20
-121.3588283659277
 30
0.0
 10
105.3348279901594
 20
-121.4752725933291
 30
0.0
 10
105.5611707635403
 20
-121.784297658356
 30
0.0
  0
HATCH
  5
A9
330
A4
100
AcDbEntity
  8
_U+30EC_U+30A4_U+30E4_U+30FC 1
 62
     7
420
 16777215
100
AcDbHatch
 10
0.0
 20
0.0
 30
0.0
210
0.0
220
0.0
230
1.0
  2
SOLID
 70
     1
 71
     0
 91
        1
 92
        1
 93
        1
 72
     4
 94
        3
 73
     0
 74
     1
 95
       44
 96
       40
 40
0.0
 40
0.0
 40
0.0
 40
0.0
 40
1.0
 40
1.0
 40
1.0
 40
2.0
 40
2.0
 40
2.0
 40
3.0
 40
3.0
 40
3.0
 40
4.0
 40
4.0
 40
4.0
 40
5.0
 40
5.0
 40
5.0
 40
6.0
 40
6.0
 40
6.0
 40
7.0
 40
7.0
 40
7.0
 40
8.0
 40
8.0
 40
8.0
 40
9.0
 40
9.0
 40
9.0
 40
10.0
 40
10.0
 40
10.0
 40
11.0
 40
11.0
 40
11.0
 40
12.0
 40
12.0
 40
12.0
 40
13.0
 40
13.0
 40
13.0
 40
13.0
 10
105.5611707635403
 20
-121.784297658356
 10
105.7196451558618
 20
-122.0020276930238
 10
105.7940592183432
 20
-122.0950452711256
 10
105.9377197000781
 20
-122.1439656270161
 10
105.9377197000781
 20
-122.1439656270161
 10
105.9377197000781
 20
-121.3653740473496
 10
105.9377197000781
 20
-121.3653740473496
 10
105.9377197000781
 20
-121.3653740473496
 10
106.1427028814504
 20
-121.3653740473496
 10
106.1427028814504
 20
-121.3653740473496
 10
106.1427028814504
 20
-121.3653740473496
 10
106.1427028814504
 20
-122.3933905401482
 10
106.1427028814504
 20
-122.3933905401482
 10
105.7851019700815
 20
-122.3616956616839
 10
105.7072428121149
 20
-122.2962388474641
 10
105.4088975430922
 20
-121.9110771722132
 10
105.2097710240448
 20
-121.6551065776591
 10
105.1422471525339
 20
-121.5896497634394
 10
105.0047878426724
 20
-121.5896497634394
 10
104.8862765579798
 20
-121.5896497634394
 10
104.7550184199918
 20
-121.6616522590811
 10
104.7550184199918
 20
-121.8583672112889
 10
104.7550184199918
 20
-122.1184719204253
 10
104.9858398175035
 20
-122.1270846591384
 10
105.102284044905
 20
-122.1312187737207
 10
105.102284044905
 20
-122.1312187737207
 10
105.102284044905
 20
-122.3554944898104
 10
105.102284044905
 20
-122.3554944898104
 10
104.9751600214993
 20
-122.3468817510973
 10
104.8631944182286
 20
-122.336201955093
 10
104.7446831335361
 20
-122.2559312302867
 10
104.5837971743749
 20
-122.1460326843072
 10
104.5496907290709
 20
-121.9596530185552
 10
104.5496907290709
 20
-121.8435533007023
 10
104.5496907290709
 20
-121.5662231141397
 10
104.7340033375318
 20
-121.3588283659277
 10
105.0068548999636
 20
-121.3588283659277
 10
105.2352647306356
 20
-121.3588283659277
 10
105.3348279901594
 20
-121.4752725933291
 10
105.5611707635403
 20
-121.784297658356
 97
        0
 97
        0
 75
     2
 76
     1
 98
        0
  0
ENDBLK
  5
A7
330
A4
100
AcDbEntity
  8
0
100
AcDbBlockEnd
  0
BLOCK
  5
B2
330
B0
100
AcDbEntity
  8
0
100
AcDbBlockBegin
  2
block 7
 70
     0
 10
0.0
 20
0.0
 30
0.0
  3
block 7
  1

  0
SPLINE
  5
B4
330
B0
100
AcDbEntity
  8
_U+30EC_U+30A4_U+30E4_U+30FC 1
370
     0
100
AcDbSpline
210
0.0
220
0.0
230
1.0
 70
    11
 71
     3
 72
    26
 73
    22
 74
     0
 42
0.0000000001
 43
0.0000000001
 12
1.0
 22
0.0
 32
0.0
 13
1.0
 23
0.0
 33
0.0
 40
0.0
 40
0.0
 40
0.0
 40
0.0
 40
1.0
 40
1.0
 40
1.0
 40
2.0
 40
2.0
 40
2.0
 40
3.0
 40
3.0
 40
3.0
 40
4.0
 40
4.0
 40
4.0
 40
5.0
 40
5.0
 40
5.0
 40
6.0
 40
6.0
 40
6.0
 40
7.0
 40
7.0
 40
7.0
 40
7.0
 10
85.71087508707923
 20
-125.7330661035494
 30
0.0
 10
85.71087508707923
 20
-125.7330661035494
 30
0.0
 10
85.71087508707923
 20
-124.6289130005268
 30
0.0
 10
85.71087508707923
 20
-124.6289130005268
 30
0.0
 10
85.71087508707923
 20
-124.6289130005268
 30
0.0
 10
85.38083493959229
 20
-124.6289130005268
 30
0.0
 10
85.38083493959229
 20
-124.6289130005268
 30
0.0
 10
85.38083493959229
 20
-124.6289130005268
 30
0.0
 10
85.38083493959229
 20
-124.4807738946611
 30
0.0
 10
85.38083493959229
 20
-124.4807738946611
 30
0.0
 10
85.71294214437037
 20
-124.4659599840745
 30
0.0
 10
85.75945093342125
 20
-124.3030069676222
 30
0.0
 10
85.7890787545944
 20
-124.1886297975119
 30
0.0
 10
85.7890787545944
 20
-124.1886297975119
 30
0.0
 10
85.935150803169
 20
-124.1886297975119
 30
0.0
 10
85.935150803169
 20
-124.1886297975119
 30
0.0
 10
85.935150803169
 20
-124.1886297975119
 30
0.0
 10
85.935150803169
 20
-125.7330661035494
 30
0.0
 10
85.935150803169
 20
-125.7330661035494
 30
0.0
 10
85.935150803169
 20
-125.7330661035494
 30
0.0
 10
85.71087508707923
 20
-125.7330661035494
 30
0.0
 10
85.71087508707923
 20
-125.7330661035494
 30
0.0
  0
HATCH
  5
B5
330
B0
100
AcDbEntity
  8
_U+30EC_U+30A4_U+30E4_U+30FC 1
 62
     7
420
 16777215
100
AcDbHatch
 10
0.0
 20
0.0
 30
0.0
210
0.0
220
0.0
230
1.0
  2
SOLID
 70
     1
 71
     0
 91
        1
 92
        1
 93
        1
 72
     4
 94
        3
 73
     0
 74
     1
 95
       26
 96
       22
 40
0.0
 40
0.0
 40
0.0
 40
0.0
 40
1.0
 40
1.0
 40
1.0
 40
2.0
 40
2.0
 40
2.0
 40
3.0
 40
3.0
 40
3.0
 40
4.0
 40
4.0
 40
4.0
 40
5.0
 40
5.0
 40
5.0
 40
6.0
 40
6.0
 40
6.0
 40
7.0
 40
7.0
 40
7.0
 40
7.0
 10
85.71087508707923
 20
-125.7330661035494
 10
85.71087508707923
 20
-125.7330661035494
 10
85.71087508707923
 20
-124.6289130005268
 10
85.71087508707923
 20
-124.6289130005268
 10
85.71087508707923
 20
-124.6289130005268
 10
85.38083493959229
 20
-124.6289130005268
 10
85.38083493959229
 20
-124.6289130005268
 10
85.38083493959229
 20
-124.6289130005268
 10
85.38083493959229
 20
-124.4807738946611
 10
85.38083493959229
 20
-124.4807738946611
 10
85.71294214437037
 20
-124.4659599840745
 10
85.75945093342125
 20
-124.3030069676222
 10
85.7890787545944
 20
-124.1886297975119
 10
85.7890787545944
 20
-124.1886297975119
 10
85.935150803169
 20
-124.1886297975119
 10
85.935150803169
 20
-124.1886297975119
 10
85.935150803169
 20
-124.1886297975119
 10
85.935150803169
 20
-125.7330661035494
 10
85.935150803169
 20
-125.7330661035494
 10
85.935150803169
 20
-125.7330661035494
 10
85.71087508707923
 20
-125.7330661035494
 10
85.71087508707923
 20
-125.7330661035494
 97
        0
 97
        0
 75
     2
 76
     1
 98
        0
  0
ENDBLK
  5
B3
330
B0
100
AcDbEntity
  8
0
100
AcDbBlockEnd
  0
ENDSEC
  0
SECTION
  2
ENTITIES
  0
SPLINE
  5
41
330
1F
100
AcDbEntity
  8
_U+30EC_U+30A4_U+30E4_U+30FC 1
 62
     7
420
 16777215
370
     9
100
AcDbSpline
210
0.0
220
0.0
230
1.0
 70
    11
 71
     3
 72
    17
 73
    13
 74
     0
 42
0.0000000001
 43
0.0000000001
 12
1.0
 22
0.0
 32
0.0
 13
1.0
 23
0.0
 33
0.0
 40
0.0
 40
0.0
 40
0.0
 40
0.0
 40
1.0
 40
1.0
 40
1.0
 40
2.0
 40
2.0
 40
2.0
 40
3.0
 40
3.0
 40
3.0
 40
4.0
 40
4.0
 40
4.0
 40
4.0
 10
102.5246632177113
 20
-121.0361858030742
 30
0.0
 10
102.5246632177113
 20
-120.9810819141993
 30
0.0
 10
102.4798604410765
 20
-120.9362791364325
 30
0.0
 10
102.4247565535934
 20
-120.9362791364325
 30
0.0
 10
102.3696173883335
 20
-120.9362791364325
 30
0.0
 10
102.3248498894756
 20
-120.9810819141993
 30
0.0
 10
102.3248498894756
 20
-121.0361858030742
 30
0.0
 10
102.3248498894756
 20
-121.0913249697272
 30
0.0
 10
102.3696173883335
 20
-121.1360924697161
 30
0.0
 10
102.4247565535934
 20
-121.1360924697161
 30
0.0
 10
102.4798604410765
 20
-121.1360924697161
 30
0.0
 10
102.5246632177113
 20
-121.0913249697272
 30
0.0
 10
102.5246632177113
 20
-121.0361858030742
 30
0.0
  0
SPLINE
  5
42
330
1F
100
AcDbEntity
  8
_U+30EC_U+30A4_U+30E4_U+30FC 1
 62
     7
420
 16777215
370
     9
100
AcDbSpline
210
0.0
220
0.0
230
1.0
 70
    11
 71
     3
 72
    17
 73
    13
 74
     0
 42
0.0000000001
 43
0.0000000001
 12
1.0
 22
0.0
 32
0.0
 13
1.0
 23
0.0
 33
0.0
 40
0.0
 40
0.0
 40
0.0
 40
0.0
 40
1.0
 40
1.0
 40
1.0
 40
2.0
 40
2.0
 40
2.0
 40
3.0
 40
3.0
 40
3.0
 40
4.0
 40
4.0
 40
4.0
 40
4.0
 10
106.6959781112922
 20
-138.3650182987421
 30
0.0
 10
106.6959781112922
 20
-138.3092088543116
 30
0.0
 10
106.6512106124343
 20
-138.2651116321004
 30
0.0
 10
106.5960714471743
 20
-138.2651116321004
 30
0.0
 10
106.5409675596913
 20
-138.2651116321004
 30
0.0
 10
106.4961647830565
 20
-138.3092088543116
 30
0.0
 10
106.4961647830565
 20
-138.3650182987421
 30
0.0
 10
106.4961647830565
 20
-138.4201574653951
 30
0.0
 10
106.5409675596913
 20
-138.4649249653837
 30
0.0
 10
106.5960714471743
 20
-138.4649249653837
 30
0.0
 10
106.6512106124343
 20
-138.4649249653837
 30
0.0
 10
106.6959781112922
 20
-138.4201574653951
 30
0.0
 10
106.6959781112922
 20
-138.3650182987421
 30
0.0
  0
SPLINE
  5
43
330
1F
100
AcDbEntity
  8
_U+30EC_U+30A4_U+30E4_U+30FC 1
 62
     7
420
 16777215
370
     9
100
AcDbSpline
210
0.0
220
0.0
230
1.0
 70
    11
 71
     3
 72
    17
 73
    13
 74
     0
 42
0.0000000001
 43
0.0000000001
 12
1.0
 22
0.0
 32
0.0
 13
1.0
 23
0.0
 33
0.0
 40
0.0
 40
0.0
 40
0.0
 40
0.0
 40
1.0
 40
1.0
 40
1.0
 40
2.0
 40
2.0
 40
2.0
 40
3.0
 40
3.0
 40
3.0
 40
4.0
 40
4.0
 40
4.0
 40
4.0
 10
106.6959781112922
 20
-125.8655371907559
 30
0.0
 10
106.6959781112922
 20
-125.8097277463254
 30
0.0
 10
106.6512106124343
 20
-125.7656305241142
 30
0.0
 10
106.5960714471743
 20
-125.7656305241142
 30
0.0
 10
106.5409675596913
 20
-125.7656305241142
 30
0.0
 10
106.4961647830565
 20
-125.8097277463254
 30
0.0
 10
106.4961647830565
 20
-125.8655371907559
 30
0.0
 10
106.4961647830565
 20
-125.9206410796311
 30
0.0
 10
106.5409675596913
 20
-125.9654438573975
 30
0.0
 10
106.5960714471743
 20
-125.9654438573975
 30
0.0
 10
106.6512106124343
 20
-125.9654438573975
 30
0.0
 10
106.6959781112922
 20
-125.9206410796311
 30
0.0
 10
106.6959781112922
 20
-125.8655371907559
 30
0.0
  0
SPLINE
  5
44
330
1F
100
AcDbEntity
  8
_U+30EC_U+30A4_U+30E4_U+30FC 1
 62
     7
420
 16777215
370
     9
100
AcDbSpline
210
0.0
220
0.0
230
1.0
 70
    11
 71
     3
 72
    17
 73
    13
 74
     0
 42
0.0000000001
 43
0.0000000001
 12
1.0
 22
0.0
 32
0.0
 13
1.0
 23
0.0
 33
0.0
 40
0.0
 40
0.0
 40
0.0
 40
0.0
 40
1.0
 40
1.0
 40
1.0
 40
2.0
 40
2.0
 40
2.0
 40
3.0
 40
3.0
 40
3.0
 40
4.0
 40
4.0
 40
4.0
 40
4.0
 10
74.5256794875804
 20
-121.0361858030742
 30
0.0
 10
74.5256794875804
 20
-120.9810819141993
 30
0.0
 10
74.48091387026881
 20
-120.9362791364325
 30
0.0
 10
74.42577282346257
 20
-120.9362791364325
 30
0.0
 10
74.3706689359795
 20
-120.9362791364325
 30
0.0
 10
74.32586615934474
 20
-120.9810819141993
 30
0.0
 10
74.32586615934474
 20
-121.0361858030742
 30
0.0
 10
74.32586615934474
 20
-121.0913249697272
 30
0.0
 10
74.3706689359795
 20
-121.1360924697161
 30
0.0
 10
74.42577282346257
 20
-121.1360924697161
 30
0.0
 10
74.48091387026881
 20
-121.1360924697161
 30
0.0
 10
74.5256794875804
 20
-121.0913249697272
 30
0.0
 10
74.5256794875804
 20
-121.0361858030742
 30
0.0
  0
SPLINE
  5
45
330
1F
100
AcDbEntity
  8
_U+30EC_U+30A4_U+30E4_U+30FC 1
 62
     7
420
 16777215
370
     9
100
AcDbSpline
210
0.0
220
0.0
230
1.0
 70
    11
 71
     3
 72
    17
 73
    13
 74
     0
 42
0.0000000001
 43
0.0000000001
 12
1.0
 22
0.0
 32
0.0
 13
1.0
 23
0.0
 33
0.0
 40
0.0
 40
0.0
 40
0.0
 40
0.0
 40
1.0
 40
1.0
 40
1.0
 40
2.0
 40
2.0
 40
2.0
 40
3.0
 40
3.0
 40
3.0
 40
4.0
 40
4.0
 40
4.0
 40
4.0
 10
106.6959781112922
 20
-123.9073383023565
 30
0.0
 10
106.6959781112922
 20
-123.8518816357038
 30
0.0
 10
106.6512106124343
 20
-123.8070788579371
 30
0.0
 10
106.5960714471743
 20
-123.8070788579371
 30
0.0
 10
106.5409675596913
 20
-123.8070788579371
 30
0.0
 10
106.4961647830565
 20
-123.8518816357038
 30
0.0
 10
106.4961647830565
 20
-123.9073383023565
 30
0.0
 10
106.4961647830565
 20
-123.9624421912318
 30
0.0
 10
106.5409675596913
 20
-124.0072449689982
 30
0.0
 10
106.5960714471743
 20
-124.0072449689982
 30
0.0
 10
106.6512106124343
 20
-124.0072449689982
 30
0.0
 10
106.6959781112922
 20
-123.9624421912318
 30
0.0
 10
106.6959781112922
 20
-123.9073383023565
 30
0.0
  0
POLYLINE
  5
46
330
1F
100
AcDbEntity
  8
_U+30EC_U+30A4_U+30E4_U+30FC 1
 62
     7
420
 16777215
370
     9
100
AcDb2dPolyline
 66
     1
 10
0.0
 20
0.0
 30
0.0
  0
VERTEX
  5
47
330
46
100
AcDbEntity
  8
_U+30EC_U+30A4_U+30E4_U+30FC 1
 62
     7
420
 16777215
370
     9
100
AcDbVertex
100
AcDb2dVertex
 10
74.42577282346257
 20
-121.0361858030742
 30
0.0
  0
VERTEX
  5
48
330
46
100
AcDbEntity
  8
_U+30EC_U+30A4_U+30E4_U+30FC 1
 62
     7
420
 16777215
370
     9
100
AcDbVertex
100
AcDb2dVertex
 10
84.42585840167247
 20
-121.0361858030742
 30
0.0
  0
SEQEND
  5
49
330
46
100
AcDbEntity
  8
_U+30EC_U+30A4_U+30E4_U+30FC 1
 62
     7
420
 16777215
370
     9
  0
POLYLINE
  5
4A
330
1F
100
AcDbEntity
  8
_U+30EC_U+30A4_U+30E4_U+30FC 1
 62
     7
420
 16777215
370
     9
100
AcDb2dPolyline
 66
     1
 10
0.0
 20
0.0
 30
0.0
  0
VERTEX
  5
4B
330
4A
100
AcDbEntity
  8
_U+30EC_U+30A4_U+30E4_U+30FC 1
 62
     7
420
 16777215
370
     9
100
AcDbVertex
100
AcDb2dVertex
 10
92.425694030913
 20
-121.0361858030742
 30
0.0
  0
VERTEX
  5
4C
330
4A
100
AcDbEntity
  8
_U+30EC_U+30A4_U+30E4_U+30FC 1
 62
     7
420
 16777215
370
     9
100
AcDbVertex
100
AcDb2dVertex
 10
102.4254268313541
 20
-121.0361858030742
 30
0.0
  0
SEQEND
  5
4D
330
4A
100
AcDbEntity
  8
_U+30EC_U+30A4_U+30E4_U+30FC 1
 62
     7
420
 16777215
370
     9
  0
POLYLINE
  5
4E
330
1F
100
AcDbEntity
  8
_U+30EC_U+30A4_U+30E4_U+30FC 1
 62
     7
420
 16777215
370
     9
100
AcDb2dPolyline
 66
     1
 10
0.0
 20
0.0
 30
0.0
  0
VERTEX
  5
4F
330
4E
100
AcDbEntity
  8
_U+30EC_U+30A4_U+30E4_U+30FC 1
 62
     7
420
 16777215
370
     9
100
AcDbVertex
100
AcDb2dVertex
 10
84.42585840167247
 20
-121.0361858030742
 30
0.0
  0
VERTEX
  5
50
330
4E
100
AcDbEntity
  8
_U+30EC_U+30A4_U+30E4_U+30FC 1
 62
     7
420
 16777215
370
     9
100
AcDbVertex
100
AcDb2dVertex
 10
92.425694030913
 20
-121.0361858030742
 30
0.0
  0
SEQEND
  5
51
330
4E
100
AcDbEntity
  8
_U+30EC_U+30A4_U+30E4_U+30FC 1
 62
     7
420
 16777215
370
     9
  0
POLYLINE
  5
52
330
1F
100
AcDbEntity
  8
_U+30EC_U+30A4_U+30E4_U+30FC 1
 62
     7
420
 16777215
370
     9
100
AcDb2dPolyline
 66
     1
 10
0.0
 20
0.0
 30
0.0
  0
VERTEX
  5
53
330
52
100
AcDbEntity
  8
_U+30EC_U+30A4_U+30E4_U+30FC 1
 62
     7
420
 16777215
370
     9
100
AcDbVertex
100
AcDb2dVertex
 10
74.42577282346257
 20
-118.7762208036394
 30
0.0
  0
VERTEX
  5
54
330
52
100
AcDbEntity
  8
_U+30EC_U+30A4_U+30E4_U+30FC 1
 62
     7
420
 16777215
370
     9
100
AcDbVertex
100
AcDb2dVertex
 10
74.42577282346257
 20
-122.0359580250467
 30
0.0
  0
SEQEND
  5
55
330
52
100
AcDbEntity
  8
_U+30EC_U+30A4_U+30E4_U+30FC 1
 62
     7
420
 16777215
370
     9
  0
SPLINE
  5
56
330
1F
100
AcDbEntity
  8
_U+30EC_U+30A4_U+30E4_U+30FC 1
 62
     7
420
 16777215
370
     9
100
AcDbSpline
210
0.0
220
0.0
230
1.0
 70
    11
 71
     3
 72
    17
 73
    13
 74
     0
 42
0.0000000001
 43
0.0000000001
 12
1.0
 22
0.0
 32
0.0
 13
1.0
 23
0.0
 33
0.0
 40
0.0
 40
0.0
 40
0.0
 40
0.0
 40
1.0
 40
1.0
 40
1.0
 40
2.0
 40
2.0
 40
2.0
 40
3.0
 40
3.0
 40
3.0
 40
4.0
 40
4.0
 40
4.0
 40
4.0
 10
84.52541228802153
 20
-121.0361858030742
 30
0.0
 10
84.52541228802153
 20
-120.9810819141993
 30
0.0
 10
84.48064478916363
 20
-120.9362791364325
 30
0.0
 10
84.42550562390369
 20
-120.9362791364325
 30
0.0
 10
84.37040173642062
 20
-120.9362791364325
 30
0.0
 10
84.32559895978585
 20
-120.9810819141993
 30
0.0
 10
84.32559895978585
 20
-121.0361858030742
 30
0.0
 10
84.32559895978585
 20
-121.0913249697272
 30
0.0
 10
84.37040173642062
 20
-121.1360924697161
 30
0.0
 10
84.42550562390369
 20
-121.1360924697161
 30
0.0
 10
84.48064478916363
 20
-121.1360924697161
 30
0.0
 10
84.52541228802153
 20
-121.0913249697272
 30
0.0
 10
84.52541228802153
 20
-121.0361858030742
 30
0.0
  0
POLYLINE
  5
57
330
1F
100
AcDbEntity
  8
_U+30EC_U+30A4_U+30E4_U+30FC 1
 62
     7
420
 16777215
370
     9
100
AcDb2dPolyline
 66
     1
 10
0.0
 20
0.0
 30
0.0
  0
VERTEX
  5
58
330
57
100
AcDbEntity
  8
_U+30EC_U+30A4_U+30E4_U+30FC 1
 62
     7
420
 16777215
370
     9
100
AcDbVertex
100
AcDb2dVertex
 10
84.42550562390369
 20
-118.7762208036394
 30
0.0
  0
VERTEX
  5
59
330
57
100
AcDbEntity
  8
_U+30EC_U+30A4_U+30E4_U+30FC 1
 62
     7
420
 16777215
370
     9
100
AcDbVertex
100
AcDb2dVertex
 10
84.42550562390369
 20
-122.0359580250467
 30
0.0
  0
SEQEND
  5
5A
330
57
100
AcDbEntity
  8
_U+30EC_U+30A4_U+30E4_U+30FC 1
 62
     7
420
 16777215
370
     9
  0
SPLINE
  5
5B
330
1F
100
AcDbEntity
  8
_U+30EC_U+30A4_U+30E4_U+30FC 1
 62
     7
420
 16777215
370
     9
100
AcDbSpline
210
0.0
220
0.0
230
1.0
 70
    11
 71
     3
 72
    17
 73
    13
 74
     0
 42
0.0000000001
 43
0.0000000001
 12
1.0
 22
0.0
 32
0.0
 13
1.0
 23
0.0
 33
0.0
 40
0.0
 40
0.0
 40
0.0
 40
0.0
 40
1.0
 40
1.0
 40
1.0
 40
2.0
 40
2.0
 40
2.0
 40
3.0
 40
3.0
 40
3.0
 40
4.0
 40
4.0
 40
4.0
 40
4.0
 10
92.52560069503082
 20
-121.0361858030742
 30
0.0
 10
92.52560069503082
 20
-120.9810819141993
 30
0.0
 10
92.48083319617294
 20
-120.9362791364325
 30
0.0
 10
92.425694030913
 20
-120.9362791364325
 30
0.0
 10
92.37059014342992
 20
-120.9362791364325
 30
0.0
 10
92.32578736679515
 20
-120.9810819141993
 30
0.0
 10
92.32578736679515
 20
-121.0361858030742
 30
0.0
 10
92.32578736679515
 20
-121.0913249697272
 30
0.0
 10
92.37059014342992
 20
-121.1360924697161
 30
0.0
 10
92.425694030913
 20
-121.1360924697161
 30
0.0
 10
92.48083319617294
 20
-121.1360924697161
 30
0.0
 10
92.52560069503082
 20
-121.0913249697272
 30
0.0
 10
92.52560069503082
 20
-121.0361858030742
 30
0.0
  0
POLYLINE
  5
5C
330
1F
100
AcDbEntity
  8
_U+30EC_U+30A4_U+30E4_U+30FC 1
 62
     7
420
 16777215
370
     9
100
AcDb2dPolyline
 66
     1
 10
0.0
 20
0.0
 30
0.0
  0
VERTEX
  5
5D
330
5C
100
AcDbEntity
  8
_U+30EC_U+30A4_U+30E4_U+30FC 1
 62
     7
420
 16777215
370
     9
100
AcDbVertex
100
AcDb2dVertex
 10
92.425694030913
 20
-118.7762208036394
 30
0.0
  0
VERTEX
  5
5E
330
5C
100
AcDbEntity
  8
_U+30EC_U+30A4_U+30E4_U+30FC 1
 62
     7
420
 16777215
370
     9
100
AcDbVertex
100
AcDb2dVertex
 10
92.425694030913
 20
-122.0359580250467
 30
0.0
  0
SEQEND
  5
5F
330
5C
100
AcDbEntity
  8
_U+30EC_U+30A4_U+30E4_U+30FC 1
 62
     7
420
 16777215
370
     9
  0
POLYLINE
  5
60
330
1F
100
AcDbEntity
  8
_U+30EC_U+30A4_U+30E4_U+30FC 1
 62
     7
420
 16777215
370
     9
100
AcDb2dPolyline
 66
     1
 10
0.0
 20
0.0
 30
0.0
  0
VERTEX
  5
61
330
60
100
AcDbEntity
  8
_U+30EC_U+30A4_U+30E4_U+30FC 1
 62
     7
420
 16777215
370
     9
100
AcDbVertex
100
AcDb2dVertex
 10
102.4247565535934
 20
-119.0759408035643
 30
0.0
  0
VERTEX
  5
62
330
60
100
AcDbEntity
  8
_U+30EC_U+30A4_U+30E4_U+30FC 1
 62
     7
420
 16777215
370
     9
100
AcDbVertex
100
AcDb2dVertex
 10
102.4247565535934
 20
-122.0359580250467
 30
0.0
  0
SEQEND
  5
63
330
60
100
AcDbEntity
  8
_U+30EC_U+30A4_U+30E4_U+30FC 1
 62
     7
420
 16777215
370
     9
  0
INSERT
  5
65
330
1F
100
AcDbEntity
  8
_U+30EC_U+30A4_U+30E4_U+30FC 1
100
AcDbBlockReference
  2
block 2
 10
0.0
 20
0.0
 30
0.0
  0
INSERT
  5
6D
330
1F
100
AcDbEntity
  8
_U+30EC_U+30A4_U+30E4_U+30FC 1
100
AcDbBlockReference
  2
block 3
 10
0.0
 20
0.0
 30
0.0
  0
INSERT
  5
76
330
1F
100
AcDbEntity
  8
_U+30EC_U+30A4_U+30E4_U+30FC 1
100
AcDbBlockReference
  2
block 4
 10
0.0
 20
0.0
 30
0.0
  0
POLYLINE
  5
7E
330
1F
100
AcDbEntity
  8
_U+30EC_U+30A4_U+30E4_U+30FC 1
 62
     7
420
 16777215
370
     9
100
AcDb2dPolyline
 66
     1
 10
0.0
 20
0.0
 30
0.0
  0
VERTEX
  5
7F
330
7E
100
AcDbEntity
  8
_U+30EC_U+30A4_U+30E4_U+30FC 1
 62
     7
420
 16777215
370
     9
100
AcDbVertex
100
AcDb2dVertex
 10
106.5960714471743
 20
-125.860033857424
 30
0.0
  0
VERTEX
  5
80
330
7E
100
AcDbEntity
  8
_U+30EC_U+30A4_U+30E4_U+30FC 1
 62
     7
420
 16777215
370
     9
100
AcDbVertex
100
AcDb2dVertex
 10
106.5960714471743
 20
-138.3598677431876
 30
0.0
  0
SEQEND
  5
81
330
7E
100
AcDbEntity
  8
_U+30EC_U+30A4_U+30E4_U+30FC 1
 62
     7
420
 16777215
370
     9
  0
POLYLINE
  5
82
330
1F
100
AcDbEntity
  8
_U+30EC_U+30A4_U+30E4_U+30FC 1
 62
     7
420
 16777215
370
     9
100
AcDb2dPolyline
 66
     1
 10
0.0
 20
0.0
 30
0.0
  0
VERTEX
  5
83
330
82
100
AcDbEntity
  8
_U+30EC_U+30A4_U+30E4_U+30FC 1
 62
     7
420
 16777215
370
     9
100
AcDbVertex
100
AcDb2dVertex
 10
106.5960714471743
 20
-120.3320060810282
 30
0.0
  0
VERTEX
  5
84
330
82
100
AcDbEntity
  8
_U+30EC_U+30A4_U+30E4_U+30FC 1
 62
     7
420
 16777215
370
     9
100
AcDbVertex
100
AcDb2dVertex
 10
106.5960714471743
 20
-125.8544952463143
 30
0.0
  0
SEQEND
  5
85
330
82
100
AcDbEntity
  8
_U+30EC_U+30A4_U+30E4_U+30FC 1
 62
     7
420
 16777215
370
     9
  0
POLYLINE
  5
86
330
1F
100
AcDbEntity
  8
_U+30EC_U+30A4_U+30E4_U+30FC 1
 62
     7
420
 16777215
370
     9
100
AcDb2dPolyline
 66
     1
 10
0.0
 20
0.0
 30
0.0
  0
VERTEX
  5
87
330
86
100
AcDbEntity
  8
_U+30EC_U+30A4_U+30E4_U+30FC 1
 62
     7
420
 16777215
370
     9
100
AcDbVertex
100
AcDb2dVertex
 10
107.5634586447164
 20
-123.8756588579201
 30
0.0
  0
VERTEX
  5
88
330
86
100
AcDbEntity
  8
_U+30EC_U+30A4_U+30E4_U+30FC 1
 62
     7
420
 16777215
370
     9
100
AcDbVertex
100
AcDb2dVertex
 10
104.6034414980105
 20
-123.8756588579201
 30
0.0
  0
SEQEND
  5
89
330
86
100
AcDbEntity
  8
_U+30EC_U+30A4_U+30E4_U+30FC 1
 62
     7
420
 16777215
370
     9
  0
POLYLINE
  5
8A
330
1F
100
AcDbEntity
  8
_U+30EC_U+30A4_U+30E4_U+30FC 1
 62
     7
420
 16777215
370
     9
100
AcDb2dPolyline
 66
     1
 10
0.0
 20
0.0
 30
0.0
  0
VERTEX
  5
8B
330
8A
100
AcDbEntity
  8
_U+30EC_U+30A4_U+30E4_U+30FC 1
 62
     7
420
 16777215
370
     9
100
AcDbVertex
100
AcDb2dVertex
 10
107.5634586447164
 20
-138.3650182987421
 30
0.0
  0
VERTEX
  5
8C
330
8A
100
AcDbEntity
  8
_U+30EC_U+30A4_U+30E4_U+30FC 1
 62
     7
420
 16777215
370
     9
100
AcDbVertex
100
AcDb2dVertex
 10
101.4243166413107
 20
-138.3650182987421
 30
0.0
  0
SEQEND
  5
8D
330
8A
100
AcDbEntity
  8
_U+30EC_U+30A4_U+30E4_U+30FC 1
 62
     7
420
 16777215
370
     9
  0
POLYLINE
  5
8E
330
1F
100
AcDbEntity
  8
_U+30EC_U+30A4_U+30E4_U+30FC 1
 62
     7
420
 16777215
370
     9
100
AcDb2dPolyline
 66
     1
 10
0.0
 20
0.0
 30
0.0
  0
VERTEX
  5
8F
330
8E
100
AcDbEntity
  8
_U+30EC_U+30A4_U+30E4_U+30FC 1
 62
     7
420
 16777215
370
     9
100
AcDbVertex
100
AcDb2dVertex
 10
107.5634586447164
 20
-125.8655371907559
 30
0.0
  0
VERTEX
  5
90
330
8E
100
AcDbEntity
  8
_U+30EC_U+30A4_U+30E4_U+30FC 1
 62
     7
420
 16777215
370
     9
100
AcDbVertex
100
AcDb2dVertex
 10
104.6034414980105
 20
-125.8655371907559
 30
0.0
  0
SEQEND
  5
91
330
8E
100
AcDbEntity
  8
_U+30EC_U+30A4_U+30E4_U+30FC 1
 62
     7
420
 16777215
370
     9
  0
INSERT
  5
93
330
1F
100
AcDbEntity
  8
_U+30EC_U+30A4_U+30E4_U+30FC 1
100
AcDbBlockReference
  2
block 5
 10
0.0
 20
0.0
 30
0.0
  0
INSERT
  5
A5
330
1F
100
AcDbEntity
  8
_U+30EC_U+30A4_U+30E4_U+30FC 1
100
AcDbBlockReference
  2
block 6
 10
0.0
 20
0.0
 30
0.0
  0
POLYLINE
  5
AA
330
1F
100
AcDbEntity
  8
_U+30EC_U+30A4_U+30E4_U+30FC 1
 62
     7
420
 16777215
370
     9
100
AcDb2dPolyline
 66
     1
 10
0.0
 20
0.0
 30
0.0
  0
VERTEX
  5
AB
330
AA
100
AcDbEntity
  8
_U+30EC_U+30A4_U+30E4_U+30FC 1
 62
     7
420
 16777215
370
     9
100
AcDbVertex
100
AcDb2dVertex
 10
86.76198806429505
 20
-126.586226912798
 30
0.0
  0
VERTEX
  5
AC
330
AA
100
AcDbEntity
  8
_U+30EC_U+30A4_U+30E4_U+30FC 1
 62
     7
420
 16777215
370
     9
100
AcDbVertex
100
AcDb2dVertex
 10
81.61153847347175
 20
-126.586226912798
 30
0.0
  0
SEQEND
  5
AD
330
AA
100
AcDbEntity
  8
_U+30EC_U+30A4_U+30E4_U+30FC 1
 62
     7
420
 16777215
370
     9
  0
SPLINE
  5
AE
330
1F
100
AcDbEntity
  8
_U+30EC_U+30A4_U+30E4_U+30FC 1
 62
     7
420
 16777215
370
     9
100
AcDbSpline
210
0.0
220
0.0
230
1.0
 70
    11
 71
     3
 72
    17
 73
    13
 74
     0
 42
0.0000000001
 43
0.0000000001
 12
1.0
 22
0.0
 32
0.0
 13
1.0
 23
0.0
 33
0.0
 40
0.0
 40
0.0
 40
0.0
 40
0.0
 40
1.0
 40
1.0
 40
1.0
 40
2.0
 40
2.0
 40
2.0
 40
3.0
 40
3.0
 40
3.0
 40
4.0
 40
4.0
 40
4.0
 40
4.0
 10
82.521740394695
 20
-126.586226912798
 30
0.0
 10
82.521740394695
 20
-126.5304174683673
 30
0.0
 10
82.47697497938064
 20
-126.4863202461561
 30
0.0
 10
82.42183373057718
 20
-126.4863202461561
 30
0.0
 10
82.3667298430941
 20
-126.4863202461561
 30
0.0
 10
82.32192706645934
 20
-126.5304174683673
 30
0.0
 10
82.32192706645934
 20
-126.586226912798
 30
0.0
 10
82.32192706645934
 20
-126.6413660794508
 30
0.0
 10
82.3667298430941
 20
-126.6861688572172
 30
0.0
 10
82.42183373057718
 20
-126.6861688572172
 30
0.0
 10
82.47697497938064
 20
-126.6861688572172
 30
0.0
 10
82.521740394695
 20
-126.6413660794508
 30
0.0
 10
82.521740394695
 20
-126.586226912798
 30
0.0
  0
SPLINE
  5
AF
330
1F
100
AcDbEntity
  8
_U+30EC_U+30A4_U+30E4_U+30FC 1
 62
     7
420
 16777215
370
     9
100
AcDbSpline
210
0.0
220
0.0
230
1.0
 70
    11
 71
     3
 72
    17
 73
    13
 74
     0
 42
0.0000000001
 43
0.0000000001
 12
1.0
 22
0.0
 32
0.0
 13
1.0
 23
0.0
 33
0.0
 40
0.0
 40
0.0
 40
0.0
 40
0.0
 40
1.0
 40
1.0
 40
1.0
 40
2.0
 40
2.0
 40
2.0
 40
3.0
 40
3.0
 40
3.0
 40
4.0
 40
4.0
 40
4.0
 40
4.0
 10
83.52221814694848
 20
-126.586226912798
 30
0.0
 10
83.52221814694848
 20
-126.5304174683673
 30
0.0
 10
83.47741537031371
 20
-126.4863202461561
 30
0.0
 10
83.42231148283064
 20
-126.4863202461561
 30
0.0
 10
83.36650203981002
 20
-126.4863202461561
 30
0.0
 10
83.32169926317525
 20
-126.5304174683673
 30
0.0
 10
83.32169926317525
 20
-126.586226912798
 30
0.0
 10
83.32169926317525
 20
-126.6413660794508
 30
0.0
 10
83.36650203981002
 20
-126.6861688572172
 30
0.0
 10
83.42231148283064
 20
-126.6861688572172
 30
0.0
 10
83.47741537031371
 20
-126.6861688572172
 30
0.0
 10
83.52221814694848
 20
-126.6413660794508
 30
0.0
 10
83.52221814694848
 20
-126.586226912798
 30
0.0
  0
INSERT
  5
B1
330
1F
100
AcDbEntity
  8
_U+30EC_U+30A4_U+30E4_U+30FC 1
100
AcDbBlockReference
  2
block 7
 10
0.0
 20
0.0
 30
0.0
  0
SPLINE
  5
B6
330
1F
100
AcDbEntity
  8
_U+30EC_U+30A4_U+30E4_U+30FC 1
 62
   179
420
  2234388
370
    25
100
AcDbSpline
210
0.0
220
0.0
230
1.0
 70
    11
 71
     3
 72
   113
 73
   109
 74
     0
 42
0.0000000001
 43
0.0000000001
 12
1.0
 22
0.0
 32
0.0
 13
1.0
 23
0.0
 33
0.0
 40
0.0
 40
0.0
 40
0.0
 40
0.0
 40
1.0
 40
1.0
 40
1.0
 40
2.0
 40
2.0
 40
2.0
 40
3.0
 40
3.0
 40
3.0
 40
4.0
 40
4.0
 40
4.0
 40
5.0
 40
5.0
 40
5.0
 40
6.0
 40
6.0
 40
6.0
 40
7.0
 40
7.0
 40
7.0
 40
8.0
 40
8.0
 40
8.0
 40
9.0
 40
9.0
 40
9.0
 40
10.0
 40
10.0
 40
10.0
 40
11.0
 40
11.0
 40
11.0
 40
12.0
 40
12.0
 40
12.0
 40
13.0
 40
13.0
 40
13.0
 40
14.0
 40
14.0
 40
14.0
 40
15.0
 40
15.0
 40
15.0
 40
16.0
 40
16.0
 40
16.0
 40
17.0
 40
17.0
 40
17.0
 40
18.0
 40
18.0
 40
18.0
 40
19.0
 40
19.0
 40
19.0
 40
20.0
 40
20.0
 40
20.0
 40
21.0
 40
21.0
 40
21.0
 40
22.0
 40
22.0
 40
22.0
 40
23.0
 40
23.0
 40
23.0
 40
24.0
 40
24.0
 40
24.0
 40
25.0
 40
25.0
 40
25.0
 40
26.0
 40
26.0
 40
26.0
 40
27.0
 40
27.0
 40
27.0
 40
28.0
 40
28.0
 40
28.0
 40
29.0
 40
29.0
 40
29.0
 40
30.0
 40
30.0
 40
30.0
 40
31.0
 40
31.0
 40
31.0
 40
32.0
 40
32.0
 40
32.0
 40
33.0
 40
33.0
 40
33.0
 40
34.0
 40
34.0
 40
34.0
 40
35.0
 40
35.0
 40
35.0
 40
36.0
 40
36.0
 40
36.0
 40
36.0
 10
83.42195870506185
 20
-137.3669746878802
 30
0.0
 10
83.42195870506185
 20
-137.3669746878802
 30
0.0
 10
88.12589747394327
 20
-137.3669746878802
 30
0.0
 10
88.12589747394327
 20
-137.3669746878802
 30
0.0
 10
88.12589747394327
 20
-137.3669746878802
 30
0.0
 10
88.42561746629677
 20
-137.6670474655835
 30
0.0
 10
88.42561746629677
 20
-137.6670474655835
 30
0.0
 10
88.42561746629677
 20
-137.6670474655835
 30
0.0
 10
88.72569023641906
 20
-137.3669746878802
 30
0.0
 10
88.72569023641906
 20
-137.3669746878802
 30
0.0
 10
88.72569023641906
 20
-137.3669746878802
 30
0.0
 10
93.42617178316645
 20
-137.3669746878802
 30
0.0
 10
93.42617178316645
 20
-137.3669746878802
 30
0.0
 10
93.42617178316645
 20
-137.3669746878802
 30
0.0
 10
93.42617178316645
 20
-137.3673274656579
 30
0.0
 10
93.42617178316645
 20
-137.3673274656579
 30
0.0
 10
93.42617178316645
 20
-137.3673274656579
 30
0.0
 10
93.42617178316645
 20
-125.1213877464974
 30
0.0
 10
93.42617178316645
 20
-125.1213877464974
 30
0.0
 10
93.42617178316645
 20
-125.1213877464974
 30
0.0
 10
92.425694030913
 20
-125.1213877464974
 30
0.0
 10
92.425694030913
 20
-125.1213877464974
 30
0.0
 10
92.425694030913
 20
-124.431001635559
 30
0.0
 10
92.98555234996314
 20
-123.8711785801434
 30
0.0
 10
93.67593844346104
 20
-123.8711785801434
 30
0.0
 10
93.67593844346104
 20
-123.8711785801434
 30
0.0
 10
93.70451344273204
 20
-123.8701202468104
 30
0.0
 10
93.70451344273204
 20
-123.8701202468104
 30
0.0
 10
93.70451344273204
 20
-123.8701202468104
 30
0.0
 10
101.7157437939041
 20
-123.8701202468104
 30
0.0
 10
101.7157437939041
 20
-123.8701202468104
 30
0.0
 10
101.7157437939041
 20
-123.8701202468104
 30
0.0
 10
102.4247565535934
 20
-125.1358516353827
 30
0.0
 10
102.4247565535934
 20
-125.1358516353827
 30
0.0
 10
102.4247565535934
 20
-125.1358516353827
 30
0.0
 10
102.4247565535934
 20
-125.1344758020498
 30
0.0
 10
102.4247565535934
 20
-125.1344758020498
 30
0.0
 10
102.4247565535934
 20
-125.1344758020498
 30
0.0
 10
102.4247565535934
 20
-125.8655371907559
 30
0.0
 10
102.4247565535934
 20
-125.8655371907559
 30
0.0
 10
102.4247565535934
 20
-125.8655371907559
 30
0.0
 10
101.4243166413107
 20
-125.8655371907559
 30
0.0
 10
101.4243166413107
 20
-125.8655371907559
 30
0.0
 10
101.4243166413107
 20
-125.8655371907559
 30
0.0
 10
101.0081421452898
 20
-125.1213877464974
 30
0.0
 10
101.0081421452898
 20
-125.1213877464974
 30
0.0
 10
101.0081421452898
 20
-125.1213877464974
 30
0.0
 10
101.0081421452898
 20
-125.1196591353867
 30
0.0
 10
101.0081421452898
 20
-125.1196591353867
 30
0.0
 10
101.0081421452898
 20
-125.1196591353867
 30
0.0
 10
94.42594397988236
 20
-125.1196591353867
 30
0.0
 10
94.42594397988236
 20
-125.1196591353867
 30
0.0
 10
94.42594397988236
 20
-125.1196591353867
 30
0.0
 10
94.42594397988236
 20
-125.1213877464974
 30
0.0
 10
94.42594397988236
 20
-125.1213877464974
 30
0.0
 10
94.42594397988236
 20
-125.1213877464974
 30
0.0
 10
94.42594397988236
 20
-138.3674524654082
 30
0.0
 10
94.42594397988236
 20
-138.3674524654082
 30
0.0
 10
94.42594397988236
 20
-138.3674524654082
 30
0.0
 10
82.42183373057718
 20
-138.3674524654082
 30
0.0
 10
82.42183373057718
 20
-138.3674524654082
 30
0.0
 10
82.42183373057718
 20
-138.3674524654082
 30
0.0
 10
82.42183373057718
 20
-138.3674524654082
 30
0.0
 10
82.42183373057718
 20
-138.3674524654082
 30
0.0
 10
82.42183373057718
 20
-138.3674524654082
 30
0.0
 10
82.42183373057718
 20
-125.1213877464974
 30
0.0
 10
82.42183373057718
 20
-125.1213877464974
 30
0.0
 10
82.42183373057718
 20
-125.1213877464974
 30
0.0
 10
82.42183373057718
 20
-125.1196591353867
 30
0.0
 10
82.42183373057718
 20
-125.1196591353867
 30
0.0
 10
82.42183373057718
 20
-125.1196591353867
 30
0.0
 10
76.01052111636561
 20
-125.1196591353867
 30
0.0
 10
76.01052111636561
 20
-125.1196591353867
 30
0.0
 10
76.01052111636561
 20
-125.1196591353867
 30
0.0
 10
76.01052111636561
 20
-125.1213877464974
 30
0.0
 10
76.01052111636561
 20
-125.1213877464974
 30
0.0
 10
76.01052111636561
 20
-125.1213877464974
 30
0.0
 10
75.42589779794726
 20
-125.8655371907559
 30
0.0
 10
75.42589779794726
 20
-125.8655371907559
 30
0.0
 10
75.42589779794726
 20
-125.8655371907559
 30
0.0
 10
74.42577282346257
 20
-125.8655371907559
 30
0.0
 10
74.42577282346257
 20
-125.8655371907559
 30
0.0
 10
74.42577282346257
 20
-125.8655371907559
 30
0.0
 10
74.42577282346257
 20
-125.1307010798286
 30
0.0
 10
74.42577282346257
 20
-125.1307010798286
 30
0.0
 10
74.42577282346257
 20
-125.1307010798286
 30
0.0
 10
75.42589779794726
 20
-123.8683916356994
 30
0.0
 10
75.42589779794726
 20
-123.8683916356994
 30
0.0
 10
75.42589779794726
 20
-123.8683916356994
 30
0.0
 10
75.42589779794726
 20
-123.8701202468104
 30
0.0
 10
75.42589779794726
 20
-123.8701202468104
 30
0.0
 10
75.42589779794726
 20
-123.8701202468104
 30
0.0
 10
83.24246537630778
 20
-123.8701202468104
 30
0.0
 10
83.24246537630778
 20
-123.8701202468104
 30
0.0
 10
83.24246537630778
 20
-123.8701202468104
 30
0.0
 10
83.17219204476727
 20
-123.8711785801434
 30
0.0
 10
83.17219204476727
 20
-123.8711785801434
 30
0.0
 10
83.86257813826516
 20
-123.8711785801434
 30
0.0
 10
84.42204840176967
 20
-124.4306488577813
 30
0.0
 10
84.42204840176967
 20
-125.1213877464974
 30
0.0
 10
84.42204840176967
 20
-125.1213877464974
 30
0.0
 10
83.42195870506185
 20
-125.1213877464974
 30
0.0
 10
83.42195870506185
 20
-125.1213877464974
 30
0.0
 10
83.42195870506185
 20
-125.1213877464974
 30
0.0
 10
83.42195870506185
 20
-137.3673274656579
 30
0.0
 10
83.42195870506185
 20
-137.3673274656579
 30
0.0
 10
83.42195870506185
 20
-137.3673274656579
 30
0.0
 10
83.42195870506185
 20
-137.3669746878802
 30
0.0
 10
83.42195870506185
 20
-137.3669746878802
 30
0.0
  0
ENDSEC
  0
SECTION
  2
OBJECTS
  0
DICTIONARY
  5
C
330
0
100
AcDbDictionary
281
     1
  3
ACAD_GROUP
350
D
  3
ACAD_LAYOUT
350
1A
  3
ACAD_MATERIAL
350
3B
  3
ACAD_MLEADERSTYLE
350
B8
  3
ACAD_MLINESTYLE
350
17
  3
ACAD_PLOTSETTINGS
350
19
  3
ACAD_PLOTSTYLENAME
350
E
  3
ACAD_TABLESTYLE
350
B7
  3
ACAD_VISUALSTYLE
350
2A
  0
SUN
  5
3F
330
29
100
AcDbSun
 90
        1
290
     0
 63
     7
421
 16777215
 40
1.0
291
     1
 91
  2455826
 92
 54000000
292
     0
 70
     2
 71
   256
280
     1
  0
DICTIONARY
  5
D
102
{ACAD_REACTORS
330
C
102
}
330
C
100
AcDbDictionary
281
     1
  0
DICTIONARY
  5
1A
102
{ACAD_REACTORS
330
C
102
}
330
C
100
AcDbDictionary
281
     1
  3
Layout1
350
1E
  3
Layout2
350
26
  3
Model
350
22
  0
DICTIONARY
  5
3B
102
{ACAD_REACTORS
330
C
102
}
330
C
100
AcDbDictionary
281
     1
  3
ByBlock
350
3D
  3
ByLayer
350
3C
  3
Global
350
3E
  0
DICTIONARY
  5
B8
102
{ACAD_REACTORS
330
C
102
}
330
C
100
AcDbDictionary
281
     1
  0
DICTIONARY
  5
17
102
{ACAD_REACTORS
330
C
102
}
330
C
100
AcDbDictionary
281
     1
  3
Standard
350
18
  0
DICTIONARY
  5
19
102
{ACAD_REACTORS
330
C
102
}
330
C
100
AcDbDictionary
281
     1
  0
ACDBDICTIONARYWDFLT
  5
E
102
{ACAD_REACTORS
330
C
102
}
330
C
100
AcDbDictionary
281
     1
  3
Normal
350
F
100
AcDbDictionaryWithDefault
340
F
  0
DICTIONARY
  5
B7
102
{ACAD_REACTORS
330
C
102
}
330
C
100
AcDbDictionary
281
     1
  0
DICTIONARY
  5
2A
102
{ACAD_REACTORS
330
C
102
}
330
C
100
AcDbDictionary
281
     1
  3
2dWireframe
350
2F
  3
3D Hidden
350
31
  3
3dWireframe
350
30
  3
Basic
350
32
  3
Brighten
350
36
  3
ColorChange
350
3A
  3
Conceptual
350
34
  3
Dim
350
35
  3
Facepattern
350
39
  3
Flat
350
2B
  3
FlatWithEdges
350
2C
  3
Gouraud
350
2D
  3
GouraudWithEdges
350
2E
  3
Linepattern
350
38
  3
Realistic
350
33
  3
Thicken
350
37
  0
LAYOUT
  5
1E
102
{ACAD_REACTORS
330
1A
102
}
330
1A
100
AcDbPlotSettings
  1

  2
none_device
  4

  6

 40
0.0
 41
0.0
 42
0.0
 43
0.0
 44
0.0
 45
0.0
 46
0.0
 47
0.0
 48
0.0
 49
0.0
140
0.0
141
0.0
142
1.0
143
1.0
 70
   688
 72
     0
 73
     0
 74
     5
  7

 75
    16
 76
     0
 77
     2
 78
   300
147
1.0
148
0.0
149
0.0
100
AcDbLayout
  1
Layout1
 70
     1
 71
     1
 10
0.0
 20
0.0
 11
12.0
 21
9.0
 12
0.0
 22
0.0
 32
0.0
 14
1.000000000000000E+20
 24
1.000000000000000E+20
 34
1.000000000000000E+20
 15
-1.000000000000000E+20
 25
-1.000000000000000E+20
 35
-1.000000000000000E+20
146
0.0
 13
0.0
 23
0.0
 33
0.0
 16
1.0
 26
0.0
 36
0.0
 17
0.0
 27
1.0
 37
0.0
 76
     0
330
1B
  0
LAYOUT
  5
26
102
{ACAD_REACTORS
330
1A
102
}
330
1A
100
AcDbPlotSettings
  1

  2
none_device
  4

  6

 40
0.0
 41
0.0
 42
0.0
 43
0.0
 44
0.0
 45
0.0
 46
0.0
 47
0.0
 48
0.0
 49
0.0
140
0.0
141
0.0
142
1.0
143
1.0
 70
   688
 72
     0
 73
     0
 74
     5
  7

 75
    16
 76
     0
 77
     2
 78
   300
147
1.0
148
0.0
149
0.0
100
AcDbLayout
  1
Layout2
 70
     1
 71
     2
 10
0.0
 20
0.0
 11
0.0
 21
0.0
 12
0.0
 22
0.0
 32
0.0
 14
0.0
 24
0.0
 34
0.0
 15
0.0
 25
0.0
 35
0.0
146
0.0
 13
0.0
 23
0.0
 33
0.0
 16
1.0
 26
0.0
 36
0.0
 17
0.0
 27
1.0
 37
0.0
 76
     0
330
23
  0
LAYOUT
  5
22
102
{ACAD_REACTORS
330
1A
102
}
330
1A
100
AcDbPlotSettings
  1

  2
none_device
  4

  6

 40
0.0
 41
0.0
 42
0.0
 43
0.0
 44
0.0
 45
0.0
 46
0.0
 47
0.0
 48
0.0
 49
0.0
140
0.0
141
0.0
142
1.0
143
1.0
 70
  1712
 72
     0
 73
     0
 74
     0
  7

 75
     0
 76
     0
 77
     2
 78
   300
147
1.0
148
0.0
149
0.0
100
AcDbLayout
  1
Model
 70
     1
 71
     0
 10
0.0
 20
0.0
 11
12.0
 21
9.0
 12
0.0
 22
0.0
 32
0.0
 14
1.000000000000000E+20
 24
1.000000000000000E+20
 34
1.000000000000000E+20
 15
-1.000000000000000E+20
 25
-1.000000000000000E+20
 35
-1.000000000000000E+20
146
0.0
 13
0.0
 23
0.0
 33
0.0
 16
1.0
 26
0.0
 36
0.0
 17
0.0
 27
1.0
 37
0.0
 76
     0
330
1F
331
29
  0
MATERIAL
  5
3D
102
{ACAD_REACTORS
330
3B
102
}
330
3B
100
AcDbMaterial
  1
ByBlock
 72
     1
 94
      127
  0
MATERIAL
  5
3C
102
{ACAD_REACTORS
330
3B
102
}
330
3B
100
AcDbMaterial
  1
ByLayer
 72
     1
 94
      127
  0
MATERIAL
  5
3E
102
{ACAD_REACTORS
330
3B
102
}
330
3B
100
AcDbMaterial
  1
Global
 72
     1
 94
      127
  0
MLINESTYLE
  5
18
102
{ACAD_REACTORS
330
17
102
}
330
17
100
AcDbMlineStyle
  2
Standard
 70
     0
  3

 62
   256
 51
90.0
 52
90.0
 71
     2
 49
0.5
 62
   256
  6
BYLAYER
 49
-0.5
 62
   256
  6
BYLAYER
  0
ACDBPLACEHOLDER
  5
F
102
{ACAD_REACTORS
330
E
102
}
330
E
  0
VISUALSTYLE
  5
2F
102
{ACAD_REACTORS
330
2A
102
}
330
2A
100
AcDbVisualStyle
  2
2dWireframe
 70
     4
177
     2
291
     0
 71
     0
176
     1
 72
     2
176
     1
 73
     0
176
     1
 90
        0
176
     1
 40
-0.6
176
     1
 41
-30.0
176
     1
 62
     5
 63
     7
421
 16777215
176
     1
 74
     1
176
     1
 91
        4
176
     1
 64
     7
176
     1
 65
   257
176
     1
 75
     1
176
     1
175
     1
176
     1
 42
1.0
176
     1
 92
        0
176
     1
 66
   257
176
     1
 43
1.0
176
     1
 76
     1
176
     1
 77
     6
176
     1
 78
     2
176
     1
 67
     7
176
     1
 79
     5
176
     1
170
     0
176
     1
171
     0
176
     1
290
     0
176
     1
 93
        1
176
     1
 44
0.0
176
     1
173
     0
176
     1
  0
VISUALSTYLE
  5
31
102
{ACAD_REACTORS
330
2A
102
}
330
2A
100
AcDbVisualStyle
  2
3D Hidden
 70
     6
177
     2
291
     0
 71
     1
176
     1
 72
     2
176
     1
 73
     2
176
     1
 90
        0
176
     1
 40
-0.6
176
     1
 41
-30.0
176
     1
 62
     5
 63
     7
421
 16777215
176
     1
 74
     2
176
     1
 91
        2
176
     1
 64
     7
176
     1
 65
   257
176
     1
 75
     2
176
     1
175
     1
176
     1
 42
40.0
176
     1
 92
        0
176
     1
 66
   257
176
     1
 43
1.0
176
     1
 76
     1
176
     1
 77
     6
176
     1
 78
     2
176
     1
 67
     7
176
     1
 79
     3
176
     1
170
     0
176
     1
171
     0
176
     1
290
     0
176
     1
 93
        1
176
     1
 44
0.0
176
     1
173
     0
176
     1
  0
VISUALSTYLE
  5
30
102
{ACAD_REACTORS
330
2A
102
}
330
2A
100
AcDbVisualStyle
  2
3dWireframe
 70
     5
177
     2
291
     0
 71
     0
176
     1
 72
     2
176
     1
 73
     0
176
     1
 90
        0
176
     1
 40
-0.6
176
     1
 41
-30.0
176
     1
 62
     5
 63
     7
421
 16777215
176
     1
 74
     1
176
     1
 91
        4
176
     1
 64
     7
176
     1
 65
   257
176
     1
 75
     1
176
     1
175
     1
176
     1
 42
1.0
176
     1
 92
        0
176
     1
 66
   257
176
     1
 43
1.0
176
     1
 76
     1
176
     1
 77
     6
176
     1
 78
     2
176
     1
 67
     7
176
     1
 79
     5
176
     1
170
     0
176
     1
171
     0
176
     1
290
     0
176
     1
 93
        1
176
     1
 44
0.0
176
     1
173
     0
176
     1
  0
VISUALSTYLE
  5
32
102
{ACAD_REACTORS
330
2A
102
}
330
2A
100
AcDbVisualStyle
  2
Basic
 70
     7
177
     2
291
     1
 71
     1
176
     1
 72
     0
176
     1
 73
     1
176
     1
 90
        0
176
     1
 40
-0.6
176
     1
 41
-30.0
176
     1
 62
     5
 63
     7
421
 16777215
176
     1
 74
     0
176
     1
 91
        4
176
     1
 64
     7
176
     1
 65
   257
176
     1
 75
     1
176
     1
175
     1
176
     1
 42
1.0
176
     1
 92
        8
176
     1
 66
     7
176
     1
 43
1.0
176
     1
 76
     1
176
     1
 77
     6
176
     1
 78
     2
176
     1
 67
     7
176
     1
 79
     5
176
     1
170
     0
176
     1
171
     0
176
     1
290
     0
176
     1
 93
        1
176
     1
 44
0.0
176
     1
173
     0
176
     1
  0
VISUALSTYLE
  5
36
102
{ACAD_REACTORS
330
2A
102
}
330
2A
100
AcDbVisualStyle
  2
Brighten
 70
    12
177
     2
291
     1
 71
     2
176
     1
 72
     2
176
     1
 73
     0
176
     1
 90
        0
176
     1
 40
-0.6
176
     1
 41
-30.0
176
     1
 62
     5
 63
     7
421
 16777215
176
     1
 74
     1
176
     1
 91
        4
176
     1
 64
     7
176
     1
 65
   257
176
     1
 75
     1
176
     1
175
     1
176
     1
 42
1.0
176
     1
 92
        8
176
     1
 66
     7
176
     1
 43
1.0
176
     1
 76
     1
176
     1
 77
     6
176
     1
 78
     2
176
     1
 67
     7
176
     1
 79
     5
176
     1
170
     0
176
     1
171
     0
176
     1
290
     0
176
     1
 93
        1
176
     1
 44
50.0
176
     1
173
     0
176
     1
  0
VISUALSTYLE
  5
3A
102
{ACAD_REACTORS
330
2A
102
}
330
2A
100
AcDbVisualStyle
  2
ColorChange
 70
    16
177
     2
291
     1
 71
     2
176
     1
 72
     2
176
     1
 73
     3
176
     1
 90
        0
176
     1
 40
-0.6
176
     1
 41
-30.0
176
     1
 62
     5
 63
     8
421
  8421504
176
     1
 74
     1
176
     1
 91
        4
176
     1
 64
     7
176
     1
 65
   257
176
     1
 75
     1
176
     1
175
     1
176
     1
 42
1.0
176
     1
 92
        8
176
     1
 66
     8
424
  8421504
176
     1
 43
1.0
176
     1
 76
     1
176
     1
 77
     6
176
     1
 78
     2
176
     1
 67
     7
176
     1
 79
     5
176
     1
170
     0
176
     1
171
     0
176
     1
290
     0
176
     1
 93
        1
176
     1
 44
0.0
176
     1
173
     0
176
     1
  0
VISUALSTYLE
  5
34
102
{ACAD_REACTORS
330
2A
102
}
330
2A
100
AcDbVisualStyle
  2
Conceptual
 70
     9
177
     2
291
     0
 71
     3
176
     1
 72
     2
176
     1
 73
     0
176
     1
 90
        0
176
     1
 40
-0.6
176
     1
 41
-30.0
176
     1
 62
     5
 63
     7
421
 16777215
176
     1
 74
     2
176
     1
 91
        2
176
     1
 64
     7
176
     1
 65
   257
176
     1
 75
     1
176
     1
175
     1
176
     1
 42
40.0
176
     1
 92
        8
176
     1
 66
     7
176
     1
 43
1.0
176
     1
 76
     1
176
     1
 77
     6
176
     1
 78
     2
176
     1
 67
     7
176
     1
 79
     3
176
     1
170
     0
176
     1
171
     0
176
     1
290
     0
176
     1
 93
        1
176
     1
 44
0.0
176
     1
173
     0
176
     1
  0
VISUALSTYLE
  5
35
102
{ACAD_REACTORS
330
2A
102
}
330
2A
100
AcDbVisualStyle
  2
Dim
 70
    11
177
     2
291
     1
 71
     2
176
     1
 72
     2
176
     1
 73
     0
176
     1
 90
        0
176
     1
 40
-0.6
176
     1
 41
-30.0
176
     1
 62
     5
 63
     7
421
 16777215
176
     1
 74
     1
176
     1
 91
        4
176
     1
 64
     7
176
     1
 65
   257
176
     1
 75
     1
176
     1
175
     1
176
     1
 42
1.0
176
     1
 92
        8
176
     1
 66
     7
176
     1
 43
1.0
176
     1
 76
     1
176
     1
 77
     6
176
     1
 78
     2
176
     1
 67
     7
176
     1
 79
     5
176
     1
170
     0
176
     1
171
     0
176
     1
290
     0
176
     1
 93
        1
176
     1
 44
-50.0
176
     1
173
     0
176
     1
  0
VISUALSTYLE
  5
39
102
{ACAD_REACTORS
330
2A
102
}
330
2A
100
AcDbVisualStyle
  2
Facepattern
 70
    15
177
     2
291
     1
 71
     2
176
     1
 72
     2
176
     1
 73
     0
176
     1
 90
        0
176
     1
 40
-0.6
176
     1
 41
-30.0
176
     1
 62
     5
 63
     7
421
 16777215
176
     1
 74
     1
176
     1
 91
        4
176
     1
 64
     7
176
     1
 65
   257
176
     1
 75
     1
176
     1
175
     1
176
     1
 42
1.0
176
     1
 92
        8
176
     1
 66
     7
176
     1
 43
1.0
176
     1
 76
     1
176
     1
 77
     6
176
     1
 78
     2
176
     1
 67
     7
176
     1
 79
     5
176
     1
170
     0
176
     1
171
     0
176
     1
290
     0
176
     1
 93
        1
176
     1
 44
0.0
176
     1
173
     0
176
     1
  0
VISUALSTYLE
  5
2B
102
{ACAD_REACTORS
330
2A
102
}
330
2A
100
AcDbVisualStyle
  2
Flat
 70
     0
177
     2
291
     1
 71
     2
176
     1
 72
     1
176
     1
 73
     1
176
     1
 90
        2
176
     1
 40
-0.6
176
     1
 41
30.0
176
     1
 62
     5
 63
     7
421
 16777215
176
     1
 74
     0
176
     1
 91
        4
176
     1
 64
     7
176
     1
 65
   257
176
     1
 75
     1
176
     1
175
     1
176
     1
 42
1.0
176
     1
 92
        8
176
     1
 66
     7
176
     1
 43
1.0
176
     1
 76
     1
176
     1
 77
     6
176
     1
 78
     2
176
     1
 67
     7
176
     1
 79
     5
176
     1
170
     0
176
     1
171
     0
176
     1
290
     0
176
     1
 93
       13
176
     1
 44
0.0
176
     1
173
     0
176
     1
  0
VISUALSTYLE
  5
2C
102
{ACAD_REACTORS
330
2A
102
}
330
2A
100
AcDbVisualStyle
  2
FlatWithEdges
 70
     1
177
     2
291
     1
 71
     2
176
     1
 72
     1
176
     1
 73
     1
176
     1
 90
        2
176
     1
 40
-0.6
176
     1
 41
30.0
176
     1
 62
     5
 63
     7
421
 16777215
176
     1
 74
     1
176
     1
 91
        4
176
     1
 64
     7
176
     1
 65
   257
176
     1
 75
     1
176
     1
175
     1
176
     1
 42
1.0
176
     1
 92
        0
176
     1
 66
   257
176
     1
 43
1.0
176
     1
 76
     1
176
     1
 77
     6
176
     1
 78
     2
176
     1
 67
     7
176
     1
 79
     5
176
     1
170
     0
176
     1
171
     0
176
     1
290
     0
176
     1
 93
       13
176
     1
 44
0.0
176
     1
173
     0
176
     1
  0
VISUALSTYLE
  5
2D
102
{ACAD_REACTORS
330
2A
102
}
330
2A
100
AcDbVisualStyle
  2
Gouraud
 70
     2
177
     2
291
     1
 71
     2
176
     1
 72
     2
176
     1
 73
     1
176
     1
 90
        2
176
     1
 40
-0.6
176
     1
 41
30.0
176
     1
 62
     5
 63
     7
421
 16777215
176
     1
 74
     0
176
     1
 91
        4
176
     1
 64
     7
176
     1
 65
   257
176
     1
 75
     1
176
     1
175
     1
176
     1
 42
1.0
176
     1
 92
        0
176
     1
 66
     7
176
     1
 43
1.0
176
     1
 76
     1
176
     1
 77
     6
176
     1
 78
     2
176
     1
 67
     7
176
     1
 79
     5
176
     1
170
     0
176
     1
171
     0
176
     1
290
     0
176
     1
 93
       13
176
     1
 44
0.0
176
     1
173
     0
176
     1
  0
VISUALSTYLE
  5
2E
102
{ACAD_REACTORS
330
2A
102
}
330
2A
100
AcDbVisualStyle
  2
GouraudWithEdges
 70
     3
177
     2
291
     1
 71
     2
176
     1
 72
     2
176
     1
 73
     1
176
     1
 90
        2
176
     1
 40
-0.6
176
     1
 41
30.0
176
     1
 62
     5
 63
     7
421
 16777215
176
     1
 74
     1
176
     1
 91
        4
176
     1
 64
     7
176
     1
 65
   257
176
     1
 75
     1
176
     1
175
     1
176
     1
 42
1.0
176
     1
 92
        0
176
     1
 66
   257
176
     1
 43
1.0
176
     1
 76
     1
176
     1
 77
     6
176
     1
 78
     2
176
     1
 67
     7
176
     1
 79
     5
176
     1
170
     0
176
     1
171
     0
176
     1
290
     0
176
     1
 93
       13
176
     1
 44
0.0
176
     1
173
     0
176
     1
  0
VISUALSTYLE
  5
38
102
{ACAD_REACTORS
330
2A
102
}
330
2A
100
AcDbVisualStyle
  2
Linepattern
 70
    14
177
     2
291
     1
 71
     2
176
     1
 72
     2
176
     1
 73
     0
176
     1
 90
        0
176
     1
 40
-0.6
176
     1
 41
-30.0
176
     1
 62
     5
 63
     7
421
 16777215
176
     1
 74
     1
176
     1
 91
        4
176
     1
 64
     7
176
     1
 65
   257
176
     1
 75
     7
176
     1
175
     7
176
     1
 42
1.0
176
     1
 92
        8
176
     1
 66
     7
176
     1
 43
1.0
176
     1
 76
     1
176
     1
 77
     6
176
     1
 78
     2
176
     1
 67
     7
176
     1
 79
     5
176
     1
170
     0
176
     1
171
     0
176
     1
290
     0
176
     1
 93
        1
176
     1
 44
0.0
176
     1
173
     0
176
     1
  0
VISUALSTYLE
  5
33
102
{ACAD_REACTORS
330
2A
102
}
330
2A
100
AcDbVisualStyle
  2
Realistic
 70
     8
177
     2
291
     0
 71
     2
176
     1
 72
     2
176
     1
 73
     0
176
     1
 90
        0
176
     1
 40
-0.6
176
     1
 41
-30.0
176
     1
 62
     5
 63
     7
421
 16777215
176
     1
 74
     1
176
     1
 91
        0
176
     1
 64
     7
176
     1
 65
   257
176
     1
 75
     1
176
     1
175
     1
176
     1
 42
1.0
176
     1
 92
        8
176
     1
 66
     8
424
  7895160
176
     1
 43
1.0
176
     1
 76
     1
176
     1
 77
     6
176
     1
 78
     2
176
     1
 67
     7
176
     1
 79
     5
176
     1
170
     0
176
     1
171
     0
176
     1
290
     0
176
     1
 93
       13
176
     1
 44
0.0
176
     1
173
     0
176
     1
  0
VISUALSTYLE
  5
37
102
{ACAD_REACTORS
330
2A
102
}
330
2A
100
AcDbVisualStyle
  2
Thicken
 70
    13
177
     2
291
     1
 71
     2
176
     1
 72
     2
176
     1
 73
     0
176
     1
 90
        0
176
     1
 40
-0.6
176
     1
 41
-30.0
176
     1
 62
     5
 63
     7
421
 16777215
176
     1
 74
     1
176
     1
 91
        4
176
     1
 64
     7
176
     1
 65
   257
176
     1
 75
     1
176
     1
175
     1
176
     1
 42
1.0
176
     1
 92
       12
176
     1
 66
     7
176
     1
 43
1.0
176
     1
 76
     1
176
     1
 77
     6
176
     1
 78
     2
176
     1
 67
     7
176
     1
 79
     5
176
     1
170
     0
176
     1
171
     0
176
     1
290
     0
176
     1
 93
        1
176
     1
 44
0.0
176
     1
173
     0
176
     1
  0
ENDSEC
  0
EOF
