  0
SECTION
  2
HEADER
  9
$ACADVER
  1
AC1024
  9
$ACADMAINTVER
 70
     6
  9
$DWGCODEPAGE
  3
UNDEFINED
  9
$INSBASE
 10
0.0
 20
0.0
 30
0.0
  9
$EXTMIN
 10
1.000000000000000E+20
 20
1.000000000000000E+20
 30
1.000000000000000E+20
  9
$EXTMAX
 10
-1.000000000000000E+20
 20
-1.000000000000000E+20
 30
-1.000000000000000E+20
  9
$LIMMIN
 10
0.0
 20
0.0
  9
$LIMMAX
 10
12.0
 20
9.0
  9
$ORTHOMODE
 70
     0
  9
$REGENMODE
 70
     1
  9
$FILLMODE
 70
     1
  9
$QTEXTMODE
 70
     0
  9
$MIRRTEXT
 70
     1
  9
$LTSCALE
 40
1.0
  9
$ATTMODE
 70
     1
  9
$TEXTSIZE
 40
0.2
  9
$TRACEWID
 40
0.05
  9
$TEXTSTYLE
  7
Standard
  9
$CLAYER
  8
0
  9
$CELTYPE
  6
ByLayer
  9
$CECOLOR
 62
   256
  9
$CELTSCALE
 40
1.0
  9
$DISPSILH
 70
     0
  9
$DIMSCALE
 40
1.0
  9
$DIMASZ
 40
0.18
  9
$DIMEXO
 40
0.0625
  9
$DIMDLI
 40
0.38
  9
$DIMRND
 40
0.0
  9
$DIMDLE
 40
0.0
  9
$DIMEXE
 40
0.18
  9
$DIMTP
 40
0.0
  9
$DIMTM
 40
0.0
  9
$DIMTXT
 40
0.18
  9
$DIMCEN
 40
0.09
  9
$DIMTSZ
 40
0.0
  9
$DIMTOL
 70
     0
  9
$DIMLIM
 70
     0
  9
$DIMTIH
 70
     1
  9
$DIMTOH
 70
     1
  9
$DIMSE1
 70
     0
  9
$DIMSE2
 70
     0
  9
$DIMTAD
 70
     0
  9
$DIMZIN
 70
     0
  9
$DIMBLK
  1

  9
$DIMASO
 70
     1
  9
$DIMSHO
 70
     1
  9
$DIMPOST
  1

  9
$DIMAPOST
  1

  9
$DIMALT
 70
     0
  9
$DIMALTD
 70
     2
  9
$DIMALTF
 40
25.4
  9
$DIMLFAC
 40
1.0
  9
$DIMTOFL
 70
     0
  9
$DIMTVP
 40
0.0
  9
$DIMTIX
 70
     0
  9
$DIMSOXD
 70
     0
  9
$DIMSAH
 70
     0
  9
$DIMBLK1
  1

  9
$DIMBLK2
  1

  9
$DIMSTYLE
  2
Standard
  9
$DIMCLRD
 70
     0
  9
$DIMCLRE
 70
     0
  9
$DIMCLRT
 70
     0
  9
$DIMTFAC
 40
1.0
  9
$DIMGAP
 40
0.09
  9
$DIMJUST
 70
     0
  9
$DIMSD1
 70
     0
  9
$DIMSD2
 70
     0
  9
$DIMTOLJ
 70
     1
  9
$DIMTZIN
 70
     0
  9
$DIMALTZ
 70
     0
  9
$DIMALTTZ
 70
     0
  9
$DIMUPT
 70
     0
  9
$DIMDEC
 70
     4
  9
$DIMTDEC
 70
     4
  9
$DIMALTU
 70
     2
  9
$DIMALTTD
 70
     2
  9
$DIMTXSTY
  7
Standard
  9
$DIMAUNIT
 70
     0
  9
$DIMADEC
 70
     0
  9
$DIMALTRND
 40
0.0
  9
$DIMAZIN
 70
     0
  9
$DIMDSEP
 70
    46
  9
$DIMATFIT
 70
     3
  9
$DIMFRAC
 70
     0
  9
$DIMLDRBLK
  1

  9
$DIMLUNIT
 70
     2
  9
$DIMLWD
 70
    -2
  9
$DIMLWE
 70
    -2
  9
$DIMTMOVE
 70
     0
  9
$DIMFXL
 40
1.0
  9
$DIMFXLON
 70
     0
  9
$DIMJOGANG
 40
0.7853981633974483
  9
$DIMTFILL
 70
     0
  9
$DIMTFILLCLR
 70
     0
  9
$DIMARCSYM
 70
     0
  9
$DIMLTYPE
  6

  9
$DIMLTEX1
  6

  9
$DIMLTEX2
  6

  9
$DIMTXTDIRECTION
 70
     0
  9
$LUNITS
 70
     2
  9
$LUPREC
 70
     4
  9
$SKETCHINC
 40
0.1
  9
$FILLETRAD
 40
0.5
  9
$AUNITS
 70
     0
  9
$AUPREC
 70
     0
  9
$MENU
  1
.
  9
$ELEVATION
 40
0.0
  9
$PELEVATION
 40
0.0
  9
$THICKNESS
 40
0.0
  9
$LIMCHECK
 70
     0
  9
$CHAMFERA
 40
0.5
  9
$CHAMFERB
 40
0.5
  9
$CHAMFERC
 40
1.0
  9
$CHAMFERD
 40
0.0
  9
$SKPOLY
 70
     0
  9
$TDCREATE
 40
2457917.593321748
  9
$TDUCREATE
 40
2457917.218321759
  9
$TDUPDATE
 40
2457917.593321748
  9
$TDUUPDATE
 40
2457917.218321759
  9
$TDINDWG
 40
0.0000000116
  9
$TDUSRTIMER
 40
0.0000000116
  9
$USRTIMER
 70
     1
  9
$ANGBASE
 50
0.0
  9
$ANGDIR
 70
     0
  9
$PDMODE
 70
     0
  9
$PDSIZE
 40
0.0
  9
$PLINEWID
 40
0.0
  9
$SPLFRAME
 70
     0
  9
$SPLINETYPE
 70
     6
  9
$SPLINESEGS
 70
     8
  9
$HANDSEED
  5
B8
  9
$SURFTAB1
 70
     6
  9
$SURFTAB2
 70
     6
  9
$SURFTYPE
 70
     6
  9
$SURFU
 70
     6
  9
$SURFV
 70
     6
  9
$UCSBASE
  2

  9
$UCSNAME
  2

  9
$UCSORG
 10
0.0
 20
0.0
 30
0.0
  9
$UCSXDIR
 10
1.0
 20
0.0
 30
0.0
  9
$UCSYDIR
 10
0.0
 20
1.0
 30
0.0
  9
$UCSORTHOREF
  2

  9
$UCSORTHOVIEW
 70
     0
  9
$UCSORGTOP
 10
0.0
 20
0.0
 30
0.0
  9
$UCSORGBOTTOM
 10
0.0
 20
0.0
 30
0.0
  9
$UCSORGLEFT
 10
0.0
 20
0.0
 30
0.0
  9
$UCSORGRIGHT
 10
0.0
 20
0.0
 30
0.0
  9
$UCSORGFRONT
 10
0.0
 20
0.0
 30
0.0
  9
$UCSORGBACK
 10
0.0
 20
0.0
 30
0.0
  9
$PUCSBASE
  2

  9
$PUCSNAME
  2

  9
$PUCSORG
 10
0.0
 20
0.0
 30
0.0
  9
$PUCSXDIR
 10
1.0
 20
0.0
 30
0.0
  9
$PUCSYDIR
 10
0.0
 20
1.0
 30
0.0
  9
$PUCSORTHOREF
  2

  9
$PUCSORTHOVIEW
 70
     0
  9
$PUCSORGTOP
 10
0.0
 20
0.0
 30
0.0
  9
$PUCSORGBOTTOM
 10
0.0
 20
0.0
 30
0.0
  9
$PUCSORGLEFT
 10
0.0
 20
0.0
 30
0.0
  9
$PUCSORGRIGHT
 10
0.0
 20
0.0
 30
0.0
  9
$PUCSORGFRONT
 10
0.0
 20
0.0
 30
0.0
  9
$PUCSORGBACK
 10
0.0
 20
0.0
 30
0.0
  9
$USERI1
 70
     0
  9
$USERI2
 70
     0
  9
$USERI3
 70
     0
  9
$USERI4
 70
     0
  9
$USERI5
 70
     0
  9
$USERR1
 40
0.0
  9
$USERR2
 40
0.0
  9
$USERR3
 40
0.0
  9
$USERR4
 40
0.0
  9
$USERR5
 40
0.0
  9
$WORLDVIEW
 70
     1
  9
$SHADEDGE
 70
     3
  9
$SHADEDIF
 70
    70
  9
$TILEMODE
 70
     1
  9
$MAXACTVP
 70
    64
  9
$PINSBASE
 10
0.0
 20
0.0
 30
0.0
  9
$PLIMCHECK
 70
     0
  9
$PEXTMIN
 10
1.000000000000000E+20
 20
1.000000000000000E+20
 30
1.000000000000000E+20
  9
$PEXTMAX
 10
-1.000000000000000E+20
 20
-1.000000000000000E+20
 30
-1.000000000000000E+20
  9
$PLIMMIN
 10
0.0
 20
0.0
  9
$PLIMMAX
 10
12.0
 20
9.0
  9
$UNITMODE
 70
     0
  9
$VISRETAIN
 70
     1
  9
$PLINEGEN
 70
     0
  9
$PSLTSCALE
 70
     1
  9
$TREEDEPTH
 70
  3020
  9
$CMLSTYLE
  2
Standard
  9
$CMLJUST
 70
     0
  9
$CMLSCALE
 40
1.0
  9
$PROXYGRAPHICS
 70
     1
  9
$MEASUREMENT
 70
     0
  9
$CELWEIGHT
370
    -1
  9
$ENDCAPS
280
     0
  9
$JOINSTYLE
280
     0
  9
$LWDISPLAY
290
     1
  9
$INSUNITS
 70
     1
  9
$HYPERLINKBASE
  1

  9
$STYLESHEET
  1

  9
$XEDIT
290
     1
  9
$CEPSNTYPE
380
     0
  9
$PSTYLEMODE
290
     1
  9
$FINGERPRINTGUID
  2
{636215C5-F6D0-3DE2-C509-A0375217F52B}
  9
$VERSIONGUID
  2
{FAEB1C32-E019-11D5-929B-00C0DF256EC4}
  9
$EXTNAMES
290
     1
  9
$PSVPSCALE
 40
0.0
  9
$OLESTARTUP
290
     0
  9
$SORTENTS
280
   127
  9
$INDEXCTL
280
     0
  9
$HIDETEXT
280
     1
  9
$XCLIPFRAME
280
     2
  9
$HALOGAP
280
     0
  9
$OBSCOLOR
 70
   257
  9
$OBSLTYPE
280
     0
  9
$INTERSECTIONDISPLAY
280
     0
  9
$INTERSECTIONCOLOR
 70
   257
  9
$DIMASSOC
280
     2
  9
$PROJECTNAME
  1

  9
$CAMERADISPLAY
290
     0
  9
$LENSLENGTH
 40
50.0
  9
$CAMERAHEIGHT
 40
0.0
  9
$STEPSPERSEC
 40
2.0
  9
$STEPSIZE
 40
6.0
  9
$3DDWFPREC
 40
2.0
  9
$PSOLWIDTH
 40
0.25
  9
$PSOLHEIGHT
 40
4.0
  9
$LOFTANG1
 40
1.570796326794897
  9
$LOFTANG2
 40
1.570796326794897
  9
$LOFTMAG1
 40
0.0
  9
$LOFTMAG2
 40
0.0
  9
$LOFTPARAM
 70
     7
  9
$LOFTNORMALS
280
     1
  9
$LATITUDE
 40
37.795
  9
$LONGITUDE
 40
-122.394
  9
$NORTHDIRECTION
 40
0.0
  9
$TIMEZONE
 70
 -8000
  9
$LIGHTGLYPHDISPLAY
280
     1
  9
$TILEMODELIGHTSYNCH
280
     1
  9
$CMATERIAL
347
3C
  9
$SOLIDHIST
280
     1
  9
$SHOWHIST
280
     1
  9
$DWFFRAME
280
     2
  9
$DGNFRAME
280
     2
  9
$REALWORLDSCALE
290
     1
  9
$INTERFERECOLOR
 62
   256
  9
$CSHADOW
280
     0
  9
$SHADOWPLANELOCATION
 40
0.0
  0
ENDSEC
  0
SECTION
  2
CLASSES
  0
CLASS
  1
ACDBDICTIONARYWDFLT
  2
AcDbDictionaryWithDefault
  3
ObjectDBX Classes
 90
        0
 91
        4
280
     0
281
     0
  0
CLASS
  1
VISUALSTYLE
  2
AcDbVisualStyle
  3
ObjectDBX Classes
 90
     4095
 91
        4
280
     0
281
     0
  0
CLASS
  1
MATERIAL
  2
AcDbMaterial
  3
ObjectDBX Classes
 90
     1153
 91
        4
280
     0
281
     0
  0
CLASS
  1
SUN
  2
AcDbSun
  3
SCENEOE
 90
     1024
 91
        4
280
     0
281
     0
  0
ENDSEC
  0
SECTION
  2
TABLES
  0
TABLE
  2
VPORT
  5
8
330
0
100
AcDbSymbolTable
 70
     1
  0
VPORT
  5
29
330
8
100
AcDbSymbolTableRecord
100
AcDbViewportTableRecord
  2
*Active
 70
     0
 10
0.0
 20
0.0
 11
1.0
 21
1.0
 12
0.0
 22
0.0
 13
0.0
 23
0.0
 14
0.5
 24
0.5
 15
0.5
 25
0.5
 16
0.0
 26
0.0
 36
1.0
 17
91.00082462281999
 27
-128.4993055234307
 37
0.0
 40
256.9986110468615
 41
0.7081814508812795
 42
50.0
 43
0.0
 44
0.0
 50
0.0
 51
0.0
 71
     0
 72
   100
 73
     1
 74
     3
 75
     0
 76
     0
 77
     0
 78
     0
281
     0
 65
     1
110
0.0
120
0.0
130
0.0
111
1.0
121
0.0
131
0.0
112
0.0
122
1.0
132
0.0
 79
     0
146
0.0
 60
     3
 61
     5
292
     1
282
     1
141
0.0
142
0.0
 63
   250
361
3F
  0
ENDTAB
  0
TABLE
  2
LTYPE
  5
5
330
0
100
AcDbSymbolTable
 70
     1
  0
LTYPE
  5
14
330
5
100
AcDbSymbolTableRecord
100
AcDbLinetypeTableRecord
  2
ByBlock
 70
     0
  3

 72
    65
 73
     0
 40
0.0
  0
LTYPE
  5
15
330
5
100
AcDbSymbolTableRecord
100
AcDbLinetypeTableRecord
  2
ByLayer
 70
     0
  3

 72
    65
 73
     0
 40
0.0
  0
LTYPE
  5
16
330
5
100
AcDbSymbolTableRecord
100
AcDbLinetypeTableRecord
  2
Continuous
 70
     0
  3
Solid line
 72
    65
 73
     0
 40
0.0
  0
ENDTAB
  0
TABLE
  2
LAYER
  5
2
330
0
100
AcDbSymbolTable
 70
     2
  0
LAYER
  5
10
330
2
100
AcDbSymbolTableRecord
100
AcDbLayerTableRecord
  2
0
 70
     0
 62
     7
  6
Continuous
370
    -3
390
F
347
3E
  0
LAYER
  5
40
330
2
100
AcDbSymbolTableRecord
100
AcDbLayerTableRecord
  2
_U+30EC_U+30A4_U+30E4_U+30FC 1
 70
     0
 62
     7
  6
Continuous
370
    -3
390
F
347
3E
  0
ENDTAB
  0
TABLE
  2
STYLE
  5
3
330
0
100
AcDbSymbolTable
 70
     1
  0
STYLE
  5
11
330
3
100
AcDbSymbolTableRecord
100
AcDbTextStyleTableRecord
  2
Standard
 70
     0
 40
0.0
 41
1.0
 50
0.0
 71
     0
 42
0.2
  3
txt
  4

  0
ENDTAB
  0
TABLE
  2
VIEW
  5
6
330
0
100
AcDbSymbolTable
 70
     0
  0
ENDTAB
  0
TABLE
  2
UCS
  5
7
330
0
100
AcDbSymbolTable
 70
     0
  0
ENDTAB
  0
TABLE
  2
APPID
  5
9
330
0
100
AcDbSymbolTable
 70
     1
  0
APPID
  5
12
330
9
100
AcDbSymbolTableRecord
100
AcDbRegAppTableRecord
  2
ACAD
 70
     0
  0
ENDTAB
  0
TABLE
  2
DIMSTYLE
  5
A
330
0
100
AcDbSymbolTable
 70
     1
100
AcDbDimStyleTable
  0
DIMSTYLE
105
27
330
A
100
AcDbSymbolTableRecord
100
AcDbDimStyleTableRecord
  2
Standard
 70
     0
178
     0
340
11
  0
ENDTAB
  0
TABLE
  2
BLOCK_RECORD
  5
1
330
0
100
AcDbSymbolTable
 70
     7
  0
BLOCK_RECORD
  5
1F
330
1
100
AcDbSymbolTableRecord
100
AcDbBlockTableRecord
  2
*Model_Space
340
22
 70
     0
280
     1
281
     0
  0
BLOCK_RECORD
  5
1B
330
1
100
AcDbSymbolTableRecord
100
AcDbBlockTableRecord
  2
*Paper_Space
340
1E
 70
     0
280
     1
281
     0
  0
BLOCK_RECORD
  5
23
330
1
100
AcDbSymbolTableRecord
100
AcDbBlockTableRecord
  2
*Paper_Space0
340
26
 70
     0
280
     1
281
     0
  0
BLOCK_RECORD
  5
64
330
1
100
AcDbSymbolTableRecord
100
AcDbBlockTableRecord
  2
block 2
340
0
102
{BLKREFS
331
65
102
}
 70
     0
280
     1
281
     0
  0
BLOCK_RECORD
  5
6C
330
1
100
AcDbSymbolTableRecord
100
AcDbBlockTableRecord
  2
block 3
340
0
102
{BLKREFS
331
6D
102
}
 70
     0
280
     1
281
     0
  0
BLOCK_RECORD
  5
75
330
1
100
AcDbSymbolTableRecord
100
AcDbBlockTableRecord
  2
block 4
340
0
102
{BLKREFS
331
76
102
}
 70
     0
280
     1
281
     0
  0
BLOCK_RECORD
  5
92
330
1
100
AcDbSymbolTableRecord
100
AcDbBlockTableRecord
  2
block 5
340
0
102
{BLKREFS
331
93
102
}
 70
     0
280
     1
281
     0
  0
BLOCK_RECORD
  5
A3
330
1
100
AcDbSymbolTableRecord
100
AcDbBlockTableRecord
  2
block 6
340
0
102
{BLKREFS
331
A4
102
}
 70
     0
280
     1
281
     0
  0
BLOCK_RECORD
  5
AF
330
1
100
AcDbSymbolTableRecord
100
AcDbBlockTableRecord
  2
block 7
340
0
102
{BLKREFS
331
B0
102
}
 70
     0
280
     1
281
     0
  0
ENDTAB
  0
ENDSEC
  0
SECTION
  2
BLOCKS
  0
BLOCK
  5
20
330
1F
100
AcDbEntity
  8
0
100
AcDbBlockBegin
  2
*Model_Space
 70
     0
 10
0.0
 20
0.0
 30
0.0
  3
*Model_Space
  1

  0
ENDBLK
  5
21
330
1F
100
AcDbEntity
  8
0
100
AcDbBlockEnd
  0
BLOCK
  5
1C
330
1B
100
AcDbEntity
 67
     1
  8
0
100
AcDbBlockBegin
  2
*Paper_Space
 70
     0
 10
0.0
 20
0.0
 30
0.0
  3
*Paper_Space
  1

  0
ENDBLK
  5
1D
330
1B
100
AcDbEntity
 67
     1
  8
0
100
AcDbBlockEnd
  0
BLOCK
  5
24
330
23
100
AcDbEntity
  8
0
100
AcDbBlockBegin
  2
*Paper_Space0
 70
     0
 10
0.0
 20
0.0
 30
0.0
  3
*Paper_Space0
  1

  0
ENDBLK
  5
25
330
23
100
AcDbEntity
  8
0
100
AcDbBlockEnd
  0
BLOCK
  5
66
330
64
100
AcDbEntity
  8
0
100
AcDbBlockBegin
  2
block 2
 70
     0
 10
0.0
 20
0.0
 30
0.0
  3
block 2
  1

  0
SPLINE
  5
68
330
64
100
AcDbEntity
  8
_U+30EC_U+30A4_U+30E4_U+30FC 1
370
     0
100
AcDbSpline
210
0.0
220
0.0
230
1.0
 70
    11
 71
     3
 72
    29
 73
    25
 74
     0
 42
0.0000000001
 43
0.0000000001
 12
1.0
 22
0.0
 32
0.0
 13
1.0
 23
0.0
 33
0.0
 40
0.0
 40
0.0
 40
0.0
 40
0.0
 40
1.0
 40
1.0
 40
1.0
 40
2.0
 40
2.0
 40
2.0
 40
3.0
 40
3.0
 40
3.0
 40
4.0
 40
4.0
 40
4.0
 40
5.0
 40
5.0
 40
5.0
 40
6.0
 40
6.0
 40
6.0
 40
7.0
 40
7.0
 40
7.0
 40
8.0
 40
8.0
 40
8.0
 40
8.0
 10
88.1904825625878
 20
-121.9593085090067
 30
0.0
 10
87.92383217202946
 20
-121.9593085090067
 30
0.0
 10
87.66992863476655
 20
-121.8218491991452
 30
0.0
 10
87.66992863476655
 20
-121.4728610264894
 30
0.0
 10
87.66992863476655
 20
-121.2168904319354
 30
0.0
 10
87.81186656875884
 20
-121.1218057965425
 30
0.0
 10
87.917631000156
 20
-121.060483096905
 30
0.0
 10
87.79291854358996
 20
-121.0012274545587
 30
0.0
 10
87.71678193336595
 20
-120.8868502844484
 30
0.0
 10
87.71678193336595
 20
-120.7259643252873
 30
0.0
 10
87.71678193336595
 20
-120.4510457055643
 30
0.0
 10
87.91556394286486
 20
-120.315653452994
 30
0.0
 10
88.1904825625878
 20
-120.315653452994
 30
0.0
 10
88.47401392102387
 20
-120.315653452994
 30
0.0
 10
88.66452770135818
 20
-120.4596584442775
 30
0.0
 10
88.66452770135818
 20
-120.7259643252873
 30
0.0
 10
88.66452770135818
 20
-120.8868502844484
 30
0.0
 10
88.58597952429449
 20
-121.0012274545587
 30
0.0
 10
88.46126706772844
 20
-121.060483096905
 30
0.0
 10
88.55015053124788
 20
-121.1111260005382
 30
0.0
 10
88.7089694331179
 20
-121.2062106359311
 30
0.0
 10
88.7089694331179
 20
-121.4687269119071
 30
0.0
 10
88.7089694331179
 20
-121.8432087911538
 30
0.0
 10
88.42957218926414
 20
-121.9593085090067
 30
0.0
 10
88.1904825625878
 20
-121.9593085090067
 30
0.0
  0
SPLINE
  5
69
330
64
100
AcDbEntity
  8
_U+30EC_U+30A4_U+30E4_U+30FC 1
370
     0
100
AcDbSpline
210
0.0
220
0.0
230
1.0
 70
    11
 71
     3
 72
    17
 73
    13
 74
     0
 42
0.0000000001
 43
0.0000000001
 12
1.0
 22
0.0
 32
0.0
 13
1.0
 23
0.0
 33
0.0
 40
0.0
 40
0.0
 40
0.0
 40
0.0
 40
1.0
 40
1.0
 40
1.0
 40
2.0
 40
2.0
 40
2.0
 40
3.0
 40
3.0
 40
3.0
 40
4.0
 40
4.0
 40
4.0
 40
4.0
 10
88.1904825625878
 20
-121.1683145855934
 30
0.0
 10
88.04682208085288
 20
-121.1683145855934
 30
0.0
 10
87.89420435085631
 20
-121.2551309918216
 30
0.0
 10
87.89420435085631
 20
-121.4580471159029
 30
0.0
 10
87.89420435085631
 20
-121.6633748068237
 30
0.0
 10
88.02132837426203
 20
-121.7646606140901
 30
0.0
 10
88.1904825625878
 20
-121.7646606140901
 30
0.0
 10
88.37651771879129
 20
-121.7646606140901
 30
0.0
 10
88.48676077431928
 20
-121.6420152148152
 30
0.0
 10
88.48676077431928
 20
-121.4642482877763
 30
0.0
 10
88.48676077431928
 20
-121.2423841385262
 30
0.0
 10
88.32380775786697
 20
-121.1683145855934
 30
0.0
 10
88.1904825625878
 20
-121.1683145855934
 30
0.0
  0
SPLINE
  5
6A
330
64
100
AcDbEntity
  8
_U+30EC_U+30A4_U+30E4_U+30FC 1
370
     0
100
AcDbSpline
210
0.0
220
0.0
230
1.0
 70
    11
 71
     3
 72
    17
 73
    13
 74
     0
 42
0.0000000001
 43
0.0000000001
 12
1.0
 22
0.0
 32
0.0
 13
1.0
 23
0.0
 33
0.0
 40
0.0
 40
0.0
 40
0.0
 40
0.0
 40
1.0
 40
1.0
 40
1.0
 40
2.0
 40
2.0
 40
2.0
 40
3.0
 40
3.0
 40
3.0
 40
4.0
 40
4.0
 40
4.0
 40
4.0
 10
88.1904825625878
 20
-120.5082342906195
 30
0.0
 10
88.02546248884433
 20
-120.5082342906195
 30
0.0
 10
87.94071313990719
 20
-120.6033189260124
 30
0.0
 10
87.94071313990719
 20
-120.7387111785827
 30
0.0
 10
87.94071313990719
 20
-120.8613565778576
 30
0.0
 10
88.01271563554891
 20
-120.9798678625502
 30
0.0
 10
88.1904825625878
 20
-120.9798678625502
 30
0.0
 10
88.36824948962669
 20
-120.9798678625502
 30
0.0
 10
88.44025198526842
 20
-120.8613565778576
 30
0.0
 10
88.44025198526842
 20
-120.7387111785827
 30
0.0
 10
88.44025198526842
 20
-120.6033189260124
 30
0.0
 10
88.35343557904012
 20
-120.5082342906195
 30
0.0
 10
88.1904825625878
 20
-120.5082342906195
 30
0.0
  0
HATCH
  5
6B
330
64
100
AcDbEntity
  8
_U+30EC_U+30A4_U+30E4_U+30FC 1
 62
     7
420
 16777215
100
AcDbHatch
 10
0.0
 20
0.0
 30
0.0
210
0.0
220
0.0
230
1.0
  2
SOLID
 70
     1
 71
     0
 91
        3
 92
        1
 93
        1
 72
     4
 94
        3
 73
     0
 74
     1
 95
       29
 96
       25
 40
0.0
 40
0.0
 40
0.0
 40
0.0
 40
1.0
 40
1.0
 40
1.0
 40
2.0
 40
2.0
 40
2.0
 40
3.0
 40
3.0
 40
3.0
 40
4.0
 40
4.0
 40
4.0
 40
5.0
 40
5.0
 40
5.0
 40
6.0
 40
6.0
 40
6.0
 40
7.0
 40
7.0
 40
7.0
 40
8.0
 40
8.0
 40
8.0
 40
8.0
 10
88.1904825625878
 20
-121.9593085090067
 10
87.92383217202946
 20
-121.9593085090067
 10
87.66992863476655
 20
-121.8218491991452
 10
87.66992863476655
 20
-121.4728610264894
 10
87.66992863476655
 20
-121.2168904319354
 10
87.81186656875884
 20
-121.1218057965425
 10
87.917631000156
 20
-121.060483096905
 10
87.79291854358996
 20
-121.0012274545587
 10
87.71678193336595
 20
-120.8868502844484
 10
87.71678193336595
 20
-120.7259643252873
 10
87.71678193336595
 20
-120.4510457055643
 10
87.91556394286486
 20
-120.315653452994
 10
88.1904825625878
 20
-120.315653452994
 10
88.47401392102387
 20
-120.315653452994
 10
88.66452770135818
 20
-120.4596584442775
 10
88.66452770135818
 20
-120.7259643252873
 10
88.66452770135818
 20
-120.8868502844484
 10
88.58597952429449
 20
-121.0012274545587
 10
88.46126706772844
 20
-121.060483096905
 10
88.55015053124788
 20
-121.1111260005382
 10
88.7089694331179
 20
-121.2062106359311
 10
88.7089694331179
 20
-121.4687269119071
 10
88.7089694331179
 20
-121.8432087911538
 10
88.42957218926414
 20
-121.9593085090067
 10
88.1904825625878
 20
-121.9593085090067
 97
        0
 97
        0
 92
        1
 93
        1
 72
     4
 94
        3
 73
     0
 74
     1
 95
       17
 96
       13
 40
0.0
 40
0.0
 40
0.0
 40
0.0
 40
1.0
 40
1.0
 40
1.0
 40
2.0
 40
2.0
 40
2.0
 40
3.0
 40
3.0
 40
3.0
 40
4.0
 40
4.0
 40
4.0
 40
4.0
 10
88.1904825625878
 20
-121.1683145855934
 10
88.04682208085288
 20
-121.1683145855934
 10
87.89420435085631
 20
-121.2551309918216
 10
87.89420435085631
 20
-121.4580471159029
 10
87.89420435085631
 20
-121.6633748068237
 10
88.02132837426203
 20
-121.7646606140901
 10
88.1904825625878
 20
-121.7646606140901
 10
88.37651771879129
 20
-121.7646606140901
 10
88.48676077431928
 20
-121.6420152148152
 10
88.48676077431928
 20
-121.4642482877763
 10
88.48676077431928
 20
-121.2423841385262
 10
88.32380775786697
 20
-121.1683145855934
 10
88.1904825625878
 20
-121.1683145855934
 97
        0
 97
        0
 92
        1
 93
        1
 72
     4
 94
        3
 73
     0
 74
     1
 95
       17
 96
       13
 40
0.0
 40
0.0
 40
0.0
 40
0.0
 40
1.0
 40
1.0
 40
1.0
 40
2.0
 40
2.0
 40
2.0
 40
3.0
 40
3.0
 40
3.0
 40
4.0
 40
4.0
 40
4.0
 40
4.0
 10
88.1904825625878
 20
-120.5082342906195
 10
88.02546248884433
 20
-120.5082342906195
 10
87.94071313990719
 20
-120.6033189260124
 10
87.94071313990719
 20
-120.7387111785827
 10
87.94071313990719
 20
-120.8613565778576
 10
88.01271563554891
 20
-120.9798678625502
 10
88.1904825625878
 20
-120.9798678625502
 10
88.36824948962669
 20
-120.9798678625502
 10
88.44025198526842
 20
-120.8613565778576
 10
88.44025198526842
 20
-120.7387111785827
 10
88.44025198526842
 20
-120.6033189260124
 10
88.35343557904012
 20
-120.5082342906195
 10
88.1904825625878
 20
-120.5082342906195
 97
        0
 97
        0
 75
     2
 76
     1
 98
        0
  0
ENDBLK
  5
67
330
64
100
AcDbEntity
  8
0
100
AcDbBlockEnd
  0
BLOCK
  5
6E
330
6C
100
AcDbEntity
  8
0
100
AcDbBlockBegin
  2
block 3
 70
     0
 10
0.0
 20
0.0
 30
0.0
  3
block 3
  1

  0
SPLINE
  5
70
330
6C
100
AcDbEntity
  8
_U+30EC_U+30A4_U+30E4_U+30FC 1
370
     0
100
AcDbSpline
210
0.0
220
0.0
230
1.0
 70
    11
 71
     3
 72
    26
 73
    22
 74
     0
 42
0.0000000001
 43
0.0000000001
 12
1.0
 22
0.0
 32
0.0
 13
1.0
 23
0.0
 33
0.0
 40
0.0
 40
0.0
 40
0.0
 40
0.0
 40
1.0
 40
1.0
 40
1.0
 40
2.0
 40
2.0
 40
2.0
 40
3.0
 40
3.0
 40
3.0
 40
4.0
 40
4.0
 40
4.0
 40
5.0
 40
5.0
 40
5.0
 40
6.0
 40
6.0
 40
6.0
 40
7.0
 40
7.0
 40
7.0
 40
7.0
 10
78.55351696169843
 20
-121.9086656053735
 30
0.0
 10
78.55351696169843
 20
-121.9086656053735
 30
0.0
 10
78.55351696169843
 20
-120.804512502351
 30
0.0
 10
78.55351696169843
 20
-120.804512502351
 30
0.0
 10
78.55351696169843
 20
-120.804512502351
 30
0.0
 10
78.2234768142115
 20
-120.804512502351
 30
0.0
 10
78.2234768142115
 20
-120.804512502351
 30
0.0
 10
78.2234768142115
 20
-120.804512502351
 30
0.0
 10
78.2234768142115
 20
-120.6563733964852
 30
0.0
 10
78.2234768142115
 20
-120.6563733964852
 30
0.0
 10
78.55558401898958
 20
-120.6415594858986
 30
0.0
 10
78.60209280804045
 20
-120.4786064694463
 30
0.0
 10
78.6317206292136
 20
-120.364229299336
 30
0.0
 10
78.6317206292136
 20
-120.364229299336
 30
0.0
 10
78.7777926777882
 20
-120.364229299336
 30
0.0
 10
78.7777926777882
 20
-120.364229299336
 30
0.0
 10
78.7777926777882
 20
-120.364229299336
 30
0.0
 10
78.7777926777882
 20
-121.9086656053735
 30
0.0
 10
78.7777926777882
 20
-121.9086656053735
 30
0.0
 10
78.7777926777882
 20
-121.9086656053735
 30
0.0
 10
78.55351696169843
 20
-121.9086656053735
 30
0.0
 10
78.55351696169843
 20
-121.9086656053735
 30
0.0
  0
HATCH
  5
71
330
6C
100
AcDbEntity
  8
_U+30EC_U+30A4_U+30E4_U+30FC 1
 62
     7
420
 16777215
100
AcDbHatch
 10
0.0
 20
0.0
 30
0.0
210
0.0
220
0.0
230
1.0
  2
SOLID
 70
     1
 71
     0
 91
        1
 92
        1
 93
        1
 72
     4
 94
        3
 73
     0
 74
     1
 95
       26
 96
       22
 40
0.0
 40
0.0
 40
0.0
 40
0.0
 40
1.0
 40
1.0
 40
1.0
 40
2.0
 40
2.0
 40
2.0
 40
3.0
 40
3.0
 40
3.0
 40
4.0
 40
4.0
 40
4.0
 40
5.0
 40
5.0
 40
5.0
 40
6.0
 40
6.0
 40
6.0
 40
7.0
 40
7.0
 40
7.0
 40
7.0
 10
78.55351696169843
 20
-121.9086656053735
 10
78.55351696169843
 20
-121.9086656053735
 10
78.55351696169843
 20
-120.804512502351
 10
78.55351696169843
 20
-120.804512502351
 10
78.55351696169843
 20
-120.804512502351
 10
78.2234768142115
 20
-120.804512502351
 10
78.2234768142115
 20
-120.804512502351
 10
78.2234768142115
 20
-120.804512502351
 10
78.2234768142115
 20
-120.6563733964852
 10
78.2234768142115
 20
-120.6563733964852
 10
78.55558401898958
 20
-120.6415594858986
 10
78.60209280804045
 20
-120.4786064694463
 10
78.6317206292136
 20
-120.364229299336
 10
78.6317206292136
 20
-120.364229299336
 10
78.7777926777882
 20
-120.364229299336
 10
78.7777926777882
 20
-120.364229299336
 10
78.7777926777882
 20
-120.364229299336
 10
78.7777926777882
 20
-121.9086656053735
 10
78.7777926777882
 20
-121.9086656053735
 10
78.7777926777882
 20
-121.9086656053735
 10
78.55351696169843
 20
-121.9086656053735
 10
78.55351696169843
 20
-121.9086656053735
 97
        0
 97
        0
 75
     2
 76
     1
 98
        0
  0
SPLINE
  5
72
330
6C
100
AcDbEntity
  8
_U+30EC_U+30A4_U+30E4_U+30FC 1
370
     0
100
AcDbSpline
210
0.0
220
0.0
230
1.0
 70
    11
 71
     3
 72
    29
 73
    25
 74
     0
 42
0.0000000001
 43
0.0000000001
 12
1.0
 22
0.0
 32
0.0
 13
1.0
 23
0.0
 33
0.0
 40
0.0
 40
0.0
 40
0.0
 40
0.0
 40
1.0
 40
1.0
 40
1.0
 40
2.0
 40
2.0
 40
2.0
 40
3.0
 40
3.0
 40
3.0
 40
4.0
 40
4.0
 40
4.0
 40
5.0
 40
5.0
 40
5.0
 40
6.0
 40
6.0
 40
6.0
 40
7.0
 40
7.0
 40
7.0
 40
8.0
 40
8.0
 40
8.0
 40
8.0
 10
80.17684595434815
 20
-121.7308986783346
 30
0.0
 10
80.06866995611131
 20
-121.9403604838378
 30
0.0
 10
79.89538165320324
 20
-121.9593085090067
 30
0.0
 10
79.7789374258018
 20
-121.9593085090067
 30
0.0
 10
79.61805146664064
 20
-121.9593085090067
 30
0.0
 10
79.47645804219687
 20
-121.9127997199558
 30
0.0
 10
79.38137340680396
 20
-121.7308986783346
 30
0.0
 10
79.27767603269794
 20
-121.536250783418
 30
0.0
 10
79.25838349798055
 20
-121.2992282140328
 30
0.0
 10
79.25838349798055
 20
-121.136619707129
 30
0.0
 10
79.25838349798055
 20
-120.9926147158456
 30
0.0
 10
79.2756089754068
 20
-120.7407782358738
 30
0.0
 10
79.38137340680396
 20
-120.5419962263749
 30
0.0
 10
79.48920489549229
 20
-120.3390801022937
 30
0.0
 10
79.65009085465346
 20
-120.315653452994
 30
0.0
 10
79.7789374258018
 20
-120.315653452994
 30
0.0
 10
79.93775632767182
 20
-120.315653452994
 30
0.0
 10
80.08141680940673
 20
-120.3600951847537
 30
0.0
 10
80.17684595434815
 20
-120.5419962263749
 30
0.0
 10
80.27606470432335
 20
-120.7345770640004
 30
0.0
 10
80.29949135362305
 20
-120.9629868946725
 30
0.0
 10
80.29949135362305
 20
-121.136619707129
 30
0.0
 10
80.29949135362305
 20
-121.307840952746
 30
0.0
 10
80.2781317616145
 20
-121.5383178407092
 30
0.0
 10
80.17684595434815
 20
-121.7308986783346
 30
0.0
  0
SPLINE
  5
73
330
6C
100
AcDbEntity
  8
_U+30EC_U+30A4_U+30E4_U+30FC 1
370
     0
100
AcDbSpline
210
0.0
220
0.0
230
1.0
 70
    11
 71
     3
 72
    17
 73
    13
 74
     0
 42
0.0000000001
 43
0.0000000001
 12
1.0
 22
0.0
 32
0.0
 13
1.0
 23
0.0
 33
0.0
 40
0.0
 40
0.0
 40
0.0
 40
0.0
 40
1.0
 40
1.0
 40
1.0
 40
2.0
 40
2.0
 40
2.0
 40
3.0
 40
3.0
 40
3.0
 40
4.0
 40
4.0
 40
4.0
 40
4.0
 10
79.7789374258018
 20
-120.5082342906195
 30
0.0
 10
79.52916800312119
 20
-120.5082342906195
 30
0.0
 10
79.48265921407031
 20
-120.7917656490555
 30
0.0
 10
79.48265921407031
 20
-121.136619707129
 30
0.0
 10
79.48265921407031
 20
-121.4559800586117
 30
0.0
 10
79.51883271666543
 20
-121.7646606140901
 30
0.0
 10
79.7789374258018
 20
-121.7646606140901
 30
0.0
 10
80.02663979119126
 20
-121.7646606140901
 30
0.0
 10
80.07521563753328
 20
-121.4835408224937
 30
0.0
 10
80.07521563753328
 20
-121.136619707129
 30
0.0
 10
80.07521563753328
 20
-120.8169148460979
 30
0.0
 10
80.03697507764701
 20
-120.5082342906195
 30
0.0
 10
79.7789374258018
 20
-120.5082342906195
 30
0.0
  0
HATCH
  5
74
330
6C
100
AcDbEntity
  8
_U+30EC_U+30A4_U+30E4_U+30FC 1
 62
     7
420
 16777215
100
AcDbHatch
 10
0.0
 20
0.0
 30
0.0
210
0.0
220
0.0
230
1.0
  2
SOLID
 70
     1
 71
     0
 91
        2
 92
        1
 93
        1
 72
     4
 94
        3
 73
     0
 74
     1
 95
       29
 96
       25
 40
0.0
 40
0.0
 40
0.0
 40
0.0
 40
1.0
 40
1.0
 40
1.0
 40
2.0
 40
2.0
 40
2.0
 40
3.0
 40
3.0
 40
3.0
 40
4.0
 40
4.0
 40
4.0
 40
5.0
 40
5.0
 40
5.0
 40
6.0
 40
6.0
 40
6.0
 40
7.0
 40
7.0
 40
7.0
 40
8.0
 40
8.0
 40
8.0
 40
8.0
 10
80.17684595434815
 20
-121.7308986783346
 10
80.06866995611131
 20
-121.9403604838378
 10
79.89538165320324
 20
-121.9593085090067
 10
79.7789374258018
 20
-121.9593085090067
 10
79.61805146664064
 20
-121.9593085090067
 10
79.47645804219687
 20
-121.9127997199558
 10
79.38137340680396
 20
-121.7308986783346
 10
79.27767603269794
 20
-121.536250783418
 10
79.25838349798055
 20
-121.2992282140328
 10
79.25838349798055
 20
-121.136619707129
 10
79.25838349798055
 20
-120.9926147158456
 10
79.2756089754068
 20
-120.7407782358738
 10
79.38137340680396
 20
-120.5419962263749
 10
79.48920489549229
 20
-120.3390801022937
 10
79.65009085465346
 20
-120.315653452994
 10
79.7789374258018
 20
-120.315653452994
 10
79.93775632767182
 20
-120.315653452994
 10
80.08141680940673
 20
-120.3600951847537
 10
80.17684595434815
 20
-120.5419962263749
 10
80.27606470432335
 20
-120.7345770640004
 10
80.29949135362305
 20
-120.9629868946725
 10
80.29949135362305
 20
-121.136619707129
 10
80.29949135362305
 20
-121.307840952746
 10
80.2781317616145
 20
-121.5383178407092
 10
80.17684595434815
 20
-121.7308986783346
 97
        0
 97
        0
 92
        1
 93
        1
 72
     4
 94
        3
 73
     0
 74
     1
 95
       17
 96
       13
 40
0.0
 40
0.0
 40
0.0
 40
0.0
 40
1.0
 40
1.0
 40
1.0
 40
2.0
 40
2.0
 40
2.0
 40
3.0
 40
3.0
 40
3.0
 40
4.0
 40
4.0
 40
4.0
 40
4.0
 10
79.7789374258018
 20
-120.5082342906195
 10
79.52916800312119
 20
-120.5082342906195
 10
79.48265921407031
 20
-120.7917656490555
 10
79.48265921407031
 20
-121.136619707129
 10
79.48265921407031
 20
-121.4559800586117
 10
79.51883271666543
 20
-121.7646606140901
 10
79.7789374258018
 20
-121.7646606140901
 10
80.02663979119126
 20
-121.7646606140901
 10
80.07521563753328
 20
-121.4835408224937
 10
80.07521563753328
 20
-121.136619707129
 10
80.07521563753328
 20
-120.8169148460979
 10
80.03697507764701
 20
-120.5082342906195
 10
79.7789374258018
 20
-120.5082342906195
 97
        0
 97
        0
 75
     2
 76
     1
 98
        0
  0
ENDBLK
  5
6F
330
6C
100
AcDbEntity
  8
0
100
AcDbBlockEnd
  0
BLOCK
  5
77
330
75
100
AcDbEntity
  8
0
100
AcDbBlockBegin
  2
block 4
 70
     0
 10
0.0
 20
0.0
 30
0.0
  3
block 4
  1

  0
SPLINE
  5
79
330
75
100
AcDbEntity
  8
_U+30EC_U+30A4_U+30E4_U+30FC 1
370
     0
100
AcDbSpline
210
0.0
220
0.0
230
1.0
 70
    11
 71
     3
 72
    26
 73
    22
 74
     0
 42
0.0000000001
 43
0.0000000001
 12
1.0
 22
0.0
 32
0.0
 13
1.0
 23
0.0
 33
0.0
 40
0.0
 40
0.0
 40
0.0
 40
0.0
 40
1.0
 40
1.0
 40
1.0
 40
2.0
 40
2.0
 40
2.0
 40
3.0
 40
3.0
 40
3.0
 40
4.0
 40
4.0
 40
4.0
 40
5.0
 40
5.0
 40
5.0
 40
6.0
 40
6.0
 40
6.0
 40
7.0
 40
7.0
 40
7.0
 40
7.0
 10
96.55327959825752
 20
-121.9086656053735
 30
0.0
 10
96.55327959825752
 20
-121.9086656053735
 30
0.0
 10
96.55327959825752
 20
-120.804512502351
 30
0.0
 10
96.55327959825752
 20
-120.804512502351
 30
0.0
 10
96.55327959825752
 20
-120.804512502351
 30
0.0
 10
96.22323945077058
 20
-120.804512502351
 30
0.0
 10
96.22323945077058
 20
-120.804512502351
 30
0.0
 10
96.22323945077058
 20
-120.804512502351
 30
0.0
 10
96.22323945077058
 20
-120.6563733964852
 30
0.0
 10
96.22323945077058
 20
-120.6563733964852
 30
0.0
 10
96.55534665554866
 20
-120.6415594858986
 30
0.0
 10
96.60185544459954
 20
-120.4786064694463
 30
0.0
 10
96.63148326577269
 20
-120.364229299336
 30
0.0
 10
96.63148326577269
 20
-120.364229299336
 30
0.0
 10
96.77755531434728
 20
-120.364229299336
 30
0.0
 10
96.77755531434728
 20
-120.364229299336
 30
0.0
 10
96.77755531434728
 20
-120.364229299336
 30
0.0
 10
96.77755531434728
 20
-121.9086656053735
 30
0.0
 10
96.77755531434728
 20
-121.9086656053735
 30
0.0
 10
96.77755531434728
 20
-121.9086656053735
 30
0.0
 10
96.55327959825752
 20
-121.9086656053735
 30
0.0
 10
96.55327959825752
 20
-121.9086656053735
 30
0.0
  0
HATCH
  5
7A
330
75
100
AcDbEntity
  8
_U+30EC_U+30A4_U+30E4_U+30FC 1
 62
     7
420
 16777215
100
AcDbHatch
 10
0.0
 20
0.0
 30
0.0
210
0.0
220
0.0
230
1.0
  2
SOLID
 70
     1
 71
     0
 91
        1
 92
        1
 93
        1
 72
     4
 94
        3
 73
     0
 74
     1
 95
       26
 96
       22
 40
0.0
 40
0.0
 40
0.0
 40
0.0
 40
1.0
 40
1.0
 40
1.0
 40
2.0
 40
2.0
 40
2.0
 40
3.0
 40
3.0
 40
3.0
 40
4.0
 40
4.0
 40
4.0
 40
5.0
 40
5.0
 40
5.0
 40
6.0
 40
6.0
 40
6.0
 40
7.0
 40
7.0
 40
7.0
 40
7.0
 10
96.55327959825752
 20
-121.9086656053735
 10
96.55327959825752
 20
-121.9086656053735
 10
96.55327959825752
 20
-120.804512502351
 10
96.55327959825752
 20
-120.804512502351
 10
96.55327959825752
 20
-120.804512502351
 10
96.22323945077058
 20
-120.804512502351
 10
96.22323945077058
 20
-120.804512502351
 10
96.22323945077058
 20
-120.804512502351
 10
96.22323945077058
 20
-120.6563733964852
 10
96.22323945077058
 20
-120.6563733964852
 10
96.55534665554866
 20
-120.6415594858986
 10
96.60185544459954
 20
-120.4786064694463
 10
96.63148326577269
 20
-120.364229299336
 10
96.63148326577269
 20
-120.364229299336
 10
96.77755531434728
 20
-120.364229299336
 10
96.77755531434728
 20
-120.364229299336
 10
96.77755531434728
 20
-120.364229299336
 10
96.77755531434728
 20
-121.9086656053735
 10
96.77755531434728
 20
-121.9086656053735
 10
96.77755531434728
 20
-121.9086656053735
 10
96.55327959825752
 20
-121.9086656053735
 10
96.55327959825752
 20
-121.9086656053735
 97
        0
 97
        0
 75
     2
 76
     1
 98
        0
  0
SPLINE
  5
7B
330
75
100
AcDbEntity
  8
_U+30EC_U+30A4_U+30E4_U+30FC 1
370
     0
100
AcDbSpline
210
0.0
220
0.0
230
1.0
 70
    11
 71
     3
 72
    29
 73
    25
 74
     0
 42
0.0000000001
 43
0.0000000001
 12
1.0
 22
0.0
 32
0.0
 13
1.0
 23
0.0
 33
0.0
 40
0.0
 40
0.0
 40
0.0
 40
0.0
 40
1.0
 40
1.0
 40
1.0
 40
2.0
 40
2.0
 40
2.0
 40
3.0
 40
3.0
 40
3.0
 40
4.0
 40
4.0
 40
4.0
 40
5.0
 40
5.0
 40
5.0
 40
6.0
 40
6.0
 40
6.0
 40
7.0
 40
7.0
 40
7.0
 40
8.0
 40
8.0
 40
8.0
 40
8.0
 10
98.17660859090724
 20
-121.7308986783346
 30
0.0
 10
98.06843259267039
 20
-121.9403604838378
 30
0.0
 10
97.89514428976233
 20
-121.9593085090067
 30
0.0
 10
97.77870006236088
 20
-121.9593085090067
 30
0.0
 10
97.61781410319972
 20
-121.9593085090067
 30
0.0
 10
97.47622067875595
 20
-121.9127997199558
 30
0.0
 10
97.38113604336306
 20
-121.7308986783346
 30
0.0
 10
97.27743866925704
 20
-121.536250783418
 30
0.0
 10
97.25814613453963
 20
-121.2992282140328
 30
0.0
 10
97.25814613453963
 20
-121.136619707129
 30
0.0
 10
97.25814613453963
 20
-120.9926147158456
 30
0.0
 10
97.27537161196588
 20
-120.7407782358738
 30
0.0
 10
97.38113604336306
 20
-120.5419962263749
 30
0.0
 10
97.48896753205138
 20
-120.3390801022937
 30
0.0
 10
97.64985349121254
 20
-120.315653452994
 30
0.0
 10
97.77870006236088
 20
-120.315653452994
 30
0.0
 10
97.9375189642309
 20
-120.315653452994
 30
0.0
 10
98.08117944596582
 20
-120.3600951847537
 30
0.0
 10
98.17660859090724
 20
-120.5419962263749
 30
0.0
 10
98.27582734088243
 20
-120.7345770640004
 30
0.0
 10
98.29925399018214
 20
-120.9629868946725
 30
0.0
 10
98.29925399018214
 20
-121.136619707129
 30
0.0
 10
98.29925399018214
 20
-121.307840952746
 30
0.0
 10
98.27789439817359
 20
-121.5383178407092
 30
0.0
 10
98.17660859090724
 20
-121.7308986783346
 30
0.0
  0
SPLINE
  5
7C
330
75
100
AcDbEntity
  8
_U+30EC_U+30A4_U+30E4_U+30FC 1
370
     0
100
AcDbSpline
210
0.0
220
0.0
230
1.0
 70
    11
 71
     3
 72
    17
 73
    13
 74
     0
 42
0.0000000001
 43
0.0000000001
 12
1.0
 22
0.0
 32
0.0
 13
1.0
 23
0.0
 33
0.0
 40
0.0
 40
0.0
 40
0.0
 40
0.0
 40
1.0
 40
1.0
 40
1.0
 40
2.0
 40
2.0
 40
2.0
 40
3.0
 40
3.0
 40
3.0
 40
4.0
 40
4.0
 40
4.0
 40
4.0
 10
97.77870006236088
 20
-120.5082342906195
 30
0.0
 10
97.52893063968027
 20
-120.5082342906195
 30
0.0
 10
97.4824218506294
 20
-120.7917656490555
 30
0.0
 10
97.4824218506294
 20
-121.136619707129
 30
0.0
 10
97.4824218506294
 20
-121.4559800586117
 30
0.0
 10
97.51859535322453
 20
-121.7646606140901
 30
0.0
 10
97.77870006236088
 20
-121.7646606140901
 30
0.0
 10
98.02640242775036
 20
-121.7646606140901
 30
0.0
 10
98.07497827409237
 20
-121.4835408224937
 30
0.0
 10
98.07497827409237
 20
-121.136619707129
 30
0.0
 10
98.07497827409237
 20
-120.8169148460979
 30
0.0
 10
98.0367377142061
 20
-120.5082342906195
 30
0.0
 10
97.77870006236088
 20
-120.5082342906195
 30
0.0
  0
HATCH
  5
7D
330
75
100
AcDbEntity
  8
_U+30EC_U+30A4_U+30E4_U+30FC 1
 62
     7
420
 16777215
100
AcDbHatch
 10
0.0
 20
0.0
 30
0.0
210
0.0
220
0.0
230
1.0
  2
SOLID
 70
     1
 71
     0
 91
        2
 92
        1
 93
        1
 72
     4
 94
        3
 73
     0
 74
     1
 95
       29
 96
       25
 40
0.0
 40
0.0
 40
0.0
 40
0.0
 40
1.0
 40
1.0
 40
1.0
 40
2.0
 40
2.0
 40
2.0
 40
3.0
 40
3.0
 40
3.0
 40
4.0
 40
4.0
 40
4.0
 40
5.0
 40
5.0
 40
5.0
 40
6.0
 40
6.0
 40
6.0
 40
7.0
 40
7.0
 40
7.0
 40
8.0
 40
8.0
 40
8.0
 40
8.0
 10
98.17660859090724
 20
-121.7308986783346
 10
98.06843259267039
 20
-121.9403604838378
 10
97.89514428976233
 20
-121.9593085090067
 10
97.77870006236088
 20
-121.9593085090067
 10
97.61781410319972
 20
-121.9593085090067
 10
97.47622067875595
 20
-121.9127997199558
 10
97.38113604336306
 20
-121.7308986783346
 10
97.27743866925704
 20
-121.536250783418
 10
97.25814613453963
 20
-121.2992282140328
 10
97.25814613453963
 20
-121.136619707129
 10
97.25814613453963
 20
-120.9926147158456
 10
97.27537161196588
 20
-120.7407782358738
 10
97.38113604336306
 20
-120.5419962263749
 10
97.48896753205138
 20
-120.3390801022937
 10
97.64985349121254
 20
-120.315653452994
 10
97.77870006236088
 20
-120.315653452994
 10
97.9375189642309
 20
-120.315653452994
 10
98.08117944596582
 20
-120.3600951847537
 10
98.17660859090724
 20
-120.5419962263749
 10
98.27582734088243
 20
-120.7345770640004
 10
98.29925399018214
 20
-120.9629868946725
 10
98.29925399018214
 20
-121.136619707129
 10
98.29925399018214
 20
-121.307840952746
 10
98.27789439817359
 20
-121.5383178407092
 10
98.17660859090724
 20
-121.7308986783346
 97
        0
 97
        0
 92
        1
 93
        1
 72
     4
 94
        3
 73
     0
 74
     1
 95
       17
 96
       13
 40
0.0
 40
0.0
 40
0.0
 40
0.0
 40
1.0
 40
1.0
 40
1.0
 40
2.0
 40
2.0
 40
2.0
 40
3.0
 40
3.0
 40
3.0
 40
4.0
 40
4.0
 40
4.0
 40
4.0
 10
97.77870006236088
 20
-120.5082342906195
 10
97.52893063968027
 20
-120.5082342906195
 10
97.4824218506294
 20
-120.7917656490555
 10
97.4824218506294
 20
-121.136619707129
 10
97.4824218506294
 20
-121.4559800586117
 10
97.51859535322453
 20
-121.7646606140901
 10
97.77870006236088
 20
-121.7646606140901
 10
98.02640242775036
 20
-121.7646606140901
 10
98.07497827409237
 20
-121.4835408224937
 10
98.07497827409237
 20
-121.136619707129
 10
98.07497827409237
 20
-120.8169148460979
 10
98.0367377142061
 20
-120.5082342906195
 10
97.77870006236088
 20
-120.5082342906195
 97
        0
 97
        0
 75
     2
 76
     1
 98
        0
  0
ENDBLK
  5
78
330
75
100
AcDbEntity
  8
0
100
AcDbBlockEnd
  0
BLOCK
  5
94
330
92
100
AcDbEntity
  8
0
100
AcDbBlockBegin
  2
block 5
 70
     0
 10
0.0
 20
0.0
 30
0.0
  3
block 5
  1

  0
SPLINE
  5
96
330
92
100
AcDbEntity
  8
_U+30EC_U+30A4_U+30E4_U+30FC 1
370
     0
100
AcDbSpline
210
0.0
220
0.0
230
1.0
 70
    11
 71
     3
 72
    32
 73
    28
 74
     0
 42
0.0000000001
 43
0.0000000001
 12
1.0
 22
0.0
 32
0.0
 13
1.0
 23
0.0
 33
0.0
 40
0.0
 40
0.0
 40
0.0
 40
0.0
 40
1.0
 40
1.0
 40
1.0
 40
2.0
 40
2.0
 40
2.0
 40
3.0
 40
3.0
 40
3.0
 40
4.0
 40
4.0
 40
4.0
 40
5.0
 40
5.0
 40
5.0
 40
6.0
 40
6.0
 40
6.0
 40
7.0
 40
7.0
 40
7.0
 40
8.0
 40
8.0
 40
8.0
 40
9.0
 40
9.0
 40
9.0
 40
9.0
 10
105.9390977382722
 20
-133.1067762254039
 30
0.0
 10
105.9390977382722
 20
-133.2800645283119
 30
0.0
 10
105.8691622999216
 20
-133.5256998364102
 30
0.0
 10
105.5370550951435
 20
-133.563595886748
 30
0.0
 10
105.5370550951435
 20
-133.563595886748
 30
0.0
 10
105.5370550951435
 20
-133.3499999666625
 30
0.0
 10
105.5370550951435
 20
-133.3499999666625
 30
0.0
 10
105.5963107374898
 20
-133.3393201706582
 30
0.0
 10
105.7444498433556
 20
-133.3076252921939
 30
0.0
 10
105.7444498433556
 20
-133.1047091681127
 30
0.0
 10
105.7444498433556
 20
-132.8125650709635
 30
0.0
 10
105.4144096958686
 20
-132.7746690206258
 30
0.0
 10
105.2090820049477
 20
-132.7619221673304
 30
0.0
 10
105.2896972393026
 20
-132.852872688141
 30
0.0
 10
105.3468858243577
 20
-132.9203965596519
 30
0.0
 10
105.3468858243577
 20
-133.1022976012731
 30
0.0
 10
105.3468858243577
 20
-133.2821315856031
 30
0.0
 10
105.240776883412
 20
-133.5849554787565
 30
0.0
 10
104.8349446352496
 20
-133.5849554787565
 30
0.0
 10
104.5152397742184
 20
-133.5849554787565
 30
0.0
 10
104.2954426822595
 20
-133.3858289597091
 30
0.0
 10
104.2954426822595
 20
-133.0685356655176
 30
0.0
 10
104.2954426822595
 20
-132.5545274191183
 30
0.0
 10
104.8494140362877
 20
-132.543847623114
 30
0.0
 10
105.0630099563731
 20
-132.543847623114
 30
0.0
 10
105.2938313538849
 20
-132.543847623114
 30
0.0
 10
105.9390977382722
 20
-132.5631401578314
 30
0.0
 10
105.9390977382722
 20
-133.1067762254039
 30
0.0
  0
SPLINE
  5
97
330
92
100
AcDbEntity
  8
_U+30EC_U+30A4_U+30E4_U+30FC 1
370
     0
100
AcDbSpline
210
0.0
220
0.0
230
1.0
 70
    11
 71
     3
 72
    17
 73
    13
 74
     0
 42
0.0000000001
 43
0.0000000001
 12
1.0
 22
0.0
 32
0.0
 13
1.0
 23
0.0
 33
0.0
 40
0.0
 40
0.0
 40
0.0
 40
0.0
 40
1.0
 40
1.0
 40
1.0
 40
2.0
 40
2.0
 40
2.0
 40
3.0
 40
3.0
 40
3.0
 40
4.0
 40
4.0
 40
4.0
 40
4.0
 10
104.4876790103364
 20
-133.0664686082264
 30
0.0
 10
104.4876790103364
 20
-133.184979892919
 30
0.0
 10
104.5448675953916
 20
-133.3606797626668
 30
0.0
 10
104.8304660111188
 20
-133.3606797626668
 30
0.0
 10
105.0568087844997
 20
-133.3606797626668
 30
0.0
 10
105.1518934198926
 20
-133.2208088859656
 30
0.0
 10
105.1518934198926
 20
-133.0854166333953
 30
0.0
 10
105.1518934198926
 20
-132.8232448669678
 30
0.0
 10
104.9424316143894
 20
-132.7850043070815
 30
0.0
 10
104.8263318965365
 20
-132.7850043070815
 30
0.0
 10
104.6506320267887
 20
-132.7850043070815
 30
0.0
 10
104.4876790103364
 20
-132.8804334520229
 30
0.0
 10
104.4876790103364
 20
-133.0664686082264
 30
0.0
  0
HATCH
  5
98
330
92
100
AcDbEntity
  8
_U+30EC_U+30A4_U+30E4_U+30FC 1
 62
     7
420
 16777215
100
AcDbHatch
 10
0.0
 20
0.0
 30
0.0
210
0.0
220
0.0
230
1.0
  2
SOLID
 70
     1
 71
     0
 91
        2
 92
        1
 93
        1
 72
     4
 94
        3
 73
     0
 74
     1
 95
       32
 96
       28
 40
0.0
 40
0.0
 40
0.0
 40
0.0
 40
1.0
 40
1.0
 40
1.0
 40
2.0
 40
2.0
 40
2.0
 40
3.0
 40
3.0
 40
3.0
 40
4.0
 40
4.0
 40
4.0
 40
5.0
 40
5.0
 40
5.0
 40
6.0
 40
6.0
 40
6.0
 40
7.0
 40
7.0
 40
7.0
 40
8.0
 40
8.0
 40
8.0
 40
9.0
 40
9.0
 40
9.0
 40
9.0
 10
105.9390977382722
 20
-133.1067762254039
 10
105.9390977382722
 20
-133.2800645283119
 10
105.8691622999216
 20
-133.5256998364102
 10
105.5370550951435
 20
-133.563595886748
 10
105.5370550951435
 20
-133.563595886748
 10
105.5370550951435
 20
-133.3499999666625
 10
105.5370550951435
 20
-133.3499999666625
 10
105.5963107374898
 20
-133.3393201706582
 10
105.7444498433556
 20
-133.3076252921939
 10
105.7444498433556
 20
-133.1047091681127
 10
105.7444498433556
 20
-132.8125650709635
 10
105.4144096958686
 20
-132.7746690206258
 10
105.2090820049477
 20
-132.7619221673304
 10
105.2896972393026
 20
-132.852872688141
 10
105.3468858243577
 20
-132.9203965596519
 10
105.3468858243577
 20
-133.1022976012731
 10
105.3468858243577
 20
-133.2821315856031
 10
105.240776883412
 20
-133.5849554787565
 10
104.8349446352496
 20
-133.5849554787565
 10
104.5152397742184
 20
-133.5849554787565
 10
104.2954426822595
 20
-133.3858289597091
 10
104.2954426822595
 20
-133.0685356655176
 10
104.2954426822595
 20
-132.5545274191183
 10
104.8494140362877
 20
-132.543847623114
 10
105.0630099563731
 20
-132.543847623114
 10
105.2938313538849
 20
-132.543847623114
 10
105.9390977382722
 20
-132.5631401578314
 10
105.9390977382722
 20
-133.1067762254039
 97
        0
 97
        0
 92
        1
 93
        1
 72
     4
 94
        3
 73
     0
 74
     1
 95
       17
 96
       13
 40
0.0
 40
0.0
 40
0.0
 40
0.0
 40
1.0
 40
1.0
 40
1.0
 40
2.0
 40
2.0
 40
2.0
 40
3.0
 40
3.0
 40
3.0
 40
4.0
 40
4.0
 40
4.0
 40
4.0
 10
104.4876790103364
 20
-133.0664686082264
 10
104.4876790103364
 20
-133.184979892919
 10
104.5448675953916
 20
-133.3606797626668
 10
104.8304660111188
 20
-133.3606797626668
 10
105.0568087844997
 20
-133.3606797626668
 10
105.1518934198926
 20
-133.2208088859656
 10
105.1518934198926
 20
-133.0854166333953
 10
105.1518934198926
 20
-132.8232448669678
 10
104.9424316143894
 20
-132.7850043070815
 10
104.8263318965365
 20
-132.7850043070815
 10
104.6506320267887
 20
-132.7850043070815
 10
104.4876790103364
 20
-132.8804334520229
 10
104.4876790103364
 20
-133.0664686082264
 97
        0
 97
        0
 75
     2
 76
     1
 98
        0
  0
POLYLINE
  5
99
330
92
100
AcDbEntity
  8
_U+30EC_U+30A4_U+30E4_U+30FC 1
370
     0
100
AcDb2dPolyline
 66
     1
 10
0.0
 20
0.0
 30
0.0
  0
VERTEX
  5
9A
330
99
100
AcDbEntity
  8
_U+30EC_U+30A4_U+30E4_U+30FC 1
370
     0
100
AcDbVertex
100
AcDb2dVertex
 10
105.888454834639
 20
-132.3274956266403
 30
0.0
  0
VERTEX
  5
9B
330
99
100
AcDbEntity
  8
_U+30EC_U+30A4_U+30E4_U+30FC 1
370
     0
100
AcDbVertex
100
AcDb2dVertex
 10
105.6366183546672
 20
-132.3274956266403
 30
0.0
  0
VERTEX
  5
9C
330
99
100
AcDbEntity
  8
_U+30EC_U+30A4_U+30E4_U+30FC 1
370
     0
100
AcDbVertex
100
AcDb2dVertex
 10
105.6366183546672
 20
-132.0756591466686
 30
0.0
  0
VERTEX
  5
9D
330
99
100
AcDbEntity
  8
_U+30EC_U+30A4_U+30E4_U+30FC 1
370
     0
100
AcDbVertex
100
AcDb2dVertex
 10
105.888454834639
 20
-132.0756591466686
 30
0.0
  0
VERTEX
  5
9E
330
99
100
AcDbEntity
  8
_U+30EC_U+30A4_U+30E4_U+30FC 1
370
     0
100
AcDbVertex
100
AcDb2dVertex
 10
105.888454834639
 20
-132.3274956266403
 30
0.0
  0
SEQEND
  5
9F
330
99
100
AcDbEntity
  8
_U+30EC_U+30A4_U+30E4_U+30FC 1
370
     0
  0
HATCH
  5
A0
330
92
100
AcDbEntity
  8
_U+30EC_U+30A4_U+30E4_U+30FC 1
 62
     7
420
 16777215
100
AcDbHatch
 10
0.0
 20
0.0
 30
0.0
210
0.0
220
0.0
230
1.0
  2
SOLID
 70
     1
 71
     0
 91
        1
 92
        1
 93
        4
 72
     1
 10
105.888454834639
 20
-132.3274956266403
 11
105.6366183546672
 21
-132.3274956266403
 72
     1
 10
105.6366183546672
 20
-132.3274956266403
 11
105.6366183546672
 21
-132.0756591466686
 72
     1
 10
105.6366183546672
 20
-132.0756591466686
 11
105.888454834639
 21
-132.0756591466686
 72
     1
 10
105.888454834639
 20
-132.0756591466686
 11
105.888454834639
 21
-132.3274956266403
 97
        0
 75
     2
 76
     1
 98
        0
  0
SPLINE
  5
A1
330
92
100
AcDbEntity
  8
_U+30EC_U+30A4_U+30E4_U+30FC 1
370
     0
100
AcDbSpline
210
0.0
220
0.0
230
1.0
 70
    11
 71
     3
 72
    53
 73
    49
 74
     0
 42
0.0000000001
 43
0.0000000001
 12
1.0
 22
0.0
 32
0.0
 13
1.0
 23
0.0
 33
0.0
 40
0.0
 40
0.0
 40
0.0
 40
0.0
 40
1.0
 40
1.0
 40
1.0
 40
2.0
 40
2.0
 40
2.0
 40
3.0
 40
3.0
 40
3.0
 40
4.0
 40
4.0
 40
4.0
 40
5.0
 40
5.0
 40
5.0
 40
6.0
 40
6.0
 40
6.0
 40
7.0
 40
7.0
 40
7.0
 40
8.0
 40
8.0
 40
8.0
 40
9.0
 40
9.0
 40
9.0
 40
10.0
 40
10.0
 40
10.0
 40
11.0
 40
11.0
 40
11.0
 40
12.0
 40
12.0
 40
12.0
 40
13.0
 40
13.0
 40
13.0
 40
14.0
 40
14.0
 40
14.0
 40
15.0
 40
15.0
 40
15.0
 40
16.0
 40
16.0
 40
16.0
 40
16.0
 10
105.9390977382722
 20
-131.3583902666396
 30
0.0
 10
105.9390977382722
 20
-131.4365939341548
 30
0.0
 10
105.9222167703945
 20
-131.5382242509696
 30
0.0
 10
105.8588270134659
 20
-131.6398545677845
 30
0.0
 10
105.7485839579379
 20
-131.8131428706926
 30
0.0
 10
105.6176703294984
 20
-131.8345024627011
 30
0.0
 10
105.5094943312615
 20
-131.85345048787
 30
0.0
 10
105.5094943312615
 20
-131.85345048787
 30
0.0
 10
105.5094943312615
 20
-131.6312418290714
 30
0.0
 10
105.5094943312615
 20
-131.6312418290714
 30
0.0
 10
105.708620850309
 20
-131.5764648108559
 30
0.0
 10
105.7382486714821
 20
-131.4493407874502
 30
0.0
 10
105.7382486714821
 20
-131.3563232093484
 30
0.0
 10
105.7382486714821
 20
-131.2167968421958
 30
0.0
 10
105.6386854119584
 20
-131.0645236217478
 30
0.0
 10
105.406141466704
 20
-131.0645236217478
 30
0.0
 10
105.1498263626014
 20
-131.0645236217478
 30
0.0
 10
105.0802354337994
 20
-131.2443576060778
 30
0.0
 10
105.0802354337994
 20
-131.3649359480615
 30
0.0
 10
105.0802354337994
 20
-131.3966308265258
 30
0.0
 10
105.0802354337994
 20
-131.5382242509696
 30
0.0
 10
105.2090820049477
 20
-131.6271077144891
 30
0.0
 10
105.2090820049477
 20
-131.6271077144891
 30
0.0
 10
105.1901339797789
 20
-131.8028075842368
 30
0.0
 10
105.1901339797789
 20
-131.8028075842368
 30
0.0
 10
105.1901339797789
 20
-131.8028075842368
 30
0.0
 10
104.3440185286015
 20
-131.6822292422531
 30
0.0
 10
104.3440185286015
 20
-131.6822292422531
 30
0.0
 10
104.3440185286015
 20
-131.6822292422531
 30
0.0
 10
104.3440185286015
 20
-130.9036376625866
 30
0.0
 10
104.3440185286015
 20
-130.9036376625866
 30
0.0
 10
104.3440185286015
 20
-130.9036376625866
 30
0.0
 10
104.5386664235181
 20
-130.9036376625866
 30
0.0
 10
104.5386664235181
 20
-130.9036376625866
 30
0.0
 10
104.5386664235181
 20
-130.9036376625866
 30
0.0
 10
104.5386664235181
 20
-131.5192762258008
 30
0.0
 10
104.5386664235181
 20
-131.5192762258008
 30
0.0
 10
104.5386664235181
 20
-131.5192762258008
 30
0.0
 10
104.9617241491068
 20
-131.5847330400205
 30
0.0
 10
104.9617241491068
 20
-131.5847330400205
 30
0.0
 10
104.9279622133513
 20
-131.523410340383
 30
0.0
 10
104.8876545961739
 20
-131.4410725582856
 30
0.0
 10
104.8876545961739
 20
-131.322561273593
 30
0.0
 10
104.8876545961739
 20
-131.0686577363301
 30
0.0
 10
105.0740342619259
 20
-130.8316351669449
 30
0.0
 10
105.3868489319866
 20
-130.8316351669449
 30
0.0
 10
105.7044867357267
 20
-130.8316351669449
 30
0.0
 10
105.9390977382722
 20
-131.0559108830346
 30
0.0
 10
105.9390977382722
 20
-131.3583902666396
 30
0.0
  0
HATCH
  5
A2
330
92
100
AcDbEntity
  8
_U+30EC_U+30A4_U+30E4_U+30FC 1
 62
     7
420
 16777215
100
AcDbHatch
 10
0.0
 20
0.0
 30
0.0
210
0.0
220
0.0
230
1.0
  2
SOLID
 70
     1
 71
     0
 91
        1
 92
        1
 93
        1
 72
     4
 94
        3
 73
     0
 74
     1
 95
       53
 96
       49
 40
0.0
 40
0.0
 40
0.0
 40
0.0
 40
1.0
 40
1.0
 40
1.0
 40
2.0
 40
2.0
 40
2.0
 40
3.0
 40
3.0
 40
3.0
 40
4.0
 40
4.0
 40
4.0
 40
5.0
 40
5.0
 40
5.0
 40
6.0
 40
6.0
 40
6.0
 40
7.0
 40
7.0
 40
7.0
 40
8.0
 40
8.0
 40
8.0
 40
9.0
 40
9.0
 40
9.0
 40
10.0
 40
10.0
 40
10.0
 40
11.0
 40
11.0
 40
11.0
 40
12.0
 40
12.0
 40
12.0
 40
13.0
 40
13.0
 40
13.0
 40
14.0
 40
14.0
 40
14.0
 40
15.0
 40
15.0
 40
15.0
 40
16.0
 40
16.0
 40
16.0
 40
16.0
 10
105.9390977382722
 20
-131.3583902666396
 10
105.9390977382722
 20
-131.4365939341548
 10
105.9222167703945
 20
-131.5382242509696
 10
105.8588270134659
 20
-131.6398545677845
 10
105.7485839579379
 20
-131.8131428706926
 10
105.6176703294984
 20
-131.8345024627011
 10
105.5094943312615
 20
-131.85345048787
 10
105.5094943312615
 20
-131.85345048787
 10
105.5094943312615
 20
-131.6312418290714
 10
105.5094943312615
 20
-131.6312418290714
 10
105.708620850309
 20
-131.5764648108559
 10
105.7382486714821
 20
-131.4493407874502
 10
105.7382486714821
 20
-131.3563232093484
 10
105.7382486714821
 20
-131.2167968421958
 10
105.6386854119584
 20
-131.0645236217478
 10
105.406141466704
 20
-131.0645236217478
 10
105.1498263626014
 20
-131.0645236217478
 10
105.0802354337994
 20
-131.2443576060778
 10
105.0802354337994
 20
-131.3649359480615
 10
105.0802354337994
 20
-131.3966308265258
 10
105.0802354337994
 20
-131.5382242509696
 10
105.2090820049477
 20
-131.6271077144891
 10
105.2090820049477
 20
-131.6271077144891
 10
105.1901339797789
 20
-131.8028075842368
 10
105.1901339797789
 20
-131.8028075842368
 10
105.1901339797789
 20
-131.8028075842368
 10
104.3440185286015
 20
-131.6822292422531
 10
104.3440185286015
 20
-131.6822292422531
 10
104.3440185286015
 20
-131.6822292422531
 10
104.3440185286015
 20
-130.9036376625866
 10
104.3440185286015
 20
-130.9036376625866
 10
104.3440185286015
 20
-130.9036376625866
 10
104.5386664235181
 20
-130.9036376625866
 10
104.5386664235181
 20
-130.9036376625866
 10
104.5386664235181
 20
-130.9036376625866
 10
104.5386664235181
 20
-131.5192762258008
 10
104.5386664235181
 20
-131.5192762258008
 10
104.5386664235181
 20
-131.5192762258008
 10
104.9617241491068
 20
-131.5847330400205
 10
104.9617241491068
 20
-131.5847330400205
 10
104.9279622133513
 20
-131.523410340383
 10
104.8876545961739
 20
-131.4410725582856
 10
104.8876545961739
 20
-131.322561273593
 10
104.8876545961739
 20
-131.0686577363301
 10
105.0740342619259
 20
-130.8316351669449
 10
105.3868489319866
 20
-130.8316351669449
 10
105.7044867357267
 20
-130.8316351669449
 10
105.9390977382722
 20
-131.0559108830346
 10
105.9390977382722
 20
-131.3583902666396
 97
        0
 97
        0
 75
     2
 76
     1
 98
        0
  0
ENDBLK
  5
95
330
92
100
AcDbEntity
  8
0
100
AcDbBlockEnd
  0
BLOCK
  5
A5
330
A3
100
AcDbEntity
  8
0
100
AcDbBlockBegin
  2
block 6
 70
     0
 10
0.0
 20
0.0
 30
0.0
  3
block 6
  1

  0
SPLINE
  5
A7
330
A3
100
AcDbEntity
  8
_U+30EC_U+30A4_U+30E4_U+30FC 1
370
     0
100
AcDbSpline
210
0.0
220
0.0
230
1.0
 70
    11
 71
     3
 72
    44
 73
    40
 74
     0
 42
0.0000000001
 43
0.0000000001
 12
1.0
 22
0.0
 32
0.0
 13
1.0
 23
0.0
 33
0.0
 40
0.0
 40
0.0
 40
0.0
 40
0.0
 40
1.0
 40
1.0
 40
1.0
 40
2.0
 40
2.0
 40
2.0
 40
3.0
 40
3.0
 40
3.0
 40
4.0
 40
4.0
 40
4.0
 40
5.0
 40
5.0
 40
5.0
 40
6.0
 40
6.0
 40
6.0
 40
7.0
 40
7.0
 40
7.0
 40
8.0
 40
8.0
 40
8.0
 40
9.0
 40
9.0
 40
9.0
 40
10.0
 40
10.0
 40
10.0
 40
11.0
 40
11.0
 40
11.0
 40
12.0
 40
12.0
 40
12.0
 40
13.0
 40
13.0
 40
13.0
 40
13.0
 10
105.3262152514462
 20
-123.3693860911195
 30
0.0
 10
105.4846896437677
 20
-123.5871161257873
 30
0.0
 10
105.5591037062491
 20
-123.680133703889
 30
0.0
 10
105.702764187984
 20
-123.7290540597795
 30
0.0
 10
105.702764187984
 20
-123.7290540597795
 30
0.0
 10
105.702764187984
 20
-122.9504624801131
 30
0.0
 10
105.702764187984
 20
-122.9504624801131
 30
0.0
 10
105.702764187984
 20
-122.9504624801131
 30
0.0
 10
105.9077473693564
 20
-122.9504624801131
 30
0.0
 10
105.9077473693564
 20
-122.9504624801131
 30
0.0
 10
105.9077473693564
 20
-122.9504624801131
 30
0.0
 10
105.9077473693564
 20
-123.9784789729116
 30
0.0
 10
105.9077473693564
 20
-123.9784789729116
 30
0.0
 10
105.5501464579875
 20
-123.9467840944473
 30
0.0
 10
105.4722873000208
 20
-123.8813272802276
 30
0.0
 10
105.1739420309982
 20
-123.4961656049767
 30
0.0
 10
104.9748155119508
 20
-123.2401950104226
 30
0.0
 10
104.9072916404399
 20
-123.1747381962029
 30
0.0
 10
104.7698323305784
 20
-123.1747381962029
 30
0.0
 10
104.6513210458858
 20
-123.1747381962029
 30
0.0
 10
104.5200629078978
 20
-123.2467406918446
 30
0.0
 10
104.5200629078978
 20
-123.4434556440523
 30
0.0
 10
104.5200629078978
 20
-123.7035603531887
 30
0.0
 10
104.7508843054095
 20
-123.7121730919018
 30
0.0
 10
104.8673285328109
 20
-123.7163072064841
 30
0.0
 10
104.8673285328109
 20
-123.7163072064841
 30
0.0
 10
104.8673285328109
 20
-123.9405829225739
 30
0.0
 10
104.8673285328109
 20
-123.9405829225739
 30
0.0
 10
104.7402045094052
 20
-123.9319701838608
 30
0.0
 10
104.6282389061346
 20
-123.9212903878565
 30
0.0
 10
104.509727621442
 20
-123.8410196630502
 30
0.0
 10
104.3488416622808
 20
-123.7311211170707
 30
0.0
 10
104.3147352169769
 20
-123.5447414513187
 30
0.0
 10
104.3147352169769
 20
-123.4286417334658
 30
0.0
 10
104.3147352169769
 20
-123.1513115469031
 30
0.0
 10
104.4990478254377
 20
-122.9439167986911
 30
0.0
 10
104.7718993878695
 20
-122.9439167986911
 30
0.0
 10
105.0003092185416
 20
-122.9439167986911
 30
0.0
 10
105.0998724780653
 20
-123.0603610260926
 30
0.0
 10
105.3262152514462
 20
-123.3693860911195
 30
0.0
  0
HATCH
  5
A8
330
A3
100
AcDbEntity
  8
_U+30EC_U+30A4_U+30E4_U+30FC 1
 62
     7
420
 16777215
100
AcDbHatch
 10
0.0
 20
0.0
 30
0.0
210
0.0
220
0.0
230
1.0
  2
SOLID
 70
     1
 71
     0
 91
        1
 92
        1
 93
        1
 72
     4
 94
        3
 73
     0
 74
     1
 95
       44
 96
       40
 40
0.0
 40
0.0
 40
0.0
 40
0.0
 40
1.0
 40
1.0
 40
1.0
 40
2.0
 40
2.0
 40
2.0
 40
3.0
 40
3.0
 40
3.0
 40
4.0
 40
4.0
 40
4.0
 40
5.0
 40
5.0
 40
5.0
 40
6.0
 40
6.0
 40
6.0
 40
7.0
 40
7.0
 40
7.0
 40
8.0
 40
8.0
 40
8.0
 40
9.0
 40
9.0
 40
9.0
 40
10.0
 40
10.0
 40
10.0
 40
11.0
 40
11.0
 40
11.0
 40
12.0
 40
12.0
 40
12.0
 40
13.0
 40
13.0
 40
13.0
 40
13.0
 10
105.3262152514462
 20
-123.3693860911195
 10
105.4846896437677
 20
-123.5871161257873
 10
105.5591037062491
 20
-123.680133703889
 10
105.702764187984
 20
-123.7290540597795
 10
105.702764187984
 20
-123.7290540597795
 10
105.702764187984
 20
-122.9504624801131
 10
105.702764187984
 20
-122.9504624801131
 10
105.702764187984
 20
-122.9504624801131
 10
105.9077473693564
 20
-122.9504624801131
 10
105.9077473693564
 20
-122.9504624801131
 10
105.9077473693564
 20
-122.9504624801131
 10
105.9077473693564
 20
-123.9784789729116
 10
105.9077473693564
 20
-123.9784789729116
 10
105.5501464579875
 20
-123.9467840944473
 10
105.4722873000208
 20
-123.8813272802276
 10
105.1739420309982
 20
-123.4961656049767
 10
104.9748155119508
 20
-123.2401950104226
 10
104.9072916404399
 20
-123.1747381962029
 10
104.7698323305784
 20
-123.1747381962029
 10
104.6513210458858
 20
-123.1747381962029
 10
104.5200629078978
 20
-123.2467406918446
 10
104.5200629078978
 20
-123.4434556440523
 10
104.5200629078978
 20
-123.7035603531887
 10
104.7508843054095
 20
-123.7121730919018
 10
104.8673285328109
 20
-123.7163072064841
 10
104.8673285328109
 20
-123.7163072064841
 10
104.8673285328109
 20
-123.9405829225739
 10
104.8673285328109
 20
-123.9405829225739
 10
104.7402045094052
 20
-123.9319701838608
 10
104.6282389061346
 20
-123.9212903878565
 10
104.509727621442
 20
-123.8410196630502
 10
104.3488416622808
 20
-123.7311211170707
 10
104.3147352169769
 20
-123.5447414513187
 10
104.3147352169769
 20
-123.4286417334658
 10
104.3147352169769
 20
-123.1513115469031
 10
104.4990478254377
 20
-122.9439167986911
 10
104.7718993878695
 20
-122.9439167986911
 10
105.0003092185416
 20
-122.9439167986911
 10
105.0998724780653
 20
-123.0603610260926
 10
105.3262152514462
 20
-123.3693860911195
 97
        0
 97
        0
 75
     2
 76
     1
 98
        0
  0
ENDBLK
  5
A6
330
A3
100
AcDbEntity
  8
0
100
AcDbBlockEnd
  0
BLOCK
  5
B1
330
AF
100
AcDbEntity
  8
0
100
AcDbBlockBegin
  2
block 7
 70
     0
 10
0.0
 20
0.0
 30
0.0
  3
block 7
  1

  0
SPLINE
  5
B3
330
AF
100
AcDbEntity
  8
_U+30EC_U+30A4_U+30E4_U+30FC 1
370
     0
100
AcDbSpline
210
0.0
220
0.0
230
1.0
 70
    11
 71
     3
 72
    26
 73
    22
 74
     0
 42
0.0000000001
 43
0.0000000001
 12
1.0
 22
0.0
 32
0.0
 13
1.0
 23
0.0
 33
0.0
 40
0.0
 40
0.0
 40
0.0
 40
0.0
 40
1.0
 40
1.0
 40
1.0
 40
2.0
 40
2.0
 40
2.0
 40
3.0
 40
3.0
 40
3.0
 40
4.0
 40
4.0
 40
4.0
 40
5.0
 40
5.0
 40
5.0
 40
6.0
 40
6.0
 40
6.0
 40
7.0
 40
7.0
 40
7.0
 40
7.0
 10
85.47591957498518
 20
-127.3181545363128
 30
0.0
 10
85.47591957498518
 20
-127.3181545363128
 30
0.0
 10
85.47591957498518
 20
-126.2140014332902
 30
0.0
 10
85.47591957498518
 20
-126.2140014332902
 30
0.0
 10
85.47591957498518
 20
-126.2140014332902
 30
0.0
 10
85.14587942749826
 20
-126.2140014332902
 30
0.0
 10
85.14587942749826
 20
-126.2140014332902
 30
0.0
 10
85.14587942749826
 20
-126.2140014332902
 30
0.0
 10
85.14587942749826
 20
-126.0658623274245
 30
0.0
 10
85.14587942749826
 20
-126.0658623274245
 30
0.0
 10
85.47798663227634
 20
-126.0510484168379
 30
0.0
 10
85.52449542132722
 20
-125.8880954003856
 30
0.0
 10
85.55412324250037
 20
-125.7737182302753
 30
0.0
 10
85.55412324250037
 20
-125.7737182302753
 30
0.0
 10
85.70019529107495
 20
-125.7737182302753
 30
0.0
 10
85.70019529107495
 20
-125.7737182302753
 30
0.0
 10
85.70019529107495
 20
-125.7737182302753
 30
0.0
 10
85.70019529107495
 20
-127.3181545363128
 30
0.0
 10
85.70019529107495
 20
-127.3181545363128
 30
0.0
 10
85.70019529107495
 20
-127.3181545363128
 30
0.0
 10
85.47591957498518
 20
-127.3181545363128
 30
0.0
 10
85.47591957498518
 20
-127.3181545363128
 30
0.0
  0
HATCH
  5
B4
330
AF
100
AcDbEntity
  8
_U+30EC_U+30A4_U+30E4_U+30FC 1
 62
     7
420
 16777215
100
AcDbHatch
 10
0.0
 20
0.0
 30
0.0
210
0.0
220
0.0
230
1.0
  2
SOLID
 70
     1
 71
     0
 91
        1
 92
        1
 93
        1
 72
     4
 94
        3
 73
     0
 74
     1
 95
       26
 96
       22
 40
0.0
 40
0.0
 40
0.0
 40
0.0
 40
1.0
 40
1.0
 40
1.0
 40
2.0
 40
2.0
 40
2.0
 40
3.0
 40
3.0
 40
3.0
 40
4.0
 40
4.0
 40
4.0
 40
5.0
 40
5.0
 40
5.0
 40
6.0
 40
6.0
 40
6.0
 40
7.0
 40
7.0
 40
7.0
 40
7.0
 10
85.47591957498518
 20
-127.3181545363128
 10
85.47591957498518
 20
-127.3181545363128
 10
85.47591957498518
 20
-126.2140014332902
 10
85.47591957498518
 20
-126.2140014332902
 10
85.47591957498518
 20
-126.2140014332902
 10
85.14587942749826
 20
-126.2140014332902
 10
85.14587942749826
 20
-126.2140014332902
 10
85.14587942749826
 20
-126.2140014332902
 10
85.14587942749826
 20
-126.0658623274245
 10
85.14587942749826
 20
-126.0658623274245
 10
85.47798663227634
 20
-126.0510484168379
 10
85.52449542132722
 20
-125.8880954003856
 10
85.55412324250037
 20
-125.7737182302753
 10
85.55412324250037
 20
-125.7737182302753
 10
85.70019529107495
 20
-125.7737182302753
 10
85.70019529107495
 20
-125.7737182302753
 10
85.70019529107495
 20
-125.7737182302753
 10
85.70019529107495
 20
-127.3181545363128
 10
85.70019529107495
 20
-127.3181545363128
 10
85.70019529107495
 20
-127.3181545363128
 10
85.47591957498518
 20
-127.3181545363128
 10
85.47591957498518
 20
-127.3181545363128
 97
        0
 97
        0
 75
     2
 76
     1
 98
        0
  0
ENDBLK
  5
B2
330
AF
100
AcDbEntity
  8
0
100
AcDbBlockEnd
  0
ENDSEC
  0
SECTION
  2
ENTITIES
  0
SPLINE
  5
41
330
1F
100
AcDbEntity
  8
_U+30EC_U+30A4_U+30E4_U+30FC 1
 62
     7
420
 16777215
370
     9
100
AcDbSpline
210
0.0
220
0.0
230
1.0
 70
    11
 71
     3
 72
    17
 73
    13
 74
     0
 42
0.0000000001
 43
0.0000000001
 12
1.0
 22
0.0
 32
0.0
 13
1.0
 23
0.0
 33
0.0
 40
0.0
 40
0.0
 40
0.0
 40
0.0
 40
1.0
 40
1.0
 40
1.0
 40
2.0
 40
2.0
 40
2.0
 40
3.0
 40
3.0
 40
3.0
 40
4.0
 40
4.0
 40
4.0
 40
4.0
 10
102.2897132237053
 20
-122.6212869137893
 30
0.0
 10
102.2897132237053
 20
-122.5661477471362
 30
0.0
 10
102.2449104470706
 20
-122.5213802471473
 30
0.0
 10
102.1898065595875
 20
-122.5213802471473
 30
0.0
 10
102.1346673943276
 20
-122.5213802471473
 30
0.0
 10
102.0898998954697
 20
-122.5661477471362
 30
0.0
 10
102.0898998954697
 20
-122.6212869137893
 30
0.0
 10
102.0898998954697
 20
-122.6763908026642
 30
0.0
 10
102.1346673943276
 20
-122.7211935804309
 30
0.0
 10
102.1898065595875
 20
-122.7211935804309
 30
0.0
 10
102.2449104470706
 20
-122.7211935804309
 30
0.0
 10
102.2897132237053
 20
-122.6763908026642
 30
0.0
 10
102.2897132237053
 20
-122.6212869137893
 30
0.0
  0
SPLINE
  5
42
330
1F
100
AcDbEntity
  8
_U+30EC_U+30A4_U+30E4_U+30FC 1
 62
     7
420
 16777215
370
     9
100
AcDbSpline
210
0.0
220
0.0
230
1.0
 70
    11
 71
     3
 72
    17
 73
    13
 74
     0
 42
0.0000000001
 43
0.0000000001
 12
1.0
 22
0.0
 32
0.0
 13
1.0
 23
0.0
 33
0.0
 40
0.0
 40
0.0
 40
0.0
 40
0.0
 40
1.0
 40
1.0
 40
1.0
 40
2.0
 40
2.0
 40
2.0
 40
3.0
 40
3.0
 40
3.0
 40
4.0
 40
4.0
 40
4.0
 40
4.0
 10
106.4610281172862
 20
-136.9539071879837
 30
0.0
 10
106.4610281172862
 20
-136.8980977435533
 30
0.0
 10
106.4162253406515
 20
-136.8540005213421
 30
0.0
 10
106.3611214531684
 20
-136.8540005213421
 30
0.0
 10
106.3059822879084
 20
-136.8540005213421
 30
0.0
 10
106.2612147890506
 20
-136.8980977435533
 30
0.0
 10
106.2612147890506
 20
-136.9539071879837
 30
0.0
 10
106.2612147890506
 20
-137.0090463546368
 30
0.0
 10
106.3059822879084
 20
-137.0538138546254
 30
0.0
 10
106.3611214531684
 20
-137.0538138546254
 30
0.0
 10
106.4162253406515
 20
-137.0538138546254
 30
0.0
 10
106.4610281172862
 20
-137.0090463546368
 30
0.0
 10
106.4610281172862
 20
-136.9539071879837
 30
0.0
  0
SPLINE
  5
43
330
1F
100
AcDbEntity
  8
_U+30EC_U+30A4_U+30E4_U+30FC 1
 62
     7
420
 16777215
370
     9
100
AcDbSpline
210
0.0
220
0.0
230
1.0
 70
    11
 71
     3
 72
    17
 73
    13
 74
     0
 42
0.0000000001
 43
0.0000000001
 12
1.0
 22
0.0
 32
0.0
 13
1.0
 23
0.0
 33
0.0
 40
0.0
 40
0.0
 40
0.0
 40
0.0
 40
1.0
 40
1.0
 40
1.0
 40
2.0
 40
2.0
 40
2.0
 40
3.0
 40
3.0
 40
3.0
 40
4.0
 40
4.0
 40
4.0
 40
4.0
 10
106.4610281172862
 20
-127.4509558014706
 30
0.0
 10
106.4610281172862
 20
-127.3951463570401
 30
0.0
 10
106.4162253406515
 20
-127.3510491348289
 30
0.0
 10
106.3611214531684
 20
-127.3510491348289
 30
0.0
 10
106.3059822879084
 20
-127.3510491348289
 30
0.0
 10
106.2612147890506
 20
-127.3951463570401
 30
0.0
 10
106.2612147890506
 20
-127.4509558014706
 30
0.0
 10
106.2612147890506
 20
-127.5060949681233
 30
0.0
 10
106.3059822879084
 20
-127.5508624681122
 30
0.0
 10
106.3611214531684
 20
-127.5508624681122
 30
0.0
 10
106.4162253406515
 20
-127.5508624681122
 30
0.0
 10
106.4610281172862
 20
-127.5060949681233
 30
0.0
 10
106.4610281172862
 20
-127.4509558014706
 30
0.0
  0
SPLINE
  5
44
330
1F
100
AcDbEntity
  8
_U+30EC_U+30A4_U+30E4_U+30FC 1
 62
     7
420
 16777215
370
     9
100
AcDbSpline
210
0.0
220
0.0
230
1.0
 70
    11
 71
     3
 72
    17
 73
    13
 74
     0
 42
0.0000000001
 43
0.0000000001
 12
1.0
 22
0.0
 32
0.0
 13
1.0
 23
0.0
 33
0.0
 40
0.0
 40
0.0
 40
0.0
 40
0.0
 40
1.0
 40
1.0
 40
1.0
 40
2.0
 40
2.0
 40
2.0
 40
3.0
 40
3.0
 40
3.0
 40
4.0
 40
4.0
 40
4.0
 40
4.0
 10
74.29055310469009
 20
-122.6212869137893
 30
0.0
 10
74.29055310469009
 20
-122.5661477471362
 30
0.0
 10
74.24575032805532
 20
-122.5213802471473
 30
0.0
 10
74.19064644057225
 20
-122.5213802471473
 30
0.0
 10
74.1355072753123
 20
-122.5213802471473
 30
0.0
 10
74.09074164814389
 20
-122.5661477471362
 30
0.0
 10
74.09074164814389
 20
-122.6212869137893
 30
0.0
 10
74.09074164814389
 20
-122.6763908026642
 30
0.0
 10
74.1355072753123
 20
-122.7211935804309
 30
0.0
 10
74.19064644057225
 20
-122.7211935804309
 30
0.0
 10
74.24575032805532
 20
-122.7211935804309
 30
0.0
 10
74.29055310469009
 20
-122.6763908026642
 30
0.0
 10
74.29055310469009
 20
-122.6212869137893
 30
0.0
  0
SPLINE
  5
45
330
1F
100
AcDbEntity
  8
_U+30EC_U+30A4_U+30E4_U+30FC 1
 62
     7
420
 16777215
370
     9
100
AcDbSpline
210
0.0
220
0.0
230
1.0
 70
    11
 71
     3
 72
    17
 73
    13
 74
     0
 42
0.0000000001
 43
0.0000000001
 12
1.0
 22
0.0
 32
0.0
 13
1.0
 23
0.0
 33
0.0
 40
0.0
 40
0.0
 40
0.0
 40
0.0
 40
1.0
 40
1.0
 40
1.0
 40
2.0
 40
2.0
 40
2.0
 40
3.0
 40
3.0
 40
3.0
 40
4.0
 40
4.0
 40
4.0
 40
4.0
 10
106.4610281172862
 20
-125.4924394130713
 30
0.0
 10
106.4610281172862
 20
-125.4369474686408
 30
0.0
 10
106.4162253406515
 20
-125.3921799686519
 30
0.0
 10
106.3611214531684
 20
-125.3921799686519
 30
0.0
 10
106.3059822879084
 20
-125.3921799686519
 30
0.0
 10
106.2612147890506
 20
-125.4369474686408
 30
0.0
 10
106.2612147890506
 20
-125.4924394130713
 30
0.0
 10
106.2612147890506
 20
-125.5475433019466
 30
0.0
 10
106.3059822879084
 20
-125.592346079713
 30
0.0
 10
106.3611214531684
 20
-125.592346079713
 30
0.0
 10
106.4162253406515
 20
-125.592346079713
 30
0.0
 10
106.4610281172862
 20
-125.5475433019466
 30
0.0
 10
106.4610281172862
 20
-125.4924394130713
 30
0.0
  0
POLYLINE
  5
46
330
1F
100
AcDbEntity
  8
_U+30EC_U+30A4_U+30E4_U+30FC 1
 62
     7
420
 16777215
370
     9
100
AcDb2dPolyline
 66
     1
 10
0.0
 20
0.0
 30
0.0
  0
VERTEX
  5
47
330
46
100
AcDbEntity
  8
_U+30EC_U+30A4_U+30E4_U+30FC 1
 62
     7
420
 16777215
370
     9
100
AcDbVertex
100
AcDb2dVertex
 10
74.19064644057225
 20
-122.6212869137893
 30
0.0
  0
VERTEX
  5
48
330
46
100
AcDbEntity
  8
_U+30EC_U+30A4_U+30E4_U+30FC 1
 62
     7
420
 16777215
370
     9
100
AcDbVertex
100
AcDb2dVertex
 10
84.19108479655092
 20
-122.6212869137893
 30
0.0
  0
SEQEND
  5
49
330
46
100
AcDbEntity
  8
_U+30EC_U+30A4_U+30E4_U+30FC 1
 62
     7
420
 16777215
370
     9
  0
POLYLINE
  5
4A
330
1F
100
AcDbEntity
  8
_U+30EC_U+30A4_U+30E4_U+30FC 1
 62
     7
420
 16777215
370
     9
100
AcDb2dPolyline
 66
     1
 10
0.0
 20
0.0
 30
0.0
  0
VERTEX
  5
4B
330
4A
100
AcDbEntity
  8
_U+30EC_U+30A4_U+30E4_U+30FC 1
 62
     7
420
 16777215
370
     9
100
AcDbVertex
100
AcDb2dVertex
 10
92.19039125913828
 20
-122.6212869137893
 30
0.0
  0
VERTEX
  5
4C
330
4A
100
AcDbEntity
  8
_U+30EC_U+30A4_U+30E4_U+30FC 1
 62
     7
420
 16777215
370
     9
100
AcDbVertex
100
AcDb2dVertex
 10
102.1911823928857
 20
-122.6212869137893
 30
0.0
  0
SEQEND
  5
4D
330
4A
100
AcDbEntity
  8
_U+30EC_U+30A4_U+30E4_U+30FC 1
 62
     7
420
 16777215
370
     9
  0
POLYLINE
  5
4E
330
1F
100
AcDbEntity
  8
_U+30EC_U+30A4_U+30E4_U+30FC 1
 62
     7
420
 16777215
370
     9
100
AcDb2dPolyline
 66
     1
 10
0.0
 20
0.0
 30
0.0
  0
VERTEX
  5
4F
330
4E
100
AcDbEntity
  8
_U+30EC_U+30A4_U+30E4_U+30FC 1
 62
     7
420
 16777215
370
     9
100
AcDbVertex
100
AcDb2dVertex
 10
84.19108479655092
 20
-122.6212869137893
 30
0.0
  0
VERTEX
  5
50
330
4E
100
AcDbEntity
  8
_U+30EC_U+30A4_U+30E4_U+30FC 1
 62
     7
420
 16777215
370
     9
100
AcDbVertex
100
AcDb2dVertex
 10
92.19039125913828
 20
-122.6212869137893
 30
0.0
  0
SEQEND
  5
51
330
4E
100
AcDbEntity
  8
_U+30EC_U+30A4_U+30E4_U+30FC 1
 62
     7
420
 16777215
370
     9
  0
POLYLINE
  5
52
330
1F
100
AcDbEntity
  8
_U+30EC_U+30A4_U+30E4_U+30FC 1
 62
     7
420
 16777215
370
     9
100
AcDb2dPolyline
 66
     1
 10
0.0
 20
0.0
 30
0.0
  0
VERTEX
  5
53
330
52
100
AcDbEntity
  8
_U+30EC_U+30A4_U+30E4_U+30FC 1
 62
     7
420
 16777215
370
     9
100
AcDbVertex
100
AcDb2dVertex
 10
74.19064644057225
 20
-120.3612866365763
 30
0.0
  0
VERTEX
  5
54
330
52
100
AcDbEntity
  8
_U+30EC_U+30A4_U+30E4_U+30FC 1
 62
     7
420
 16777215
370
     9
100
AcDbVertex
100
AcDb2dVertex
 10
74.19064644057225
 20
-123.6210591357615
 30
0.0
  0
SEQEND
  5
55
330
52
100
AcDbEntity
  8
_U+30EC_U+30A4_U+30E4_U+30FC 1
 62
     7
420
 16777215
370
     9
  0
SPLINE
  5
56
330
1F
100
AcDbEntity
  8
_U+30EC_U+30A4_U+30E4_U+30FC 1
 62
     7
420
 16777215
370
     9
100
AcDbSpline
210
0.0
220
0.0
230
1.0
 70
    11
 71
     3
 72
    17
 73
    13
 74
     0
 42
0.0000000001
 43
0.0000000001
 12
1.0
 22
0.0
 32
0.0
 13
1.0
 23
0.0
 33
0.0
 40
0.0
 40
0.0
 40
0.0
 40
0.0
 40
1.0
 40
1.0
 40
1.0
 40
2.0
 40
2.0
 40
2.0
 40
3.0
 40
3.0
 40
3.0
 40
4.0
 40
4.0
 40
4.0
 40
4.0
 10
84.29063868289998
 20
-122.6212869137893
 30
0.0
 10
84.29063868289998
 20
-122.5661477471362
 30
0.0
 10
84.24583590626523
 20
-122.5213802471473
 30
0.0
 10
84.19073201878216
 20
-122.5213802471473
 30
0.0
 10
84.1355928535222
 20
-122.5213802471473
 30
0.0
 10
84.09082535466432
 20
-122.5661477471362
 30
0.0
 10
84.09082535466432
 20
-122.6212869137893
 30
0.0
 10
84.09082535466432
 20
-122.6763908026642
 30
0.0
 10
84.1355928535222
 20
-122.7211935804309
 30
0.0
 10
84.19073201878216
 20
-122.7211935804309
 30
0.0
 10
84.24583590626523
 20
-122.7211935804309
 30
0.0
 10
84.29063868289998
 20
-122.6763908026642
 30
0.0
 10
84.29063868289998
 20
-122.6212869137893
 30
0.0
  0
POLYLINE
  5
57
330
1F
100
AcDbEntity
  8
_U+30EC_U+30A4_U+30E4_U+30FC 1
 62
     7
420
 16777215
370
     9
100
AcDb2dPolyline
 66
     1
 10
0.0
 20
0.0
 30
0.0
  0
VERTEX
  5
58
330
57
100
AcDbEntity
  8
_U+30EC_U+30A4_U+30E4_U+30FC 1
 62
     7
420
 16777215
370
     9
100
AcDbVertex
100
AcDb2dVertex
 10
84.19073201878216
 20
-120.3612866365763
 30
0.0
  0
VERTEX
  5
59
330
57
100
AcDbEntity
  8
_U+30EC_U+30A4_U+30E4_U+30FC 1
 62
     7
420
 16777215
370
     9
100
AcDbVertex
100
AcDb2dVertex
 10
84.19073201878216
 20
-123.6210591357615
 30
0.0
  0
SEQEND
  5
5A
330
57
100
AcDbEntity
  8
_U+30EC_U+30A4_U+30E4_U+30FC 1
 62
     7
420
 16777215
370
     9
  0
SPLINE
  5
5B
330
1F
100
AcDbEntity
  8
_U+30EC_U+30A4_U+30E4_U+30FC 1
 62
     7
420
 16777215
370
     9
100
AcDbSpline
210
0.0
220
0.0
230
1.0
 70
    11
 71
     3
 72
    17
 73
    13
 74
     0
 42
0.0000000001
 43
0.0000000001
 12
1.0
 22
0.0
 32
0.0
 13
1.0
 23
0.0
 33
0.0
 40
0.0
 40
0.0
 40
0.0
 40
0.0
 40
1.0
 40
1.0
 40
1.0
 40
2.0
 40
2.0
 40
2.0
 40
3.0
 40
3.0
 40
3.0
 40
4.0
 40
4.0
 40
4.0
 40
4.0
 10
92.290333201033
 20
-122.6212869137893
 30
0.0
 10
92.290333201033
 20
-122.5661477471362
 30
0.0
 10
92.24553042439824
 20
-122.5213802471473
 30
0.0
 10
92.19039125913828
 20
-122.5213802471473
 30
0.0
 10
92.13528737165521
 20
-122.5213802471473
 30
0.0
 10
92.09048459502046
 20
-122.5661477471362
 30
0.0
 10
92.09048459502046
 20
-122.6212869137893
 30
0.0
 10
92.09048459502046
 20
-122.6763908026642
 30
0.0
 10
92.13528737165521
 20
-122.7211935804309
 30
0.0
 10
92.19039125913828
 20
-122.7211935804309
 30
0.0
 10
92.24553042439824
 20
-122.7211935804309
 30
0.0
 10
92.290333201033
 20
-122.6763908026642
 30
0.0
 10
92.290333201033
 20
-122.6212869137893
 30
0.0
  0
POLYLINE
  5
5C
330
1F
100
AcDbEntity
  8
_U+30EC_U+30A4_U+30E4_U+30FC 1
 62
     7
420
 16777215
370
     9
100
AcDb2dPolyline
 66
     1
 10
0.0
 20
0.0
 30
0.0
  0
VERTEX
  5
5D
330
5C
100
AcDbEntity
  8
_U+30EC_U+30A4_U+30E4_U+30FC 1
 62
     7
420
 16777215
370
     9
100
AcDbVertex
100
AcDb2dVertex
 10
92.19039125913828
 20
-120.3612866365763
 30
0.0
  0
VERTEX
  5
5E
330
5C
100
AcDbEntity
  8
_U+30EC_U+30A4_U+30E4_U+30FC 1
 62
     7
420
 16777215
370
     9
100
AcDbVertex
100
AcDb2dVertex
 10
92.19039125913828
 20
-123.6210591357615
 30
0.0
  0
SEQEND
  5
5F
330
5C
100
AcDbEntity
  8
_U+30EC_U+30A4_U+30E4_U+30FC 1
 62
     7
420
 16777215
370
     9
  0
POLYLINE
  5
60
330
1F
100
AcDbEntity
  8
_U+30EC_U+30A4_U+30E4_U+30FC 1
 62
     7
420
 16777215
370
     9
100
AcDb2dPolyline
 66
     1
 10
0.0
 20
0.0
 30
0.0
  0
VERTEX
  5
61
330
60
100
AcDbEntity
  8
_U+30EC_U+30A4_U+30E4_U+30FC 1
 62
     7
420
 16777215
370
     9
100
AcDbVertex
100
AcDb2dVertex
 10
102.1898065595875
 20
-120.6610419142791
 30
0.0
  0
VERTEX
  5
62
330
60
100
AcDbEntity
  8
_U+30EC_U+30A4_U+30E4_U+30FC 1
 62
     7
420
 16777215
370
     9
100
AcDbVertex
100
AcDb2dVertex
 10
102.1898065595875
 20
-123.6210591357615
 30
0.0
  0
SEQEND
  5
63
330
60
100
AcDbEntity
  8
_U+30EC_U+30A4_U+30E4_U+30FC 1
 62
     7
420
 16777215
370
     9
  0
INSERT
  5
65
330
1F
100
AcDbEntity
  8
_U+30EC_U+30A4_U+30E4_U+30FC 1
100
AcDbBlockReference
  2
block 2
 10
0.0
 20
0.0
 30
0.0
  0
INSERT
  5
6D
330
1F
100
AcDbEntity
  8
_U+30EC_U+30A4_U+30E4_U+30FC 1
100
AcDbBlockReference
  2
block 3
 10
0.0
 20
0.0
 30
0.0
  0
INSERT
  5
76
330
1F
100
AcDbEntity
  8
_U+30EC_U+30A4_U+30E4_U+30FC 1
100
AcDbBlockReference
  2
block 4
 10
0.0
 20
0.0
 30
0.0
  0
POLYLINE
  5
7E
330
1F
100
AcDbEntity
  8
_U+30EC_U+30A4_U+30E4_U+30FC 1
 62
     7
420
 16777215
370
     9
100
AcDb2dPolyline
 66
     1
 10
0.0
 20
0.0
 30
0.0
  0
VERTEX
  5
7F
330
7E
100
AcDbEntity
  8
_U+30EC_U+30A4_U+30E4_U+30FC 1
 62
     7
420
 16777215
370
     9
100
AcDbVertex
100
AcDb2dVertex
 10
106.3611214531684
 20
-127.4523316348035
 30
0.0
  0
VERTEX
  5
80
330
7E
100
AcDbEntity
  8
_U+30EC_U+30A4_U+30E4_U+30FC 1
 62
     7
420
 16777215
370
     9
100
AcDbVertex
100
AcDb2dVertex
 10
106.3611214531684
 20
-136.9521785768731
 30
0.0
  0
SEQEND
  5
81
330
7E
100
AcDbEntity
  8
_U+30EC_U+30A4_U+30E4_U+30FC 1
 62
     7
420
 16777215
370
     9
  0
POLYLINE
  5
82
330
1F
100
AcDbEntity
  8
_U+30EC_U+30A4_U+30E4_U+30FC 1
 62
     7
420
 16777215
370
     9
100
AcDb2dPolyline
 66
     1
 10
0.0
 20
0.0
 30
0.0
  0
VERTEX
  5
83
330
82
100
AcDbEntity
  8
_U+30EC_U+30A4_U+30E4_U+30FC 1
 62
     7
420
 16777215
370
     9
100
AcDbVertex
100
AcDb2dVertex
 10
106.3611214531684
 20
-121.917107191743
 30
0.0
  0
VERTEX
  5
84
330
82
100
AcDbEntity
  8
_U+30EC_U+30A4_U+30E4_U+30FC 1
 62
     7
420
 16777215
370
     9
100
AcDbVertex
100
AcDb2dVertex
 10
106.3611214531684
 20
-127.4509558014706
 30
0.0
  0
SEQEND
  5
85
330
82
100
AcDbEntity
  8
_U+30EC_U+30A4_U+30E4_U+30FC 1
 62
     7
420
 16777215
370
     9
  0
POLYLINE
  5
86
330
1F
100
AcDbEntity
  8
_U+30EC_U+30A4_U+30E4_U+30FC 1
 62
     7
420
 16777215
370
     9
100
AcDb2dPolyline
 66
     1
 10
0.0
 20
0.0
 30
0.0
  0
VERTEX
  5
87
330
86
100
AcDbEntity
  8
_U+30EC_U+30A4_U+30E4_U+30FC 1
 62
     7
420
 16777215
370
     9
100
AcDbVertex
100
AcDb2dVertex
 10
107.3285086507105
 20
-125.460724690857
 30
0.0
  0
VERTEX
  5
88
330
86
100
AcDbEntity
  8
_U+30EC_U+30A4_U+30E4_U+30FC 1
 62
     7
420
 16777215
370
     9
100
AcDbVertex
100
AcDb2dVertex
 10
104.3691617817653
 20
-125.460724690857
 30
0.0
  0
SEQEND
  5
89
330
86
100
AcDbEntity
  8
_U+30EC_U+30A4_U+30E4_U+30FC 1
 62
     7
420
 16777215
370
     9
  0
POLYLINE
  5
8A
330
1F
100
AcDbEntity
  8
_U+30EC_U+30A4_U+30E4_U+30FC 1
 62
     7
420
 16777215
370
     9
100
AcDb2dPolyline
 66
     1
 10
0.0
 20
0.0
 30
0.0
  0
VERTEX
  5
8B
330
8A
100
AcDbEntity
  8
_U+30EC_U+30A4_U+30E4_U+30FC 1
 62
     7
420
 16777215
370
     9
100
AcDbVertex
100
AcDb2dVertex
 10
107.3285086507105
 20
-136.9539071879837
 30
0.0
  0
VERTEX
  5
8C
330
8A
100
AcDbEntity
  8
_U+30EC_U+30A4_U+30E4_U+30FC 1
 62
     7
420
 16777215
370
     9
100
AcDbVertex
100
AcDb2dVertex
 10
101.189328807334
 20
-136.9539071879837
 30
0.0
  0
SEQEND
  5
8D
330
8A
100
AcDbEntity
  8
_U+30EC_U+30A4_U+30E4_U+30FC 1
 62
     7
420
 16777215
370
     9
  0
POLYLINE
  5
8E
330
1F
100
AcDbEntity
  8
_U+30EC_U+30A4_U+30E4_U+30FC 1
 62
     7
420
 16777215
370
     9
100
AcDb2dPolyline
 66
     1
 10
0.0
 20
0.0
 30
0.0
  0
VERTEX
  5
8F
330
8E
100
AcDbEntity
  8
_U+30EC_U+30A4_U+30E4_U+30FC 1
 62
     7
420
 16777215
370
     9
100
AcDbVertex
100
AcDb2dVertex
 10
107.3285086507105
 20
-127.4509558014706
 30
0.0
  0
VERTEX
  5
90
330
8E
100
AcDbEntity
  8
_U+30EC_U+30A4_U+30E4_U+30FC 1
 62
     7
420
 16777215
370
     9
100
AcDbVertex
100
AcDb2dVertex
 10
104.3691617817653
 20
-127.4509558014706
 30
0.0
  0
SEQEND
  5
91
330
8E
100
AcDbEntity
  8
_U+30EC_U+30A4_U+30E4_U+30FC 1
 62
     7
420
 16777215
370
     9
  0
INSERT
  5
93
330
1F
100
AcDbEntity
  8
_U+30EC_U+30A4_U+30E4_U+30FC 1
100
AcDbBlockReference
  2
block 5
 10
0.0
 20
0.0
 30
0.0
  0
INSERT
  5
A4
330
1F
100
AcDbEntity
  8
_U+30EC_U+30A4_U+30E4_U+30FC 1
100
AcDbBlockReference
  2
block 6
 10
0.0
 20
0.0
 30
0.0
  0
POLYLINE
  5
A9
330
1F
100
AcDbEntity
  8
_U+30EC_U+30A4_U+30E4_U+30FC 1
 62
     7
420
 16777215
370
     9
100
AcDb2dPolyline
 66
     1
 10
0.0
 20
0.0
 30
0.0
  0
VERTEX
  5
AA
330
A9
100
AcDbEntity
  8
_U+30EC_U+30A4_U+30E4_U+30FC 1
 62
     7
420
 16777215
370
     9
100
AcDbVertex
100
AcDb2dVertex
 10
86.52682640362787
 20
-128.1713280235128
 30
0.0
  0
VERTEX
  5
AB
330
A9
100
AcDbEntity
  8
_U+30EC_U+30A4_U+30E4_U+30FC 1
 62
     7
420
 16777215
370
     9
100
AcDbVertex
100
AcDb2dVertex
 10
81.37641209058144
 20
-128.1713280235128
 30
0.0
  0
SEQEND
  5
AC
330
A9
100
AcDbEntity
  8
_U+30EC_U+30A4_U+30E4_U+30FC 1
 62
     7
420
 16777215
370
     9
  0
SPLINE
  5
AD
330
1F
100
AcDbEntity
  8
_U+30EC_U+30A4_U+30E4_U+30FC 1
 62
     7
420
 16777215
370
     9
100
AcDbSpline
210
0.0
220
0.0
230
1.0
 70
    11
 71
     3
 72
    17
 73
    13
 74
     0
 42
0.0000000001
 43
0.0000000001
 12
1.0
 22
0.0
 32
0.0
 13
1.0
 23
0.0
 33
0.0
 40
0.0
 40
0.0
 40
0.0
 40
0.0
 40
1.0
 40
1.0
 40
1.0
 40
2.0
 40
2.0
 40
2.0
 40
3.0
 40
3.0
 40
3.0
 40
4.0
 40
4.0
 40
4.0
 40
4.0
 10
82.28696678957347
 20
-128.1713280235128
 30
0.0
 10
82.28696678957347
 20
-128.1155185790821
 30
0.0
 10
82.2421640129387
 20
-128.0714213568709
 30
0.0
 10
82.18706012545563
 20
-128.0714213568709
 30
0.0
 10
82.13160553502277
 20
-128.0714213568709
 30
0.0
 10
82.08680275725604
 20
-128.1155185790821
 30
0.0
 10
82.08680275725604
 20
-128.1713280235128
 30
0.0
 10
82.08680275725604
 20
-128.2264671901656
 30
0.0
 10
82.13160553502277
 20
-128.2712346901545
 30
0.0
 10
82.18706012545563
 20
-128.2712346901545
 30
0.0
 10
82.2421640129387
 20
-128.2712346901545
 30
0.0
 10
82.28696678957347
 20
-128.2264671901656
 30
0.0
 10
82.28696678957347
 20
-128.1713280235128
 30
0.0
  0
SPLINE
  5
AE
330
1F
100
AcDbEntity
  8
_U+30EC_U+30A4_U+30E4_U+30FC 1
 62
     7
420
 16777215
370
     9
100
AcDbSpline
210
0.0
220
0.0
230
1.0
 70
    11
 71
     3
 72
    17
 73
    13
 74
     0
 42
0.0000000001
 43
0.0000000001
 12
1.0
 22
0.0
 32
0.0
 13
1.0
 23
0.0
 33
0.0
 40
0.0
 40
0.0
 40
0.0
 40
0.0
 40
1.0
 40
1.0
 40
1.0
 40
2.0
 40
2.0
 40
2.0
 40
3.0
 40
3.0
 40
3.0
 40
4.0
 40
4.0
 40
4.0
 40
4.0
 10
83.28709176405816
 20
-128.1713280235128
 30
0.0
 10
83.28709176405816
 20
-128.1155185790821
 30
0.0
 10
83.2422889874234
 20
-128.0714213568709
 30
0.0
 10
83.18718509994032
 20
-128.0714213568709
 30
0.0
 10
83.1316931569116
 20
-128.0714213568709
 30
0.0
 10
83.08692775700602
 20
-128.1155185790821
 30
0.0
 10
83.08692775700602
 20
-128.1713280235128
 30
0.0
 10
83.08692775700602
 20
-128.2264671901656
 30
0.0
 10
83.1316931569116
 20
-128.2712346901545
 30
0.0
 10
83.18718509994032
 20
-128.2712346901545
 30
0.0
 10
83.2422889874234
 20
-128.2712346901545
 30
0.0
 10
83.28709176405816
 20
-128.2264671901656
 30
0.0
 10
83.28709176405816
 20
-128.1713280235128
 30
0.0
  0
INSERT
  5
B0
330
1F
100
AcDbEntity
  8
_U+30EC_U+30A4_U+30E4_U+30FC 1
100
AcDbBlockReference
  2
block 7
 10
0.0
 20
0.0
 30
0.0
  0
SPLINE
  5
B5
330
1F
100
AcDbEntity
  8
_U+30EC_U+30A4_U+30E4_U+30FC 1
 62
   179
420
  2234388
370
    25
100
AcDbSpline
210
0.0
220
0.0
230
1.0
 70
    11
 71
     3
 72
   107
 73
   103
 74
     0
 42
0.0000000001
 43
0.0000000001
 12
1.0
 22
0.0
 32
0.0
 13
1.0
 23
0.0
 33
0.0
 40
0.0
 40
0.0
 40
0.0
 40
0.0
 40
1.0
 40
1.0
 40
1.0
 40
2.0
 40
2.0
 40
2.0
 40
3.0
 40
3.0
 40
3.0
 40
4.0
 40
4.0
 40
4.0
 40
5.0
 40
5.0
 40
5.0
 40
6.0
 40
6.0
 40
6.0
 40
7.0
 40
7.0
 40
7.0
 40
8.0
 40
8.0
 40
8.0
 40
9.0
 40
9.0
 40
9.0
 40
10.0
 40
10.0
 40
10.0
 40
11.0
 40
11.0
 40
11.0
 40
12.0
 40
12.0
 40
12.0
 40
13.0
 40
13.0
 40
13.0
 40
14.0
 40
14.0
 40
14.0
 40
15.0
 40
15.0
 40
15.0
 40
16.0
 40
16.0
 40
16.0
 40
17.0
 40
17.0
 40
17.0
 40
18.0
 40
18.0
 40
18.0
 40
19.0
 40
19.0
 40
19.0
 40
20.0
 40
20.0
 40
20.0
 40
21.0
 40
21.0
 40
21.0
 40
22.0
 40
22.0
 40
22.0
 40
23.0
 40
23.0
 40
23.0
 40
24.0
 40
24.0
 40
24.0
 40
25.0
 40
25.0
 40
25.0
 40
26.0
 40
26.0
 40
26.0
 40
27.0
 40
27.0
 40
27.0
 40
28.0
 40
28.0
 40
28.0
 40
29.0
 40
29.0
 40
29.0
 40
30.0
 40
30.0
 40
30.0
 40
31.0
 40
31.0
 40
31.0
 40
32.0
 40
32.0
 40
32.0
 40
33.0
 40
33.0
 40
33.0
 40
34.0
 40
34.0
 40
34.0
 40
34.0
 10
93.19086901139175
 20
-135.9538174660116
 30
0.0
 10
93.19086901139175
 20
-135.9538174660116
 30
0.0
 10
93.19086901139175
 20
-126.7064888572122
 30
0.0
 10
93.19086901139175
 20
-126.7064888572122
 30
0.0
 10
93.19086901139175
 20
-126.7064888572122
 30
0.0
 10
92.19109681467584
 20
-126.7064888572122
 30
0.0
 10
92.19109681467584
 20
-126.7064888572122
 30
0.0
 10
92.19109681467584
 20
-126.016067468496
 30
0.0
 10
92.75056942125711
 20
-125.4562444130803
 30
0.0
 10
93.44098844945512
 20
-125.4562444130803
 30
0.0
 10
93.44098844945512
 20
-125.4562444130803
 30
0.0
 10
93.46921067095732
 20
-125.4552213575252
 30
0.0
 10
93.46921067095732
 20
-125.4552213575252
 30
0.0
 10
93.46921067095732
 20
-125.4552213575252
 30
0.0
 10
101.4814993554357
 20
-125.4552213575252
 30
0.0
 10
101.4814993554357
 20
-125.4552213575252
 30
0.0
 10
101.4814993554357
 20
-125.4552213575252
 30
0.0
 10
102.1898065595875
 20
-126.7209527460975
 30
0.0
 10
102.1898065595875
 20
-126.7209527460975
 30
0.0
 10
102.1898065595875
 20
-126.7209527460975
 30
0.0
 10
102.1898065595875
 20
-126.7195769127646
 30
0.0
 10
102.1898065595875
 20
-126.7195769127646
 30
0.0
 10
102.1898065595875
 20
-126.7195769127646
 30
0.0
 10
102.1898065595875
 20
-127.4506030236928
 30
0.0
 10
102.1898065595875
 20
-127.4506030236928
 30
0.0
 10
102.1898065595875
 20
-127.4506030236928
 30
0.0
 10
101.1900343628716
 20
-127.4506030236928
 30
0.0
 10
101.1900343628716
 20
-127.4506030236928
 30
0.0
 10
101.1900343628716
 20
-127.4506030236928
 30
0.0
 10
100.7731921512839
 20
-126.7064888572122
 30
0.0
 10
100.7731921512839
 20
-126.7064888572122
 30
0.0
 10
100.7731921512839
 20
-126.7064888572122
 30
0.0
 10
100.7731921512839
 20
-126.7047602461015
 30
0.0
 10
100.7731921512839
 20
-126.7047602461015
 30
0.0
 10
100.7731921512839
 20
-126.7047602461015
 30
0.0
 10
94.19131386534099
 20
-126.7047602461015
 30
0.0
 10
94.19131386534099
 20
-126.7047602461015
 30
0.0
 10
94.19131386534099
 20
-126.7047602461015
 30
0.0
 10
94.19131386534099
 20
-126.7064888572122
 30
0.0
 10
94.19131386534099
 20
-126.7064888572122
 30
0.0
 10
94.19131386534099
 20
-126.7064888572122
 30
0.0
 10
94.19131386534099
 20
-136.9539071879837
 30
0.0
 10
94.19131386534099
 20
-136.9539071879837
 30
0.0
 10
94.19131386534099
 20
-136.9539071879837
 30
0.0
 10
82.18706012545563
 20
-136.9539071879837
 30
0.0
 10
82.18706012545563
 20
-136.9539071879837
 30
0.0
 10
82.18706012545563
 20
-136.9539071879837
 30
0.0
 10
82.18670734768686
 20
-136.9539071879837
 30
0.0
 10
82.18670734768686
 20
-136.9539071879837
 30
0.0
 10
82.18670734768686
 20
-136.9539071879837
 30
0.0
 10
82.18670734768686
 20
-126.7064888572122
 30
0.0
 10
82.18670734768686
 20
-126.7064888572122
 30
0.0
 10
82.18670734768686
 20
-126.7064888572122
 30
0.0
 10
82.18670734768686
 20
-126.7047602461015
 30
0.0
 10
82.18670734768686
 20
-126.7047602461015
 30
0.0
 10
82.18670734768686
 20
-126.7047602461015
 30
0.0
 10
75.7753947334753
 20
-126.7047602461015
 30
0.0
 10
75.7753947334753
 20
-126.7047602461015
 30
0.0
 10
75.7753947334753
 20
-126.7047602461015
 30
0.0
 10
75.7753947334753
 20
-126.7064888572122
 30
0.0
 10
75.7753947334753
 20
-126.7064888572122
 30
0.0
 10
75.7753947334753
 20
-126.7064888572122
 30
0.0
 10
75.19108891504884
 20
-127.4506030236928
 30
0.0
 10
75.19108891504884
 20
-127.4506030236928
 30
0.0
 10
75.19108891504884
 20
-127.4506030236928
 30
0.0
 10
74.19064644057225
 20
-127.4506030236928
 30
0.0
 10
74.19064644057225
 20
-127.4506030236928
 30
0.0
 10
74.19064644057225
 20
-127.4506030236928
 30
0.0
 10
74.19064644057225
 20
-126.7157669127655
 30
0.0
 10
74.19064644057225
 20
-126.7157669127655
 30
0.0
 10
74.19064644057225
 20
-126.7157669127655
 30
0.0
 10
75.19108891504884
 20
-125.4534927464146
 30
0.0
 10
75.19108891504884
 20
-125.4534927464146
 30
0.0
 10
75.19108891504884
 20
-125.4534927464146
 30
0.0
 10
75.19108891504884
 20
-125.4552213575252
 30
0.0
 10
75.19108891504884
 20
-125.4552213575252
 30
0.0
 10
75.19108891504884
 20
-125.4552213575252
 30
0.0
 10
83.00733899341746
 20
-125.4552213575252
 30
0.0
 10
83.00733899341746
 20
-125.4552213575252
 30
0.0
 10
83.00733899341746
 20
-125.4552213575252
 30
0.0
 10
82.93706566187696
 20
-125.4562444130803
 30
0.0
 10
82.93706566187696
 20
-125.4562444130803
 30
0.0
 10
83.62780453314363
 20
-125.4562444130803
 30
0.0
 10
84.18692201887936
 20
-126.0157499684961
 30
0.0
 10
84.18692201887936
 20
-126.7064888572122
 30
0.0
 10
84.18692201887936
 20
-126.7064888572122
 30
0.0
 10
83.18718509994032
 20
-126.7064888572122
 30
0.0
 10
83.18718509994032
 20
-126.7064888572122
 30
0.0
 10
83.18718509994032
 20
-126.7064888572122
 30
0.0
 10
83.18718509994032
 20
-135.9538174660116
 30
0.0
 10
83.18718509994032
 20
-135.9538174660116
 30
0.0
 10
83.18718509994032
 20
-135.9538174660116
 30
0.0
 10
87.89041831328417
 20
-135.9538174660116
 30
0.0
 10
87.89041831328417
 20
-135.9538174660116
 30
0.0
 10
87.89041831328417
 20
-135.9538174660116
 30
0.0
 10
88.19013830563769
 20
-136.2538549659367
 30
0.0
 10
88.19013830563769
 20
-136.2538549659367
 30
0.0
 10
88.19013830563769
 20
-136.2538549659367
 30
0.0
 10
88.49056385352874
 20
-135.9538174660116
 30
0.0
 10
88.49056385352874
 20
-135.9538174660116
 30
0.0
 10
88.49056385352874
 20
-135.9538174660116
 30
0.0
 10
93.19086901139175
 20
-135.9538174660116
 30
0.0
 10
93.19086901139175
 20
-135.9538174660116
 30
0.0
  0
ENDSEC
  0
SECTION
  2
OBJECTS
  0
DICTIONARY
  5
C
330
0
100
AcDbDictionary
281
     1
  3
ACAD_GROUP
350
D
  3
ACAD_LAYOUT
350
1A
  3
ACAD_MATERIAL
350
3B
  3
ACAD_MLEADERSTYLE
350
B7
  3
ACAD_MLINESTYLE
350
17
  3
ACAD_PLOTSETTINGS
350
19
  3
ACAD_PLOTSTYLENAME
350
E
  3
ACAD_TABLESTYLE
350
B6
  3
ACAD_VISUALSTYLE
350
2A
  0
SUN
  5
3F
330
29
100
AcDbSun
 90
        1
290
     0
 63
     7
421
 16777215
 40
1.0
291
     1
 91
  2455826
 92
 54000000
292
     0
 70
     2
 71
   256
280
     1
  0
DICTIONARY
  5
D
102
{ACAD_REACTORS
330
C
102
}
330
C
100
AcDbDictionary
281
     1
  0
DICTIONARY
  5
1A
102
{ACAD_REACTORS
330
C
102
}
330
C
100
AcDbDictionary
281
     1
  3
Layout1
350
1E
  3
Layout2
350
26
  3
Model
350
22
  0
DICTIONARY
  5
3B
102
{ACAD_REACTORS
330
C
102
}
330
C
100
AcDbDictionary
281
     1
  3
ByBlock
350
3D
  3
ByLayer
350
3C
  3
Global
350
3E
  0
DICTIONARY
  5
B7
102
{ACAD_REACTORS
330
C
102
}
330
C
100
AcDbDictionary
281
     1
  0
DICTIONARY
  5
17
102
{ACAD_REACTORS
330
C
102
}
330
C
100
AcDbDictionary
281
     1
  3
Standard
350
18
  0
DICTIONARY
  5
19
102
{ACAD_REACTORS
330
C
102
}
330
C
100
AcDbDictionary
281
     1
  0
ACDBDICTIONARYWDFLT
  5
E
102
{ACAD_REACTORS
330
C
102
}
330
C
100
AcDbDictionary
281
     1
  3
Normal
350
F
100
AcDbDictionaryWithDefault
340
F
  0
DICTIONARY
  5
B6
102
{ACAD_REACTORS
330
C
102
}
330
C
100
AcDbDictionary
281
     1
  0
DICTIONARY
  5
2A
102
{ACAD_REACTORS
330
C
102
}
330
C
100
AcDbDictionary
281
     1
  3
2dWireframe
350
2F
  3
3D Hidden
350
31
  3
3dWireframe
350
30
  3
Basic
350
32
  3
Brighten
350
36
  3
ColorChange
350
3A
  3
Conceptual
350
34
  3
Dim
350
35
  3
Facepattern
350
39
  3
Flat
350
2B
  3
FlatWithEdges
350
2C
  3
Gouraud
350
2D
  3
GouraudWithEdges
350
2E
  3
Linepattern
350
38
  3
Realistic
350
33
  3
Thicken
350
37
  0
LAYOUT
  5
1E
102
{ACAD_REACTORS
330
1A
102
}
330
1A
100
AcDbPlotSettings
  1

  2
none_device
  4

  6

 40
0.0
 41
0.0
 42
0.0
 43
0.0
 44
0.0
 45
0.0
 46
0.0
 47
0.0
 48
0.0
 49
0.0
140
0.0
141
0.0
142
1.0
143
1.0
 70
   688
 72
     0
 73
     0
 74
     5
  7

 75
    16
 76
     0
 77
     2
 78
   300
147
1.0
148
0.0
149
0.0
100
AcDbLayout
  1
Layout1
 70
     1
 71
     1
 10
0.0
 20
0.0
 11
12.0
 21
9.0
 12
0.0
 22
0.0
 32
0.0
 14
1.000000000000000E+20
 24
1.000000000000000E+20
 34
1.000000000000000E+20
 15
-1.000000000000000E+20
 25
-1.000000000000000E+20
 35
-1.000000000000000E+20
146
0.0
 13
0.0
 23
0.0
 33
0.0
 16
1.0
 26
0.0
 36
0.0
 17
0.0
 27
1.0
 37
0.0
 76
     0
330
1B
  0
LAYOUT
  5
26
102
{ACAD_REACTORS
330
1A
102
}
330
1A
100
AcDbPlotSettings
  1

  2
none_device
  4

  6

 40
0.0
 41
0.0
 42
0.0
 43
0.0
 44
0.0
 45
0.0
 46
0.0
 47
0.0
 48
0.0
 49
0.0
140
0.0
141
0.0
142
1.0
143
1.0
 70
   688
 72
     0
 73
     0
 74
     5
  7

 75
    16
 76
     0
 77
     2
 78
   300
147
1.0
148
0.0
149
0.0
100
AcDbLayout
  1
Layout2
 70
     1
 71
     2
 10
0.0
 20
0.0
 11
0.0
 21
0.0
 12
0.0
 22
0.0
 32
0.0
 14
0.0
 24
0.0
 34
0.0
 15
0.0
 25
0.0
 35
0.0
146
0.0
 13
0.0
 23
0.0
 33
0.0
 16
1.0
 26
0.0
 36
0.0
 17
0.0
 27
1.0
 37
0.0
 76
     0
330
23
  0
LAYOUT
  5
22
102
{ACAD_REACTORS
330
1A
102
}
330
1A
100
AcDbPlotSettings
  1

  2
none_device
  4

  6

 40
0.0
 41
0.0
 42
0.0
 43
0.0
 44
0.0
 45
0.0
 46
0.0
 47
0.0
 48
0.0
 49
0.0
140
0.0
141
0.0
142
1.0
143
1.0
 70
  1712
 72
     0
 73
     0
 74
     0
  7

 75
     0
 76
     0
 77
     2
 78
   300
147
1.0
148
0.0
149
0.0
100
AcDbLayout
  1
Model
 70
     1
 71
     0
 10
0.0
 20
0.0
 11
12.0
 21
9.0
 12
0.0
 22
0.0
 32
0.0
 14
1.000000000000000E+20
 24
1.000000000000000E+20
 34
1.000000000000000E+20
 15
-1.000000000000000E+20
 25
-1.000000000000000E+20
 35
-1.000000000000000E+20
146
0.0
 13
0.0
 23
0.0
 33
0.0
 16
1.0
 26
0.0
 36
0.0
 17
0.0
 27
1.0
 37
0.0
 76
     0
330
1F
331
29
  0
MATERIAL
  5
3D
102
{ACAD_REACTORS
330
3B
102
}
330
3B
100
AcDbMaterial
  1
ByBlock
 72
     1
 94
      127
  0
MATERIAL
  5
3C
102
{ACAD_REACTORS
330
3B
102
}
330
3B
100
AcDbMaterial
  1
ByLayer
 72
     1
 94
      127
  0
MATERIAL
  5
3E
102
{ACAD_REACTORS
330
3B
102
}
330
3B
100
AcDbMaterial
  1
Global
 72
     1
 94
      127
  0
MLINESTYLE
  5
18
102
{ACAD_REACTORS
330
17
102
}
330
17
100
AcDbMlineStyle
  2
Standard
 70
     0
  3

 62
   256
 51
90.0
 52
90.0
 71
     2
 49
0.5
 62
   256
  6
BYLAYER
 49
-0.5
 62
   256
  6
BYLAYER
  0
ACDBPLACEHOLDER
  5
F
102
{ACAD_REACTORS
330
E
102
}
330
E
  0
VISUALSTYLE
  5
2F
102
{ACAD_REACTORS
330
2A
102
}
330
2A
100
AcDbVisualStyle
  2
2dWireframe
 70
     4
177
     2
291
     0
 71
     0
176
     1
 72
     2
176
     1
 73
     0
176
     1
 90
        0
176
     1
 40
-0.6
176
     1
 41
-30.0
176
     1
 62
     5
 63
     7
421
 16777215
176
     1
 74
     1
176
     1
 91
        4
176
     1
 64
     7
176
     1
 65
   257
176
     1
 75
     1
176
     1
175
     1
176
     1
 42
1.0
176
     1
 92
        0
176
     1
 66
   257
176
     1
 43
1.0
176
     1
 76
     1
176
     1
 77
     6
176
     1
 78
     2
176
     1
 67
     7
176
     1
 79
     5
176
     1
170
     0
176
     1
171
     0
176
     1
290
     0
176
     1
 93
        1
176
     1
 44
0.0
176
     1
173
     0
176
     1
  0
VISUALSTYLE
  5
31
102
{ACAD_REACTORS
330
2A
102
}
330
2A
100
AcDbVisualStyle
  2
3D Hidden
 70
     6
177
     2
291
     0
 71
     1
176
     1
 72
     2
176
     1
 73
     2
176
     1
 90
        0
176
     1
 40
-0.6
176
     1
 41
-30.0
176
     1
 62
     5
 63
     7
421
 16777215
176
     1
 74
     2
176
     1
 91
        2
176
     1
 64
     7
176
     1
 65
   257
176
     1
 75
     2
176
     1
175
     1
176
     1
 42
40.0
176
     1
 92
        0
176
     1
 66
   257
176
     1
 43
1.0
176
     1
 76
     1
176
     1
 77
     6
176
     1
 78
     2
176
     1
 67
     7
176
     1
 79
     3
176
     1
170
     0
176
     1
171
     0
176
     1
290
     0
176
     1
 93
        1
176
     1
 44
0.0
176
     1
173
     0
176
     1
  0
VISUALSTYLE
  5
30
102
{ACAD_REACTORS
330
2A
102
}
330
2A
100
AcDbVisualStyle
  2
3dWireframe
 70
     5
177
     2
291
     0
 71
     0
176
     1
 72
     2
176
     1
 73
     0
176
     1
 90
        0
176
     1
 40
-0.6
176
     1
 41
-30.0
176
     1
 62
     5
 63
     7
421
 16777215
176
     1
 74
     1
176
     1
 91
        4
176
     1
 64
     7
176
     1
 65
   257
176
     1
 75
     1
176
     1
175
     1
176
     1
 42
1.0
176
     1
 92
        0
176
     1
 66
   257
176
     1
 43
1.0
176
     1
 76
     1
176
     1
 77
     6
176
     1
 78
     2
176
     1
 67
     7
176
     1
 79
     5
176
     1
170
     0
176
     1
171
     0
176
     1
290
     0
176
     1
 93
        1
176
     1
 44
0.0
176
     1
173
     0
176
     1
  0
VISUALSTYLE
  5
32
102
{ACAD_REACTORS
330
2A
102
}
330
2A
100
AcDbVisualStyle
  2
Basic
 70
     7
177
     2
291
     1
 71
     1
176
     1
 72
     0
176
     1
 73
     1
176
     1
 90
        0
176
     1
 40
-0.6
176
     1
 41
-30.0
176
     1
 62
     5
 63
     7
421
 16777215
176
     1
 74
     0
176
     1
 91
        4
176
     1
 64
     7
176
     1
 65
   257
176
     1
 75
     1
176
     1
175
     1
176
     1
 42
1.0
176
     1
 92
        8
176
     1
 66
     7
176
     1
 43
1.0
176
     1
 76
     1
176
     1
 77
     6
176
     1
 78
     2
176
     1
 67
     7
176
     1
 79
     5
176
     1
170
     0
176
     1
171
     0
176
     1
290
     0
176
     1
 93
        1
176
     1
 44
0.0
176
     1
173
     0
176
     1
  0
VISUALSTYLE
  5
36
102
{ACAD_REACTORS
330
2A
102
}
330
2A
100
AcDbVisualStyle
  2
Brighten
 70
    12
177
     2
291
     1
 71
     2
176
     1
 72
     2
176
     1
 73
     0
176
     1
 90
        0
176
     1
 40
-0.6
176
     1
 41
-30.0
176
     1
 62
     5
 63
     7
421
 16777215
176
     1
 74
     1
176
     1
 91
        4
176
     1
 64
     7
176
     1
 65
   257
176
     1
 75
     1
176
     1
175
     1
176
     1
 42
1.0
176
     1
 92
        8
176
     1
 66
     7
176
     1
 43
1.0
176
     1
 76
     1
176
     1
 77
     6
176
     1
 78
     2
176
     1
 67
     7
176
     1
 79
     5
176
     1
170
     0
176
     1
171
     0
176
     1
290
     0
176
     1
 93
        1
176
     1
 44
50.0
176
     1
173
     0
176
     1
  0
VISUALSTYLE
  5
3A
102
{ACAD_REACTORS
330
2A
102
}
330
2A
100
AcDbVisualStyle
  2
ColorChange
 70
    16
177
     2
291
     1
 71
     2
176
     1
 72
     2
176
     1
 73
     3
176
     1
 90
        0
176
     1
 40
-0.6
176
     1
 41
-30.0
176
     1
 62
     5
 63
     8
421
  8421504
176
     1
 74
     1
176
     1
 91
        4
176
     1
 64
     7
176
     1
 65
   257
176
     1
 75
     1
176
     1
175
     1
176
     1
 42
1.0
176
     1
 92
        8
176
     1
 66
     8
424
  8421504
176
     1
 43
1.0
176
     1
 76
     1
176
     1
 77
     6
176
     1
 78
     2
176
     1
 67
     7
176
     1
 79
     5
176
     1
170
     0
176
     1
171
     0
176
     1
290
     0
176
     1
 93
        1
176
     1
 44
0.0
176
     1
173
     0
176
     1
  0
VISUALSTYLE
  5
34
102
{ACAD_REACTORS
330
2A
102
}
330
2A
100
AcDbVisualStyle
  2
Conceptual
 70
     9
177
     2
291
     0
 71
     3
176
     1
 72
     2
176
     1
 73
     0
176
     1
 90
        0
176
     1
 40
-0.6
176
     1
 41
-30.0
176
     1
 62
     5
 63
     7
421
 16777215
176
     1
 74
     2
176
     1
 91
        2
176
     1
 64
     7
176
     1
 65
   257
176
     1
 75
     1
176
     1
175
     1
176
     1
 42
40.0
176
     1
 92
        8
176
     1
 66
     7
176
     1
 43
1.0
176
     1
 76
     1
176
     1
 77
     6
176
     1
 78
     2
176
     1
 67
     7
176
     1
 79
     3
176
     1
170
     0
176
     1
171
     0
176
     1
290
     0
176
     1
 93
        1
176
     1
 44
0.0
176
     1
173
     0
176
     1
  0
VISUALSTYLE
  5
35
102
{ACAD_REACTORS
330
2A
102
}
330
2A
100
AcDbVisualStyle
  2
Dim
 70
    11
177
     2
291
     1
 71
     2
176
     1
 72
     2
176
     1
 73
     0
176
     1
 90
        0
176
     1
 40
-0.6
176
     1
 41
-30.0
176
     1
 62
     5
 63
     7
421
 16777215
176
     1
 74
     1
176
     1
 91
        4
176
     1
 64
     7
176
     1
 65
   257
176
     1
 75
     1
176
     1
175
     1
176
     1
 42
1.0
176
     1
 92
        8
176
     1
 66
     7
176
     1
 43
1.0
176
     1
 76
     1
176
     1
 77
     6
176
     1
 78
     2
176
     1
 67
     7
176
     1
 79
     5
176
     1
170
     0
176
     1
171
     0
176
     1
290
     0
176
     1
 93
        1
176
     1
 44
-50.0
176
     1
173
     0
176
     1
  0
VISUALSTYLE
  5
39
102
{ACAD_REACTORS
330
2A
102
}
330
2A
100
AcDbVisualStyle
  2
Facepattern
 70
    15
177
     2
291
     1
 71
     2
176
     1
 72
     2
176
     1
 73
     0
176
     1
 90
        0
176
     1
 40
-0.6
176
     1
 41
-30.0
176
     1
 62
     5
 63
     7
421
 16777215
176
     1
 74
     1
176
     1
 91
        4
176
     1
 64
     7
176
     1
 65
   257
176
     1
 75
     1
176
     1
175
     1
176
     1
 42
1.0
176
     1
 92
        8
176
     1
 66
     7
176
     1
 43
1.0
176
     1
 76
     1
176
     1
 77
     6
176
     1
 78
     2
176
     1
 67
     7
176
     1
 79
     5
176
     1
170
     0
176
     1
171
     0
176
     1
290
     0
176
     1
 93
        1
176
     1
 44
0.0
176
     1
173
     0
176
     1
  0
VISUALSTYLE
  5
2B
102
{ACAD_REACTORS
330
2A
102
}
330
2A
100
AcDbVisualStyle
  2
Flat
 70
     0
177
     2
291
     1
 71
     2
176
     1
 72
     1
176
     1
 73
     1
176
     1
 90
        2
176
     1
 40
-0.6
176
     1
 41
30.0
176
     1
 62
     5
 63
     7
421
 16777215
176
     1
 74
     0
176
     1
 91
        4
176
     1
 64
     7
176
     1
 65
   257
176
     1
 75
     1
176
     1
175
     1
176
     1
 42
1.0
176
     1
 92
        8
176
     1
 66
     7
176
     1
 43
1.0
176
     1
 76
     1
176
     1
 77
     6
176
     1
 78
     2
176
     1
 67
     7
176
     1
 79
     5
176
     1
170
     0
176
     1
171
     0
176
     1
290
     0
176
     1
 93
       13
176
     1
 44
0.0
176
     1
173
     0
176
     1
  0
VISUALSTYLE
  5
2C
102
{ACAD_REACTORS
330
2A
102
}
330
2A
100
AcDbVisualStyle
  2
FlatWithEdges
 70
     1
177
     2
291
     1
 71
     2
176
     1
 72
     1
176
     1
 73
     1
176
     1
 90
        2
176
     1
 40
-0.6
176
     1
 41
30.0
176
     1
 62
     5
 63
     7
421
 16777215
176
     1
 74
     1
176
     1
 91
        4
176
     1
 64
     7
176
     1
 65
   257
176
     1
 75
     1
176
     1
175
     1
176
     1
 42
1.0
176
     1
 92
        0
176
     1
 66
   257
176
     1
 43
1.0
176
     1
 76
     1
176
     1
 77
     6
176
     1
 78
     2
176
     1
 67
     7
176
     1
 79
     5
176
     1
170
     0
176
     1
171
     0
176
     1
290
     0
176
     1
 93
       13
176
     1
 44
0.0
176
     1
173
     0
176
     1
  0
VISUALSTYLE
  5
2D
102
{ACAD_REACTORS
330
2A
102
}
330
2A
100
AcDbVisualStyle
  2
Gouraud
 70
     2
177
     2
291
     1
 71
     2
176
     1
 72
     2
176
     1
 73
     1
176
     1
 90
        2
176
     1
 40
-0.6
176
     1
 41
30.0
176
     1
 62
     5
 63
     7
421
 16777215
176
     1
 74
     0
176
     1
 91
        4
176
     1
 64
     7
176
     1
 65
   257
176
     1
 75
     1
176
     1
175
     1
176
     1
 42
1.0
176
     1
 92
        0
176
     1
 66
     7
176
     1
 43
1.0
176
     1
 76
     1
176
     1
 77
     6
176
     1
 78
     2
176
     1
 67
     7
176
     1
 79
     5
176
     1
170
     0
176
     1
171
     0
176
     1
290
     0
176
     1
 93
       13
176
     1
 44
0.0
176
     1
173
     0
176
     1
  0
VISUALSTYLE
  5
2E
102
{ACAD_REACTORS
330
2A
102
}
330
2A
100
AcDbVisualStyle
  2
GouraudWithEdges
 70
     3
177
     2
291
     1
 71
     2
176
     1
 72
     2
176
     1
 73
     1
176
     1
 90
        2
176
     1
 40
-0.6
176
     1
 41
30.0
176
     1
 62
     5
 63
     7
421
 16777215
176
     1
 74
     1
176
     1
 91
        4
176
     1
 64
     7
176
     1
 65
   257
176
     1
 75
     1
176
     1
175
     1
176
     1
 42
1.0
176
     1
 92
        0
176
     1
 66
   257
176
     1
 43
1.0
176
     1
 76
     1
176
     1
 77
     6
176
     1
 78
     2
176
     1
 67
     7
176
     1
 79
     5
176
     1
170
     0
176
     1
171
     0
176
     1
290
     0
176
     1
 93
       13
176
     1
 44
0.0
176
     1
173
     0
176
     1
  0
VISUALSTYLE
  5
38
102
{ACAD_REACTORS
330
2A
102
}
330
2A
100
AcDbVisualStyle
  2
Linepattern
 70
    14
177
     2
291
     1
 71
     2
176
     1
 72
     2
176
     1
 73
     0
176
     1
 90
        0
176
     1
 40
-0.6
176
     1
 41
-30.0
176
     1
 62
     5
 63
     7
421
 16777215
176
     1
 74
     1
176
     1
 91
        4
176
     1
 64
     7
176
     1
 65
   257
176
     1
 75
     7
176
     1
175
     7
176
     1
 42
1.0
176
     1
 92
        8
176
     1
 66
     7
176
     1
 43
1.0
176
     1
 76
     1
176
     1
 77
     6
176
     1
 78
     2
176
     1
 67
     7
176
     1
 79
     5
176
     1
170
     0
176
     1
171
     0
176
     1
290
     0
176
     1
 93
        1
176
     1
 44
0.0
176
     1
173
     0
176
     1
  0
VISUALSTYLE
  5
33
102
{ACAD_REACTORS
330
2A
102
}
330
2A
100
AcDbVisualStyle
  2
Realistic
 70
     8
177
     2
291
     0
 71
     2
176
     1
 72
     2
176
     1
 73
     0
176
     1
 90
        0
176
     1
 40
-0.6
176
     1
 41
-30.0
176
     1
 62
     5
 63
     7
421
 16777215
176
     1
 74
     1
176
     1
 91
        0
176
     1
 64
     7
176
     1
 65
   257
176
     1
 75
     1
176
     1
175
     1
176
     1
 42
1.0
176
     1
 92
        8
176
     1
 66
     8
424
  7895160
176
     1
 43
1.0
176
     1
 76
     1
176
     1
 77
     6
176
     1
 78
     2
176
     1
 67
     7
176
     1
 79
     5
176
     1
170
     0
176
     1
171
     0
176
     1
290
     0
176
     1
 93
       13
176
     1
 44
0.0
176
     1
173
     0
176
     1
  0
VISUALSTYLE
  5
37
102
{ACAD_REACTORS
330
2A
102
}
330
2A
100
AcDbVisualStyle
  2
Thicken
 70
    13
177
     2
291
     1
 71
     2
176
     1
 72
     2
176
     1
 73
     0
176
     1
 90
        0
176
     1
 40
-0.6
176
     1
 41
-30.0
176
     1
 62
     5
 63
     7
421
 16777215
176
     1
 74
     1
176
     1
 91
        4
176
     1
 64
     7
176
     1
 65
   257
176
     1
 75
     1
176
     1
175
     1
176
     1
 42
1.0
176
     1
 92
       12
176
     1
 66
     7
176
     1
 43
1.0
176
     1
 76
     1
176
     1
 77
     6
176
     1
 78
     2
176
     1
 67
     7
176
     1
 79
     5
176
     1
170
     0
176
     1
171
     0
176
     1
290
     0
176
     1
 93
        1
176
     1
 44
0.0
176
     1
173
     0
176
     1
  0
ENDSEC
  0
EOF
