  0
SECTION
  2
HEADER
  9
$ACADVER
  1
AC1024
  9
$ACADMAINTVER
 70
     6
  9
$DWGCODEPAGE
  3
UNDEFINED
  9
$INSBASE
 10
0.0
 20
0.0
 30
0.0
  9
$EXTMIN
 10
1.000000000000000E+20
 20
1.000000000000000E+20
 30
1.000000000000000E+20
  9
$EXTMAX
 10
-1.000000000000000E+20
 20
-1.000000000000000E+20
 30
-1.000000000000000E+20
  9
$LIMMIN
 10
0.0
 20
0.0
  9
$LIMMAX
 10
12.0
 20
9.0
  9
$ORTHOMODE
 70
     0
  9
$REGENMODE
 70
     1
  9
$FILLMODE
 70
     1
  9
$QTEXTMODE
 70
     0
  9
$MIRRTEXT
 70
     1
  9
$LTSCALE
 40
1.0
  9
$ATTMODE
 70
     1
  9
$TEXTSIZE
 40
0.2
  9
$TRACEWID
 40
0.05
  9
$TEXTSTYLE
  7
Standard
  9
$CLAYER
  8
0
  9
$CELTYPE
  6
ByLayer
  9
$CECOLOR
 62
   256
  9
$CELTSCALE
 40
1.0
  9
$DISPSILH
 70
     0
  9
$DIMSCALE
 40
1.0
  9
$DIMASZ
 40
0.18
  9
$DIMEXO
 40
0.0625
  9
$DIMDLI
 40
0.38
  9
$DIMRND
 40
0.0
  9
$DIMDLE
 40
0.0
  9
$DIMEXE
 40
0.18
  9
$DIMTP
 40
0.0
  9
$DIMTM
 40
0.0
  9
$DIMTXT
 40
0.18
  9
$DIMCEN
 40
0.09
  9
$DIMTSZ
 40
0.0
  9
$DIMTOL
 70
     0
  9
$DIMLIM
 70
     0
  9
$DIMTIH
 70
     1
  9
$DIMTOH
 70
     1
  9
$DIMSE1
 70
     0
  9
$DIMSE2
 70
     0
  9
$DIMTAD
 70
     0
  9
$DIMZIN
 70
     0
  9
$DIMBLK
  1

  9
$DIMASO
 70
     1
  9
$DIMSHO
 70
     1
  9
$DIMPOST
  1

  9
$DIMAPOST
  1

  9
$DIMALT
 70
     0
  9
$DIMALTD
 70
     2
  9
$DIMALTF
 40
25.4
  9
$DIMLFAC
 40
1.0
  9
$DIMTOFL
 70
     0
  9
$DIMTVP
 40
0.0
  9
$DIMTIX
 70
     0
  9
$DIMSOXD
 70
     0
  9
$DIMSAH
 70
     0
  9
$DIMBLK1
  1

  9
$DIMBLK2
  1

  9
$DIMSTYLE
  2
Standard
  9
$DIMCLRD
 70
     0
  9
$DIMCLRE
 70
     0
  9
$DIMCLRT
 70
     0
  9
$DIMTFAC
 40
1.0
  9
$DIMGAP
 40
0.09
  9
$DIMJUST
 70
     0
  9
$DIMSD1
 70
     0
  9
$DIMSD2
 70
     0
  9
$DIMTOLJ
 70
     1
  9
$DIMTZIN
 70
     0
  9
$DIMALTZ
 70
     0
  9
$DIMALTTZ
 70
     0
  9
$DIMUPT
 70
     0
  9
$DIMDEC
 70
     4
  9
$DIMTDEC
 70
     4
  9
$DIMALTU
 70
     2
  9
$DIMALTTD
 70
     2
  9
$DIMTXSTY
  7
Standard
  9
$DIMAUNIT
 70
     0
  9
$DIMADEC
 70
     0
  9
$DIMALTRND
 40
0.0
  9
$DIMAZIN
 70
     0
  9
$DIMDSEP
 70
    46
  9
$DIMATFIT
 70
     3
  9
$DIMFRAC
 70
     0
  9
$DIMLDRBLK
  1

  9
$DIMLUNIT
 70
     2
  9
$DIMLWD
 70
    -2
  9
$DIMLWE
 70
    -2
  9
$DIMTMOVE
 70
     0
  9
$DIMFXL
 40
1.0
  9
$DIMFXLON
 70
     0
  9
$DIMJOGANG
 40
0.7853981633974483
  9
$DIMTFILL
 70
     0
  9
$DIMTFILLCLR
 70
     0
  9
$DIMARCSYM
 70
     0
  9
$DIMLTYPE
  6

  9
$DIMLTEX1
  6

  9
$DIMLTEX2
  6

  9
$DIMTXTDIRECTION
 70
     0
  9
$LUNITS
 70
     2
  9
$LUPREC
 70
     4
  9
$SKETCHINC
 40
0.1
  9
$FILLETRAD
 40
0.5
  9
$AUNITS
 70
     0
  9
$AUPREC
 70
     0
  9
$MENU
  1
.
  9
$ELEVATION
 40
0.0
  9
$PELEVATION
 40
0.0
  9
$THICKNESS
 40
0.0
  9
$LIMCHECK
 70
     0
  9
$CHAMFERA
 40
0.5
  9
$CHAMFERB
 40
0.5
  9
$CHAMFERC
 40
1.0
  9
$CHAMFERD
 40
0.0
  9
$SKPOLY
 70
     0
  9
$TDCREATE
 40
2457917.593310185
  9
$TDUCREATE
 40
2457917.218310185
  9
$TDUPDATE
 40
2457917.593310185
  9
$TDUUPDATE
 40
2457917.218310185
  9
$TDINDWG
 40
0.0000000116
  9
$TDUSRTIMER
 40
0.0000000116
  9
$USRTIMER
 70
     1
  9
$ANGBASE
 50
0.0
  9
$ANGDIR
 70
     0
  9
$PDMODE
 70
     0
  9
$PDSIZE
 40
0.0
  9
$PLINEWID
 40
0.0
  9
$SPLFRAME
 70
     0
  9
$SPLINETYPE
 70
     6
  9
$SPLINESEGS
 70
     8
  9
$HANDSEED
  5
AE
  9
$SURFTAB1
 70
     6
  9
$SURFTAB2
 70
     6
  9
$SURFTYPE
 70
     6
  9
$SURFU
 70
     6
  9
$SURFV
 70
     6
  9
$UCSBASE
  2

  9
$UCSNAME
  2

  9
$UCSORG
 10
0.0
 20
0.0
 30
0.0
  9
$UCSXDIR
 10
1.0
 20
0.0
 30
0.0
  9
$UCSYDIR
 10
0.0
 20
1.0
 30
0.0
  9
$UCSORTHOREF
  2

  9
$UCSORTHOVIEW
 70
     0
  9
$UCSORGTOP
 10
0.0
 20
0.0
 30
0.0
  9
$UCSORGBOTTOM
 10
0.0
 20
0.0
 30
0.0
  9
$UCSORGLEFT
 10
0.0
 20
0.0
 30
0.0
  9
$UCSORGRIGHT
 10
0.0
 20
0.0
 30
0.0
  9
$UCSORGFRONT
 10
0.0
 20
0.0
 30
0.0
  9
$UCSORGBACK
 10
0.0
 20
0.0
 30
0.0
  9
$PUCSBASE
  2

  9
$PUCSNAME
  2

  9
$PUCSORG
 10
0.0
 20
0.0
 30
0.0
  9
$PUCSXDIR
 10
1.0
 20
0.0
 30
0.0
  9
$PUCSYDIR
 10
0.0
 20
1.0
 30
0.0
  9
$PUCSORTHOREF
  2

  9
$PUCSORTHOVIEW
 70
     0
  9
$PUCSORGTOP
 10
0.0
 20
0.0
 30
0.0
  9
$PUCSORGBOTTOM
 10
0.0
 20
0.0
 30
0.0
  9
$PUCSORGLEFT
 10
0.0
 20
0.0
 30
0.0
  9
$PUCSORGRIGHT
 10
0.0
 20
0.0
 30
0.0
  9
$PUCSORGFRONT
 10
0.0
 20
0.0
 30
0.0
  9
$PUCSORGBACK
 10
0.0
 20
0.0
 30
0.0
  9
$USERI1
 70
     0
  9
$USERI2
 70
     0
  9
$USERI3
 70
     0
  9
$USERI4
 70
     0
  9
$USERI5
 70
     0
  9
$USERR1
 40
0.0
  9
$USERR2
 40
0.0
  9
$USERR3
 40
0.0
  9
$USERR4
 40
0.0
  9
$USERR5
 40
0.0
  9
$WORLDVIEW
 70
     1
  9
$SHADEDGE
 70
     3
  9
$SHADEDIF
 70
    70
  9
$TILEMODE
 70
     1
  9
$MAXACTVP
 70
    64
  9
$PINSBASE
 10
0.0
 20
0.0
 30
0.0
  9
$PLIMCHECK
 70
     0
  9
$PEXTMIN
 10
1.000000000000000E+20
 20
1.000000000000000E+20
 30
1.000000000000000E+20
  9
$PEXTMAX
 10
-1.000000000000000E+20
 20
-1.000000000000000E+20
 30
-1.000000000000000E+20
  9
$PLIMMIN
 10
0.0
 20
0.0
  9
$PLIMMAX
 10
12.0
 20
9.0
  9
$UNITMODE
 70
     0
  9
$VISRETAIN
 70
     1
  9
$PLINEGEN
 70
     0
  9
$PSLTSCALE
 70
     1
  9
$TREEDEPTH
 70
  3020
  9
$CMLSTYLE
  2
Standard
  9
$CMLJUST
 70
     0
  9
$CMLSCALE
 40
1.0
  9
$PROXYGRAPHICS
 70
     1
  9
$MEASUREMENT
 70
     0
  9
$CELWEIGHT
370
    -1
  9
$ENDCAPS
280
     0
  9
$JOINSTYLE
280
     0
  9
$LWDISPLAY
290
     1
  9
$INSUNITS
 70
     1
  9
$HYPERLINKBASE
  1

  9
$STYLESHEET
  1

  9
$XEDIT
290
     1
  9
$CEPSNTYPE
380
     0
  9
$PSTYLEMODE
290
     1
  9
$FINGERPRINTGUID
  2
{FCEFB2D1-9A61-EE46-D0D6-6807FD7D88F6}
  9
$VERSIONGUID
  2
{FAEB1C32-E019-11D5-929B-00C0DF256EC4}
  9
$EXTNAMES
290
     1
  9
$PSVPSCALE
 40
0.0
  9
$OLESTARTUP
290
     0
  9
$SORTENTS
280
   127
  9
$INDEXCTL
280
     0
  9
$HIDETEXT
280
     1
  9
$XCLIPFRAME
280
     2
  9
$HALOGAP
280
     0
  9
$OBSCOLOR
 70
   257
  9
$OBSLTYPE
280
     0
  9
$INTERSECTIONDISPLAY
280
     0
  9
$INTERSECTIONCOLOR
 70
   257
  9
$DIMASSOC
280
     2
  9
$PROJECTNAME
  1

  9
$CAMERADISPLAY
290
     0
  9
$LENSLENGTH
 40
50.0
  9
$CAMERAHEIGHT
 40
0.0
  9
$STEPSPERSEC
 40
2.0
  9
$STEPSIZE
 40
6.0
  9
$3DDWFPREC
 40
2.0
  9
$PSOLWIDTH
 40
0.25
  9
$PSOLHEIGHT
 40
4.0
  9
$LOFTANG1
 40
1.570796326794897
  9
$LOFTANG2
 40
1.570796326794897
  9
$LOFTMAG1
 40
0.0
  9
$LOFTMAG2
 40
0.0
  9
$LOFTPARAM
 70
     7
  9
$LOFTNORMALS
280
     1
  9
$LATITUDE
 40
37.795
  9
$LONGITUDE
 40
-122.394
  9
$NORTHDIRECTION
 40
0.0
  9
$TIMEZONE
 70
 -8000
  9
$LIGHTGLYPHDISPLAY
280
     1
  9
$TILEMODELIGHTSYNCH
280
     1
  9
$CMATERIAL
347
3C
  9
$SOLIDHIST
280
     1
  9
$SHOWHIST
280
     1
  9
$DWFFRAME
280
     2
  9
$DGNFRAME
280
     2
  9
$REALWORLDSCALE
290
     1
  9
$INTERFERECOLOR
 62
   256
  9
$CSHADOW
280
     0
  9
$SHADOWPLANELOCATION
 40
0.0
  0
ENDSEC
  0
SECTION
  2
CLASSES
  0
CLASS
  1
ACDBDICTIONARYWDFLT
  2
AcDbDictionaryWithDefault
  3
ObjectDBX Classes
 90
        0
 91
        4
280
     0
281
     0
  0
CLASS
  1
VISUALSTYLE
  2
AcDbVisualStyle
  3
ObjectDBX Classes
 90
     4095
 91
        4
280
     0
281
     0
  0
CLASS
  1
MATERIAL
  2
AcDbMaterial
  3
ObjectDBX Classes
 90
     1153
 91
        4
280
     0
281
     0
  0
CLASS
  1
SUN
  2
AcDbSun
  3
SCENEOE
 90
     1024
 91
        4
280
     0
281
     0
  0
ENDSEC
  0
SECTION
  2
TABLES
  0
TABLE
  2
VPORT
  5
8
330
0
100
AcDbSymbolTable
 70
     1
  0
VPORT
  5
29
330
8
100
AcDbSymbolTableRecord
100
AcDbViewportTableRecord
  2
*Active
 70
     0
 10
0.0
 20
0.0
 11
1.0
 21
1.0
 12
0.0
 22
0.0
 13
0.0
 23
0.0
 14
0.5
 24
0.5
 15
0.5
 25
0.5
 16
0.0
 26
0.0
 36
1.0
 17
91.00082462281999
 27
-128.4993055234307
 37
0.0
 40
256.9986110468615
 41
0.7081814508812795
 42
50.0
 43
0.0
 44
0.0
 50
0.0
 51
0.0
 71
     0
 72
   100
 73
     1
 74
     3
 75
     0
 76
     0
 77
     0
 78
     0
281
     0
 65
     1
110
0.0
120
0.0
130
0.0
111
1.0
121
0.0
131
0.0
112
0.0
122
1.0
132
0.0
 79
     0
146
0.0
 60
     3
 61
     5
292
     1
282
     1
141
0.0
142
0.0
 63
   250
361
3F
  0
ENDTAB
  0
TABLE
  2
LTYPE
  5
5
330
0
100
AcDbSymbolTable
 70
     1
  0
LTYPE
  5
14
330
5
100
AcDbSymbolTableRecord
100
AcDbLinetypeTableRecord
  2
ByBlock
 70
     0
  3

 72
    65
 73
     0
 40
0.0
  0
LTYPE
  5
15
330
5
100
AcDbSymbolTableRecord
100
AcDbLinetypeTableRecord
  2
ByLayer
 70
     0
  3

 72
    65
 73
     0
 40
0.0
  0
LTYPE
  5
16
330
5
100
AcDbSymbolTableRecord
100
AcDbLinetypeTableRecord
  2
Continuous
 70
     0
  3
Solid line
 72
    65
 73
     0
 40
0.0
  0
ENDTAB
  0
TABLE
  2
LAYER
  5
2
330
0
100
AcDbSymbolTable
 70
     2
  0
LAYER
  5
10
330
2
100
AcDbSymbolTableRecord
100
AcDbLayerTableRecord
  2
0
 70
     0
 62
     7
  6
Continuous
370
    -3
390
F
347
3E
  0
LAYER
  5
40
330
2
100
AcDbSymbolTableRecord
100
AcDbLayerTableRecord
  2
_U+30EC_U+30A4_U+30E4_U+30FC 1
 70
     0
 62
     7
  6
Continuous
370
    -3
390
F
347
3E
  0
ENDTAB
  0
TABLE
  2
STYLE
  5
3
330
0
100
AcDbSymbolTable
 70
     1
  0
STYLE
  5
11
330
3
100
AcDbSymbolTableRecord
100
AcDbTextStyleTableRecord
  2
Standard
 70
     0
 40
0.0
 41
1.0
 50
0.0
 71
     0
 42
0.2
  3
txt
  4

  0
ENDTAB
  0
TABLE
  2
VIEW
  5
6
330
0
100
AcDbSymbolTable
 70
     0
  0
ENDTAB
  0
TABLE
  2
UCS
  5
7
330
0
100
AcDbSymbolTable
 70
     0
  0
ENDTAB
  0
TABLE
  2
APPID
  5
9
330
0
100
AcDbSymbolTable
 70
     1
  0
APPID
  5
12
330
9
100
AcDbSymbolTableRecord
100
AcDbRegAppTableRecord
  2
ACAD
 70
     0
  0
ENDTAB
  0
TABLE
  2
DIMSTYLE
  5
A
330
0
100
AcDbSymbolTable
 70
     1
100
AcDbDimStyleTable
  0
DIMSTYLE
105
27
330
A
100
AcDbSymbolTableRecord
100
AcDbDimStyleTableRecord
  2
Standard
 70
     0
178
     0
340
11
  0
ENDTAB
  0
TABLE
  2
BLOCK_RECORD
  5
1
330
0
100
AcDbSymbolTable
 70
     7
  0
BLOCK_RECORD
  5
1F
330
1
100
AcDbSymbolTableRecord
100
AcDbBlockTableRecord
  2
*Model_Space
340
22
 70
     0
280
     1
281
     0
  0
BLOCK_RECORD
  5
1B
330
1
100
AcDbSymbolTableRecord
100
AcDbBlockTableRecord
  2
*Paper_Space
340
1E
 70
     0
280
     1
281
     0
  0
BLOCK_RECORD
  5
23
330
1
100
AcDbSymbolTableRecord
100
AcDbBlockTableRecord
  2
*Paper_Space0
340
26
 70
     0
280
     1
281
     0
  0
BLOCK_RECORD
  5
64
330
1
100
AcDbSymbolTableRecord
100
AcDbBlockTableRecord
  2
block 2
340
0
102
{BLKREFS
331
65
102
}
 70
     0
280
     1
281
     0
  0
BLOCK_RECORD
  5
6C
330
1
100
AcDbSymbolTableRecord
100
AcDbBlockTableRecord
  2
block 3
340
0
102
{BLKREFS
331
6D
102
}
 70
     0
280
     1
281
     0
  0
BLOCK_RECORD
  5
75
330
1
100
AcDbSymbolTableRecord
100
AcDbBlockTableRecord
  2
block 4
340
0
102
{BLKREFS
331
76
102
}
 70
     0
280
     1
281
     0
  0
BLOCK_RECORD
  5
92
330
1
100
AcDbSymbolTableRecord
100
AcDbBlockTableRecord
  2
block 5
340
0
102
{BLKREFS
331
93
102
}
 70
     0
280
     1
281
     0
  0
BLOCK_RECORD
  5
99
330
1
100
AcDbSymbolTableRecord
100
AcDbBlockTableRecord
  2
block 6
340
0
102
{BLKREFS
331
9A
102
}
 70
     0
280
     1
281
     0
  0
BLOCK_RECORD
  5
A5
330
1
100
AcDbSymbolTableRecord
100
AcDbBlockTableRecord
  2
block 7
340
0
102
{BLKREFS
331
A6
102
}
 70
     0
280
     1
281
     0
  0
ENDTAB
  0
ENDSEC
  0
SECTION
  2
BLOCKS
  0
BLOCK
  5
20
330
1F
100
AcDbEntity
  8
0
100
AcDbBlockBegin
  2
*Model_Space
 70
     0
 10
0.0
 20
0.0
 30
0.0
  3
*Model_Space
  1

  0
ENDBLK
  5
21
330
1F
100
AcDbEntity
  8
0
100
AcDbBlockEnd
  0
BLOCK
  5
1C
330
1B
100
AcDbEntity
 67
     1
  8
0
100
AcDbBlockBegin
  2
*Paper_Space
 70
     0
 10
0.0
 20
0.0
 30
0.0
  3
*Paper_Space
  1

  0
ENDBLK
  5
1D
330
1B
100
AcDbEntity
 67
     1
  8
0
100
AcDbBlockEnd
  0
BLOCK
  5
24
330
23
100
AcDbEntity
  8
0
100
AcDbBlockBegin
  2
*Paper_Space0
 70
     0
 10
0.0
 20
0.0
 30
0.0
  3
*Paper_Space0
  1

  0
ENDBLK
  5
25
330
23
100
AcDbEntity
  8
0
100
AcDbBlockEnd
  0
BLOCK
  5
66
330
64
100
AcDbEntity
  8
0
100
AcDbBlockBegin
  2
block 2
 70
     0
 10
0.0
 20
0.0
 30
0.0
  3
block 2
  1

  0
SPLINE
  5
68
330
64
100
AcDbEntity
  8
_U+30EC_U+30A4_U+30E4_U+30FC 1
370
     0
100
AcDbSpline
210
0.0
220
0.0
230
1.0
 70
    11
 71
     3
 72
    29
 73
    25
 74
     0
 42
0.0000000001
 43
0.0000000001
 12
1.0
 22
0.0
 32
0.0
 13
1.0
 23
0.0
 33
0.0
 40
0.0
 40
0.0
 40
0.0
 40
0.0
 40
1.0
 40
1.0
 40
1.0
 40
2.0
 40
2.0
 40
2.0
 40
3.0
 40
3.0
 40
3.0
 40
4.0
 40
4.0
 40
4.0
 40
5.0
 40
5.0
 40
5.0
 40
6.0
 40
6.0
 40
6.0
 40
7.0
 40
7.0
 40
7.0
 40
8.0
 40
8.0
 40
8.0
 40
8.0
 10
88.30796031863483
 20
-123.6825452707287
 30
0.0
 10
88.04130992807649
 20
-123.6825452707287
 30
0.0
 10
87.78740639081357
 20
-123.5450859608672
 30
0.0
 10
87.78740639081357
 20
-123.1960977882114
 30
0.0
 10
87.78740639081357
 20
-122.9401271936573
 30
0.0
 10
87.92934432480587
 20
-122.8450425582644
 30
0.0
 10
88.03510875620303
 20
-122.783719858627
 30
0.0
 10
87.91039629963699
 20
-122.7244642162807
 30
0.0
 10
87.83425968941296
 20
-122.6100870461704
 30
0.0
 10
87.83425968941296
 20
-122.4492010870092
 30
0.0
 10
87.83425968941296
 20
-122.1742824672863
 30
0.0
 10
88.03304169891189
 20
-122.038890214716
 30
0.0
 10
88.30796031863483
 20
-122.038890214716
 30
0.0
 10
88.59149167707088
 20
-122.038890214716
 30
0.0
 10
88.78200545740519
 20
-122.1828952059994
 30
0.0
 10
88.78200545740519
 20
-122.4492010870092
 30
0.0
 10
88.78200545740519
 20
-122.6100870461704
 30
0.0
 10
88.7034572803415
 20
-122.7244642162807
 30
0.0
 10
88.57874482377545
 20
-122.783719858627
 30
0.0
 10
88.6676282872949
 20
-122.8343627622602
 30
0.0
 10
88.82644718916492
 20
-122.9294473976531
 30
0.0
 10
88.82644718916492
 20
-123.1919636736291
 30
0.0
 10
88.82644718916492
 20
-123.5664455528757
 30
0.0
 10
88.54704994531116
 20
-123.6825452707287
 30
0.0
 10
88.30796031863483
 20
-123.6825452707287
 30
0.0
  0
SPLINE
  5
69
330
64
100
AcDbEntity
  8
_U+30EC_U+30A4_U+30E4_U+30FC 1
370
     0
100
AcDbSpline
210
0.0
220
0.0
230
1.0
 70
    11
 71
     3
 72
    17
 73
    13
 74
     0
 42
0.0000000001
 43
0.0000000001
 12
1.0
 22
0.0
 32
0.0
 13
1.0
 23
0.0
 33
0.0
 40
0.0
 40
0.0
 40
0.0
 40
0.0
 40
1.0
 40
1.0
 40
1.0
 40
2.0
 40
2.0
 40
2.0
 40
3.0
 40
3.0
 40
3.0
 40
4.0
 40
4.0
 40
4.0
 40
4.0
 10
88.30796031863483
 20
-122.8915513473153
 30
0.0
 10
88.1642998368999
 20
-122.8915513473153
 30
0.0
 10
88.01168210690334
 20
-122.9783677535436
 30
0.0
 10
88.01168210690334
 20
-123.1812838776248
 30
0.0
 10
88.01168210690334
 20
-123.3866115685457
 30
0.0
 10
88.13880613030905
 20
-123.4878973758121
 30
0.0
 10
88.30796031863483
 20
-123.4878973758121
 30
0.0
 10
88.49399547483831
 20
-123.4878973758121
 30
0.0
 10
88.6042385303663
 20
-123.3652519765372
 30
0.0
 10
88.6042385303663
 20
-123.1874850494983
 30
0.0
 10
88.6042385303663
 20
-122.9656209002482
 30
0.0
 10
88.44128551391398
 20
-122.8915513473153
 30
0.0
 10
88.30796031863483
 20
-122.8915513473153
 30
0.0
  0
SPLINE
  5
6A
330
64
100
AcDbEntity
  8
_U+30EC_U+30A4_U+30E4_U+30FC 1
370
     0
100
AcDbSpline
210
0.0
220
0.0
230
1.0
 70
    11
 71
     3
 72
    17
 73
    13
 74
     0
 42
0.0000000001
 43
0.0000000001
 12
1.0
 22
0.0
 32
0.0
 13
1.0
 23
0.0
 33
0.0
 40
0.0
 40
0.0
 40
0.0
 40
0.0
 40
1.0
 40
1.0
 40
1.0
 40
2.0
 40
2.0
 40
2.0
 40
3.0
 40
3.0
 40
3.0
 40
4.0
 40
4.0
 40
4.0
 40
4.0
 10
88.30796031863483
 20
-122.2314710523414
 30
0.0
 10
88.14294024489135
 20
-122.2314710523414
 30
0.0
 10
88.05819089595421
 20
-122.3265556877343
 30
0.0
 10
88.05819089595421
 20
-122.4619479403047
 30
0.0
 10
88.05819089595421
 20
-122.5845933395796
 30
0.0
 10
88.13019339159592
 20
-122.7031046242721
 30
0.0
 10
88.30796031863483
 20
-122.7031046242721
 30
0.0
 10
88.48572724567371
 20
-122.7031046242721
 30
0.0
 10
88.55772974131543
 20
-122.5845933395796
 30
0.0
 10
88.55772974131543
 20
-122.4619479403047
 30
0.0
 10
88.55772974131543
 20
-122.3265556877343
 30
0.0
 10
88.47091333508713
 20
-122.2314710523414
 30
0.0
 10
88.30796031863483
 20
-122.2314710523414
 30
0.0
  0
HATCH
  5
6B
330
64
100
AcDbEntity
  8
_U+30EC_U+30A4_U+30E4_U+30FC 1
 62
     7
420
 16777215
100
AcDbHatch
 10
0.0
 20
0.0
 30
0.0
210
0.0
220
0.0
230
1.0
  2
SOLID
 70
     1
 71
     0
 91
        3
 92
        1
 93
        1
 72
     4
 94
        3
 73
     0
 74
     1
 95
       29
 96
       25
 40
0.0
 40
0.0
 40
0.0
 40
0.0
 40
1.0
 40
1.0
 40
1.0
 40
2.0
 40
2.0
 40
2.0
 40
3.0
 40
3.0
 40
3.0
 40
4.0
 40
4.0
 40
4.0
 40
5.0
 40
5.0
 40
5.0
 40
6.0
 40
6.0
 40
6.0
 40
7.0
 40
7.0
 40
7.0
 40
8.0
 40
8.0
 40
8.0
 40
8.0
 10
88.30796031863483
 20
-123.6825452707287
 10
88.04130992807649
 20
-123.6825452707287
 10
87.78740639081357
 20
-123.5450859608672
 10
87.78740639081357
 20
-123.1960977882114
 10
87.78740639081357
 20
-122.9401271936573
 10
87.92934432480587
 20
-122.8450425582644
 10
88.03510875620303
 20
-122.783719858627
 10
87.91039629963699
 20
-122.7244642162807
 10
87.83425968941296
 20
-122.6100870461704
 10
87.83425968941296
 20
-122.4492010870092
 10
87.83425968941296
 20
-122.1742824672863
 10
88.03304169891189
 20
-122.038890214716
 10
88.30796031863483
 20
-122.038890214716
 10
88.59149167707088
 20
-122.038890214716
 10
88.78200545740519
 20
-122.1828952059994
 10
88.78200545740519
 20
-122.4492010870092
 10
88.78200545740519
 20
-122.6100870461704
 10
88.7034572803415
 20
-122.7244642162807
 10
88.57874482377545
 20
-122.783719858627
 10
88.6676282872949
 20
-122.8343627622602
 10
88.82644718916492
 20
-122.9294473976531
 10
88.82644718916492
 20
-123.1919636736291
 10
88.82644718916492
 20
-123.5664455528757
 10
88.54704994531116
 20
-123.6825452707287
 10
88.30796031863483
 20
-123.6825452707287
 97
        0
 97
        0
 92
        1
 93
        1
 72
     4
 94
        3
 73
     0
 74
     1
 95
       17
 96
       13
 40
0.0
 40
0.0
 40
0.0
 40
0.0
 40
1.0
 40
1.0
 40
1.0
 40
2.0
 40
2.0
 40
2.0
 40
3.0
 40
3.0
 40
3.0
 40
4.0
 40
4.0
 40
4.0
 40
4.0
 10
88.30796031863483
 20
-122.8915513473153
 10
88.1642998368999
 20
-122.8915513473153
 10
88.01168210690334
 20
-122.9783677535436
 10
88.01168210690334
 20
-123.1812838776248
 10
88.01168210690334
 20
-123.3866115685457
 10
88.13880613030905
 20
-123.4878973758121
 10
88.30796031863483
 20
-123.4878973758121
 10
88.49399547483831
 20
-123.4878973758121
 10
88.6042385303663
 20
-123.3652519765372
 10
88.6042385303663
 20
-123.1874850494983
 10
88.6042385303663
 20
-122.9656209002482
 10
88.44128551391398
 20
-122.8915513473153
 10
88.30796031863483
 20
-122.8915513473153
 97
        0
 97
        0
 92
        1
 93
        1
 72
     4
 94
        3
 73
     0
 74
     1
 95
       17
 96
       13
 40
0.0
 40
0.0
 40
0.0
 40
0.0
 40
1.0
 40
1.0
 40
1.0
 40
2.0
 40
2.0
 40
2.0
 40
3.0
 40
3.0
 40
3.0
 40
4.0
 40
4.0
 40
4.0
 40
4.0
 10
88.30796031863483
 20
-122.2314710523414
 10
88.14294024489135
 20
-122.2314710523414
 10
88.05819089595421
 20
-122.3265556877343
 10
88.05819089595421
 20
-122.4619479403047
 10
88.05819089595421
 20
-122.5845933395796
 10
88.13019339159592
 20
-122.7031046242721
 10
88.30796031863483
 20
-122.7031046242721
 10
88.48572724567371
 20
-122.7031046242721
 10
88.55772974131543
 20
-122.5845933395796
 10
88.55772974131543
 20
-122.4619479403047
 10
88.55772974131543
 20
-122.3265556877343
 10
88.47091333508713
 20
-122.2314710523414
 10
88.30796031863483
 20
-122.2314710523414
 97
        0
 97
        0
 75
     2
 76
     1
 98
        0
  0
ENDBLK
  5
67
330
64
100
AcDbEntity
  8
0
100
AcDbBlockEnd
  0
BLOCK
  5
6E
330
6C
100
AcDbEntity
  8
0
100
AcDbBlockBegin
  2
block 3
 70
     0
 10
0.0
 20
0.0
 30
0.0
  3
block 3
  1

  0
SPLINE
  5
70
330
6C
100
AcDbEntity
  8
_U+30EC_U+30A4_U+30E4_U+30FC 1
370
     0
100
AcDbSpline
210
0.0
220
0.0
230
1.0
 70
    11
 71
     3
 72
    26
 73
    22
 74
     0
 42
0.0000000001
 43
0.0000000001
 12
1.0
 22
0.0
 32
0.0
 13
1.0
 23
0.0
 33
0.0
 40
0.0
 40
0.0
 40
0.0
 40
0.0
 40
1.0
 40
1.0
 40
1.0
 40
2.0
 40
2.0
 40
2.0
 40
3.0
 40
3.0
 40
3.0
 40
4.0
 40
4.0
 40
4.0
 40
5.0
 40
5.0
 40
5.0
 40
6.0
 40
6.0
 40
6.0
 40
7.0
 40
7.0
 40
7.0
 40
7.0
 10
78.67099471774544
 20
-123.6319023670955
 30
0.0
 10
78.67099471774544
 20
-123.6319023670955
 30
0.0
 10
78.67099471774544
 20
-122.5277492640729
 30
0.0
 10
78.67099471774544
 20
-122.5277492640729
 30
0.0
 10
78.67099471774544
 20
-122.5277492640729
 30
0.0
 10
78.34095457025852
 20
-122.5277492640729
 30
0.0
 10
78.34095457025852
 20
-122.5277492640729
 30
0.0
 10
78.34095457025852
 20
-122.5277492640729
 30
0.0
 10
78.34095457025852
 20
-122.3796101582072
 30
0.0
 10
78.34095457025852
 20
-122.3796101582072
 30
0.0
 10
78.6730617750366
 20
-122.3647962476206
 30
0.0
 10
78.71957056408748
 20
-122.2018432311683
 30
0.0
 10
78.74919838526063
 20
-122.087466061058
 30
0.0
 10
78.74919838526063
 20
-122.087466061058
 30
0.0
 10
78.89527043383521
 20
-122.087466061058
 30
0.0
 10
78.89527043383521
 20
-122.087466061058
 30
0.0
 10
78.89527043383521
 20
-122.087466061058
 30
0.0
 10
78.89527043383521
 20
-123.6319023670955
 30
0.0
 10
78.89527043383521
 20
-123.6319023670955
 30
0.0
 10
78.89527043383521
 20
-123.6319023670955
 30
0.0
 10
78.67099471774544
 20
-123.6319023670955
 30
0.0
 10
78.67099471774544
 20
-123.6319023670955
 30
0.0
  0
HATCH
  5
71
330
6C
100
AcDbEntity
  8
_U+30EC_U+30A4_U+30E4_U+30FC 1
 62
     7
420
 16777215
100
AcDbHatch
 10
0.0
 20
0.0
 30
0.0
210
0.0
220
0.0
230
1.0
  2
SOLID
 70
     1
 71
     0
 91
        1
 92
        1
 93
        1
 72
     4
 94
        3
 73
     0
 74
     1
 95
       26
 96
       22
 40
0.0
 40
0.0
 40
0.0
 40
0.0
 40
1.0
 40
1.0
 40
1.0
 40
2.0
 40
2.0
 40
2.0
 40
3.0
 40
3.0
 40
3.0
 40
4.0
 40
4.0
 40
4.0
 40
5.0
 40
5.0
 40
5.0
 40
6.0
 40
6.0
 40
6.0
 40
7.0
 40
7.0
 40
7.0
 40
7.0
 10
78.67099471774544
 20
-123.6319023670955
 10
78.67099471774544
 20
-123.6319023670955
 10
78.67099471774544
 20
-122.5277492640729
 10
78.67099471774544
 20
-122.5277492640729
 10
78.67099471774544
 20
-122.5277492640729
 10
78.34095457025852
 20
-122.5277492640729
 10
78.34095457025852
 20
-122.5277492640729
 10
78.34095457025852
 20
-122.5277492640729
 10
78.34095457025852
 20
-122.3796101582072
 10
78.34095457025852
 20
-122.3796101582072
 10
78.6730617750366
 20
-122.3647962476206
 10
78.71957056408748
 20
-122.2018432311683
 10
78.74919838526063
 20
-122.087466061058
 10
78.74919838526063
 20
-122.087466061058
 10
78.89527043383521
 20
-122.087466061058
 10
78.89527043383521
 20
-122.087466061058
 10
78.89527043383521
 20
-122.087466061058
 10
78.89527043383521
 20
-123.6319023670955
 10
78.89527043383521
 20
-123.6319023670955
 10
78.89527043383521
 20
-123.6319023670955
 10
78.67099471774544
 20
-123.6319023670955
 10
78.67099471774544
 20
-123.6319023670955
 97
        0
 97
        0
 75
     2
 76
     1
 98
        0
  0
SPLINE
  5
72
330
6C
100
AcDbEntity
  8
_U+30EC_U+30A4_U+30E4_U+30FC 1
370
     0
100
AcDbSpline
210
0.0
220
0.0
230
1.0
 70
    11
 71
     3
 72
    29
 73
    25
 74
     0
 42
0.0000000001
 43
0.0000000001
 12
1.0
 22
0.0
 32
0.0
 13
1.0
 23
0.0
 33
0.0
 40
0.0
 40
0.0
 40
0.0
 40
0.0
 40
1.0
 40
1.0
 40
1.0
 40
2.0
 40
2.0
 40
2.0
 40
3.0
 40
3.0
 40
3.0
 40
4.0
 40
4.0
 40
4.0
 40
5.0
 40
5.0
 40
5.0
 40
6.0
 40
6.0
 40
6.0
 40
7.0
 40
7.0
 40
7.0
 40
8.0
 40
8.0
 40
8.0
 40
8.0
 10
80.29432371039518
 20
-123.4541354400566
 30
0.0
 10
80.18614771215833
 20
-123.6635972455598
 30
0.0
 10
80.01285940925027
 20
-123.6825452707287
 30
0.0
 10
79.89641518184882
 20
-123.6825452707287
 30
0.0
 10
79.73552922268765
 20
-123.6825452707287
 30
0.0
 10
79.59393579824388
 20
-123.6360364816778
 30
0.0
 10
79.49885116285098
 20
-123.4541354400566
 30
0.0
 10
79.39515378874496
 20
-123.25948754514
 30
0.0
 10
79.37586125402757
 20
-123.0224649757548
 30
0.0
 10
79.37586125402757
 20
-122.859856468851
 30
0.0
 10
79.37586125402757
 20
-122.7158514775676
 30
0.0
 10
79.39308673145382
 20
-122.4640149975958
 30
0.0
 10
79.49885116285098
 20
-122.2652329880969
 30
0.0
 10
79.6066826515393
 20
-122.0623168640157
 30
0.0
 10
79.76756861070048
 20
-122.038890214716
 30
0.0
 10
79.89641518184882
 20
-122.038890214716
 30
0.0
 10
80.05523408371883
 20
-122.038890214716
 30
0.0
 10
80.19889456545376
 20
-122.0833319464757
 30
0.0
 10
80.29432371039518
 20
-122.2652329880969
 30
0.0
 10
80.39354246037037
 20
-122.4578138257224
 30
0.0
 10
80.41696910967006
 20
-122.6862236563944
 30
0.0
 10
80.41696910967006
 20
-122.859856468851
 30
0.0
 10
80.41696910967006
 20
-123.0310777144679
 30
0.0
 10
80.39560951766151
 20
-123.2615546024311
 30
0.0
 10
80.29432371039518
 20
-123.4541354400566
 30
0.0
  0
SPLINE
  5
73
330
6C
100
AcDbEntity
  8
_U+30EC_U+30A4_U+30E4_U+30FC 1
370
     0
100
AcDbSpline
210
0.0
220
0.0
230
1.0
 70
    11
 71
     3
 72
    17
 73
    13
 74
     0
 42
0.0000000001
 43
0.0000000001
 12
1.0
 22
0.0
 32
0.0
 13
1.0
 23
0.0
 33
0.0
 40
0.0
 40
0.0
 40
0.0
 40
0.0
 40
1.0
 40
1.0
 40
1.0
 40
2.0
 40
2.0
 40
2.0
 40
3.0
 40
3.0
 40
3.0
 40
4.0
 40
4.0
 40
4.0
 40
4.0
 10
79.89641518184882
 20
-122.2314710523414
 30
0.0
 10
79.64664575916821
 20
-122.2314710523414
 30
0.0
 10
79.60013697011733
 20
-122.5150024107775
 30
0.0
 10
79.60013697011733
 20
-122.859856468851
 30
0.0
 10
79.60013697011733
 20
-123.1792168203337
 30
0.0
 10
79.63631047271245
 20
-123.4878973758121
 30
0.0
 10
79.89641518184882
 20
-123.4878973758121
 30
0.0
 10
80.14411754723828
 20
-123.4878973758121
 30
0.0
 10
80.1926933935803
 20
-123.2067775842157
 30
0.0
 10
80.1926933935803
 20
-122.859856468851
 30
0.0
 10
80.1926933935803
 20
-122.5401516078198
 30
0.0
 10
80.15445283369402
 20
-122.2314710523414
 30
0.0
 10
79.89641518184882
 20
-122.2314710523414
 30
0.0
  0
HATCH
  5
74
330
6C
100
AcDbEntity
  8
_U+30EC_U+30A4_U+30E4_U+30FC 1
 62
     7
420
 16777215
100
AcDbHatch
 10
0.0
 20
0.0
 30
0.0
210
0.0
220
0.0
230
1.0
  2
SOLID
 70
     1
 71
     0
 91
        2
 92
        1
 93
        1
 72
     4
 94
        3
 73
     0
 74
     1
 95
       29
 96
       25
 40
0.0
 40
0.0
 40
0.0
 40
0.0
 40
1.0
 40
1.0
 40
1.0
 40
2.0
 40
2.0
 40
2.0
 40
3.0
 40
3.0
 40
3.0
 40
4.0
 40
4.0
 40
4.0
 40
5.0
 40
5.0
 40
5.0
 40
6.0
 40
6.0
 40
6.0
 40
7.0
 40
7.0
 40
7.0
 40
8.0
 40
8.0
 40
8.0
 40
8.0
 10
80.29432371039518
 20
-123.4541354400566
 10
80.18614771215833
 20
-123.6635972455598
 10
80.01285940925027
 20
-123.6825452707287
 10
79.89641518184882
 20
-123.6825452707287
 10
79.73552922268765
 20
-123.6825452707287
 10
79.59393579824388
 20
-123.6360364816778
 10
79.49885116285098
 20
-123.4541354400566
 10
79.39515378874496
 20
-123.25948754514
 10
79.37586125402757
 20
-123.0224649757548
 10
79.37586125402757
 20
-122.859856468851
 10
79.37586125402757
 20
-122.7158514775676
 10
79.39308673145382
 20
-122.4640149975958
 10
79.49885116285098
 20
-122.2652329880969
 10
79.6066826515393
 20
-122.0623168640157
 10
79.76756861070048
 20
-122.038890214716
 10
79.89641518184882
 20
-122.038890214716
 10
80.05523408371883
 20
-122.038890214716
 10
80.19889456545376
 20
-122.0833319464757
 10
80.29432371039518
 20
-122.2652329880969
 10
80.39354246037037
 20
-122.4578138257224
 10
80.41696910967006
 20
-122.6862236563944
 10
80.41696910967006
 20
-122.859856468851
 10
80.41696910967006
 20
-123.0310777144679
 10
80.39560951766151
 20
-123.2615546024311
 10
80.29432371039518
 20
-123.4541354400566
 97
        0
 97
        0
 92
        1
 93
        1
 72
     4
 94
        3
 73
     0
 74
     1
 95
       17
 96
       13
 40
0.0
 40
0.0
 40
0.0
 40
0.0
 40
1.0
 40
1.0
 40
1.0
 40
2.0
 40
2.0
 40
2.0
 40
3.0
 40
3.0
 40
3.0
 40
4.0
 40
4.0
 40
4.0
 40
4.0
 10
79.89641518184882
 20
-122.2314710523414
 10
79.64664575916821
 20
-122.2314710523414
 10
79.60013697011733
 20
-122.5150024107775
 10
79.60013697011733
 20
-122.859856468851
 10
79.60013697011733
 20
-123.1792168203337
 10
79.63631047271245
 20
-123.4878973758121
 10
79.89641518184882
 20
-123.4878973758121
 10
80.14411754723828
 20
-123.4878973758121
 10
80.1926933935803
 20
-123.2067775842157
 10
80.1926933935803
 20
-122.859856468851
 10
80.1926933935803
 20
-122.5401516078198
 10
80.15445283369402
 20
-122.2314710523414
 10
79.89641518184882
 20
-122.2314710523414
 97
        0
 97
        0
 75
     2
 76
     1
 98
        0
  0
ENDBLK
  5
6F
330
6C
100
AcDbEntity
  8
0
100
AcDbBlockEnd
  0
BLOCK
  5
77
330
75
100
AcDbEntity
  8
0
100
AcDbBlockBegin
  2
block 4
 70
     0
 10
0.0
 20
0.0
 30
0.0
  3
block 4
  1

  0
SPLINE
  5
79
330
75
100
AcDbEntity
  8
_U+30EC_U+30A4_U+30E4_U+30FC 1
370
     0
100
AcDbSpline
210
0.0
220
0.0
230
1.0
 70
    11
 71
     3
 72
    26
 73
    22
 74
     0
 42
0.0000000001
 43
0.0000000001
 12
1.0
 22
0.0
 32
0.0
 13
1.0
 23
0.0
 33
0.0
 40
0.0
 40
0.0
 40
0.0
 40
0.0
 40
1.0
 40
1.0
 40
1.0
 40
2.0
 40
2.0
 40
2.0
 40
3.0
 40
3.0
 40
3.0
 40
4.0
 40
4.0
 40
4.0
 40
5.0
 40
5.0
 40
5.0
 40
6.0
 40
6.0
 40
6.0
 40
7.0
 40
7.0
 40
7.0
 40
7.0
 10
96.67075735430454
 20
-123.6319023670955
 30
0.0
 10
96.67075735430454
 20
-123.6319023670955
 30
0.0
 10
96.67075735430454
 20
-122.5277492640729
 30
0.0
 10
96.67075735430454
 20
-122.5277492640729
 30
0.0
 10
96.67075735430454
 20
-122.5277492640729
 30
0.0
 10
96.3407172068176
 20
-122.5277492640729
 30
0.0
 10
96.3407172068176
 20
-122.5277492640729
 30
0.0
 10
96.3407172068176
 20
-122.5277492640729
 30
0.0
 10
96.3407172068176
 20
-122.3796101582072
 30
0.0
 10
96.3407172068176
 20
-122.3796101582072
 30
0.0
 10
96.67282441159568
 20
-122.3647962476206
 30
0.0
 10
96.71933320064656
 20
-122.2018432311683
 30
0.0
 10
96.74896102181971
 20
-122.087466061058
 30
0.0
 10
96.74896102181971
 20
-122.087466061058
 30
0.0
 10
96.8950330703943
 20
-122.087466061058
 30
0.0
 10
96.8950330703943
 20
-122.087466061058
 30
0.0
 10
96.8950330703943
 20
-122.087466061058
 30
0.0
 10
96.8950330703943
 20
-123.6319023670955
 30
0.0
 10
96.8950330703943
 20
-123.6319023670955
 30
0.0
 10
96.8950330703943
 20
-123.6319023670955
 30
0.0
 10
96.67075735430454
 20
-123.6319023670955
 30
0.0
 10
96.67075735430454
 20
-123.6319023670955
 30
0.0
  0
HATCH
  5
7A
330
75
100
AcDbEntity
  8
_U+30EC_U+30A4_U+30E4_U+30FC 1
 62
     7
420
 16777215
100
AcDbHatch
 10
0.0
 20
0.0
 30
0.0
210
0.0
220
0.0
230
1.0
  2
SOLID
 70
     1
 71
     0
 91
        1
 92
        1
 93
        1
 72
     4
 94
        3
 73
     0
 74
     1
 95
       26
 96
       22
 40
0.0
 40
0.0
 40
0.0
 40
0.0
 40
1.0
 40
1.0
 40
1.0
 40
2.0
 40
2.0
 40
2.0
 40
3.0
 40
3.0
 40
3.0
 40
4.0
 40
4.0
 40
4.0
 40
5.0
 40
5.0
 40
5.0
 40
6.0
 40
6.0
 40
6.0
 40
7.0
 40
7.0
 40
7.0
 40
7.0
 10
96.67075735430454
 20
-123.6319023670955
 10
96.67075735430454
 20
-123.6319023670955
 10
96.67075735430454
 20
-122.5277492640729
 10
96.67075735430454
 20
-122.5277492640729
 10
96.67075735430454
 20
-122.5277492640729
 10
96.3407172068176
 20
-122.5277492640729
 10
96.3407172068176
 20
-122.5277492640729
 10
96.3407172068176
 20
-122.5277492640729
 10
96.3407172068176
 20
-122.3796101582072
 10
96.3407172068176
 20
-122.3796101582072
 10
96.67282441159568
 20
-122.3647962476206
 10
96.71933320064656
 20
-122.2018432311683
 10
96.74896102181971
 20
-122.087466061058
 10
96.74896102181971
 20
-122.087466061058
 10
96.8950330703943
 20
-122.087466061058
 10
96.8950330703943
 20
-122.087466061058
 10
96.8950330703943
 20
-122.087466061058
 10
96.8950330703943
 20
-123.6319023670955
 10
96.8950330703943
 20
-123.6319023670955
 10
96.8950330703943
 20
-123.6319023670955
 10
96.67075735430454
 20
-123.6319023670955
 10
96.67075735430454
 20
-123.6319023670955
 97
        0
 97
        0
 75
     2
 76
     1
 98
        0
  0
SPLINE
  5
7B
330
75
100
AcDbEntity
  8
_U+30EC_U+30A4_U+30E4_U+30FC 1
370
     0
100
AcDbSpline
210
0.0
220
0.0
230
1.0
 70
    11
 71
     3
 72
    29
 73
    25
 74
     0
 42
0.0000000001
 43
0.0000000001
 12
1.0
 22
0.0
 32
0.0
 13
1.0
 23
0.0
 33
0.0
 40
0.0
 40
0.0
 40
0.0
 40
0.0
 40
1.0
 40
1.0
 40
1.0
 40
2.0
 40
2.0
 40
2.0
 40
3.0
 40
3.0
 40
3.0
 40
4.0
 40
4.0
 40
4.0
 40
5.0
 40
5.0
 40
5.0
 40
6.0
 40
6.0
 40
6.0
 40
7.0
 40
7.0
 40
7.0
 40
8.0
 40
8.0
 40
8.0
 40
8.0
 10
98.29408634695426
 20
-123.4541354400566
 30
0.0
 10
98.18591034871741
 20
-123.6635972455598
 30
0.0
 10
98.01262204580935
 20
-123.6825452707287
 30
0.0
 10
97.8961778184079
 20
-123.6825452707287
 30
0.0
 10
97.73529185924674
 20
-123.6825452707287
 30
0.0
 10
97.59369843480297
 20
-123.6360364816778
 30
0.0
 10
97.49861379941008
 20
-123.4541354400566
 30
0.0
 10
97.39491642530405
 20
-123.25948754514
 30
0.0
 10
97.37562389058665
 20
-123.0224649757548
 30
0.0
 10
97.37562389058665
 20
-122.859856468851
 30
0.0
 10
97.37562389058665
 20
-122.7158514775676
 30
0.0
 10
97.3928493680129
 20
-122.4640149975958
 30
0.0
 10
97.49861379941008
 20
-122.2652329880969
 30
0.0
 10
97.6064452880984
 20
-122.0623168640157
 30
0.0
 10
97.76733124725956
 20
-122.038890214716
 30
0.0
 10
97.8961778184079
 20
-122.038890214716
 30
0.0
 10
98.05499672027793
 20
-122.038890214716
 30
0.0
 10
98.19865720201284
 20
-122.0833319464757
 30
0.0
 10
98.29408634695426
 20
-122.2652329880969
 30
0.0
 10
98.39330509692945
 20
-122.4578138257224
 30
0.0
 10
98.41673174622916
 20
-122.6862236563944
 30
0.0
 10
98.41673174622916
 20
-122.859856468851
 30
0.0
 10
98.41673174622916
 20
-123.0310777144679
 30
0.0
 10
98.39537215422061
 20
-123.2615546024311
 30
0.0
 10
98.29408634695426
 20
-123.4541354400566
 30
0.0
  0
SPLINE
  5
7C
330
75
100
AcDbEntity
  8
_U+30EC_U+30A4_U+30E4_U+30FC 1
370
     0
100
AcDbSpline
210
0.0
220
0.0
230
1.0
 70
    11
 71
     3
 72
    17
 73
    13
 74
     0
 42
0.0000000001
 43
0.0000000001
 12
1.0
 22
0.0
 32
0.0
 13
1.0
 23
0.0
 33
0.0
 40
0.0
 40
0.0
 40
0.0
 40
0.0
 40
1.0
 40
1.0
 40
1.0
 40
2.0
 40
2.0
 40
2.0
 40
3.0
 40
3.0
 40
3.0
 40
4.0
 40
4.0
 40
4.0
 40
4.0
 10
97.8961778184079
 20
-122.2314710523414
 30
0.0
 10
97.64640839572729
 20
-122.2314710523414
 30
0.0
 10
97.59989960667642
 20
-122.5150024107775
 30
0.0
 10
97.59989960667642
 20
-122.859856468851
 30
0.0
 10
97.59989960667642
 20
-123.1792168203337
 30
0.0
 10
97.63607310927154
 20
-123.4878973758121
 30
0.0
 10
97.8961778184079
 20
-123.4878973758121
 30
0.0
 10
98.14388018379736
 20
-123.4878973758121
 30
0.0
 10
98.1924560301394
 20
-123.2067775842157
 30
0.0
 10
98.1924560301394
 20
-122.859856468851
 30
0.0
 10
98.1924560301394
 20
-122.5401516078198
 30
0.0
 10
98.15421547025312
 20
-122.2314710523414
 30
0.0
 10
97.8961778184079
 20
-122.2314710523414
 30
0.0
  0
HATCH
  5
7D
330
75
100
AcDbEntity
  8
_U+30EC_U+30A4_U+30E4_U+30FC 1
 62
     7
420
 16777215
100
AcDbHatch
 10
0.0
 20
0.0
 30
0.0
210
0.0
220
0.0
230
1.0
  2
SOLID
 70
     1
 71
     0
 91
        2
 92
        1
 93
        1
 72
     4
 94
        3
 73
     0
 74
     1
 95
       29
 96
       25
 40
0.0
 40
0.0
 40
0.0
 40
0.0
 40
1.0
 40
1.0
 40
1.0
 40
2.0
 40
2.0
 40
2.0
 40
3.0
 40
3.0
 40
3.0
 40
4.0
 40
4.0
 40
4.0
 40
5.0
 40
5.0
 40
5.0
 40
6.0
 40
6.0
 40
6.0
 40
7.0
 40
7.0
 40
7.0
 40
8.0
 40
8.0
 40
8.0
 40
8.0
 10
98.29408634695426
 20
-123.4541354400566
 10
98.18591034871741
 20
-123.6635972455598
 10
98.01262204580935
 20
-123.6825452707287
 10
97.8961778184079
 20
-123.6825452707287
 10
97.73529185924674
 20
-123.6825452707287
 10
97.59369843480297
 20
-123.6360364816778
 10
97.49861379941008
 20
-123.4541354400566
 10
97.39491642530405
 20
-123.25948754514
 10
97.37562389058665
 20
-123.0224649757548
 10
97.37562389058665
 20
-122.859856468851
 10
97.37562389058665
 20
-122.7158514775676
 10
97.3928493680129
 20
-122.4640149975958
 10
97.49861379941008
 20
-122.2652329880969
 10
97.6064452880984
 20
-122.0623168640157
 10
97.76733124725956
 20
-122.038890214716
 10
97.8961778184079
 20
-122.038890214716
 10
98.05499672027793
 20
-122.038890214716
 10
98.19865720201284
 20
-122.0833319464757
 10
98.29408634695426
 20
-122.2652329880969
 10
98.39330509692945
 20
-122.4578138257224
 10
98.41673174622916
 20
-122.6862236563944
 10
98.41673174622916
 20
-122.859856468851
 10
98.41673174622916
 20
-123.0310777144679
 10
98.39537215422061
 20
-123.2615546024311
 10
98.29408634695426
 20
-123.4541354400566
 97
        0
 97
        0
 92
        1
 93
        1
 72
     4
 94
        3
 73
     0
 74
     1
 95
       17
 96
       13
 40
0.0
 40
0.0
 40
0.0
 40
0.0
 40
1.0
 40
1.0
 40
1.0
 40
2.0
 40
2.0
 40
2.0
 40
3.0
 40
3.0
 40
3.0
 40
4.0
 40
4.0
 40
4.0
 40
4.0
 10
97.8961778184079
 20
-122.2314710523414
 10
97.64640839572729
 20
-122.2314710523414
 10
97.59989960667642
 20
-122.5150024107775
 10
97.59989960667642
 20
-122.859856468851
 10
97.59989960667642
 20
-123.1792168203337
 10
97.63607310927154
 20
-123.4878973758121
 10
97.8961778184079
 20
-123.4878973758121
 10
98.14388018379736
 20
-123.4878973758121
 10
98.1924560301394
 20
-123.2067775842157
 10
98.1924560301394
 20
-122.859856468851
 10
98.1924560301394
 20
-122.5401516078198
 10
98.15421547025312
 20
-122.2314710523414
 10
97.8961778184079
 20
-122.2314710523414
 97
        0
 97
        0
 75
     2
 76
     1
 98
        0
  0
ENDBLK
  5
78
330
75
100
AcDbEntity
  8
0
100
AcDbBlockEnd
  0
BLOCK
  5
94
330
92
100
AcDbEntity
  8
0
100
AcDbBlockBegin
  2
block 5
 70
     0
 10
0.0
 20
0.0
 30
0.0
  3
block 5
  1

  0
SPLINE
  5
96
330
92
100
AcDbEntity
  8
_U+30EC_U+30A4_U+30E4_U+30FC 1
370
     0
100
AcDbSpline
210
0.0
220
0.0
230
1.0
 70
    11
 71
     3
 72
    32
 73
    28
 74
     0
 42
0.0000000001
 43
0.0000000001
 12
1.0
 22
0.0
 32
0.0
 13
1.0
 23
0.0
 33
0.0
 40
0.0
 40
0.0
 40
0.0
 40
0.0
 40
1.0
 40
1.0
 40
1.0
 40
2.0
 40
2.0
 40
2.0
 40
3.0
 40
3.0
 40
3.0
 40
4.0
 40
4.0
 40
4.0
 40
5.0
 40
5.0
 40
5.0
 40
6.0
 40
6.0
 40
6.0
 40
7.0
 40
7.0
 40
7.0
 40
8.0
 40
8.0
 40
8.0
 40
9.0
 40
9.0
 40
9.0
 40
9.0
 10
106.0565754943192
 20
-132.2548041119016
 30
0.0
 10
106.0565754943192
 20
-132.770879415592
 30
0.0
 10
105.5022596307425
 20
-132.7794921543051
 30
0.0
 10
105.288663710657
 20
-132.7794921543051
 30
0.0
 10
105.0581868226938
 20
-132.7794921543051
 30
0.0
 10
104.4105088714668
 20
-132.7601996195877
 30
0.0
 10
104.4105088714668
 20
-132.2165635520153
 30
0.0
 10
104.4105088714668
 20
-132.0432752491072
 30
0.0
 10
104.4804443098174
 20
-131.7976399410089
 30
0.0
 10
104.8125515145955
 20
-131.7597438906712
 30
0.0
 10
104.8125515145955
 20
-131.7597438906712
 30
0.0
 10
104.8125515145955
 20
-131.9733398107567
 30
0.0
 10
104.8125515145955
 20
-131.9733398107567
 30
0.0
 10
104.7557074390889
 20
-131.9840196067609
 30
0.0
 10
104.6075683332231
 20
-132.0157144852252
 30
0.0
 10
104.6075683332231
 20
-132.2186306093065
 30
0.0
 10
104.6075683332231
 20
-132.5107747064556
 30
0.0
 10
104.9355414234189
 20
-132.5507378140846
 30
0.0
 10
105.1405246047913
 20
-132.56348466738
 30
0.0
 10
105.0623209372761
 20
-132.4704670892782
 30
0.0
 10
105.0030652949298
 20
-132.4025987082188
 30
0.0
 10
105.0030652949298
 20
-132.2206976665976
 30
0.0
 10
105.0030652949298
 20
-132.0408636822676
 30
0.0
 10
105.1108967836181
 20
-131.7383842986626
 30
0.0
 10
105.5170735413291
 20
-131.7383842986626
 30
0.0
 10
105.8367784023603
 20
-131.7383842986626
 30
0.0
 10
106.0565754943192
 20
-131.9375108177101
 30
0.0
 10
106.0565754943192
 20
-132.2548041119016
 30
0.0
  0
SPLINE
  5
97
330
92
100
AcDbEntity
  8
_U+30EC_U+30A4_U+30E4_U+30FC 1
370
     0
100
AcDbSpline
210
0.0
220
0.0
230
1.0
 70
    11
 71
     3
 72
    17
 73
    13
 74
     0
 42
0.0000000001
 43
0.0000000001
 12
1.0
 22
0.0
 32
0.0
 13
1.0
 23
0.0
 33
0.0
 40
0.0
 40
0.0
 40
0.0
 40
0.0
 40
1.0
 40
1.0
 40
1.0
 40
2.0
 40
2.0
 40
2.0
 40
3.0
 40
3.0
 40
3.0
 40
4.0
 40
4.0
 40
4.0
 40
4.0
 10
105.1977131898464
 20
-132.2379231440239
 30
0.0
 10
105.1977131898464
 20
-132.5000949104514
 30
0.0
 10
105.4092420526407
 20
-132.5379909607891
 30
0.0
 10
105.5253417704937
 20
-132.5379909607891
 30
0.0
 10
105.7010416402414
 20
-132.5379909607891
 30
0.0
 10
105.8639946566937
 20
-132.4429063253962
 30
0.0
 10
105.8639946566937
 20
-132.2589382264839
 30
0.0
 10
105.8639946566937
 20
-132.1383598845001
 30
0.0
 10
105.8047390143474
 20
-131.9626600147524
 30
0.0
 10
105.5191405986202
 20
-131.9626600147524
 30
0.0
 10
105.295209392079
 20
-131.9626600147524
 30
0.0
 10
105.1977131898464
 20
-132.102186381905
 30
0.0
 10
105.1977131898464
 20
-132.2379231440239
 30
0.0
  0
HATCH
  5
98
330
92
100
AcDbEntity
  8
_U+30EC_U+30A4_U+30E4_U+30FC 1
 62
     7
420
 16777215
100
AcDbHatch
 10
0.0
 20
0.0
 30
0.0
210
0.0
220
0.0
230
1.0
  2
SOLID
 70
     1
 71
     0
 91
        2
 92
        1
 93
        1
 72
     4
 94
        3
 73
     0
 74
     1
 95
       32
 96
       28
 40
0.0
 40
0.0
 40
0.0
 40
0.0
 40
1.0
 40
1.0
 40
1.0
 40
2.0
 40
2.0
 40
2.0
 40
3.0
 40
3.0
 40
3.0
 40
4.0
 40
4.0
 40
4.0
 40
5.0
 40
5.0
 40
5.0
 40
6.0
 40
6.0
 40
6.0
 40
7.0
 40
7.0
 40
7.0
 40
8.0
 40
8.0
 40
8.0
 40
9.0
 40
9.0
 40
9.0
 40
9.0
 10
106.0565754943192
 20
-132.2548041119016
 10
106.0565754943192
 20
-132.770879415592
 10
105.5022596307425
 20
-132.7794921543051
 10
105.288663710657
 20
-132.7794921543051
 10
105.0581868226938
 20
-132.7794921543051
 10
104.4105088714668
 20
-132.7601996195877
 10
104.4105088714668
 20
-132.2165635520153
 10
104.4105088714668
 20
-132.0432752491072
 10
104.4804443098174
 20
-131.7976399410089
 10
104.8125515145955
 20
-131.7597438906712
 10
104.8125515145955
 20
-131.7597438906712
 10
104.8125515145955
 20
-131.9733398107567
 10
104.8125515145955
 20
-131.9733398107567
 10
104.7557074390889
 20
-131.9840196067609
 10
104.6075683332231
 20
-132.0157144852252
 10
104.6075683332231
 20
-132.2186306093065
 10
104.6075683332231
 20
-132.5107747064556
 10
104.9355414234189
 20
-132.5507378140846
 10
105.1405246047913
 20
-132.56348466738
 10
105.0623209372761
 20
-132.4704670892782
 10
105.0030652949298
 20
-132.4025987082188
 10
105.0030652949298
 20
-132.2206976665976
 10
105.0030652949298
 20
-132.0408636822676
 10
105.1108967836181
 20
-131.7383842986626
 10
105.5170735413291
 20
-131.7383842986626
 10
105.8367784023603
 20
-131.7383842986626
 10
106.0565754943192
 20
-131.9375108177101
 10
106.0565754943192
 20
-132.2548041119016
 97
        0
 97
        0
 92
        1
 93
        1
 72
     4
 94
        3
 73
     0
 74
     1
 95
       17
 96
       13
 40
0.0
 40
0.0
 40
0.0
 40
0.0
 40
1.0
 40
1.0
 40
1.0
 40
2.0
 40
2.0
 40
2.0
 40
3.0
 40
3.0
 40
3.0
 40
4.0
 40
4.0
 40
4.0
 40
4.0
 10
105.1977131898464
 20
-132.2379231440239
 10
105.1977131898464
 20
-132.5000949104514
 10
105.4092420526407
 20
-132.5379909607891
 10
105.5253417704937
 20
-132.5379909607891
 10
105.7010416402414
 20
-132.5379909607891
 10
105.8639946566937
 20
-132.4429063253962
 10
105.8639946566937
 20
-132.2589382264839
 10
105.8639946566937
 20
-132.1383598845001
 10
105.8047390143474
 20
-131.9626600147524
 10
105.5191405986202
 20
-131.9626600147524
 10
105.295209392079
 20
-131.9626600147524
 10
105.1977131898464
 20
-132.102186381905
 10
105.1977131898464
 20
-132.2379231440239
 97
        0
 97
        0
 75
     2
 76
     1
 98
        0
  0
ENDBLK
  5
95
330
92
100
AcDbEntity
  8
0
100
AcDbBlockEnd
  0
BLOCK
  5
9B
330
99
100
AcDbEntity
  8
0
100
AcDbBlockBegin
  2
block 6
 70
     0
 10
0.0
 20
0.0
 30
0.0
  3
block 6
  1

  0
SPLINE
  5
9D
330
99
100
AcDbEntity
  8
_U+30EC_U+30A4_U+30E4_U+30FC 1
370
     0
100
AcDbSpline
210
0.0
220
0.0
230
1.0
 70
    11
 71
     3
 72
    44
 73
    40
 74
     0
 42
0.0000000001
 43
0.0000000001
 12
1.0
 22
0.0
 32
0.0
 13
1.0
 23
0.0
 33
0.0
 40
0.0
 40
0.0
 40
0.0
 40
0.0
 40
1.0
 40
1.0
 40
1.0
 40
2.0
 40
2.0
 40
2.0
 40
3.0
 40
3.0
 40
3.0
 40
4.0
 40
4.0
 40
4.0
 40
5.0
 40
5.0
 40
5.0
 40
6.0
 40
6.0
 40
6.0
 40
7.0
 40
7.0
 40
7.0
 40
8.0
 40
8.0
 40
8.0
 40
9.0
 40
9.0
 40
9.0
 40
10.0
 40
10.0
 40
10.0
 40
11.0
 40
11.0
 40
11.0
 40
12.0
 40
12.0
 40
12.0
 40
13.0
 40
13.0
 40
13.0
 40
13.0
 10
105.4436930074933
 20
-125.0926228528414
 30
0.0
 10
105.6021673998147
 20
-125.3103528875092
 30
0.0
 10
105.6762369527476
 20
-125.403370465611
 30
0.0
 10
105.8202419440311
 20
-125.4522908215015
 30
0.0
 10
105.8202419440311
 20
-125.4522908215015
 30
0.0
 10
105.8202419440311
 20
-124.6736992418351
 30
0.0
 10
105.8202419440311
 20
-124.6736992418351
 30
0.0
 10
105.8202419440311
 20
-124.6736992418351
 30
0.0
 10
106.0252251254034
 20
-124.6736992418351
 30
0.0
 10
106.0252251254034
 20
-124.6736992418351
 30
0.0
 10
106.0252251254034
 20
-124.6736992418351
 30
0.0
 10
106.0252251254034
 20
-125.7017157346336
 30
0.0
 10
106.0252251254034
 20
-125.7017157346336
 30
0.0
 10
105.6676242140345
 20
-125.6700208561693
 30
0.0
 10
105.5894205465193
 20
-125.6045640419496
 30
0.0
 10
105.2910752774967
 20
-125.2194023666986
 30
0.0
 10
105.0922932679978
 20
-124.9634317721446
 30
0.0
 10
105.0247693964869
 20
-124.8979749579248
 30
0.0
 10
104.8873100866254
 20
-124.8979749579248
 30
0.0
 10
104.7687988019328
 20
-124.8979749579248
 30
0.0
 10
104.6375406639448
 20
-124.9699774535665
 30
0.0
 10
104.6375406639448
 20
-125.1666924057743
 30
0.0
 10
104.6375406639448
 20
-125.4267971149107
 30
0.0
 10
104.868017551908
 20
-125.4354098536238
 30
0.0
 10
104.9844617793094
 20
-125.4395439682061
 30
0.0
 10
104.9844617793094
 20
-125.4395439682061
 30
0.0
 10
104.9844617793094
 20
-125.6638196842959
 30
0.0
 10
104.9844617793094
 20
-125.6638196842959
 30
0.0
 10
104.8576822654523
 20
-125.6552069455827
 30
0.0
 10
104.7453721526331
 20
-125.6445271495785
 30
0.0
 10
104.6268608679405
 20
-125.5642564247721
 30
0.0
 10
104.4663194183279
 20
-125.4543578787927
 30
0.0
 10
104.4322129730239
 20
-125.2679782130406
 30
0.0
 10
104.4322129730239
 20
-125.1518784951877
 30
0.0
 10
104.4322129730239
 20
-124.8745483086251
 30
0.0
 10
104.6165255814848
 20
-124.6671535604131
 30
0.0
 10
104.8893771439165
 20
-124.6671535604131
 30
0.0
 10
105.1177869745886
 20
-124.6671535604131
 30
0.0
 10
105.2173502341123
 20
-124.7835977878145
 30
0.0
 10
105.4436930074933
 20
-125.0926228528414
 30
0.0
  0
HATCH
  5
9E
330
99
100
AcDbEntity
  8
_U+30EC_U+30A4_U+30E4_U+30FC 1
 62
     7
420
 16777215
100
AcDbHatch
 10
0.0
 20
0.0
 30
0.0
210
0.0
220
0.0
230
1.0
  2
SOLID
 70
     1
 71
     0
 91
        1
 92
        1
 93
        1
 72
     4
 94
        3
 73
     0
 74
     1
 95
       44
 96
       40
 40
0.0
 40
0.0
 40
0.0
 40
0.0
 40
1.0
 40
1.0
 40
1.0
 40
2.0
 40
2.0
 40
2.0
 40
3.0
 40
3.0
 40
3.0
 40
4.0
 40
4.0
 40
4.0
 40
5.0
 40
5.0
 40
5.0
 40
6.0
 40
6.0
 40
6.0
 40
7.0
 40
7.0
 40
7.0
 40
8.0
 40
8.0
 40
8.0
 40
9.0
 40
9.0
 40
9.0
 40
10.0
 40
10.0
 40
10.0
 40
11.0
 40
11.0
 40
11.0
 40
12.0
 40
12.0
 40
12.0
 40
13.0
 40
13.0
 40
13.0
 40
13.0
 10
105.4436930074933
 20
-125.0926228528414
 10
105.6021673998147
 20
-125.3103528875092
 10
105.6762369527476
 20
-125.403370465611
 10
105.8202419440311
 20
-125.4522908215015
 10
105.8202419440311
 20
-125.4522908215015
 10
105.8202419440311
 20
-124.6736992418351
 10
105.8202419440311
 20
-124.6736992418351
 10
105.8202419440311
 20
-124.6736992418351
 10
106.0252251254034
 20
-124.6736992418351
 10
106.0252251254034
 20
-124.6736992418351
 10
106.0252251254034
 20
-124.6736992418351
 10
106.0252251254034
 20
-125.7017157346336
 10
106.0252251254034
 20
-125.7017157346336
 10
105.6676242140345
 20
-125.6700208561693
 10
105.5894205465193
 20
-125.6045640419496
 10
105.2910752774967
 20
-125.2194023666986
 10
105.0922932679978
 20
-124.9634317721446
 10
105.0247693964869
 20
-124.8979749579248
 10
104.8873100866254
 20
-124.8979749579248
 10
104.7687988019328
 20
-124.8979749579248
 10
104.6375406639448
 20
-124.9699774535665
 10
104.6375406639448
 20
-125.1666924057743
 10
104.6375406639448
 20
-125.4267971149107
 10
104.868017551908
 20
-125.4354098536238
 10
104.9844617793094
 20
-125.4395439682061
 10
104.9844617793094
 20
-125.4395439682061
 10
104.9844617793094
 20
-125.6638196842959
 10
104.9844617793094
 20
-125.6638196842959
 10
104.8576822654523
 20
-125.6552069455827
 10
104.7453721526331
 20
-125.6445271495785
 10
104.6268608679405
 20
-125.5642564247721
 10
104.4663194183279
 20
-125.4543578787927
 10
104.4322129730239
 20
-125.2679782130406
 10
104.4322129730239
 20
-125.1518784951877
 10
104.4322129730239
 20
-124.8745483086251
 10
104.6165255814848
 20
-124.6671535604131
 10
104.8893771439165
 20
-124.6671535604131
 10
105.1177869745886
 20
-124.6671535604131
 10
105.2173502341123
 20
-124.7835977878145
 10
105.4436930074933
 20
-125.0926228528414
 97
        0
 97
        0
 75
     2
 76
     1
 98
        0
  0
ENDBLK
  5
9C
330
99
100
AcDbEntity
  8
0
100
AcDbBlockEnd
  0
BLOCK
  5
A7
330
A5
100
AcDbEntity
  8
0
100
AcDbBlockBegin
  2
block 7
 70
     0
 10
0.0
 20
0.0
 30
0.0
  3
block 7
  1

  0
SPLINE
  5
A9
330
A5
100
AcDbEntity
  8
_U+30EC_U+30A4_U+30E4_U+30FC 1
370
     0
100
AcDbSpline
210
0.0
220
0.0
230
1.0
 70
    11
 71
     3
 72
    26
 73
    22
 74
     0
 42
0.0000000001
 43
0.0000000001
 12
1.0
 22
0.0
 32
0.0
 13
1.0
 23
0.0
 33
0.0
 40
0.0
 40
0.0
 40
0.0
 40
0.0
 40
1.0
 40
1.0
 40
1.0
 40
2.0
 40
2.0
 40
2.0
 40
3.0
 40
3.0
 40
3.0
 40
4.0
 40
4.0
 40
4.0
 40
5.0
 40
5.0
 40
5.0
 40
6.0
 40
6.0
 40
6.0
 40
7.0
 40
7.0
 40
7.0
 40
7.0
 10
85.59339733103221
 20
-129.0415635528091
 30
0.0
 10
85.59339733103221
 20
-129.0415635528091
 30
0.0
 10
85.59339733103221
 20
-127.9372381950122
 30
0.0
 10
85.59339733103221
 20
-127.9372381950122
 30
0.0
 10
85.59339733103221
 20
-127.9372381950122
 30
0.0
 10
85.26335718354528
 20
-127.9372381950122
 30
0.0
 10
85.26335718354528
 20
-127.9372381950122
 30
0.0
 10
85.26335718354528
 20
-127.9372381950122
 30
0.0
 10
85.26335718354528
 20
-127.7890990891465
 30
0.0
 10
85.26335718354528
 20
-127.7890990891465
 30
0.0
 10
85.59546438832336
 20
-127.7742851785599
 30
0.0
 10
85.64197317737424
 20
-127.6113321621076
 30
0.0
 10
85.67160099854738
 20
-127.4969549919973
 30
0.0
 10
85.67160099854738
 20
-127.4969549919973
 30
0.0
 10
85.81767304712197
 20
-127.4969549919973
 30
0.0
 10
85.81767304712197
 20
-127.4969549919973
 30
0.0
 10
85.81767304712197
 20
-127.4969549919973
 30
0.0
 10
85.81767304712197
 20
-129.0415635528091
 30
0.0
 10
85.81767304712197
 20
-129.0415635528091
 30
0.0
 10
85.81767304712197
 20
-129.0415635528091
 30
0.0
 10
85.59339733103221
 20
-129.0415635528091
 30
0.0
 10
85.59339733103221
 20
-129.0415635528091
 30
0.0
  0
HATCH
  5
AA
330
A5
100
AcDbEntity
  8
_U+30EC_U+30A4_U+30E4_U+30FC 1
 62
     7
420
 16777215
100
AcDbHatch
 10
0.0
 20
0.0
 30
0.0
210
0.0
220
0.0
230
1.0
  2
SOLID
 70
     1
 71
     0
 91
        1
 92
        1
 93
        1
 72
     4
 94
        3
 73
     0
 74
     1
 95
       26
 96
       22
 40
0.0
 40
0.0
 40
0.0
 40
0.0
 40
1.0
 40
1.0
 40
1.0
 40
2.0
 40
2.0
 40
2.0
 40
3.0
 40
3.0
 40
3.0
 40
4.0
 40
4.0
 40
4.0
 40
5.0
 40
5.0
 40
5.0
 40
6.0
 40
6.0
 40
6.0
 40
7.0
 40
7.0
 40
7.0
 40
7.0
 10
85.59339733103221
 20
-129.0415635528091
 10
85.59339733103221
 20
-129.0415635528091
 10
85.59339733103221
 20
-127.9372381950122
 10
85.59339733103221
 20
-127.9372381950122
 10
85.59339733103221
 20
-127.9372381950122
 10
85.26335718354528
 20
-127.9372381950122
 10
85.26335718354528
 20
-127.9372381950122
 10
85.26335718354528
 20
-127.9372381950122
 10
85.26335718354528
 20
-127.7890990891465
 10
85.26335718354528
 20
-127.7890990891465
 10
85.59546438832336
 20
-127.7742851785599
 10
85.64197317737424
 20
-127.6113321621076
 10
85.67160099854738
 20
-127.4969549919973
 10
85.67160099854738
 20
-127.4969549919973
 10
85.81767304712197
 20
-127.4969549919973
 10
85.81767304712197
 20
-127.4969549919973
 10
85.81767304712197
 20
-127.4969549919973
 10
85.81767304712197
 20
-129.0415635528091
 10
85.81767304712197
 20
-129.0415635528091
 10
85.81767304712197
 20
-129.0415635528091
 10
85.59339733103221
 20
-129.0415635528091
 10
85.59339733103221
 20
-129.0415635528091
 97
        0
 97
        0
 75
     2
 76
     1
 98
        0
  0
ENDBLK
  5
A8
330
A5
100
AcDbEntity
  8
0
100
AcDbBlockEnd
  0
ENDSEC
  0
SECTION
  2
ENTITIES
  0
SPLINE
  5
41
330
1F
100
AcDbEntity
  8
_U+30EC_U+30A4_U+30E4_U+30FC 1
 62
     7
420
 16777215
370
     9
100
AcDbSpline
210
0.0
220
0.0
230
1.0
 70
    11
 71
     3
 72
    17
 73
    13
 74
     0
 42
0.0000000001
 43
0.0000000001
 12
1.0
 22
0.0
 32
0.0
 13
1.0
 23
0.0
 33
0.0
 40
0.0
 40
0.0
 40
0.0
 40
0.0
 40
1.0
 40
1.0
 40
1.0
 40
2.0
 40
2.0
 40
2.0
 40
3.0
 40
3.0
 40
3.0
 40
4.0
 40
4.0
 40
4.0
 40
4.0
 10
102.4068354429395
 20
-124.3445358022473
 30
0.0
 10
102.4068354429395
 20
-124.2893966355942
 30
0.0
 10
102.3620679440816
 20
-124.2446291356057
 30
0.0
 10
102.3069287788217
 20
-124.2446291356057
 30
0.0
 10
102.2518248913386
 20
-124.2446291356057
 30
0.0
 10
102.2070221147038
 20
-124.2893966355942
 30
0.0
 10
102.2070221147038
 20
-124.3445358022473
 30
0.0
 10
102.2070221147038
 20
-124.3996396911222
 30
0.0
 10
102.2518248913386
 20
-124.4444424688889
 30
0.0
 10
102.3069287788217
 20
-124.4444424688889
 30
0.0
 10
102.3620679440816
 20
-124.4444424688889
 30
0.0
 10
102.4068354429395
 20
-124.3996396911222
 30
0.0
 10
102.4068354429395
 20
-124.3445358022473
 30
0.0
  0
SPLINE
  5
42
330
1F
100
AcDbEntity
  8
_U+30EC_U+30A4_U+30E4_U+30FC 1
 62
     7
420
 16777215
370
     9
100
AcDbSpline
210
0.0
220
0.0
230
1.0
 70
    11
 71
     3
 72
    17
 73
    13
 74
     0
 42
0.0000000001
 43
0.0000000001
 12
1.0
 22
0.0
 32
0.0
 13
1.0
 23
0.0
 33
0.0
 40
0.0
 40
0.0
 40
0.0
 40
0.0
 40
1.0
 40
1.0
 40
1.0
 40
2.0
 40
2.0
 40
2.0
 40
3.0
 40
3.0
 40
3.0
 40
4.0
 40
4.0
 40
4.0
 40
4.0
 10
106.5781503365204
 20
-135.1900182995358
 30
0.0
 10
106.5781503365204
 20
-135.1342088551054
 30
0.0
 10
106.5333828376625
 20
-135.0901116328942
 30
0.0
 10
106.4782436724026
 20
-135.0901116328942
 30
0.0
 10
106.4231397849195
 20
-135.0901116328942
 30
0.0
 10
106.3783370082847
 20
-135.1342088551054
 30
0.0
 10
106.3783370082847
 20
-135.1900182995358
 30
0.0
 10
106.3783370082847
 20
-135.2451574661889
 30
0.0
 10
106.4231397849195
 20
-135.2899249661775
 30
0.0
 10
106.4782436724026
 20
-135.2899249661775
 30
0.0
 10
106.5333828376625
 20
-135.2899249661775
 30
0.0
 10
106.5781503365204
 20
-135.2451574661889
 30
0.0
 10
106.5781503365204
 20
-135.1900182995358
 30
0.0
  0
SPLINE
  5
43
330
1F
100
AcDbEntity
  8
_U+30EC_U+30A4_U+30E4_U+30FC 1
 62
     7
420
 16777215
370
     9
100
AcDbSpline
210
0.0
220
0.0
230
1.0
 70
    11
 71
     3
 72
    17
 73
    13
 74
     0
 42
0.0000000001
 43
0.0000000001
 12
1.0
 22
0.0
 32
0.0
 13
1.0
 23
0.0
 33
0.0
 40
0.0
 40
0.0
 40
0.0
 40
0.0
 40
1.0
 40
1.0
 40
1.0
 40
2.0
 40
2.0
 40
2.0
 40
3.0
 40
3.0
 40
3.0
 40
4.0
 40
4.0
 40
4.0
 40
4.0
 10
106.5781503365204
 20
-129.1852113565923
 30
0.0
 10
106.5781503365204
 20
-129.1294019121619
 30
0.0
 10
106.5333828376625
 20
-129.0853046899507
 30
0.0
 10
106.4782436724026
 20
-129.0853046899507
 30
0.0
 10
106.4231397849195
 20
-129.0853046899507
 30
0.0
 10
106.3783370082847
 20
-129.1294019121619
 30
0.0
 10
106.3783370082847
 20
-129.1852113565923
 30
0.0
 10
106.3783370082847
 20
-129.2403505232454
 30
0.0
 10
106.4231397849195
 20
-129.2851180232346
 30
0.0
 10
106.4782436724026
 20
-129.2851180232346
 30
0.0
 10
106.5333828376625
 20
-129.2851180232346
 30
0.0
 10
106.5781503365204
 20
-129.2403505232454
 30
0.0
 10
106.5781503365204
 20
-129.1852113565923
 30
0.0
  0
SPLINE
  5
44
330
1F
100
AcDbEntity
  8
_U+30EC_U+30A4_U+30E4_U+30FC 1
 62
     7
420
 16777215
370
     9
100
AcDbSpline
210
0.0
220
0.0
230
1.0
 70
    11
 71
     3
 72
    17
 73
    13
 74
     0
 42
0.0000000001
 43
0.0000000001
 12
1.0
 22
0.0
 32
0.0
 13
1.0
 23
0.0
 33
0.0
 40
0.0
 40
0.0
 40
0.0
 40
0.0
 40
1.0
 40
1.0
 40
1.0
 40
2.0
 40
2.0
 40
2.0
 40
3.0
 40
3.0
 40
3.0
 40
4.0
 40
4.0
 40
4.0
 40
4.0
 10
74.40820449057745
 20
-124.3445358022473
 30
0.0
 10
74.40820449057745
 20
-124.2893966355942
 30
0.0
 10
74.36340171394268
 20
-124.2446291356057
 30
0.0
 10
74.30829782645961
 20
-124.2446291356057
 30
0.0
 10
74.25315866119966
 20
-124.2446291356057
 30
0.0
 10
74.20839116234177
 20
-124.2893966355942
 30
0.0
 10
74.20839116234177
 20
-124.3445358022473
 30
0.0
 10
74.20839116234177
 20
-124.3996396911222
 30
0.0
 10
74.25315866119966
 20
-124.4444424688889
 30
0.0
 10
74.30829782645961
 20
-124.4444424688889
 30
0.0
 10
74.36340171394268
 20
-124.4444424688889
 30
0.0
 10
74.40820449057745
 20
-124.3996396911222
 30
0.0
 10
74.40820449057745
 20
-124.3445358022473
 30
0.0
  0
SPLINE
  5
45
330
1F
100
AcDbEntity
  8
_U+30EC_U+30A4_U+30E4_U+30FC 1
 62
     7
420
 16777215
370
     9
100
AcDbSpline
210
0.0
220
0.0
230
1.0
 70
    11
 71
     3
 72
    17
 73
    13
 74
     0
 42
0.0000000001
 43
0.0000000001
 12
1.0
 22
0.0
 32
0.0
 13
1.0
 23
0.0
 33
0.0
 40
0.0
 40
0.0
 40
0.0
 40
0.0
 40
1.0
 40
1.0
 40
1.0
 40
2.0
 40
2.0
 40
2.0
 40
3.0
 40
3.0
 40
3.0
 40
4.0
 40
4.0
 40
4.0
 40
4.0
 10
106.5781503365204
 20
-127.2160058015293
 30
0.0
 10
106.5781503365204
 20
-127.1605491348766
 30
0.0
 10
106.5333828376625
 20
-127.1157463571099
 30
0.0
 10
106.4782436724026
 20
-127.1157463571099
 30
0.0
 10
106.4231397849195
 20
-127.1157463571099
 30
0.0
 10
106.3783370082847
 20
-127.1605491348766
 30
0.0
 10
106.3783370082847
 20
-127.2160058015293
 30
0.0
 10
106.3783370082847
 20
-127.2711449681823
 30
0.0
 10
106.4231397849195
 20
-127.3159124681709
 30
0.0
 10
106.4782436724026
 20
-127.3159124681709
 30
0.0
 10
106.5333828376625
 20
-127.3159124681709
 30
0.0
 10
106.5781503365204
 20
-127.2711449681823
 30
0.0
 10
106.5781503365204
 20
-127.2160058015293
 30
0.0
  0
POLYLINE
  5
46
330
1F
100
AcDbEntity
  8
_U+30EC_U+30A4_U+30E4_U+30FC 1
 62
     7
420
 16777215
370
     9
100
AcDb2dPolyline
 66
     1
 10
0.0
 20
0.0
 30
0.0
  0
VERTEX
  5
47
330
46
100
AcDbEntity
  8
_U+30EC_U+30A4_U+30E4_U+30FC 1
 62
     7
420
 16777215
370
     9
100
AcDbVertex
100
AcDb2dVertex
 10
74.30829782645961
 20
-124.3445358022473
 30
0.0
  0
VERTEX
  5
48
330
46
100
AcDbEntity
  8
_U+30EC_U+30A4_U+30E4_U+30FC 1
 62
     7
420
 16777215
370
     9
100
AcDbVertex
100
AcDb2dVertex
 10
84.3083834046695
 20
-124.3445358022473
 30
0.0
  0
SEQEND
  5
49
330
46
100
AcDbEntity
  8
_U+30EC_U+30A4_U+30E4_U+30FC 1
 62
     7
420
 16777215
370
     9
  0
POLYLINE
  5
4A
330
1F
100
AcDbEntity
  8
_U+30EC_U+30A4_U+30E4_U+30FC 1
 62
     7
420
 16777215
370
     9
100
AcDb2dPolyline
 66
     1
 10
0.0
 20
0.0
 30
0.0
  0
VERTEX
  5
4B
330
4A
100
AcDbEntity
  8
_U+30EC_U+30A4_U+30E4_U+30FC 1
 62
     7
420
 16777215
370
     9
100
AcDbVertex
100
AcDb2dVertex
 10
92.30790153391813
 20
-124.3445358022473
 30
0.0
  0
VERTEX
  5
4C
330
4A
100
AcDbEntity
  8
_U+30EC_U+30A4_U+30E4_U+30FC 1
 62
     7
420
 16777215
370
     9
100
AcDbVertex
100
AcDb2dVertex
 10
102.3083046121199
 20
-124.3445358022473
 30
0.0
  0
SEQEND
  5
4D
330
4A
100
AcDbEntity
  8
_U+30EC_U+30A4_U+30E4_U+30FC 1
 62
     7
420
 16777215
370
     9
  0
POLYLINE
  5
4E
330
1F
100
AcDbEntity
  8
_U+30EC_U+30A4_U+30E4_U+30FC 1
 62
     7
420
 16777215
370
     9
100
AcDb2dPolyline
 66
     1
 10
0.0
 20
0.0
 30
0.0
  0
VERTEX
  5
4F
330
4E
100
AcDbEntity
  8
_U+30EC_U+30A4_U+30E4_U+30FC 1
 62
     7
420
 16777215
370
     9
100
AcDbVertex
100
AcDb2dVertex
 10
84.3083834046695
 20
-124.3445358022473
 30
0.0
  0
VERTEX
  5
50
330
4E
100
AcDbEntity
  8
_U+30EC_U+30A4_U+30E4_U+30FC 1
 62
     7
420
 16777215
370
     9
100
AcDbVertex
100
AcDb2dVertex
 10
92.30790153391813
 20
-124.3445358022473
 30
0.0
  0
SEQEND
  5
51
330
4E
100
AcDbEntity
  8
_U+30EC_U+30A4_U+30E4_U+30FC 1
 62
     7
420
 16777215
370
     9
  0
POLYLINE
  5
52
330
1F
100
AcDbEntity
  8
_U+30EC_U+30A4_U+30E4_U+30FC 1
 62
     7
420
 16777215
370
     9
100
AcDb2dPolyline
 66
     1
 10
0.0
 20
0.0
 30
0.0
  0
VERTEX
  5
53
330
52
100
AcDbEntity
  8
_U+30EC_U+30A4_U+30E4_U+30FC 1
 62
     7
420
 16777215
370
     9
100
AcDbVertex
100
AcDb2dVertex
 10
74.30829782645961
 20
-122.0845355250343
 30
0.0
  0
VERTEX
  5
54
330
52
100
AcDbEntity
  8
_U+30EC_U+30A4_U+30E4_U+30FC 1
 62
     7
420
 16777215
370
     9
100
AcDbVertex
100
AcDb2dVertex
 10
74.30829782645961
 20
-125.3442727464417
 30
0.0
  0
SEQEND
  5
55
330
52
100
AcDbEntity
  8
_U+30EC_U+30A4_U+30E4_U+30FC 1
 62
     7
420
 16777215
370
     9
  0
SPLINE
  5
56
330
1F
100
AcDbEntity
  8
_U+30EC_U+30A4_U+30E4_U+30FC 1
 62
     7
420
 16777215
370
     9
100
AcDbSpline
210
0.0
220
0.0
230
1.0
 70
    11
 71
     3
 72
    17
 73
    13
 74
     0
 42
0.0000000001
 43
0.0000000001
 12
1.0
 22
0.0
 32
0.0
 13
1.0
 23
0.0
 33
0.0
 40
0.0
 40
0.0
 40
0.0
 40
0.0
 40
1.0
 40
1.0
 40
1.0
 40
2.0
 40
2.0
 40
2.0
 40
3.0
 40
3.0
 40
3.0
 40
4.0
 40
4.0
 40
4.0
 40
4.0
 10
84.40811367990295
 20
-124.3445358022473
 30
0.0
 10
84.40811367990295
 20
-124.2893966355942
 30
0.0
 10
84.36331090326819
 20
-124.2446291356057
 30
0.0
 10
84.30820701578511
 20
-124.2446291356057
 30
0.0
 10
84.25306785052517
 20
-124.2446291356057
 30
0.0
 10
84.20830035166728
 20
-124.2893966355942
 30
0.0
 10
84.20830035166728
 20
-124.3445358022473
 30
0.0
 10
84.20830035166728
 20
-124.3996396911222
 30
0.0
 10
84.25306785052517
 20
-124.4444424688889
 30
0.0
 10
84.30820701578511
 20
-124.4444424688889
 30
0.0
 10
84.36331090326819
 20
-124.4444424688889
 30
0.0
 10
84.40811367990295
 20
-124.3996396911222
 30
0.0
 10
84.40811367990295
 20
-124.3445358022473
 30
0.0
  0
POLYLINE
  5
57
330
1F
100
AcDbEntity
  8
_U+30EC_U+30A4_U+30E4_U+30FC 1
 62
     7
420
 16777215
370
     9
100
AcDb2dPolyline
 66
     1
 10
0.0
 20
0.0
 30
0.0
  0
VERTEX
  5
58
330
57
100
AcDbEntity
  8
_U+30EC_U+30A4_U+30E4_U+30FC 1
 62
     7
420
 16777215
370
     9
100
AcDbVertex
100
AcDb2dVertex
 10
84.30820701578511
 20
-122.0845355250343
 30
0.0
  0
VERTEX
  5
59
330
57
100
AcDbEntity
  8
_U+30EC_U+30A4_U+30E4_U+30FC 1
 62
     7
420
 16777215
370
     9
100
AcDbVertex
100
AcDb2dVertex
 10
84.30820701578511
 20
-125.3442727464417
 30
0.0
  0
SEQEND
  5
5A
330
57
100
AcDbEntity
  8
_U+30EC_U+30A4_U+30E4_U+30FC 1
 62
     7
420
 16777215
370
     9
  0
SPLINE
  5
5B
330
1F
100
AcDbEntity
  8
_U+30EC_U+30A4_U+30E4_U+30FC 1
 62
     7
420
 16777215
370
     9
100
AcDbSpline
210
0.0
220
0.0
230
1.0
 70
    11
 71
     3
 72
    17
 73
    13
 74
     0
 42
0.0000000001
 43
0.0000000001
 12
1.0
 22
0.0
 32
0.0
 13
1.0
 23
0.0
 33
0.0
 40
0.0
 40
0.0
 40
0.0
 40
0.0
 40
1.0
 40
1.0
 40
1.0
 40
2.0
 40
2.0
 40
2.0
 40
3.0
 40
3.0
 40
3.0
 40
4.0
 40
4.0
 40
4.0
 40
4.0
 10
92.40780819803597
 20
-124.3445358022473
 30
0.0
 10
92.40780819803597
 20
-124.2893966355942
 30
0.0
 10
92.3630054214012
 20
-124.2446291356057
 30
0.0
 10
92.30790153391813
 20
-124.2446291356057
 30
0.0
 10
92.25276236865818
 20
-124.2446291356057
 30
0.0
 10
92.20799719917036
 20
-124.2893966355942
 30
0.0
 10
92.20799719917036
 20
-124.3445358022473
 30
0.0
 10
92.20799719917036
 20
-124.3996396911222
 30
0.0
 10
92.25276236865818
 20
-124.4444424688889
 30
0.0
 10
92.30790153391813
 20
-124.4444424688889
 30
0.0
 10
92.3630054214012
 20
-124.4444424688889
 30
0.0
 10
92.40780819803597
 20
-124.3996396911222
 30
0.0
 10
92.40780819803597
 20
-124.3445358022473
 30
0.0
  0
POLYLINE
  5
5C
330
1F
100
AcDbEntity
  8
_U+30EC_U+30A4_U+30E4_U+30FC 1
 62
     7
420
 16777215
370
     9
100
AcDb2dPolyline
 66
     1
 10
0.0
 20
0.0
 30
0.0
  0
VERTEX
  5
5D
330
5C
100
AcDbEntity
  8
_U+30EC_U+30A4_U+30E4_U+30FC 1
 62
     7
420
 16777215
370
     9
100
AcDbVertex
100
AcDb2dVertex
 10
92.30790153391813
 20
-122.0845355250343
 30
0.0
  0
VERTEX
  5
5E
330
5C
100
AcDbEntity
  8
_U+30EC_U+30A4_U+30E4_U+30FC 1
 62
     7
420
 16777215
370
     9
100
AcDbVertex
100
AcDb2dVertex
 10
92.30790153391813
 20
-125.3442727464417
 30
0.0
  0
SEQEND
  5
5F
330
5C
100
AcDbEntity
  8
_U+30EC_U+30A4_U+30E4_U+30FC 1
 62
     7
420
 16777215
370
     9
  0
POLYLINE
  5
60
330
1F
100
AcDbEntity
  8
_U+30EC_U+30A4_U+30E4_U+30FC 1
 62
     7
420
 16777215
370
     9
100
AcDb2dPolyline
 66
     1
 10
0.0
 20
0.0
 30
0.0
  0
VERTEX
  5
61
330
60
100
AcDbEntity
  8
_U+30EC_U+30A4_U+30E4_U+30FC 1
 62
     7
420
 16777215
370
     9
100
AcDbVertex
100
AcDb2dVertex
 10
102.3069287788217
 20
-122.3842555249596
 30
0.0
  0
VERTEX
  5
62
330
60
100
AcDbEntity
  8
_U+30EC_U+30A4_U+30E4_U+30FC 1
 62
     7
420
 16777215
370
     9
100
AcDbVertex
100
AcDb2dVertex
 10
102.3069287788217
 20
-125.3442727464417
 30
0.0
  0
SEQEND
  5
63
330
60
100
AcDbEntity
  8
_U+30EC_U+30A4_U+30E4_U+30FC 1
 62
     7
420
 16777215
370
     9
  0
INSERT
  5
65
330
1F
100
AcDbEntity
  8
_U+30EC_U+30A4_U+30E4_U+30FC 1
100
AcDbBlockReference
  2
block 2
 10
0.0
 20
0.0
 30
0.0
  0
INSERT
  5
6D
330
1F
100
AcDbEntity
  8
_U+30EC_U+30A4_U+30E4_U+30FC 1
100
AcDbBlockReference
  2
block 3
 10
0.0
 20
0.0
 30
0.0
  0
INSERT
  5
76
330
1F
100
AcDbEntity
  8
_U+30EC_U+30A4_U+30E4_U+30FC 1
100
AcDbBlockReference
  2
block 4
 10
0.0
 20
0.0
 30
0.0
  0
POLYLINE
  5
7E
330
1F
100
AcDbEntity
  8
_U+30EC_U+30A4_U+30E4_U+30FC 1
 62
     7
420
 16777215
370
     9
100
AcDb2dPolyline
 66
     1
 10
0.0
 20
0.0
 30
0.0
  0
VERTEX
  5
7F
330
7E
100
AcDbEntity
  8
_U+30EC_U+30A4_U+30E4_U+30FC 1
 62
     7
420
 16777215
370
     9
100
AcDbVertex
100
AcDb2dVertex
 10
106.4782436724026
 20
-129.1852113565923
 30
0.0
  0
VERTEX
  5
80
330
7E
100
AcDbEntity
  8
_U+30EC_U+30A4_U+30E4_U+30FC 1
 62
     7
420
 16777215
370
     9
100
AcDbVertex
100
AcDb2dVertex
 10
106.4782436724026
 20
-135.1900182995358
 30
0.0
  0
SEQEND
  5
81
330
7E
100
AcDbEntity
  8
_U+30EC_U+30A4_U+30E4_U+30FC 1
 62
     7
420
 16777215
370
     9
  0
POLYLINE
  5
82
330
1F
100
AcDbEntity
  8
_U+30EC_U+30A4_U+30E4_U+30FC 1
 62
     7
420
 16777215
370
     9
100
AcDb2dPolyline
 66
     1
 10
0.0
 20
0.0
 30
0.0
  0
VERTEX
  5
83
330
82
100
AcDbEntity
  8
_U+30EC_U+30A4_U+30E4_U+30FC 1
 62
     7
420
 16777215
370
     9
100
AcDbVertex
100
AcDb2dVertex
 10
106.4782436724026
 20
-123.6410263579787
 30
0.0
  0
VERTEX
  5
84
330
82
100
AcDbEntity
  8
_U+30EC_U+30A4_U+30E4_U+30FC 1
 62
     7
420
 16777215
370
     9
100
AcDbVertex
100
AcDb2dVertex
 10
106.4782436724026
 20
-129.1115160788331
 30
0.0
  0
SEQEND
  5
85
330
82
100
AcDbEntity
  8
_U+30EC_U+30A4_U+30E4_U+30FC 1
 62
     7
420
 16777215
370
     9
  0
POLYLINE
  5
86
330
1F
100
AcDbEntity
  8
_U+30EC_U+30A4_U+30E4_U+30FC 1
 62
     7
420
 16777215
370
     9
100
AcDb2dPolyline
 66
     1
 10
0.0
 20
0.0
 30
0.0
  0
VERTEX
  5
87
330
86
100
AcDbEntity
  8
_U+30EC_U+30A4_U+30E4_U+30FC 1
 62
     7
420
 16777215
370
     9
100
AcDbVertex
100
AcDb2dVertex
 10
107.4456308699447
 20
-127.1843263570928
 30
0.0
  0
VERTEX
  5
88
330
86
100
AcDbEntity
  8
_U+30EC_U+30A4_U+30E4_U+30FC 1
 62
     7
420
 16777215
370
     9
100
AcDbVertex
100
AcDb2dVertex
 10
104.4862840009995
 20
-127.1843263570928
 30
0.0
  0
SEQEND
  5
89
330
86
100
AcDbEntity
  8
_U+30EC_U+30A4_U+30E4_U+30FC 1
 62
     7
420
 16777215
370
     9
  0
POLYLINE
  5
8A
330
1F
100
AcDbEntity
  8
_U+30EC_U+30A4_U+30E4_U+30FC 1
 62
     7
420
 16777215
370
     9
100
AcDb2dPolyline
 66
     1
 10
0.0
 20
0.0
 30
0.0
  0
VERTEX
  5
8B
330
8A
100
AcDbEntity
  8
_U+30EC_U+30A4_U+30E4_U+30FC 1
 62
     7
420
 16777215
370
     9
100
AcDbVertex
100
AcDb2dVertex
 10
107.4456308699447
 20
-135.1900182995358
 30
0.0
  0
VERTEX
  5
8C
330
8A
100
AcDbEntity
  8
_U+30EC_U+30A4_U+30E4_U+30FC 1
 62
     7
420
 16777215
370
     9
100
AcDbVertex
100
AcDb2dVertex
 10
101.3064888635622
 20
-135.1900182995358
 30
0.0
  0
SEQEND
  5
8D
330
8A
100
AcDbEntity
  8
_U+30EC_U+30A4_U+30E4_U+30FC 1
 62
     7
420
 16777215
370
     9
  0
POLYLINE
  5
8E
330
1F
100
AcDbEntity
  8
_U+30EC_U+30A4_U+30E4_U+30FC 1
 62
     7
420
 16777215
370
     9
100
AcDb2dPolyline
 66
     1
 10
0.0
 20
0.0
 30
0.0
  0
VERTEX
  5
8F
330
8E
100
AcDbEntity
  8
_U+30EC_U+30A4_U+30E4_U+30FC 1
 62
     7
420
 16777215
370
     9
100
AcDbVertex
100
AcDb2dVertex
 10
107.4456308699447
 20
-129.1852113565923
 30
0.0
  0
VERTEX
  5
90
330
8E
100
AcDbEntity
  8
_U+30EC_U+30A4_U+30E4_U+30FC 1
 62
     7
420
 16777215
370
     9
100
AcDbVertex
100
AcDb2dVertex
 10
104.4862840009995
 20
-129.1852113565923
 30
0.0
  0
SEQEND
  5
91
330
8E
100
AcDbEntity
  8
_U+30EC_U+30A4_U+30E4_U+30FC 1
 62
     7
420
 16777215
370
     9
  0
INSERT
  5
93
330
1F
100
AcDbEntity
  8
_U+30EC_U+30A4_U+30E4_U+30FC 1
100
AcDbBlockReference
  2
block 5
 10
0.0
 20
0.0
 30
0.0
  0
INSERT
  5
9A
330
1F
100
AcDbEntity
  8
_U+30EC_U+30A4_U+30E4_U+30FC 1
100
AcDbBlockReference
  2
block 6
 10
0.0
 20
0.0
 30
0.0
  0
POLYLINE
  5
9F
330
1F
100
AcDbEntity
  8
_U+30EC_U+30A4_U+30E4_U+30FC 1
 62
     7
420
 16777215
370
     9
100
AcDb2dPolyline
 66
     1
 10
0.0
 20
0.0
 30
0.0
  0
VERTEX
  5
A0
330
9F
100
AcDbEntity
  8
_U+30EC_U+30A4_U+30E4_U+30FC 1
 62
     7
420
 16777215
370
     9
100
AcDbVertex
100
AcDb2dVertex
 10
86.64433886722773
 20
-129.8949296897483
 30
0.0
  0
VERTEX
  5
A1
330
9F
100
AcDbEntity
  8
_U+30EC_U+30A4_U+30E4_U+30FC 1
 62
     7
420
 16777215
370
     9
100
AcDbVertex
100
AcDb2dVertex
 10
81.49406347646878
 20
-129.8949296897483
 30
0.0
  0
SEQEND
  5
A2
330
9F
100
AcDbEntity
  8
_U+30EC_U+30A4_U+30E4_U+30FC 1
 62
     7
420
 16777215
370
     9
  0
SPLINE
  5
A3
330
1F
100
AcDbEntity
  8
_U+30EC_U+30A4_U+30E4_U+30FC 1
 62
     7
420
 16777215
370
     9
100
AcDbSpline
210
0.0
220
0.0
230
1.0
 70
    11
 71
     3
 72
    17
 73
    13
 74
     0
 42
0.0000000001
 43
0.0000000001
 12
1.0
 22
0.0
 32
0.0
 13
1.0
 23
0.0
 33
0.0
 40
0.0
 40
0.0
 40
0.0
 40
0.0
 40
1.0
 40
1.0
 40
1.0
 40
2.0
 40
2.0
 40
2.0
 40
3.0
 40
3.0
 40
3.0
 40
4.0
 40
4.0
 40
4.0
 40
4.0
 10
82.40444178657643
 20
-129.8949296897483
 30
0.0
 10
82.40444178657643
 20
-129.8391202453178
 30
0.0
 10
82.35963900994167
 20
-129.7950230231067
 30
0.0
 10
82.3045351224586
 20
-129.7950230231067
 30
0.0
 10
82.24908053499327
 20
-129.7950230231067
 30
0.0
 10
82.20427775722686
 20
-129.8391202453178
 30
0.0
 10
82.20427775722686
 20
-129.8949296897483
 30
0.0
 10
82.20427775722686
 20
-129.9500335786238
 30
0.0
 10
82.24908053499327
 20
-129.9948363563899
 30
0.0
 10
82.3045351224586
 20
-129.9948363563899
 30
0.0
 10
82.35963900994167
 20
-129.9948363563899
 30
0.0
 10
82.40444178657643
 20
-129.9500335786238
 30
0.0
 10
82.40444178657643
 20
-129.8949296897483
 30
0.0
  0
SPLINE
  5
A4
330
1F
100
AcDbEntity
  8
_U+30EC_U+30A4_U+30E4_U+30FC 1
 62
     7
420
 16777215
370
     9
100
AcDbSpline
210
0.0
220
0.0
230
1.0
 70
    11
 71
     3
 72
    17
 73
    13
 74
     0
 42
0.0000000001
 43
0.0000000001
 12
1.0
 22
0.0
 32
0.0
 13
1.0
 23
0.0
 33
0.0
 40
0.0
 40
0.0
 40
0.0
 40
0.0
 40
1.0
 40
1.0
 40
1.0
 40
2.0
 40
2.0
 40
2.0
 40
3.0
 40
3.0
 40
3.0
 40
4.0
 40
4.0
 40
4.0
 40
4.0
 10
83.40456676106112
 20
-129.8949296897483
 30
0.0
 10
83.40456676106112
 20
-129.8391202453178
 30
0.0
 10
83.35976398442635
 20
-129.7950230231067
 30
0.0
 10
83.30466009694328
 20
-129.7950230231067
 30
0.0
 10
83.24916815391455
 20
-129.7950230231067
 30
0.0
 10
83.20440275697652
 20
-129.8391202453178
 30
0.0
 10
83.20440275697652
 20
-129.8949296897483
 30
0.0
 10
83.20440275697652
 20
-129.9500335786238
 30
0.0
 10
83.24916815391455
 20
-129.9948363563899
 30
0.0
 10
83.30466009694328
 20
-129.9948363563899
 30
0.0
 10
83.35976398442635
 20
-129.9948363563899
 30
0.0
 10
83.40456676106112
 20
-129.9500335786238
 30
0.0
 10
83.40456676106112
 20
-129.8949296897483
 30
0.0
  0
INSERT
  5
A6
330
1F
100
AcDbEntity
  8
_U+30EC_U+30A4_U+30E4_U+30FC 1
100
AcDbBlockReference
  2
block 7
 10
0.0
 20
0.0
 30
0.0
  0
SPLINE
  5
AB
330
1F
100
AcDbEntity
  8
_U+30EC_U+30A4_U+30E4_U+30FC 1
 62
   179
420
  2234388
370
    25
100
AcDbSpline
210
0.0
220
0.0
230
1.0
 70
    11
 71
     3
 72
   107
 73
   103
 74
     0
 42
0.0000000001
 43
0.0000000001
 12
1.0
 22
0.0
 32
0.0
 13
1.0
 23
0.0
 33
0.0
 40
0.0
 40
0.0
 40
0.0
 40
0.0
 40
1.0
 40
1.0
 40
1.0
 40
2.0
 40
2.0
 40
2.0
 40
3.0
 40
3.0
 40
3.0
 40
4.0
 40
4.0
 40
4.0
 40
5.0
 40
5.0
 40
5.0
 40
6.0
 40
6.0
 40
6.0
 40
7.0
 40
7.0
 40
7.0
 40
8.0
 40
8.0
 40
8.0
 40
9.0
 40
9.0
 40
9.0
 40
10.0
 40
10.0
 40
10.0
 40
11.0
 40
11.0
 40
11.0
 40
12.0
 40
12.0
 40
12.0
 40
13.0
 40
13.0
 40
13.0
 40
14.0
 40
14.0
 40
14.0
 40
15.0
 40
15.0
 40
15.0
 40
16.0
 40
16.0
 40
16.0
 40
17.0
 40
17.0
 40
17.0
 40
18.0
 40
18.0
 40
18.0
 40
19.0
 40
19.0
 40
19.0
 40
20.0
 40
20.0
 40
20.0
 40
21.0
 40
21.0
 40
21.0
 40
22.0
 40
22.0
 40
22.0
 40
23.0
 40
23.0
 40
23.0
 40
24.0
 40
24.0
 40
24.0
 40
25.0
 40
25.0
 40
25.0
 40
26.0
 40
26.0
 40
26.0
 40
27.0
 40
27.0
 40
27.0
 40
28.0
 40
28.0
 40
28.0
 40
29.0
 40
29.0
 40
29.0
 40
30.0
 40
30.0
 40
30.0
 40
31.0
 40
31.0
 40
31.0
 40
32.0
 40
32.0
 40
32.0
 40
33.0
 40
33.0
 40
33.0
 40
34.0
 40
34.0
 40
34.0
 40
34.0
 10
83.3044837080589
 20
-134.1899285775637
 30
0.0
 10
83.3044837080589
 20
-134.1899285775637
 30
0.0
 10
88.00842247694031
 20
-134.1899285775637
 30
0.0
 10
88.00842247694031
 20
-134.1899285775637
 30
0.0
 10
88.00842247694031
 20
-134.1899285775637
 30
0.0
 10
88.30814246929381
 20
-134.4899660774888
 30
0.0
 10
88.30814246929381
 20
-134.4899660774888
 30
0.0
 10
88.30814246929381
 20
-134.4899660774888
 30
0.0
 10
88.6082152394161
 20
-134.1899285775637
 30
0.0
 10
88.6082152394161
 20
-134.1899285775637
 30
0.0
 10
88.6082152394161
 20
-134.1899285775637
 30
0.0
 10
93.30834400839471
 20
-134.1899285775637
 30
0.0
 10
93.30834400839471
 20
-134.1899285775637
 30
0.0
 10
93.30834400839471
 20
-134.1899285775637
 30
0.0
 10
93.30834400839471
 20
-128.4297024678926
 30
0.0
 10
93.30834400839471
 20
-128.4297024678926
 30
0.0
 10
93.30834400839471
 20
-128.4297024678926
 30
0.0
 10
92.3085718116788
 20
-128.4297024678926
 30
0.0
 10
92.3085718116788
 20
-128.4297024678926
 30
0.0
 10
92.3085718116788
 20
-127.739316356954
 30
0.0
 10
92.85978707539391
 20
-127.188101079314
 30
0.0
 10
93.5501731688918
 20
-127.188101079314
 30
0.0
 10
93.5501731688918
 20
-127.188101079314
 30
0.0
 10
93.5784306681709
 20
-127.1867252459812
 30
0.0
 10
93.5784306681709
 20
-127.1867252459812
 30
0.0
 10
93.5784306681709
 20
-127.1867252459812
 30
0.0
 10
101.5903665748805
 20
-127.1867252459812
 30
0.0
 10
101.5903665748805
 20
-127.1867252459812
 30
0.0
 10
101.5903665748805
 20
-127.1867252459812
 30
0.0
 10
102.3069287788217
 20
-128.4442016345555
 30
0.0
 10
102.3069287788217
 20
-128.4442016345555
 30
0.0
 10
102.3069287788217
 20
-128.4442016345555
 30
0.0
 10
102.3069287788217
 20
-128.4431433012225
 30
0.0
 10
102.3069287788217
 20
-128.4431433012225
 30
0.0
 10
102.3069287788217
 20
-128.4431433012225
 30
0.0
 10
102.3069287788217
 20
-129.1879630232587
 30
0.0
 10
102.3069287788217
 20
-129.1879630232587
 30
0.0
 10
102.3069287788217
 20
-129.1879630232587
 30
0.0
 10
101.3071565821058
 20
-129.1879630232587
 30
0.0
 10
101.3071565821058
 20
-129.1879630232587
 30
0.0
 10
101.3071565821058
 20
-129.1879630232587
 30
0.0
 10
100.8903143705181
 20
-128.4297024678926
 30
0.0
 10
100.8903143705181
 20
-128.4297024678926
 30
0.0
 10
100.8903143705181
 20
-128.4297024678926
 30
0.0
 10
100.8903143705181
 20
-128.4283266345598
 30
0.0
 10
100.8903143705181
 20
-128.4283266345598
 30
0.0
 10
100.8903143705181
 20
-128.4283266345598
 30
0.0
 10
94.30878886531181
 20
-128.4283266345598
 30
0.0
 10
94.30878886531181
 20
-128.4283266345598
 30
0.0
 10
94.30878886531181
 20
-128.4283266345598
 30
0.0
 10
94.30878886531181
 20
-128.4297024678926
 30
0.0
 10
94.30878886531181
 20
-128.4297024678926
 30
0.0
 10
94.30878886531181
 20
-128.4297024678926
 30
0.0
 10
94.30878886531181
 20
-135.1900182995358
 30
0.0
 10
94.30878886531181
 20
-135.1900182995358
 30
0.0
 10
94.30878886531181
 20
-135.1900182995358
 30
0.0
 10
82.3045351224586
 20
-135.1900182995358
 30
0.0
 10
82.3045351224586
 20
-135.1900182995358
 30
0.0
 10
82.3045351224586
 20
-135.1900182995358
 30
0.0
 10
82.3043587335742
 20
-135.1900182995358
 30
0.0
 10
82.3043587335742
 20
-135.1900182995358
 30
0.0
 10
82.3043587335742
 20
-135.1900182995358
 30
0.0
 10
82.3043587335742
 20
-128.4297024678926
 30
0.0
 10
82.3043587335742
 20
-128.4297024678926
 30
0.0
 10
82.3043587335742
 20
-128.4297024678926
 30
0.0
 10
82.3043587335742
 20
-128.4280091345595
 30
0.0
 10
82.3043587335742
 20
-128.4280091345595
 30
0.0
 10
82.3043587335742
 20
-128.4280091345595
 30
0.0
 10
75.89286973047825
 20
-128.4280091345595
 30
0.0
 10
75.89286973047825
 20
-128.4280091345595
 30
0.0
 10
75.89286973047825
 20
-128.4280091345595
 30
0.0
 10
75.89286973047825
 20
-128.4297024678926
 30
0.0
 10
75.89286973047825
 20
-128.4297024678926
 30
0.0
 10
75.89286973047825
 20
-128.4297024678926
 30
0.0
 10
75.3084228009443
 20
-129.1879630232587
 30
0.0
 10
75.3084228009443
 20
-129.1879630232587
 30
0.0
 10
75.3084228009443
 20
-129.1879630232587
 30
0.0
 10
74.30829782645961
 20
-129.1879630232587
 30
0.0
 10
74.30829782645961
 20
-129.1879630232587
 30
0.0
 10
74.30829782645961
 20
-129.1879630232587
 30
0.0
 10
74.30829782645961
 20
-128.4393685790013
 30
0.0
 10
74.30829782645961
 20
-128.4393685790013
 30
0.0
 10
74.30829782645961
 20
-128.4393685790013
 30
0.0
 10
75.3028860922855
 20
-127.1853494126483
 30
0.0
 10
75.3028860922855
 20
-127.1853494126483
 30
0.0
 10
75.3028860922855
 20
-127.1853494126483
 30
0.0
 10
75.3028860922855
 20
-127.1870780237589
 30
0.0
 10
75.3028860922855
 20
-127.1870780237589
 30
0.0
 10
75.3028860922855
 20
-127.1870780237589
 30
0.0
 10
83.1193106572275
 20
-127.1870780237589
 30
0.0
 10
83.1193106572275
 20
-127.1870780237589
 30
0.0
 10
83.1193106572275
 20
-127.1870780237589
 30
0.0
 10
83.04903732568698
 20
-127.1884538570918
 30
0.0
 10
83.04903732568698
 20
-127.1884538570918
 30
0.0
 10
83.73977619695366
 20
-127.1884538570918
 30
0.0
 10
84.3045734047667
 20
-127.739316356954
 30
0.0
 10
84.3045734047667
 20
-128.4297024678926
 30
0.0
 10
84.3045734047667
 20
-128.4297024678926
 30
0.0
 10
83.3044837080589
 20
-128.4297024678926
 30
0.0
 10
83.3044837080589
 20
-128.4297024678926
 30
0.0
 10
83.3044837080589
 20
-128.4297024678926
 30
0.0
 10
83.3044837080589
 20
-134.1899285775637
 30
0.0
 10
83.3044837080589
 20
-134.1899285775637
 30
0.0
  0
ENDSEC
  0
SECTION
  2
OBJECTS
  0
DICTIONARY
  5
C
330
0
100
AcDbDictionary
281
     1
  3
ACAD_GROUP
350
D
  3
ACAD_LAYOUT
350
1A
  3
ACAD_MATERIAL
350
3B
  3
ACAD_MLEADERSTYLE
350
AD
  3
ACAD_MLINESTYLE
350
17
  3
ACAD_PLOTSETTINGS
350
19
  3
ACAD_PLOTSTYLENAME
350
E
  3
ACAD_TABLESTYLE
350
AC
  3
ACAD_VISUALSTYLE
350
2A
  0
SUN
  5
3F
330
29
100
AcDbSun
 90
        1
290
     0
 63
     7
421
 16777215
 40
1.0
291
     1
 91
  2455826
 92
 54000000
292
     0
 70
     2
 71
   256
280
     1
  0
DICTIONARY
  5
D
102
{ACAD_REACTORS
330
C
102
}
330
C
100
AcDbDictionary
281
     1
  0
DICTIONARY
  5
1A
102
{ACAD_REACTORS
330
C
102
}
330
C
100
AcDbDictionary
281
     1
  3
Layout1
350
1E
  3
Layout2
350
26
  3
Model
350
22
  0
DICTIONARY
  5
3B
102
{ACAD_REACTORS
330
C
102
}
330
C
100
AcDbDictionary
281
     1
  3
ByBlock
350
3D
  3
ByLayer
350
3C
  3
Global
350
3E
  0
DICTIONARY
  5
AD
102
{ACAD_REACTORS
330
C
102
}
330
C
100
AcDbDictionary
281
     1
  0
DICTIONARY
  5
17
102
{ACAD_REACTORS
330
C
102
}
330
C
100
AcDbDictionary
281
     1
  3
Standard
350
18
  0
DICTIONARY
  5
19
102
{ACAD_REACTORS
330
C
102
}
330
C
100
AcDbDictionary
281
     1
  0
ACDBDICTIONARYWDFLT
  5
E
102
{ACAD_REACTORS
330
C
102
}
330
C
100
AcDbDictionary
281
     1
  3
Normal
350
F
100
AcDbDictionaryWithDefault
340
F
  0
DICTIONARY
  5
AC
102
{ACAD_REACTORS
330
C
102
}
330
C
100
AcDbDictionary
281
     1
  0
DICTIONARY
  5
2A
102
{ACAD_REACTORS
330
C
102
}
330
C
100
AcDbDictionary
281
     1
  3
2dWireframe
350
2F
  3
3D Hidden
350
31
  3
3dWireframe
350
30
  3
Basic
350
32
  3
Brighten
350
36
  3
ColorChange
350
3A
  3
Conceptual
350
34
  3
Dim
350
35
  3
Facepattern
350
39
  3
Flat
350
2B
  3
FlatWithEdges
350
2C
  3
Gouraud
350
2D
  3
GouraudWithEdges
350
2E
  3
Linepattern
350
38
  3
Realistic
350
33
  3
Thicken
350
37
  0
LAYOUT
  5
1E
102
{ACAD_REACTORS
330
1A
102
}
330
1A
100
AcDbPlotSettings
  1

  2
none_device
  4

  6

 40
0.0
 41
0.0
 42
0.0
 43
0.0
 44
0.0
 45
0.0
 46
0.0
 47
0.0
 48
0.0
 49
0.0
140
0.0
141
0.0
142
1.0
143
1.0
 70
   688
 72
     0
 73
     0
 74
     5
  7

 75
    16
 76
     0
 77
     2
 78
   300
147
1.0
148
0.0
149
0.0
100
AcDbLayout
  1
Layout1
 70
     1
 71
     1
 10
0.0
 20
0.0
 11
12.0
 21
9.0
 12
0.0
 22
0.0
 32
0.0
 14
1.000000000000000E+20
 24
1.000000000000000E+20
 34
1.000000000000000E+20
 15
-1.000000000000000E+20
 25
-1.000000000000000E+20
 35
-1.000000000000000E+20
146
0.0
 13
0.0
 23
0.0
 33
0.0
 16
1.0
 26
0.0
 36
0.0
 17
0.0
 27
1.0
 37
0.0
 76
     0
330
1B
  0
LAYOUT
  5
26
102
{ACAD_REACTORS
330
1A
102
}
330
1A
100
AcDbPlotSettings
  1

  2
none_device
  4

  6

 40
0.0
 41
0.0
 42
0.0
 43
0.0
 44
0.0
 45
0.0
 46
0.0
 47
0.0
 48
0.0
 49
0.0
140
0.0
141
0.0
142
1.0
143
1.0
 70
   688
 72
     0
 73
     0
 74
     5
  7

 75
    16
 76
     0
 77
     2
 78
   300
147
1.0
148
0.0
149
0.0
100
AcDbLayout
  1
Layout2
 70
     1
 71
     2
 10
0.0
 20
0.0
 11
0.0
 21
0.0
 12
0.0
 22
0.0
 32
0.0
 14
0.0
 24
0.0
 34
0.0
 15
0.0
 25
0.0
 35
0.0
146
0.0
 13
0.0
 23
0.0
 33
0.0
 16
1.0
 26
0.0
 36
0.0
 17
0.0
 27
1.0
 37
0.0
 76
     0
330
23
  0
LAYOUT
  5
22
102
{ACAD_REACTORS
330
1A
102
}
330
1A
100
AcDbPlotSettings
  1

  2
none_device
  4

  6

 40
0.0
 41
0.0
 42
0.0
 43
0.0
 44
0.0
 45
0.0
 46
0.0
 47
0.0
 48
0.0
 49
0.0
140
0.0
141
0.0
142
1.0
143
1.0
 70
  1712
 72
     0
 73
     0
 74
     0
  7

 75
     0
 76
     0
 77
     2
 78
   300
147
1.0
148
0.0
149
0.0
100
AcDbLayout
  1
Model
 70
     1
 71
     0
 10
0.0
 20
0.0
 11
12.0
 21
9.0
 12
0.0
 22
0.0
 32
0.0
 14
1.000000000000000E+20
 24
1.000000000000000E+20
 34
1.000000000000000E+20
 15
-1.000000000000000E+20
 25
-1.000000000000000E+20
 35
-1.000000000000000E+20
146
0.0
 13
0.0
 23
0.0
 33
0.0
 16
1.0
 26
0.0
 36
0.0
 17
0.0
 27
1.0
 37
0.0
 76
     0
330
1F
331
29
  0
MATERIAL
  5
3D
102
{ACAD_REACTORS
330
3B
102
}
330
3B
100
AcDbMaterial
  1
ByBlock
 72
     1
 94
      127
  0
MATERIAL
  5
3C
102
{ACAD_REACTORS
330
3B
102
}
330
3B
100
AcDbMaterial
  1
ByLayer
 72
     1
 94
      127
  0
MATERIAL
  5
3E
102
{ACAD_REACTORS
330
3B
102
}
330
3B
100
AcDbMaterial
  1
Global
 72
     1
 94
      127
  0
MLINESTYLE
  5
18
102
{ACAD_REACTORS
330
17
102
}
330
17
100
AcDbMlineStyle
  2
Standard
 70
     0
  3

 62
   256
 51
90.0
 52
90.0
 71
     2
 49
0.5
 62
   256
  6
BYLAYER
 49
-0.5
 62
   256
  6
BYLAYER
  0
ACDBPLACEHOLDER
  5
F
102
{ACAD_REACTORS
330
E
102
}
330
E
  0
VISUALSTYLE
  5
2F
102
{ACAD_REACTORS
330
2A
102
}
330
2A
100
AcDbVisualStyle
  2
2dWireframe
 70
     4
177
     2
291
     0
 71
     0
176
     1
 72
     2
176
     1
 73
     0
176
     1
 90
        0
176
     1
 40
-0.6
176
     1
 41
-30.0
176
     1
 62
     5
 63
     7
421
 16777215
176
     1
 74
     1
176
     1
 91
        4
176
     1
 64
     7
176
     1
 65
   257
176
     1
 75
     1
176
     1
175
     1
176
     1
 42
1.0
176
     1
 92
        0
176
     1
 66
   257
176
     1
 43
1.0
176
     1
 76
     1
176
     1
 77
     6
176
     1
 78
     2
176
     1
 67
     7
176
     1
 79
     5
176
     1
170
     0
176
     1
171
     0
176
     1
290
     0
176
     1
 93
        1
176
     1
 44
0.0
176
     1
173
     0
176
     1
  0
VISUALSTYLE
  5
31
102
{ACAD_REACTORS
330
2A
102
}
330
2A
100
AcDbVisualStyle
  2
3D Hidden
 70
     6
177
     2
291
     0
 71
     1
176
     1
 72
     2
176
     1
 73
     2
176
     1
 90
        0
176
     1
 40
-0.6
176
     1
 41
-30.0
176
     1
 62
     5
 63
     7
421
 16777215
176
     1
 74
     2
176
     1
 91
        2
176
     1
 64
     7
176
     1
 65
   257
176
     1
 75
     2
176
     1
175
     1
176
     1
 42
40.0
176
     1
 92
        0
176
     1
 66
   257
176
     1
 43
1.0
176
     1
 76
     1
176
     1
 77
     6
176
     1
 78
     2
176
     1
 67
     7
176
     1
 79
     3
176
     1
170
     0
176
     1
171
     0
176
     1
290
     0
176
     1
 93
        1
176
     1
 44
0.0
176
     1
173
     0
176
     1
  0
VISUALSTYLE
  5
30
102
{ACAD_REACTORS
330
2A
102
}
330
2A
100
AcDbVisualStyle
  2
3dWireframe
 70
     5
177
     2
291
     0
 71
     0
176
     1
 72
     2
176
     1
 73
     0
176
     1
 90
        0
176
     1
 40
-0.6
176
     1
 41
-30.0
176
     1
 62
     5
 63
     7
421
 16777215
176
     1
 74
     1
176
     1
 91
        4
176
     1
 64
     7
176
     1
 65
   257
176
     1
 75
     1
176
     1
175
     1
176
     1
 42
1.0
176
     1
 92
        0
176
     1
 66
   257
176
     1
 43
1.0
176
     1
 76
     1
176
     1
 77
     6
176
     1
 78
     2
176
     1
 67
     7
176
     1
 79
     5
176
     1
170
     0
176
     1
171
     0
176
     1
290
     0
176
     1
 93
        1
176
     1
 44
0.0
176
     1
173
     0
176
     1
  0
VISUALSTYLE
  5
32
102
{ACAD_REACTORS
330
2A
102
}
330
2A
100
AcDbVisualStyle
  2
Basic
 70
     7
177
     2
291
     1
 71
     1
176
     1
 72
     0
176
     1
 73
     1
176
     1
 90
        0
176
     1
 40
-0.6
176
     1
 41
-30.0
176
     1
 62
     5
 63
     7
421
 16777215
176
     1
 74
     0
176
     1
 91
        4
176
     1
 64
     7
176
     1
 65
   257
176
     1
 75
     1
176
     1
175
     1
176
     1
 42
1.0
176
     1
 92
        8
176
     1
 66
     7
176
     1
 43
1.0
176
     1
 76
     1
176
     1
 77
     6
176
     1
 78
     2
176
     1
 67
     7
176
     1
 79
     5
176
     1
170
     0
176
     1
171
     0
176
     1
290
     0
176
     1
 93
        1
176
     1
 44
0.0
176
     1
173
     0
176
     1
  0
VISUALSTYLE
  5
36
102
{ACAD_REACTORS
330
2A
102
}
330
2A
100
AcDbVisualStyle
  2
Brighten
 70
    12
177
     2
291
     1
 71
     2
176
     1
 72
     2
176
     1
 73
     0
176
     1
 90
        0
176
     1
 40
-0.6
176
     1
 41
-30.0
176
     1
 62
     5
 63
     7
421
 16777215
176
     1
 74
     1
176
     1
 91
        4
176
     1
 64
     7
176
     1
 65
   257
176
     1
 75
     1
176
     1
175
     1
176
     1
 42
1.0
176
     1
 92
        8
176
     1
 66
     7
176
     1
 43
1.0
176
     1
 76
     1
176
     1
 77
     6
176
     1
 78
     2
176
     1
 67
     7
176
     1
 79
     5
176
     1
170
     0
176
     1
171
     0
176
     1
290
     0
176
     1
 93
        1
176
     1
 44
50.0
176
     1
173
     0
176
     1
  0
VISUALSTYLE
  5
3A
102
{ACAD_REACTORS
330
2A
102
}
330
2A
100
AcDbVisualStyle
  2
ColorChange
 70
    16
177
     2
291
     1
 71
     2
176
     1
 72
     2
176
     1
 73
     3
176
     1
 90
        0
176
     1
 40
-0.6
176
     1
 41
-30.0
176
     1
 62
     5
 63
     8
421
  8421504
176
     1
 74
     1
176
     1
 91
        4
176
     1
 64
     7
176
     1
 65
   257
176
     1
 75
     1
176
     1
175
     1
176
     1
 42
1.0
176
     1
 92
        8
176
     1
 66
     8
424
  8421504
176
     1
 43
1.0
176
     1
 76
     1
176
     1
 77
     6
176
     1
 78
     2
176
     1
 67
     7
176
     1
 79
     5
176
     1
170
     0
176
     1
171
     0
176
     1
290
     0
176
     1
 93
        1
176
     1
 44
0.0
176
     1
173
     0
176
     1
  0
VISUALSTYLE
  5
34
102
{ACAD_REACTORS
330
2A
102
}
330
2A
100
AcDbVisualStyle
  2
Conceptual
 70
     9
177
     2
291
     0
 71
     3
176
     1
 72
     2
176
     1
 73
     0
176
     1
 90
        0
176
     1
 40
-0.6
176
     1
 41
-30.0
176
     1
 62
     5
 63
     7
421
 16777215
176
     1
 74
     2
176
     1
 91
        2
176
     1
 64
     7
176
     1
 65
   257
176
     1
 75
     1
176
     1
175
     1
176
     1
 42
40.0
176
     1
 92
        8
176
     1
 66
     7
176
     1
 43
1.0
176
     1
 76
     1
176
     1
 77
     6
176
     1
 78
     2
176
     1
 67
     7
176
     1
 79
     3
176
     1
170
     0
176
     1
171
     0
176
     1
290
     0
176
     1
 93
        1
176
     1
 44
0.0
176
     1
173
     0
176
     1
  0
VISUALSTYLE
  5
35
102
{ACAD_REACTORS
330
2A
102
}
330
2A
100
AcDbVisualStyle
  2
Dim
 70
    11
177
     2
291
     1
 71
     2
176
     1
 72
     2
176
     1
 73
     0
176
     1
 90
        0
176
     1
 40
-0.6
176
     1
 41
-30.0
176
     1
 62
     5
 63
     7
421
 16777215
176
     1
 74
     1
176
     1
 91
        4
176
     1
 64
     7
176
     1
 65
   257
176
     1
 75
     1
176
     1
175
     1
176
     1
 42
1.0
176
     1
 92
        8
176
     1
 66
     7
176
     1
 43
1.0
176
     1
 76
     1
176
     1
 77
     6
176
     1
 78
     2
176
     1
 67
     7
176
     1
 79
     5
176
     1
170
     0
176
     1
171
     0
176
     1
290
     0
176
     1
 93
        1
176
     1
 44
-50.0
176
     1
173
     0
176
     1
  0
VISUALSTYLE
  5
39
102
{ACAD_REACTORS
330
2A
102
}
330
2A
100
AcDbVisualStyle
  2
Facepattern
 70
    15
177
     2
291
     1
 71
     2
176
     1
 72
     2
176
     1
 73
     0
176
     1
 90
        0
176
     1
 40
-0.6
176
     1
 41
-30.0
176
     1
 62
     5
 63
     7
421
 16777215
176
     1
 74
     1
176
     1
 91
        4
176
     1
 64
     7
176
     1
 65
   257
176
     1
 75
     1
176
     1
175
     1
176
     1
 42
1.0
176
     1
 92
        8
176
     1
 66
     7
176
     1
 43
1.0
176
     1
 76
     1
176
     1
 77
     6
176
     1
 78
     2
176
     1
 67
     7
176
     1
 79
     5
176
     1
170
     0
176
     1
171
     0
176
     1
290
     0
176
     1
 93
        1
176
     1
 44
0.0
176
     1
173
     0
176
     1
  0
VISUALSTYLE
  5
2B
102
{ACAD_REACTORS
330
2A
102
}
330
2A
100
AcDbVisualStyle
  2
Flat
 70
     0
177
     2
291
     1
 71
     2
176
     1
 72
     1
176
     1
 73
     1
176
     1
 90
        2
176
     1
 40
-0.6
176
     1
 41
30.0
176
     1
 62
     5
 63
     7
421
 16777215
176
     1
 74
     0
176
     1
 91
        4
176
     1
 64
     7
176
     1
 65
   257
176
     1
 75
     1
176
     1
175
     1
176
     1
 42
1.0
176
     1
 92
        8
176
     1
 66
     7
176
     1
 43
1.0
176
     1
 76
     1
176
     1
 77
     6
176
     1
 78
     2
176
     1
 67
     7
176
     1
 79
     5
176
     1
170
     0
176
     1
171
     0
176
     1
290
     0
176
     1
 93
       13
176
     1
 44
0.0
176
     1
173
     0
176
     1
  0
VISUALSTYLE
  5
2C
102
{ACAD_REACTORS
330
2A
102
}
330
2A
100
AcDbVisualStyle
  2
FlatWithEdges
 70
     1
177
     2
291
     1
 71
     2
176
     1
 72
     1
176
     1
 73
     1
176
     1
 90
        2
176
     1
 40
-0.6
176
     1
 41
30.0
176
     1
 62
     5
 63
     7
421
 16777215
176
     1
 74
     1
176
     1
 91
        4
176
     1
 64
     7
176
     1
 65
   257
176
     1
 75
     1
176
     1
175
     1
176
     1
 42
1.0
176
     1
 92
        0
176
     1
 66
   257
176
     1
 43
1.0
176
     1
 76
     1
176
     1
 77
     6
176
     1
 78
     2
176
     1
 67
     7
176
     1
 79
     5
176
     1
170
     0
176
     1
171
     0
176
     1
290
     0
176
     1
 93
       13
176
     1
 44
0.0
176
     1
173
     0
176
     1
  0
VISUALSTYLE
  5
2D
102
{ACAD_REACTORS
330
2A
102
}
330
2A
100
AcDbVisualStyle
  2
Gouraud
 70
     2
177
     2
291
     1
 71
     2
176
     1
 72
     2
176
     1
 73
     1
176
     1
 90
        2
176
     1
 40
-0.6
176
     1
 41
30.0
176
     1
 62
     5
 63
     7
421
 16777215
176
     1
 74
     0
176
     1
 91
        4
176
     1
 64
     7
176
     1
 65
   257
176
     1
 75
     1
176
     1
175
     1
176
     1
 42
1.0
176
     1
 92
        0
176
     1
 66
     7
176
     1
 43
1.0
176
     1
 76
     1
176
     1
 77
     6
176
     1
 78
     2
176
     1
 67
     7
176
     1
 79
     5
176
     1
170
     0
176
     1
171
     0
176
     1
290
     0
176
     1
 93
       13
176
     1
 44
0.0
176
     1
173
     0
176
     1
  0
VISUALSTYLE
  5
2E
102
{ACAD_REACTORS
330
2A
102
}
330
2A
100
AcDbVisualStyle
  2
GouraudWithEdges
 70
     3
177
     2
291
     1
 71
     2
176
     1
 72
     2
176
     1
 73
     1
176
     1
 90
        2
176
     1
 40
-0.6
176
     1
 41
30.0
176
     1
 62
     5
 63
     7
421
 16777215
176
     1
 74
     1
176
     1
 91
        4
176
     1
 64
     7
176
     1
 65
   257
176
     1
 75
     1
176
     1
175
     1
176
     1
 42
1.0
176
     1
 92
        0
176
     1
 66
   257
176
     1
 43
1.0
176
     1
 76
     1
176
     1
 77
     6
176
     1
 78
     2
176
     1
 67
     7
176
     1
 79
     5
176
     1
170
     0
176
     1
171
     0
176
     1
290
     0
176
     1
 93
       13
176
     1
 44
0.0
176
     1
173
     0
176
     1
  0
VISUALSTYLE
  5
38
102
{ACAD_REACTORS
330
2A
102
}
330
2A
100
AcDbVisualStyle
  2
Linepattern
 70
    14
177
     2
291
     1
 71
     2
176
     1
 72
     2
176
     1
 73
     0
176
     1
 90
        0
176
     1
 40
-0.6
176
     1
 41
-30.0
176
     1
 62
     5
 63
     7
421
 16777215
176
     1
 74
     1
176
     1
 91
        4
176
     1
 64
     7
176
     1
 65
   257
176
     1
 75
     7
176
     1
175
     7
176
     1
 42
1.0
176
     1
 92
        8
176
     1
 66
     7
176
     1
 43
1.0
176
     1
 76
     1
176
     1
 77
     6
176
     1
 78
     2
176
     1
 67
     7
176
     1
 79
     5
176
     1
170
     0
176
     1
171
     0
176
     1
290
     0
176
     1
 93
        1
176
     1
 44
0.0
176
     1
173
     0
176
     1
  0
VISUALSTYLE
  5
33
102
{ACAD_REACTORS
330
2A
102
}
330
2A
100
AcDbVisualStyle
  2
Realistic
 70
     8
177
     2
291
     0
 71
     2
176
     1
 72
     2
176
     1
 73
     0
176
     1
 90
        0
176
     1
 40
-0.6
176
     1
 41
-30.0
176
     1
 62
     5
 63
     7
421
 16777215
176
     1
 74
     1
176
     1
 91
        0
176
     1
 64
     7
176
     1
 65
   257
176
     1
 75
     1
176
     1
175
     1
176
     1
 42
1.0
176
     1
 92
        8
176
     1
 66
     8
424
  7895160
176
     1
 43
1.0
176
     1
 76
     1
176
     1
 77
     6
176
     1
 78
     2
176
     1
 67
     7
176
     1
 79
     5
176
     1
170
     0
176
     1
171
     0
176
     1
290
     0
176
     1
 93
       13
176
     1
 44
0.0
176
     1
173
     0
176
     1
  0
VISUALSTYLE
  5
37
102
{ACAD_REACTORS
330
2A
102
}
330
2A
100
AcDbVisualStyle
  2
Thicken
 70
    13
177
     2
291
     1
 71
     2
176
     1
 72
     2
176
     1
 73
     0
176
     1
 90
        0
176
     1
 40
-0.6
176
     1
 41
-30.0
176
     1
 62
     5
 63
     7
421
 16777215
176
     1
 74
     1
176
     1
 91
        4
176
     1
 64
     7
176
     1
 65
   257
176
     1
 75
     1
176
     1
175
     1
176
     1
 42
1.0
176
     1
 92
       12
176
     1
 66
     7
176
     1
 43
1.0
176
     1
 76
     1
176
     1
 77
     6
176
     1
 78
     2
176
     1
 67
     7
176
     1
 79
     5
176
     1
170
     0
176
     1
171
     0
176
     1
290
     0
176
     1
 93
        1
176
     1
 44
0.0
176
     1
173
     0
176
     1
  0
ENDSEC
  0
EOF
