  0
SECTION
  2
HEADER
  9
$ACADVER
  1
AC1024
  9
$ACADMAINTVER
 70
     6
  9
$DWGCODEPAGE
  3
UNDEFINED
  9
$INSBASE
 10
0.0
 20
0.0
 30
0.0
  9
$EXTMIN
 10
1.000000000000000E+20
 20
1.000000000000000E+20
 30
1.000000000000000E+20
  9
$EXTMAX
 10
-1.000000000000000E+20
 20
-1.000000000000000E+20
 30
-1.000000000000000E+20
  9
$LIMMIN
 10
0.0
 20
0.0
  9
$LIMMAX
 10
12.0
 20
9.0
  9
$ORTHOMODE
 70
     0
  9
$REGENMODE
 70
     1
  9
$FILLMODE
 70
     1
  9
$QTEXTMODE
 70
     0
  9
$MIRRTEXT
 70
     1
  9
$LTSCALE
 40
1.0
  9
$ATTMODE
 70
     1
  9
$TEXTSIZE
 40
0.2
  9
$TRACEWID
 40
0.05
  9
$TEXTSTYLE
  7
Standard
  9
$CLAYER
  8
0
  9
$CELTYPE
  6
ByLayer
  9
$CECOLOR
 62
   256
  9
$CELTSCALE
 40
1.0
  9
$DISPSILH
 70
     0
  9
$DIMSCALE
 40
1.0
  9
$DIMASZ
 40
0.18
  9
$DIMEXO
 40
0.0625
  9
$DIMDLI
 40
0.38
  9
$DIMRND
 40
0.0
  9
$DIMDLE
 40
0.0
  9
$DIMEXE
 40
0.18
  9
$DIMTP
 40
0.0
  9
$DIMTM
 40
0.0
  9
$DIMTXT
 40
0.18
  9
$DIMCEN
 40
0.09
  9
$DIMTSZ
 40
0.0
  9
$DIMTOL
 70
     0
  9
$DIMLIM
 70
     0
  9
$DIMTIH
 70
     1
  9
$DIMTOH
 70
     1
  9
$DIMSE1
 70
     0
  9
$DIMSE2
 70
     0
  9
$DIMTAD
 70
     0
  9
$DIMZIN
 70
     0
  9
$DIMBLK
  1

  9
$DIMASO
 70
     1
  9
$DIMSHO
 70
     1
  9
$DIMPOST
  1

  9
$DIMAPOST
  1

  9
$DIMALT
 70
     0
  9
$DIMALTD
 70
     2
  9
$DIMALTF
 40
25.4
  9
$DIMLFAC
 40
1.0
  9
$DIMTOFL
 70
     0
  9
$DIMTVP
 40
0.0
  9
$DIMTIX
 70
     0
  9
$DIMSOXD
 70
     0
  9
$DIMSAH
 70
     0
  9
$DIMBLK1
  1

  9
$DIMBLK2
  1

  9
$DIMSTYLE
  2
Standard
  9
$DIMCLRD
 70
     0
  9
$DIMCLRE
 70
     0
  9
$DIMCLRT
 70
     0
  9
$DIMTFAC
 40
1.0
  9
$DIMGAP
 40
0.09
  9
$DIMJUST
 70
     0
  9
$DIMSD1
 70
     0
  9
$DIMSD2
 70
     0
  9
$DIMTOLJ
 70
     1
  9
$DIMTZIN
 70
     0
  9
$DIMALTZ
 70
     0
  9
$DIMALTTZ
 70
     0
  9
$DIMUPT
 70
     0
  9
$DIMDEC
 70
     4
  9
$DIMTDEC
 70
     4
  9
$DIMALTU
 70
     2
  9
$DIMALTTD
 70
     2
  9
$DIMTXSTY
  7
Standard
  9
$DIMAUNIT
 70
     0
  9
$DIMADEC
 70
     0
  9
$DIMALTRND
 40
0.0
  9
$DIMAZIN
 70
     0
  9
$DIMDSEP
 70
    46
  9
$DIMATFIT
 70
     3
  9
$DIMFRAC
 70
     0
  9
$DIMLDRBLK
  1

  9
$DIMLUNIT
 70
     2
  9
$DIMLWD
 70
    -2
  9
$DIMLWE
 70
    -2
  9
$DIMTMOVE
 70
     0
  9
$DIMFXL
 40
1.0
  9
$DIMFXLON
 70
     0
  9
$DIMJOGANG
 40
0.7853981633974483
  9
$DIMTFILL
 70
     0
  9
$DIMTFILLCLR
 70
     0
  9
$DIMARCSYM
 70
     0
  9
$DIMLTYPE
  6

  9
$DIMLTEX1
  6

  9
$DIMLTEX2
  6

  9
$DIMTXTDIRECTION
 70
     0
  9
$LUNITS
 70
     2
  9
$LUPREC
 70
     4
  9
$SKETCHINC
 40
0.1
  9
$FILLETRAD
 40
0.5
  9
$AUNITS
 70
     0
  9
$AUPREC
 70
     0
  9
$MENU
  1
.
  9
$ELEVATION
 40
0.0
  9
$PELEVATION
 40
0.0
  9
$THICKNESS
 40
0.0
  9
$LIMCHECK
 70
     0
  9
$CHAMFERA
 40
0.5
  9
$CHAMFERB
 40
0.5
  9
$CHAMFERC
 40
1.0
  9
$CHAMFERD
 40
0.0
  9
$SKPOLY
 70
     0
  9
$TDCREATE
 40
2457917.593287037
  9
$TDUCREATE
 40
2457917.218287037
  9
$TDUPDATE
 40
2457917.593287037
  9
$TDUUPDATE
 40
2457917.218287037
  9
$TDINDWG
 40
0.0000000116
  9
$TDUSRTIMER
 40
0.0000000116
  9
$USRTIMER
 70
     1
  9
$ANGBASE
 50
0.0
  9
$ANGDIR
 70
     0
  9
$PDMODE
 70
     0
  9
$PDSIZE
 40
0.0
  9
$PLINEWID
 40
0.0
  9
$SPLFRAME
 70
     0
  9
$SPLINETYPE
 70
     6
  9
$SPLINESEGS
 70
     8
  9
$HANDSEED
  5
A5
  9
$SURFTAB1
 70
     6
  9
$SURFTAB2
 70
     6
  9
$SURFTYPE
 70
     6
  9
$SURFU
 70
     6
  9
$SURFV
 70
     6
  9
$UCSBASE
  2

  9
$UCSNAME
  2

  9
$UCSORG
 10
0.0
 20
0.0
 30
0.0
  9
$UCSXDIR
 10
1.0
 20
0.0
 30
0.0
  9
$UCSYDIR
 10
0.0
 20
1.0
 30
0.0
  9
$UCSORTHOREF
  2

  9
$UCSORTHOVIEW
 70
     0
  9
$UCSORGTOP
 10
0.0
 20
0.0
 30
0.0
  9
$UCSORGBOTTOM
 10
0.0
 20
0.0
 30
0.0
  9
$UCSORGLEFT
 10
0.0
 20
0.0
 30
0.0
  9
$UCSORGRIGHT
 10
0.0
 20
0.0
 30
0.0
  9
$UCSORGFRONT
 10
0.0
 20
0.0
 30
0.0
  9
$UCSORGBACK
 10
0.0
 20
0.0
 30
0.0
  9
$PUCSBASE
  2

  9
$PUCSNAME
  2

  9
$PUCSORG
 10
0.0
 20
0.0
 30
0.0
  9
$PUCSXDIR
 10
1.0
 20
0.0
 30
0.0
  9
$PUCSYDIR
 10
0.0
 20
1.0
 30
0.0
  9
$PUCSORTHOREF
  2

  9
$PUCSORTHOVIEW
 70
     0
  9
$PUCSORGTOP
 10
0.0
 20
0.0
 30
0.0
  9
$PUCSORGBOTTOM
 10
0.0
 20
0.0
 30
0.0
  9
$PUCSORGLEFT
 10
0.0
 20
0.0
 30
0.0
  9
$PUCSORGRIGHT
 10
0.0
 20
0.0
 30
0.0
  9
$PUCSORGFRONT
 10
0.0
 20
0.0
 30
0.0
  9
$PUCSORGBACK
 10
0.0
 20
0.0
 30
0.0
  9
$USERI1
 70
     0
  9
$USERI2
 70
     0
  9
$USERI3
 70
     0
  9
$USERI4
 70
     0
  9
$USERI5
 70
     0
  9
$USERR1
 40
0.0
  9
$USERR2
 40
0.0
  9
$USERR3
 40
0.0
  9
$USERR4
 40
0.0
  9
$USERR5
 40
0.0
  9
$WORLDVIEW
 70
     1
  9
$SHADEDGE
 70
     3
  9
$SHADEDIF
 70
    70
  9
$TILEMODE
 70
     1
  9
$MAXACTVP
 70
    64
  9
$PINSBASE
 10
0.0
 20
0.0
 30
0.0
  9
$PLIMCHECK
 70
     0
  9
$PEXTMIN
 10
1.000000000000000E+20
 20
1.000000000000000E+20
 30
1.000000000000000E+20
  9
$PEXTMAX
 10
-1.000000000000000E+20
 20
-1.000000000000000E+20
 30
-1.000000000000000E+20
  9
$PLIMMIN
 10
0.0
 20
0.0
  9
$PLIMMAX
 10
12.0
 20
9.0
  9
$UNITMODE
 70
     0
  9
$VISRETAIN
 70
     1
  9
$PLINEGEN
 70
     0
  9
$PSLTSCALE
 70
     1
  9
$TREEDEPTH
 70
  3020
  9
$CMLSTYLE
  2
Standard
  9
$CMLJUST
 70
     0
  9
$CMLSCALE
 40
1.0
  9
$PROXYGRAPHICS
 70
     1
  9
$MEASUREMENT
 70
     0
  9
$CELWEIGHT
370
    -1
  9
$ENDCAPS
280
     0
  9
$JOINSTYLE
280
     0
  9
$LWDISPLAY
290
     1
  9
$INSUNITS
 70
     1
  9
$HYPERLINKBASE
  1

  9
$STYLESHEET
  1

  9
$XEDIT
290
     1
  9
$CEPSNTYPE
380
     0
  9
$PSTYLEMODE
290
     1
  9
$FINGERPRINTGUID
  2
{651B20EB-78B6-570A-BFC5-72F68B92210B}
  9
$VERSIONGUID
  2
{FAEB1C32-E019-11D5-929B-00C0DF256EC4}
  9
$EXTNAMES
290
     1
  9
$PSVPSCALE
 40
0.0
  9
$OLESTARTUP
290
     0
  9
$SORTENTS
280
   127
  9
$INDEXCTL
280
     0
  9
$HIDETEXT
280
     1
  9
$XCLIPFRAME
280
     2
  9
$HALOGAP
280
     0
  9
$OBSCOLOR
 70
   257
  9
$OBSLTYPE
280
     0
  9
$INTERSECTIONDISPLAY
280
     0
  9
$INTERSECTIONCOLOR
 70
   257
  9
$DIMASSOC
280
     2
  9
$PROJECTNAME
  1

  9
$CAMERADISPLAY
290
     0
  9
$LENSLENGTH
 40
50.0
  9
$CAMERAHEIGHT
 40
0.0
  9
$STEPSPERSEC
 40
2.0
  9
$STEPSIZE
 40
6.0
  9
$3DDWFPREC
 40
2.0
  9
$PSOLWIDTH
 40
0.25
  9
$PSOLHEIGHT
 40
4.0
  9
$LOFTANG1
 40
1.570796326794897
  9
$LOFTANG2
 40
1.570796326794897
  9
$LOFTMAG1
 40
0.0
  9
$LOFTMAG2
 40
0.0
  9
$LOFTPARAM
 70
     7
  9
$LOFTNORMALS
280
     1
  9
$LATITUDE
 40
37.795
  9
$LONGITUDE
 40
-122.394
  9
$NORTHDIRECTION
 40
0.0
  9
$TIMEZONE
 70
 -8000
  9
$LIGHTGLYPHDISPLAY
280
     1
  9
$TILEMODELIGHTSYNCH
280
     1
  9
$CMATERIAL
347
3C
  9
$SOLIDHIST
280
     1
  9
$SHOWHIST
280
     1
  9
$DWFFRAME
280
     2
  9
$DGNFRAME
280
     2
  9
$REALWORLDSCALE
290
     1
  9
$INTERFERECOLOR
 62
   256
  9
$CSHADOW
280
     0
  9
$SHADOWPLANELOCATION
 40
0.0
  0
ENDSEC
  0
SECTION
  2
CLASSES
  0
CLASS
  1
ACDBDICTIONARYWDFLT
  2
AcDbDictionaryWithDefault
  3
ObjectDBX Classes
 90
        0
 91
        4
280
     0
281
     0
  0
CLASS
  1
VISUALSTYLE
  2
AcDbVisualStyle
  3
ObjectDBX Classes
 90
     4095
 91
        4
280
     0
281
     0
  0
CLASS
  1
MATERIAL
  2
AcDbMaterial
  3
ObjectDBX Classes
 90
     1153
 91
        4
280
     0
281
     0
  0
CLASS
  1
SUN
  2
AcDbSun
  3
SCENEOE
 90
     1024
 91
        4
280
     0
281
     0
  0
ENDSEC
  0
SECTION
  2
TABLES
  0
TABLE
  2
VPORT
  5
8
330
0
100
AcDbSymbolTable
 70
     1
  0
VPORT
  5
29
330
8
100
AcDbSymbolTableRecord
100
AcDbViewportTableRecord
  2
*Active
 70
     0
 10
0.0
 20
0.0
 11
1.0
 21
1.0
 12
0.0
 22
0.0
 13
0.0
 23
0.0
 14
0.5
 24
0.5
 15
0.5
 25
0.5
 16
0.0
 26
0.0
 36
1.0
 17
91.00082462281999
 27
-128.4993055234307
 37
0.0
 40
256.9986110468615
 41
0.7081814508812795
 42
50.0
 43
0.0
 44
0.0
 50
0.0
 51
0.0
 71
     0
 72
   100
 73
     1
 74
     3
 75
     0
 76
     0
 77
     0
 78
     0
281
     0
 65
     1
110
0.0
120
0.0
130
0.0
111
1.0
121
0.0
131
0.0
112
0.0
122
1.0
132
0.0
 79
     0
146
0.0
 60
     3
 61
     5
292
     1
282
     1
141
0.0
142
0.0
 63
   250
361
3F
  0
ENDTAB
  0
TABLE
  2
LTYPE
  5
5
330
0
100
AcDbSymbolTable
 70
     1
  0
LTYPE
  5
14
330
5
100
AcDbSymbolTableRecord
100
AcDbLinetypeTableRecord
  2
ByBlock
 70
     0
  3

 72
    65
 73
     0
 40
0.0
  0
LTYPE
  5
15
330
5
100
AcDbSymbolTableRecord
100
AcDbLinetypeTableRecord
  2
ByLayer
 70
     0
  3

 72
    65
 73
     0
 40
0.0
  0
LTYPE
  5
16
330
5
100
AcDbSymbolTableRecord
100
AcDbLinetypeTableRecord
  2
Continuous
 70
     0
  3
Solid line
 72
    65
 73
     0
 40
0.0
  0
ENDTAB
  0
TABLE
  2
LAYER
  5
2
330
0
100
AcDbSymbolTable
 70
     2
  0
LAYER
  5
10
330
2
100
AcDbSymbolTableRecord
100
AcDbLayerTableRecord
  2
0
 70
     0
 62
     7
  6
Continuous
370
    -3
390
F
347
3E
  0
LAYER
  5
40
330
2
100
AcDbSymbolTableRecord
100
AcDbLayerTableRecord
  2
_U+30EC_U+30A4_U+30E4_U+30FC 1
 70
     0
 62
     7
  6
Continuous
370
    -3
390
F
347
3E
  0
ENDTAB
  0
TABLE
  2
STYLE
  5
3
330
0
100
AcDbSymbolTable
 70
     1
  0
STYLE
  5
11
330
3
100
AcDbSymbolTableRecord
100
AcDbTextStyleTableRecord
  2
Standard
 70
     0
 40
0.0
 41
1.0
 50
0.0
 71
     0
 42
0.2
  3
txt
  4

  0
ENDTAB
  0
TABLE
  2
VIEW
  5
6
330
0
100
AcDbSymbolTable
 70
     0
  0
ENDTAB
  0
TABLE
  2
UCS
  5
7
330
0
100
AcDbSymbolTable
 70
     0
  0
ENDTAB
  0
TABLE
  2
APPID
  5
9
330
0
100
AcDbSymbolTable
 70
     1
  0
APPID
  5
12
330
9
100
AcDbSymbolTableRecord
100
AcDbRegAppTableRecord
  2
ACAD
 70
     0
  0
ENDTAB
  0
TABLE
  2
DIMSTYLE
  5
A
330
0
100
AcDbSymbolTable
 70
     1
100
AcDbDimStyleTable
  0
DIMSTYLE
105
27
330
A
100
AcDbSymbolTableRecord
100
AcDbDimStyleTableRecord
  2
Standard
 70
     0
178
     0
340
11
  0
ENDTAB
  0
TABLE
  2
BLOCK_RECORD
  5
1
330
0
100
AcDbSymbolTable
 70
     5
  0
BLOCK_RECORD
  5
1F
330
1
100
AcDbSymbolTableRecord
100
AcDbBlockTableRecord
  2
*Model_Space
340
22
 70
     0
280
     1
281
     0
  0
BLOCK_RECORD
  5
1B
330
1
100
AcDbSymbolTableRecord
100
AcDbBlockTableRecord
  2
*Paper_Space
340
1E
 70
     0
280
     1
281
     0
  0
BLOCK_RECORD
  5
23
330
1
100
AcDbSymbolTableRecord
100
AcDbBlockTableRecord
  2
*Paper_Space0
340
26
 70
     0
280
     1
281
     0
  0
BLOCK_RECORD
  5
41
330
1
100
AcDbSymbolTableRecord
100
AcDbBlockTableRecord
  2
block 2
340
0
102
{BLKREFS
331
42
102
}
 70
     0
280
     1
281
     0
  0
BLOCK_RECORD
  5
49
330
1
100
AcDbSymbolTableRecord
100
AcDbBlockTableRecord
  2
block 3
340
0
102
{BLKREFS
331
4A
102
}
 70
     0
280
     1
281
     0
  0
BLOCK_RECORD
  5
65
330
1
100
AcDbSymbolTableRecord
100
AcDbBlockTableRecord
  2
block 4
340
0
102
{BLKREFS
331
66
102
}
 70
     0
280
     1
281
     0
  0
BLOCK_RECORD
  5
85
330
1
100
AcDbSymbolTableRecord
100
AcDbBlockTableRecord
  2
block 5
340
0
102
{BLKREFS
331
86
102
}
 70
     0
280
     1
281
     0
  0
ENDTAB
  0
ENDSEC
  0
SECTION
  2
BLOCKS
  0
BLOCK
  5
20
330
1F
100
AcDbEntity
  8
0
100
AcDbBlockBegin
  2
*Model_Space
 70
     0
 10
0.0
 20
0.0
 30
0.0
  3
*Model_Space
  1

  0
ENDBLK
  5
21
330
1F
100
AcDbEntity
  8
0
100
AcDbBlockEnd
  0
BLOCK
  5
1C
330
1B
100
AcDbEntity
 67
     1
  8
0
100
AcDbBlockBegin
  2
*Paper_Space
 70
     0
 10
0.0
 20
0.0
 30
0.0
  3
*Paper_Space
  1

  0
ENDBLK
  5
1D
330
1B
100
AcDbEntity
 67
     1
  8
0
100
AcDbBlockEnd
  0
BLOCK
  5
24
330
23
100
AcDbEntity
  8
0
100
AcDbBlockBegin
  2
*Paper_Space0
 70
     0
 10
0.0
 20
0.0
 30
0.0
  3
*Paper_Space0
  1

  0
ENDBLK
  5
25
330
23
100
AcDbEntity
  8
0
100
AcDbBlockEnd
  0
BLOCK
  5
43
330
41
100
AcDbEntity
  8
0
100
AcDbBlockBegin
  2
block 2
 70
     0
 10
0.0
 20
0.0
 30
0.0
  3
block 2
  1

  0
SPLINE
  5
45
330
41
100
AcDbEntity
  8
_U+30EC_U+30A4_U+30E4_U+30FC 1
370
     0
100
AcDbSpline
210
0.0
220
0.0
230
1.0
 70
    11
 71
     3
 72
    26
 73
    22
 74
     0
 42
0.0000000001
 43
0.0000000001
 12
1.0
 22
0.0
 32
0.0
 13
1.0
 23
0.0
 33
0.0
 40
0.0
 40
0.0
 40
0.0
 40
0.0
 40
1.0
 40
1.0
 40
1.0
 40
2.0
 40
2.0
 40
2.0
 40
3.0
 40
3.0
 40
3.0
 40
4.0
 40
4.0
 40
4.0
 40
5.0
 40
5.0
 40
5.0
 40
6.0
 40
6.0
 40
6.0
 40
7.0
 40
7.0
 40
7.0
 40
7.0
 10
108.6689914007842
 20
-128.3938856015821
 30
0.0
 10
108.6689914007842
 20
-128.3938856015821
 30
0.0
 10
107.5648382977616
 20
-128.3938856015821
 30
0.0
 10
107.5648382977616
 20
-128.3938856015821
 30
0.0
 10
107.5648382977616
 20
-128.3938856015821
 30
0.0
 10
107.5648382977616
 20
-128.723925749069
 30
0.0
 10
107.5648382977616
 20
-128.723925749069
 30
0.0
 10
107.5648382977616
 20
-128.723925749069
 30
0.0
 10
107.4166991918958
 20
-128.723925749069
 30
0.0
 10
107.4166991918958
 20
-128.723925749069
 30
0.0
 10
107.4018852813093
 20
-128.3918185442909
 30
0.0
 10
107.2389322648569
 20
-128.3453097552401
 30
0.0
 10
107.1245550947466
 20
-128.3156819340669
 30
0.0
 10
107.1245550947466
 20
-128.3156819340669
 30
0.0
 10
107.1245550947466
 20
-128.1696098854923
 30
0.0
 10
107.1245550947466
 20
-128.1696098854923
 30
0.0
 10
107.1245550947466
 20
-128.1696098854923
 30
0.0
 10
108.6689914007842
 20
-128.1696098854923
 30
0.0
 10
108.6689914007842
 20
-128.1696098854923
 30
0.0
 10
108.6689914007842
 20
-128.1696098854923
 30
0.0
 10
108.6689914007842
 20
-128.3938856015821
 30
0.0
 10
108.6689914007842
 20
-128.3938856015821
 30
0.0
  0
HATCH
  5
46
330
41
100
AcDbEntity
  8
_U+30EC_U+30A4_U+30E4_U+30FC 1
 62
     7
420
 16777215
100
AcDbHatch
 10
0.0
 20
0.0
 30
0.0
210
0.0
220
0.0
230
1.0
  2
SOLID
 70
     1
 71
     0
 91
        1
 92
        1
 93
        1
 72
     4
 94
        3
 73
     0
 74
     1
 95
       26
 96
       22
 40
0.0
 40
0.0
 40
0.0
 40
0.0
 40
1.0
 40
1.0
 40
1.0
 40
2.0
 40
2.0
 40
2.0
 40
3.0
 40
3.0
 40
3.0
 40
4.0
 40
4.0
 40
4.0
 40
5.0
 40
5.0
 40
5.0
 40
6.0
 40
6.0
 40
6.0
 40
7.0
 40
7.0
 40
7.0
 40
7.0
 10
108.6689914007842
 20
-128.3938856015821
 10
108.6689914007842
 20
-128.3938856015821
 10
107.5648382977616
 20
-128.3938856015821
 10
107.5648382977616
 20
-128.3938856015821
 10
107.5648382977616
 20
-128.3938856015821
 10
107.5648382977616
 20
-128.723925749069
 10
107.5648382977616
 20
-128.723925749069
 10
107.5648382977616
 20
-128.723925749069
 10
107.4166991918958
 20
-128.723925749069
 10
107.4166991918958
 20
-128.723925749069
 10
107.4018852813093
 20
-128.3918185442909
 10
107.2389322648569
 20
-128.3453097552401
 10
107.1245550947466
 20
-128.3156819340669
 10
107.1245550947466
 20
-128.3156819340669
 10
107.1245550947466
 20
-128.1696098854923
 10
107.1245550947466
 20
-128.1696098854923
 10
107.1245550947466
 20
-128.1696098854923
 10
108.6689914007842
 20
-128.1696098854923
 10
108.6689914007842
 20
-128.1696098854923
 10
108.6689914007842
 20
-128.1696098854923
 10
108.6689914007842
 20
-128.3938856015821
 10
108.6689914007842
 20
-128.3938856015821
 97
        0
 97
        0
 75
     2
 76
     1
 98
        0
  0
SPLINE
  5
47
330
41
100
AcDbEntity
  8
_U+30EC_U+30A4_U+30E4_U+30FC 1
370
     0
100
AcDbSpline
210
0.0
220
0.0
230
1.0
 70
    11
 71
     3
 72
    62
 73
    58
 74
     0
 42
0.0000000001
 43
0.0000000001
 12
1.0
 22
0.0
 32
0.0
 13
1.0
 23
0.0
 33
0.0
 40
0.0
 40
0.0
 40
0.0
 40
0.0
 40
1.0
 40
1.0
 40
1.0
 40
2.0
 40
2.0
 40
2.0
 40
3.0
 40
3.0
 40
3.0
 40
4.0
 40
4.0
 40
4.0
 40
5.0
 40
5.0
 40
5.0
 40
6.0
 40
6.0
 40
6.0
 40
7.0
 40
7.0
 40
7.0
 40
8.0
 40
8.0
 40
8.0
 40
9.0
 40
9.0
 40
9.0
 40
10.0
 40
10.0
 40
10.0
 40
11.0
 40
11.0
 40
11.0
 40
12.0
 40
12.0
 40
12.0
 40
13.0
 40
13.0
 40
13.0
 40
14.0
 40
14.0
 40
14.0
 40
15.0
 40
15.0
 40
15.0
 40
16.0
 40
16.0
 40
16.0
 40
17.0
 40
17.0
 40
17.0
 40
18.0
 40
18.0
 40
18.0
 40
19.0
 40
19.0
 40
19.0
 40
19.0
 10
108.7196343044173
 20
-127.1767333666433
 30
0.0
 10
108.7196343044173
 20
-127.2721625115847
 30
0.0
 10
108.6986192219573
 20
-127.4898925462525
 30
0.0
 10
108.5125840657538
 20
-127.6149495123671
 30
0.0
 10
108.4002739529347
 20
-127.6890190653
 30
0.0
 10
108.3010552029595
 20
-127.6931531798823
 30
0.0
 10
108.2163058540223
 20
-127.6972872944646
 30
0.0
 10
108.2163058540223
 20
-127.6972872944646
 30
0.0
 10
108.2163058540223
 20
-127.4771456929571
 30
0.0
 10
108.2163058540223
 20
-127.4771456929571
 30
0.0
 10
108.2903754069552
 20
-127.475078635666
 30
0.0
 10
108.5249864095007
 20
-127.4647433492102
 30
0.0
 10
108.5249864095007
 20
-127.1812119907741
 30
0.0
 10
108.5249864095007
 20
-127.0437526809127
 30
0.0
 10
108.4553954806987
 20
-126.8911349509161
 30
0.0
 10
108.2269856500266
 20
-126.8911349509161
 30
0.0
 10
108.1105414226251
 20
-126.8911349509161
 30
0.0
 10
108.0619655762831
 20
-126.9293755108024
 30
0.0
 10
108.0302706978188
 20
-126.9610703892667
 30
0.0
 10
107.956201144886
 20
-127.0351399421995
 30
0.0
 10
107.9434542915905
 20
-127.151584169601
 30
0.0
 10
107.9434542915905
 20
-127.2063611878165
 30
0.0
 10
107.9434542915905
 20
-127.2256537225339
 30
0.0
 10
107.9455213488817
 20
-127.2614827155805
 30
0.0
 10
107.949655463464
 20
-127.2890434794625
 30
0.0
 10
107.949655463464
 20
-127.2890434794625
 30
0.0
 10
107.7550075685474
 20
-127.2890434794625
 30
0.0
 10
107.7550075685474
 20
-127.2890434794625
 30
0.0
 10
107.7615532499693
 20
-127.2508029195762
 30
0.0
 10
107.7636203072605
 20
-127.2087727546562
 30
0.0
 10
107.7636203072605
 20
-127.2022270732342
 30
0.0
 10
107.7636203072605
 20
-127.1367702590144
 30
0.0
 10
107.7422607152519
 20
-126.9379882495155
 30
0.0
 10
107.5055826554153
 20
-126.9379882495155
 30
0.0
 10
107.3278157283764
 20
-126.9379882495155
 30
0.0
 10
107.2726942006124
 20
-127.068901877955
 30
0.0
 10
107.2726942006124
 20
-127.179144933483
 30
0.0
 10
107.2726942006124
 20
-127.4433837572017
 30
0.0
 10
107.5055826554153
 20
-127.4519964959148
 30
0.0
 10
107.5772406415085
 20
-127.4561306104971
 30
0.0
 10
107.5772406415085
 20
-127.4561306104971
 30
0.0
 10
107.5772406415085
 20
-127.6593912441268
 30
0.0
 10
107.5772406415085
 20
-127.6593912441268
 30
0.0
 10
107.4525281849424
 20
-127.6507785054137
 30
0.0
 10
107.0759792484046
 20
-127.6232177415317
 30
0.0
 10
107.0759792484046
 20
-127.1663980801876
 30
0.0
 10
107.0759792484046
 20
-126.9421223640978
 30
0.0
 10
107.2031032718103
 20
-126.7009656801303
 30
0.0
 10
107.4990369739933
 20
-126.7009656801303
 30
0.0
 10
107.6854166397453
 20
-126.7009656801303
 30
0.0
 10
107.7677544218428
 20
-126.7960503155232
 30
0.0
 10
107.8290771214802
 20
-126.8956135750469
 30
0.0
 10
107.8566378853622
 20
-126.8342908754095
 30
0.0
 10
107.9369086101686
 20
-126.6523898337883
 30
0.0
 10
108.2142387967312
 20
-126.6523898337883
 30
0.0
 10
108.5525471733827
 20
-126.6523898337883
 30
0.0
 10
108.7196343044173
 20
-126.8997476896292
 30
0.0
 10
108.7196343044173
 20
-127.1767333666433
 30
0.0
  0
HATCH
  5
48
330
41
100
AcDbEntity
  8
_U+30EC_U+30A4_U+30E4_U+30FC 1
 62
     7
420
 16777215
100
AcDbHatch
 10
0.0
 20
0.0
 30
0.0
210
0.0
220
0.0
230
1.0
  2
SOLID
 70
     1
 71
     0
 91
        1
 92
        1
 93
        1
 72
     4
 94
        3
 73
     0
 74
     1
 95
       62
 96
       58
 40
0.0
 40
0.0
 40
0.0
 40
0.0
 40
1.0
 40
1.0
 40
1.0
 40
2.0
 40
2.0
 40
2.0
 40
3.0
 40
3.0
 40
3.0
 40
4.0
 40
4.0
 40
4.0
 40
5.0
 40
5.0
 40
5.0
 40
6.0
 40
6.0
 40
6.0
 40
7.0
 40
7.0
 40
7.0
 40
8.0
 40
8.0
 40
8.0
 40
9.0
 40
9.0
 40
9.0
 40
10.0
 40
10.0
 40
10.0
 40
11.0
 40
11.0
 40
11.0
 40
12.0
 40
12.0
 40
12.0
 40
13.0
 40
13.0
 40
13.0
 40
14.0
 40
14.0
 40
14.0
 40
15.0
 40
15.0
 40
15.0
 40
16.0
 40
16.0
 40
16.0
 40
17.0
 40
17.0
 40
17.0
 40
18.0
 40
18.0
 40
18.0
 40
19.0
 40
19.0
 40
19.0
 40
19.0
 10
108.7196343044173
 20
-127.1767333666433
 10
108.7196343044173
 20
-127.2721625115847
 10
108.6986192219573
 20
-127.4898925462525
 10
108.5125840657538
 20
-127.6149495123671
 10
108.4002739529347
 20
-127.6890190653
 10
108.3010552029595
 20
-127.6931531798823
 10
108.2163058540223
 20
-127.6972872944646
 10
108.2163058540223
 20
-127.6972872944646
 10
108.2163058540223
 20
-127.4771456929571
 10
108.2163058540223
 20
-127.4771456929571
 10
108.2903754069552
 20
-127.475078635666
 10
108.5249864095007
 20
-127.4647433492102
 10
108.5249864095007
 20
-127.1812119907741
 10
108.5249864095007
 20
-127.0437526809127
 10
108.4553954806987
 20
-126.8911349509161
 10
108.2269856500266
 20
-126.8911349509161
 10
108.1105414226251
 20
-126.8911349509161
 10
108.0619655762831
 20
-126.9293755108024
 10
108.0302706978188
 20
-126.9610703892667
 10
107.956201144886
 20
-127.0351399421995
 10
107.9434542915905
 20
-127.151584169601
 10
107.9434542915905
 20
-127.2063611878165
 10
107.9434542915905
 20
-127.2256537225339
 10
107.9455213488817
 20
-127.2614827155805
 10
107.949655463464
 20
-127.2890434794625
 10
107.949655463464
 20
-127.2890434794625
 10
107.7550075685474
 20
-127.2890434794625
 10
107.7550075685474
 20
-127.2890434794625
 10
107.7615532499693
 20
-127.2508029195762
 10
107.7636203072605
 20
-127.2087727546562
 10
107.7636203072605
 20
-127.2022270732342
 10
107.7636203072605
 20
-127.1367702590144
 10
107.7422607152519
 20
-126.9379882495155
 10
107.5055826554153
 20
-126.9379882495155
 10
107.3278157283764
 20
-126.9379882495155
 10
107.2726942006124
 20
-127.068901877955
 10
107.2726942006124
 20
-127.179144933483
 10
107.2726942006124
 20
-127.4433837572017
 10
107.5055826554153
 20
-127.4519964959148
 10
107.5772406415085
 20
-127.4561306104971
 10
107.5772406415085
 20
-127.4561306104971
 10
107.5772406415085
 20
-127.6593912441268
 10
107.5772406415085
 20
-127.6593912441268
 10
107.4525281849424
 20
-127.6507785054137
 10
107.0759792484046
 20
-127.6232177415317
 10
107.0759792484046
 20
-127.1663980801876
 10
107.0759792484046
 20
-126.9421223640978
 10
107.2031032718103
 20
-126.7009656801303
 10
107.4990369739933
 20
-126.7009656801303
 10
107.6854166397453
 20
-126.7009656801303
 10
107.7677544218428
 20
-126.7960503155232
 10
107.8290771214802
 20
-126.8956135750469
 10
107.8566378853622
 20
-126.8342908754095
 10
107.9369086101686
 20
-126.6523898337883
 10
108.2142387967312
 20
-126.6523898337883
 10
108.5525471733827
 20
-126.6523898337883
 10
108.7196343044173
 20
-126.8997476896292
 10
108.7196343044173
 20
-127.1767333666433
 97
        0
 97
        0
 75
     2
 76
     1
 98
        0
  0
ENDBLK
  5
44
330
41
100
AcDbEntity
  8
0
100
AcDbBlockEnd
  0
BLOCK
  5
4B
330
49
100
AcDbEntity
  8
0
100
AcDbBlockBegin
  2
block 3
 70
     0
 10
0.0
 20
0.0
 30
0.0
  3
block 3
  1

  0
SPLINE
  5
4D
330
49
100
AcDbEntity
  8
_U+30EC_U+30A4_U+30E4_U+30FC 1
370
     0
100
AcDbSpline
210
0.0
220
0.0
230
1.0
 70
    11
 71
     3
 72
    26
 73
    22
 74
     0
 42
0.0000000001
 43
0.0000000001
 12
1.0
 22
0.0
 32
0.0
 13
1.0
 23
0.0
 33
0.0
 40
0.0
 40
0.0
 40
0.0
 40
0.0
 40
1.0
 40
1.0
 40
1.0
 40
2.0
 40
2.0
 40
2.0
 40
3.0
 40
3.0
 40
3.0
 40
4.0
 40
4.0
 40
4.0
 40
5.0
 40
5.0
 40
5.0
 40
6.0
 40
6.0
 40
6.0
 40
7.0
 40
7.0
 40
7.0
 40
7.0
 10
108.6689914007842
 20
-134.8093424142143
 30
0.0
 10
108.6689914007842
 20
-134.8093424142143
 30
0.0
 10
107.5648382977616
 20
-134.8093424142143
 30
0.0
 10
107.5648382977616
 20
-134.8093424142143
 30
0.0
 10
107.5648382977616
 20
-134.8093424142143
 30
0.0
 10
107.5648382977616
 20
-135.1393825617013
 30
0.0
 10
107.5648382977616
 20
-135.1393825617013
 30
0.0
 10
107.5648382977616
 20
-135.1393825617013
 30
0.0
 10
107.4166991918958
 20
-135.1393825617013
 30
0.0
 10
107.4166991918958
 20
-135.1393825617013
 30
0.0
 10
107.4018852813093
 20
-134.8072753569232
 30
0.0
 10
107.2389322648569
 20
-134.7607665678723
 30
0.0
 10
107.1245550947466
 20
-134.7311387466992
 30
0.0
 10
107.1245550947466
 20
-134.7311387466992
 30
0.0
 10
107.1245550947466
 20
-134.5850666981246
 30
0.0
 10
107.1245550947466
 20
-134.5850666981246
 30
0.0
 10
107.1245550947466
 20
-134.5850666981246
 30
0.0
 10
108.6689914007842
 20
-134.5850666981246
 30
0.0
 10
108.6689914007842
 20
-134.5850666981246
 30
0.0
 10
108.6689914007842
 20
-134.5850666981246
 30
0.0
 10
108.6689914007842
 20
-134.8093424142143
 30
0.0
 10
108.6689914007842
 20
-134.8093424142143
 30
0.0
  0
HATCH
  5
4E
330
49
100
AcDbEntity
  8
_U+30EC_U+30A4_U+30E4_U+30FC 1
 62
     7
420
 16777215
100
AcDbHatch
 10
0.0
 20
0.0
 30
0.0
210
0.0
220
0.0
230
1.0
  2
SOLID
 70
     1
 71
     0
 91
        1
 92
        1
 93
        1
 72
     4
 94
        3
 73
     0
 74
     1
 95
       26
 96
       22
 40
0.0
 40
0.0
 40
0.0
 40
0.0
 40
1.0
 40
1.0
 40
1.0
 40
2.0
 40
2.0
 40
2.0
 40
3.0
 40
3.0
 40
3.0
 40
4.0
 40
4.0
 40
4.0
 40
5.0
 40
5.0
 40
5.0
 40
6.0
 40
6.0
 40
6.0
 40
7.0
 40
7.0
 40
7.0
 40
7.0
 10
108.6689914007842
 20
-134.8093424142143
 10
108.6689914007842
 20
-134.8093424142143
 10
107.5648382977616
 20
-134.8093424142143
 10
107.5648382977616
 20
-134.8093424142143
 10
107.5648382977616
 20
-134.8093424142143
 10
107.5648382977616
 20
-135.1393825617013
 10
107.5648382977616
 20
-135.1393825617013
 10
107.5648382977616
 20
-135.1393825617013
 10
107.4166991918958
 20
-135.1393825617013
 10
107.4166991918958
 20
-135.1393825617013
 10
107.4018852813093
 20
-134.8072753569232
 10
107.2389322648569
 20
-134.7607665678723
 10
107.1245550947466
 20
-134.7311387466992
 10
107.1245550947466
 20
-134.7311387466992
 10
107.1245550947466
 20
-134.5850666981246
 10
107.1245550947466
 20
-134.5850666981246
 10
107.1245550947466
 20
-134.5850666981246
 10
108.6689914007842
 20
-134.5850666981246
 10
108.6689914007842
 20
-134.5850666981246
 10
108.6689914007842
 20
-134.5850666981246
 10
108.6689914007842
 20
-134.8093424142143
 10
108.6689914007842
 20
-134.8093424142143
 97
        0
 97
        0
 75
     2
 76
     1
 98
        0
  0
ENDBLK
  5
4C
330
49
100
AcDbEntity
  8
0
100
AcDbBlockEnd
  0
BLOCK
  5
67
330
65
100
AcDbEntity
  8
0
100
AcDbBlockBegin
  2
block 4
 70
     0
 10
0.0
 20
0.0
 30
0.0
  3
block 4
  1

  0
SPLINE
  5
69
330
65
100
AcDbEntity
  8
_U+30EC_U+30A4_U+30E4_U+30FC 1
370
     0
100
AcDbSpline
210
0.0
220
0.0
230
1.0
 70
    11
 71
     3
 72
    26
 73
    22
 74
     0
 42
0.0000000001
 43
0.0000000001
 12
1.0
 22
0.0
 32
0.0
 13
1.0
 23
0.0
 33
0.0
 40
0.0
 40
0.0
 40
0.0
 40
0.0
 40
1.0
 40
1.0
 40
1.0
 40
2.0
 40
2.0
 40
2.0
 40
3.0
 40
3.0
 40
3.0
 40
4.0
 40
4.0
 40
4.0
 40
5.0
 40
5.0
 40
5.0
 40
6.0
 40
6.0
 40
6.0
 40
7.0
 40
7.0
 40
7.0
 40
7.0
 10
87.14162324210349
 20
-118.4430718019865
 30
0.0
 10
87.14162324210349
 20
-118.4430718019865
 30
0.0
 10
87.14162324210349
 20
-117.3389186989639
 30
0.0
 10
87.14162324210349
 20
-117.3389186989639
 30
0.0
 10
87.14162324210349
 20
-117.3389186989639
 30
0.0
 10
86.81158309461655
 20
-117.3389186989639
 30
0.0
 10
86.81158309461655
 20
-117.3389186989639
 30
0.0
 10
86.81158309461655
 20
-117.3389186989639
 30
0.0
 10
86.81158309461655
 20
-117.1907795930981
 30
0.0
 10
86.81158309461655
 20
-117.1907795930981
 30
0.0
 10
87.14369029939463
 20
-117.1759656825116
 30
0.0
 10
87.19019908844551
 20
-117.0130126660593
 30
0.0
 10
87.21982690961866
 20
-116.898635495949
 30
0.0
 10
87.21982690961866
 20
-116.898635495949
 30
0.0
 10
87.36589895819326
 20
-116.898635495949
 30
0.0
 10
87.36589895819326
 20
-116.898635495949
 30
0.0
 10
87.36589895819326
 20
-116.898635495949
 30
0.0
 10
87.36589895819326
 20
-118.4430718019865
 30
0.0
 10
87.36589895819326
 20
-118.4430718019865
 30
0.0
 10
87.36589895819326
 20
-118.4430718019865
 30
0.0
 10
87.14162324210349
 20
-118.4430718019865
 30
0.0
 10
87.14162324210349
 20
-118.4430718019865
 30
0.0
  0
HATCH
  5
6A
330
65
100
AcDbEntity
  8
_U+30EC_U+30A4_U+30E4_U+30FC 1
 62
     7
420
 16777215
100
AcDbHatch
 10
0.0
 20
0.0
 30
0.0
210
0.0
220
0.0
230
1.0
  2
SOLID
 70
     1
 71
     0
 91
        1
 92
        1
 93
        1
 72
     4
 94
        3
 73
     0
 74
     1
 95
       26
 96
       22
 40
0.0
 40
0.0
 40
0.0
 40
0.0
 40
1.0
 40
1.0
 40
1.0
 40
2.0
 40
2.0
 40
2.0
 40
3.0
 40
3.0
 40
3.0
 40
4.0
 40
4.0
 40
4.0
 40
5.0
 40
5.0
 40
5.0
 40
6.0
 40
6.0
 40
6.0
 40
7.0
 40
7.0
 40
7.0
 40
7.0
 10
87.14162324210349
 20
-118.4430718019865
 10
87.14162324210349
 20
-118.4430718019865
 10
87.14162324210349
 20
-117.3389186989639
 10
87.14162324210349
 20
-117.3389186989639
 10
87.14162324210349
 20
-117.3389186989639
 10
86.81158309461655
 20
-117.3389186989639
 10
86.81158309461655
 20
-117.3389186989639
 10
86.81158309461655
 20
-117.3389186989639
 10
86.81158309461655
 20
-117.1907795930981
 10
86.81158309461655
 20
-117.1907795930981
 10
87.14369029939463
 20
-117.1759656825116
 10
87.19019908844551
 20
-117.0130126660593
 10
87.21982690961866
 20
-116.898635495949
 10
87.21982690961866
 20
-116.898635495949
 10
87.36589895819326
 20
-116.898635495949
 10
87.36589895819326
 20
-116.898635495949
 10
87.36589895819326
 20
-116.898635495949
 10
87.36589895819326
 20
-118.4430718019865
 10
87.36589895819326
 20
-118.4430718019865
 10
87.36589895819326
 20
-118.4430718019865
 10
87.14162324210349
 20
-118.4430718019865
 10
87.14162324210349
 20
-118.4430718019865
 97
        0
 97
        0
 75
     2
 76
     1
 98
        0
  0
SPLINE
  5
6B
330
65
100
AcDbEntity
  8
_U+30EC_U+30A4_U+30E4_U+30FC 1
370
     0
100
AcDbSpline
210
0.0
220
0.0
230
1.0
 70
    11
 71
     3
 72
    29
 73
    25
 74
     0
 42
0.0000000001
 43
0.0000000001
 12
1.0
 22
0.0
 32
0.0
 13
1.0
 23
0.0
 33
0.0
 40
0.0
 40
0.0
 40
0.0
 40
0.0
 40
1.0
 40
1.0
 40
1.0
 40
2.0
 40
2.0
 40
2.0
 40
3.0
 40
3.0
 40
3.0
 40
4.0
 40
4.0
 40
4.0
 40
5.0
 40
5.0
 40
5.0
 40
6.0
 40
6.0
 40
6.0
 40
7.0
 40
7.0
 40
7.0
 40
8.0
 40
8.0
 40
8.0
 40
8.0
 10
88.76495223475321
 20
-118.2653048749476
 30
0.0
 10
88.65677623651636
 20
-118.4747666804508
 30
0.0
 10
88.4834879336083
 20
-118.4937147056196
 30
0.0
 10
88.36704370620686
 20
-118.4937147056196
 30
0.0
 10
88.2061577470457
 20
-118.4937147056196
 30
0.0
 10
88.06456432260192
 20
-118.4472059165688
 30
0.0
 10
87.96947968720902
 20
-118.2653048749476
 30
0.0
 10
87.865782313103
 20
-118.0706569800309
 30
0.0
 10
87.8464897783856
 20
-117.8339789201943
 30
0.0
 10
87.8464897783856
 20
-117.671025903742
 30
0.0
 10
87.8464897783856
 20
-117.5270209124585
 30
0.0
 10
87.86371525581185
 20
-117.2751844324868
 30
0.0
 10
87.96947968720902
 20
-117.0764024229879
 30
0.0
 10
88.07731117589735
 20
-116.8734862989066
 30
0.0
 10
88.23819713505851
 20
-116.8500596496069
 30
0.0
 10
88.36704370620686
 20
-116.8500596496069
 30
0.0
 10
88.52586260807688
 20
-116.8500596496069
 30
0.0
 10
88.66952308981179
 20
-116.8945013813667
 30
0.0
 10
88.76495223475321
 20
-117.0764024229879
 30
0.0
 10
88.8641709847284
 20
-117.2689832606133
 30
0.0
 10
88.88759763402811
 20
-117.4973930912854
 30
0.0
 10
88.88759763402811
 20
-117.671025903742
 30
0.0
 10
88.88759763402811
 20
-117.8422471493589
 30
0.0
 10
88.86623804201956
 20
-118.0727240373221
 30
0.0
 10
88.76495223475321
 20
-118.2653048749476
 30
0.0
  0
SPLINE
  5
6C
330
65
100
AcDbEntity
  8
_U+30EC_U+30A4_U+30E4_U+30FC 1
370
     0
100
AcDbSpline
210
0.0
220
0.0
230
1.0
 70
    11
 71
     3
 72
    17
 73
    13
 74
     0
 42
0.0000000001
 43
0.0000000001
 12
1.0
 22
0.0
 32
0.0
 13
1.0
 23
0.0
 33
0.0
 40
0.0
 40
0.0
 40
0.0
 40
0.0
 40
1.0
 40
1.0
 40
1.0
 40
2.0
 40
2.0
 40
2.0
 40
3.0
 40
3.0
 40
3.0
 40
4.0
 40
4.0
 40
4.0
 40
4.0
 10
88.36704370620686
 20
-117.0426404872324
 30
0.0
 10
88.11727428352624
 20
-117.0426404872324
 30
0.0
 10
88.07076549447537
 20
-117.3261718456685
 30
0.0
 10
88.07076549447537
 20
-117.671025903742
 30
0.0
 10
88.07076549447537
 20
-117.9903862552246
 30
0.0
 10
88.10693899707049
 20
-118.299066810703
 30
0.0
 10
88.36704370620686
 20
-118.299066810703
 30
0.0
 10
88.61474607159631
 20
-118.299066810703
 30
0.0
 10
88.66332191793833
 20
-118.0179470191066
 30
0.0
 10
88.66332191793833
 20
-117.671025903742
 30
0.0
 10
88.66332191793833
 20
-117.3513210427108
 30
0.0
 10
88.62508135805207
 20
-117.0426404872324
 30
0.0
 10
88.36704370620686
 20
-117.0426404872324
 30
0.0
  0
HATCH
  5
6D
330
65
100
AcDbEntity
  8
_U+30EC_U+30A4_U+30E4_U+30FC 1
 62
     7
420
 16777215
100
AcDbHatch
 10
0.0
 20
0.0
 30
0.0
210
0.0
220
0.0
230
1.0
  2
SOLID
 70
     1
 71
     0
 91
        2
 92
        1
 93
        1
 72
     4
 94
        3
 73
     0
 74
     1
 95
       29
 96
       25
 40
0.0
 40
0.0
 40
0.0
 40
0.0
 40
1.0
 40
1.0
 40
1.0
 40
2.0
 40
2.0
 40
2.0
 40
3.0
 40
3.0
 40
3.0
 40
4.0
 40
4.0
 40
4.0
 40
5.0
 40
5.0
 40
5.0
 40
6.0
 40
6.0
 40
6.0
 40
7.0
 40
7.0
 40
7.0
 40
8.0
 40
8.0
 40
8.0
 40
8.0
 10
88.76495223475321
 20
-118.2653048749476
 10
88.65677623651636
 20
-118.4747666804508
 10
88.4834879336083
 20
-118.4937147056196
 10
88.36704370620686
 20
-118.4937147056196
 10
88.2061577470457
 20
-118.4937147056196
 10
88.06456432260192
 20
-118.4472059165688
 10
87.96947968720902
 20
-118.2653048749476
 10
87.865782313103
 20
-118.0706569800309
 10
87.8464897783856
 20
-117.8339789201943
 10
87.8464897783856
 20
-117.671025903742
 10
87.8464897783856
 20
-117.5270209124585
 10
87.86371525581185
 20
-117.2751844324868
 10
87.96947968720902
 20
-117.0764024229879
 10
88.07731117589735
 20
-116.8734862989066
 10
88.23819713505851
 20
-116.8500596496069
 10
88.36704370620686
 20
-116.8500596496069
 10
88.52586260807688
 20
-116.8500596496069
 10
88.66952308981179
 20
-116.8945013813667
 10
88.76495223475321
 20
-117.0764024229879
 10
88.8641709847284
 20
-117.2689832606133
 10
88.88759763402811
 20
-117.4973930912854
 10
88.88759763402811
 20
-117.671025903742
 10
88.88759763402811
 20
-117.8422471493589
 10
88.86623804201956
 20
-118.0727240373221
 10
88.76495223475321
 20
-118.2653048749476
 97
        0
 97
        0
 92
        1
 93
        1
 72
     4
 94
        3
 73
     0
 74
     1
 95
       17
 96
       13
 40
0.0
 40
0.0
 40
0.0
 40
0.0
 40
1.0
 40
1.0
 40
1.0
 40
2.0
 40
2.0
 40
2.0
 40
3.0
 40
3.0
 40
3.0
 40
4.0
 40
4.0
 40
4.0
 40
4.0
 10
88.36704370620686
 20
-117.0426404872324
 10
88.11727428352624
 20
-117.0426404872324
 10
88.07076549447537
 20
-117.3261718456685
 10
88.07076549447537
 20
-117.671025903742
 10
88.07076549447537
 20
-117.9903862552246
 10
88.10693899707049
 20
-118.299066810703
 10
88.36704370620686
 20
-118.299066810703
 10
88.61474607159631
 20
-118.299066810703
 10
88.66332191793833
 20
-118.0179470191066
 10
88.66332191793833
 20
-117.671025903742
 10
88.66332191793833
 20
-117.3513210427108
 10
88.62508135805207
 20
-117.0426404872324
 10
88.36704370620686
 20
-117.0426404872324
 97
        0
 97
        0
 75
     2
 76
     1
 98
        0
  0
ENDBLK
  5
68
330
65
100
AcDbEntity
  8
0
100
AcDbBlockEnd
  0
BLOCK
  5
87
330
85
100
AcDbEntity
  8
0
100
AcDbBlockBegin
  2
block 5
 70
     0
 10
0.0
 20
0.0
 30
0.0
  3
block 5
  1

  0
SPLINE
  5
89
330
85
100
AcDbEntity
  8
_U+30EC_U+30A4_U+30E4_U+30FC 1
370
     0
100
AcDbSpline
210
0.0
220
0.0
230
1.0
 70
    11
 71
     3
 72
    62
 73
    58
 74
     0
 42
0.0000000001
 43
0.0000000001
 12
1.0
 22
0.0
 32
0.0
 13
1.0
 23
0.0
 33
0.0
 40
0.0
 40
0.0
 40
0.0
 40
0.0
 40
1.0
 40
1.0
 40
1.0
 40
2.0
 40
2.0
 40
2.0
 40
3.0
 40
3.0
 40
3.0
 40
4.0
 40
4.0
 40
4.0
 40
5.0
 40
5.0
 40
5.0
 40
6.0
 40
6.0
 40
6.0
 40
7.0
 40
7.0
 40
7.0
 40
8.0
 40
8.0
 40
8.0
 40
9.0
 40
9.0
 40
9.0
 40
10.0
 40
10.0
 40
10.0
 40
11.0
 40
11.0
 40
11.0
 40
12.0
 40
12.0
 40
12.0
 40
13.0
 40
13.0
 40
13.0
 40
14.0
 40
14.0
 40
14.0
 40
15.0
 40
15.0
 40
15.0
 40
16.0
 40
16.0
 40
16.0
 40
17.0
 40
17.0
 40
17.0
 40
18.0
 40
18.0
 40
18.0
 40
19.0
 40
19.0
 40
19.0
 40
19.0
 10
87.18210311405517
 20
-138.7153916753906
 30
0.0
 10
87.08667396911375
 20
-138.7153916753906
 30
0.0
 10
86.86894393444597
 20
-138.694032083382
 30
0.0
 10
86.7438869683314
 20
-138.5079969271786
 30
0.0
 10
86.67016192494705
 20
-138.3956868143594
 30
0.0
 10
86.66568330081623
 20
-138.2964680643842
 30
0.0
 10
86.66154918623393
 20
-138.2117187154471
 30
0.0
 10
86.66154918623393
 20
-138.2117187154471
 30
0.0
 10
86.88169078774139
 20
-138.2117187154471
 30
0.0
 10
86.88169078774139
 20
-138.2117187154471
 30
0.0
 10
86.88375784503253
 20
-138.2857882683799
 30
0.0
 10
86.89409313148829
 20
-138.520743780474
 30
0.0
 10
87.17762448992434
 20
-138.520743780474
 30
0.0
 10
87.31508379978581
 20
-138.520743780474
 30
0.0
 10
87.46770152978239
 20
-138.4508083421234
 30
0.0
 10
87.46770152978239
 20
-138.2223985114514
 30
0.0
 10
87.46770152978239
 20
-138.1059542840499
 30
0.0
 10
87.42946096989611
 20
-138.0573784377079
 30
0.0
 10
87.39776609143182
 20
-138.0256835592436
 30
0.0
 10
87.32369653849894
 20
-137.9516140063107
 30
0.0
 10
87.20725231109749
 20
-137.9388671530153
 30
0.0
 10
87.15247529288203
 20
-137.9388671530153
 30
0.0
 10
87.13318275816462
 20
-137.9388671530153
 30
0.0
 10
87.09735376511803
 20
-137.9409342103064
 30
0.0
 10
87.06979300123602
 20
-137.9450683248888
 30
0.0
 10
87.06979300123602
 20
-137.9450683248888
 30
0.0
 10
87.06979300123602
 20
-137.7507649395206
 30
0.0
 10
87.06979300123602
 20
-137.7507649395206
 30
0.0
 10
87.1080335611223
 20
-137.7569661113941
 30
0.0
 10
87.15006372604235
 20
-137.7590331686852
 30
0.0
 10
87.15660940746433
 20
-137.7590331686852
 30
0.0
 10
87.22206622168407
 20
-137.7590331686852
 30
0.0
 10
87.42084823118299
 20
-137.7380180862252
 30
0.0
 10
87.42084823118299
 20
-137.50099551684
 30
0.0
 10
87.42084823118299
 20
-137.3232285898011
 30
0.0
 10
87.28993460274349
 20
-137.2681070620372
 30
0.0
 10
87.1796915472155
 20
-137.2681070620372
 30
0.0
 10
86.91545272349684
 20
-137.2681070620372
 30
0.0
 10
86.90683998478372
 20
-137.50099551684
 30
0.0
 10
86.90270587020142
 20
-137.5729980124817
 30
0.0
 10
86.90270587020142
 20
-137.5729980124817
 30
0.0
 10
86.69944523657168
 20
-137.5729980124817
 30
0.0
 10
86.69944523657168
 20
-137.5729980124817
 30
0.0
 10
86.70805797528479
 20
-137.4479410463672
 30
0.0
 10
86.7356187391668
 20
-137.0713921098294
 30
0.0
 10
87.19243840051092
 20
-137.0713921098294
 30
0.0
 10
87.41671411660069
 20
-137.0713921098294
 30
0.0
 10
87.65787080056818
 20
-137.1985161332351
 30
0.0
 10
87.65787080056818
 20
-137.4944498354181
 30
0.0
 10
87.65787080056818
 20
-137.6808295011701
 30
0.0
 10
87.56278616517528
 20
-137.7631672832675
 30
0.0
 10
87.46322290565156
 20
-137.824489982905
 30
0.0
 10
87.524545605289
 20
-137.852050746787
 30
0.0
 10
87.7064466469102
 20
-137.9326659811418
 30
0.0
 10
87.7064466469102
 20
-138.2096516581559
 30
0.0
 10
87.7064466469102
 20
-138.548304544356
 30
0.0
 10
87.45908879106926
 20
-138.7153916753906
 30
0.0
 10
87.18210311405517
 20
-138.7153916753906
 30
0.0
  0
HATCH
  5
8A
330
85
100
AcDbEntity
  8
_U+30EC_U+30A4_U+30E4_U+30FC 1
 62
     7
420
 16777215
100
AcDbHatch
 10
0.0
 20
0.0
 30
0.0
210
0.0
220
0.0
230
1.0
  2
SOLID
 70
     1
 71
     0
 91
        1
 92
        1
 93
        1
 72
     4
 94
        3
 73
     0
 74
     1
 95
       62
 96
       58
 40
0.0
 40
0.0
 40
0.0
 40
0.0
 40
1.0
 40
1.0
 40
1.0
 40
2.0
 40
2.0
 40
2.0
 40
3.0
 40
3.0
 40
3.0
 40
4.0
 40
4.0
 40
4.0
 40
5.0
 40
5.0
 40
5.0
 40
6.0
 40
6.0
 40
6.0
 40
7.0
 40
7.0
 40
7.0
 40
8.0
 40
8.0
 40
8.0
 40
9.0
 40
9.0
 40
9.0
 40
10.0
 40
10.0
 40
10.0
 40
11.0
 40
11.0
 40
11.0
 40
12.0
 40
12.0
 40
12.0
 40
13.0
 40
13.0
 40
13.0
 40
14.0
 40
14.0
 40
14.0
 40
15.0
 40
15.0
 40
15.0
 40
16.0
 40
16.0
 40
16.0
 40
17.0
 40
17.0
 40
17.0
 40
18.0
 40
18.0
 40
18.0
 40
19.0
 40
19.0
 40
19.0
 40
19.0
 10
87.18210311405517
 20
-138.7153916753906
 10
87.08667396911375
 20
-138.7153916753906
 10
86.86894393444597
 20
-138.694032083382
 10
86.7438869683314
 20
-138.5079969271786
 10
86.67016192494705
 20
-138.3956868143594
 10
86.66568330081623
 20
-138.2964680643842
 10
86.66154918623393
 20
-138.2117187154471
 10
86.66154918623393
 20
-138.2117187154471
 10
86.88169078774139
 20
-138.2117187154471
 10
86.88169078774139
 20
-138.2117187154471
 10
86.88375784503253
 20
-138.2857882683799
 10
86.89409313148829
 20
-138.520743780474
 10
87.17762448992434
 20
-138.520743780474
 10
87.31508379978581
 20
-138.520743780474
 10
87.46770152978239
 20
-138.4508083421234
 10
87.46770152978239
 20
-138.2223985114514
 10
87.46770152978239
 20
-138.1059542840499
 10
87.42946096989611
 20
-138.0573784377079
 10
87.39776609143182
 20
-138.0256835592436
 10
87.32369653849894
 20
-137.9516140063107
 10
87.20725231109749
 20
-137.9388671530153
 10
87.15247529288203
 20
-137.9388671530153
 10
87.13318275816462
 20
-137.9388671530153
 10
87.09735376511803
 20
-137.9409342103064
 10
87.06979300123602
 20
-137.9450683248888
 10
87.06979300123602
 20
-137.9450683248888
 10
87.06979300123602
 20
-137.7507649395206
 10
87.06979300123602
 20
-137.7507649395206
 10
87.1080335611223
 20
-137.7569661113941
 10
87.15006372604235
 20
-137.7590331686852
 10
87.15660940746433
 20
-137.7590331686852
 10
87.22206622168407
 20
-137.7590331686852
 10
87.42084823118299
 20
-137.7380180862252
 10
87.42084823118299
 20
-137.50099551684
 10
87.42084823118299
 20
-137.3232285898011
 10
87.28993460274349
 20
-137.2681070620372
 10
87.1796915472155
 20
-137.2681070620372
 10
86.91545272349684
 20
-137.2681070620372
 10
86.90683998478372
 20
-137.50099551684
 10
86.90270587020142
 20
-137.5729980124817
 10
86.90270587020142
 20
-137.5729980124817
 10
86.69944523657168
 20
-137.5729980124817
 10
86.69944523657168
 20
-137.5729980124817
 10
86.70805797528479
 20
-137.4479410463672
 10
86.7356187391668
 20
-137.0713921098294
 10
87.19243840051092
 20
-137.0713921098294
 10
87.41671411660069
 20
-137.0713921098294
 10
87.65787080056818
 20
-137.1985161332351
 10
87.65787080056818
 20
-137.4944498354181
 10
87.65787080056818
 20
-137.6808295011701
 10
87.56278616517528
 20
-137.7631672832675
 10
87.46322290565156
 20
-137.824489982905
 10
87.524545605289
 20
-137.852050746787
 10
87.7064466469102
 20
-137.9326659811418
 10
87.7064466469102
 20
-138.2096516581559
 10
87.7064466469102
 20
-138.548304544356
 10
87.45908879106926
 20
-138.7153916753906
 10
87.18210311405517
 20
-138.7153916753906
 97
        0
 97
        0
 75
     2
 76
     1
 98
        0
  0
SPLINE
  5
8B
330
85
100
AcDbEntity
  8
_U+30EC_U+30A4_U+30E4_U+30FC 1
370
     0
100
AcDbSpline
210
0.0
220
0.0
230
1.0
 70
    11
 71
     3
 72
    29
 73
    25
 74
     0
 42
0.0000000001
 43
0.0000000001
 12
1.0
 22
0.0
 32
0.0
 13
1.0
 23
0.0
 33
0.0
 40
0.0
 40
0.0
 40
0.0
 40
0.0
 40
1.0
 40
1.0
 40
1.0
 40
2.0
 40
2.0
 40
2.0
 40
3.0
 40
3.0
 40
3.0
 40
4.0
 40
4.0
 40
4.0
 40
5.0
 40
5.0
 40
5.0
 40
6.0
 40
6.0
 40
6.0
 40
7.0
 40
7.0
 40
7.0
 40
8.0
 40
8.0
 40
8.0
 40
8.0
 10
88.76512448952748
 20
-138.48663733517
 30
0.0
 10
88.65694849129063
 20
-138.6960991406732
 30
0.0
 10
88.48366018838256
 20
-138.7153916753906
 30
0.0
 10
88.36721596098111
 20
-138.7153916753906
 30
0.0
 10
88.20633000181995
 20
-138.7153916753906
 30
0.0
 10
88.06473657737618
 20
-138.6688828863397
 30
0.0
 10
87.96965194198329
 20
-138.48663733517
 30
0.0
 10
87.86595456787727
 20
-138.2923339498019
 30
0.0
 10
87.84700654270839
 20
-138.0553113804167
 30
0.0
 10
87.84700654270839
 20
-137.8923583639644
 30
0.0
 10
87.84700654270839
 20
-137.748353372681
 30
0.0
 10
87.86388751058611
 20
-137.4968614022577
 30
0.0
 10
87.96965194198329
 20
-137.2977348832103
 30
0.0
 10
88.0774834306716
 20
-137.0948187591291
 30
0.0
 10
88.23836938983277
 20
-137.0713921098294
 30
0.0
 10
88.36721596098111
 20
-137.0713921098294
 30
0.0
 10
88.52603486285113
 20
-137.0713921098294
 30
0.0
 10
88.66969534458605
 20
-137.1158338415891
 30
0.0
 10
88.76512448952748
 20
-137.2977348832103
 30
0.0
 10
88.86434323950267
 20
-137.4903157208358
 30
0.0
 10
88.88776988880237
 20
-137.7187255515078
 30
0.0
 10
88.88776988880237
 20
-137.8923583639644
 30
0.0
 10
88.88776988880237
 20
-138.0635796095813
 30
0.0
 10
88.86641029679382
 20
-138.2944010070931
 30
0.0
 10
88.76512448952748
 20
-138.48663733517
 30
0.0
  0
SPLINE
  5
8C
330
85
100
AcDbEntity
  8
_U+30EC_U+30A4_U+30E4_U+30FC 1
370
     0
100
AcDbSpline
210
0.0
220
0.0
230
1.0
 70
    11
 71
     3
 72
    17
 73
    13
 74
     0
 42
0.0000000001
 43
0.0000000001
 12
1.0
 22
0.0
 32
0.0
 13
1.0
 23
0.0
 33
0.0
 40
0.0
 40
0.0
 40
0.0
 40
0.0
 40
1.0
 40
1.0
 40
1.0
 40
2.0
 40
2.0
 40
2.0
 40
3.0
 40
3.0
 40
3.0
 40
4.0
 40
4.0
 40
4.0
 40
4.0
 10
88.36721596098111
 20
-137.2639729474548
 30
0.0
 10
88.11779104784902
 20
-137.2639729474548
 30
0.0
 10
88.07093774924964
 20
-137.5475043058909
 30
0.0
 10
88.07093774924964
 20
-137.8923583639644
 30
0.0
 10
88.07093774924964
 20
-138.2117187154471
 30
0.0
 10
88.10711125184476
 20
-138.520743780474
 30
0.0
 10
88.36721596098111
 20
-138.520743780474
 30
0.0
 10
88.61491832637059
 20
-138.520743780474
 30
0.0
 10
88.6634941727126
 20
-138.2392794793291
 30
0.0
 10
88.6634941727126
 20
-137.8923583639644
 30
0.0
 10
88.6634941727126
 20
-137.5729980124817
 30
0.0
 10
88.62525361282633
 20
-137.2639729474548
 30
0.0
 10
88.36721596098111
 20
-137.2639729474548
 30
0.0
  0
HATCH
  5
8D
330
85
100
AcDbEntity
  8
_U+30EC_U+30A4_U+30E4_U+30FC 1
 62
     7
420
 16777215
100
AcDbHatch
 10
0.0
 20
0.0
 30
0.0
210
0.0
220
0.0
230
1.0
  2
SOLID
 70
     1
 71
     0
 91
        2
 92
        1
 93
        1
 72
     4
 94
        3
 73
     0
 74
     1
 95
       29
 96
       25
 40
0.0
 40
0.0
 40
0.0
 40
0.0
 40
1.0
 40
1.0
 40
1.0
 40
2.0
 40
2.0
 40
2.0
 40
3.0
 40
3.0
 40
3.0
 40
4.0
 40
4.0
 40
4.0
 40
5.0
 40
5.0
 40
5.0
 40
6.0
 40
6.0
 40
6.0
 40
7.0
 40
7.0
 40
7.0
 40
8.0
 40
8.0
 40
8.0
 40
8.0
 10
88.76512448952748
 20
-138.48663733517
 10
88.65694849129063
 20
-138.6960991406732
 10
88.48366018838256
 20
-138.7153916753906
 10
88.36721596098111
 20
-138.7153916753906
 10
88.20633000181995
 20
-138.7153916753906
 10
88.06473657737618
 20
-138.6688828863397
 10
87.96965194198329
 20
-138.48663733517
 10
87.86595456787727
 20
-138.2923339498019
 10
87.84700654270839
 20
-138.0553113804167
 10
87.84700654270839
 20
-137.8923583639644
 10
87.84700654270839
 20
-137.748353372681
 10
87.86388751058611
 20
-137.4968614022577
 10
87.96965194198329
 20
-137.2977348832103
 10
88.0774834306716
 20
-137.0948187591291
 10
88.23836938983277
 20
-137.0713921098294
 10
88.36721596098111
 20
-137.0713921098294
 10
88.52603486285113
 20
-137.0713921098294
 10
88.66969534458605
 20
-137.1158338415891
 10
88.76512448952748
 20
-137.2977348832103
 10
88.86434323950267
 20
-137.4903157208358
 10
88.88776988880237
 20
-137.7187255515078
 10
88.88776988880237
 20
-137.8923583639644
 10
88.88776988880237
 20
-138.0635796095813
 10
88.86641029679382
 20
-138.2944010070931
 10
88.76512448952748
 20
-138.48663733517
 97
        0
 97
        0
 92
        1
 93
        1
 72
     4
 94
        3
 73
     0
 74
     1
 95
       17
 96
       13
 40
0.0
 40
0.0
 40
0.0
 40
0.0
 40
1.0
 40
1.0
 40
1.0
 40
2.0
 40
2.0
 40
2.0
 40
3.0
 40
3.0
 40
3.0
 40
4.0
 40
4.0
 40
4.0
 40
4.0
 10
88.36721596098111
 20
-137.2639729474548
 10
88.11779104784902
 20
-137.2639729474548
 10
88.07093774924964
 20
-137.5475043058909
 10
88.07093774924964
 20
-137.8923583639644
 10
88.07093774924964
 20
-138.2117187154471
 10
88.10711125184476
 20
-138.520743780474
 10
88.36721596098111
 20
-138.520743780474
 10
88.61491832637059
 20
-138.520743780474
 10
88.6634941727126
 20
-138.2392794793291
 10
88.6634941727126
 20
-137.8923583639644
 10
88.6634941727126
 20
-137.5729980124817
 10
88.62525361282633
 20
-137.2639729474548
 10
88.36721596098111
 20
-137.2639729474548
 97
        0
 97
        0
 75
     2
 76
     1
 98
        0
  0
ENDBLK
  5
88
330
85
100
AcDbEntity
  8
0
100
AcDbBlockEnd
  0
ENDSEC
  0
SECTION
  2
ENTITIES
  0
INSERT
  5
42
330
1F
100
AcDbEntity
  8
_U+30EC_U+30A4_U+30E4_U+30FC 1
100
AcDbBlockReference
  2
block 2
 10
0.0
 20
0.0
 30
0.0
  0
INSERT
  5
4A
330
1F
100
AcDbEntity
  8
_U+30EC_U+30A4_U+30E4_U+30FC 1
100
AcDbBlockReference
  2
block 3
 10
0.0
 20
0.0
 30
0.0
  0
POLYLINE
  5
4F
330
1F
100
AcDbEntity
  8
_U+30EC_U+30A4_U+30E4_U+30FC 1
 62
     7
420
 16777215
370
     9
100
AcDb2dPolyline
 66
     1
 10
0.0
 20
0.0
 30
0.0
  0
VERTEX
  5
50
330
4F
100
AcDbEntity
  8
_U+30EC_U+30A4_U+30E4_U+30FC 1
 62
     7
420
 16777215
370
     9
100
AcDbVertex
100
AcDb2dVertex
 10
72.77763036551019
 20
-136.8006252435778
 30
0.0
  0
VERTEX
  5
51
330
4F
100
AcDbEntity
  8
_U+30EC_U+30A4_U+30E4_U+30FC 1
 62
     7
420
 16777215
370
     9
100
AcDbVertex
100
AcDb2dVertex
 10
72.77763036551019
 20
-140.2608460760458
 30
0.0
  0
SEQEND
  5
52
330
4F
100
AcDbEntity
  8
_U+30EC_U+30A4_U+30E4_U+30FC 1
 62
     7
420
 16777215
370
     9
  0
POLYLINE
  5
53
330
1F
100
AcDbEntity
  8
_U+30EC_U+30A4_U+30E4_U+30FC 1
 62
     7
420
 16777215
370
     9
100
AcDb2dPolyline
 66
     1
 10
0.0
 20
0.0
 30
0.0
  0
VERTEX
  5
54
330
53
100
AcDbEntity
  8
_U+30EC_U+30A4_U+30E4_U+30FC 1
 62
     7
420
 16777215
370
     9
100
AcDbVertex
100
AcDb2dVertex
 10
102.7809915445051
 20
-137.8010677433277
 30
0.0
  0
VERTEX
  5
55
330
53
100
AcDbEntity
  8
_U+30EC_U+30A4_U+30E4_U+30FC 1
 62
     7
420
 16777215
370
     9
100
AcDbVertex
100
AcDb2dVertex
 10
102.7809915445051
 20
-140.2608460760458
 30
0.0
  0
SEQEND
  5
56
330
53
100
AcDbEntity
  8
_U+30EC_U+30A4_U+30E4_U+30FC 1
 62
     7
420
 16777215
370
     9
  0
SPLINE
  5
57
330
1F
100
AcDbEntity
  8
_U+30EC_U+30A4_U+30E4_U+30FC 1
 62
     7
420
 16777215
370
     9
100
AcDbSpline
210
0.0
220
0.0
230
1.0
 70
    11
 71
     3
 72
    17
 73
    13
 74
     0
 42
0.0000000001
 43
0.0000000001
 12
1.0
 22
0.0
 32
0.0
 13
1.0
 23
0.0
 33
0.0
 40
0.0
 40
0.0
 40
0.0
 40
0.0
 40
1.0
 40
1.0
 40
1.0
 40
2.0
 40
2.0
 40
2.0
 40
3.0
 40
3.0
 40
3.0
 40
4.0
 40
4.0
 40
4.0
 40
4.0
 10
82.77669288819062
 20
-118.9219533036028
 30
0.0
 10
82.72155372293068
 20
-118.9219533036028
 30
0.0
 10
82.6767862240728
 20
-118.9667208035917
 30
0.0
 10
82.6767862240728
 20
-119.0218599702445
 30
0.0
 10
82.6767862240728
 20
-119.0769638591197
 30
0.0
 10
82.72155372293068
 20
-119.1217666368861
 30
0.0
 10
82.77669288819062
 20
-119.1217666368861
 30
0.0
 10
82.8317967756737
 20
-119.1217666368861
 30
0.0
 10
82.87659955230846
 20
-119.0769638591197
 30
0.0
 10
82.87659955230846
 20
-119.0218599702445
 30
0.0
 10
82.87659955230846
 20
-118.9667208035917
 30
0.0
 10
82.8317967756737
 20
-118.9219533036028
 30
0.0
 10
82.77669288819062
 20
-118.9219533036028
 30
0.0
  0
POLYLINE
  5
58
330
1F
100
AcDbEntity
  8
_U+30EC_U+30A4_U+30E4_U+30FC 1
 62
     7
420
 16777215
370
     9
100
AcDb2dPolyline
 66
     1
 10
0.0
 20
0.0
 30
0.0
  0
VERTEX
  5
59
330
58
100
AcDbEntity
  8
_U+30EC_U+30A4_U+30E4_U+30FC 1
 62
     7
420
 16777215
370
     9
100
AcDbVertex
100
AcDb2dVertex
 10
92.77917735522821
 20
-119.0218599702445
 30
0.0
  0
VERTEX
  5
5A
330
58
100
AcDbEntity
  8
_U+30EC_U+30A4_U+30E4_U+30FC 1
 62
     7
420
 16777215
370
     9
100
AcDbVertex
100
AcDb2dVertex
 10
82.77873899924954
 20
-119.0218599702445
 30
0.0
  0
SEQEND
  5
5B
330
58
100
AcDbEntity
  8
_U+30EC_U+30A4_U+30E4_U+30FC 1
 62
     7
420
 16777215
370
     9
  0
POLYLINE
  5
5C
330
1F
100
AcDbEntity
  8
_U+30EC_U+30A4_U+30E4_U+30FC 1
 62
     7
420
 16777215
370
     9
100
AcDb2dPolyline
 66
     1
 10
0.0
 20
0.0
 30
0.0
  0
VERTEX
  5
5D
330
5C
100
AcDbEntity
  8
_U+30EC_U+30A4_U+30E4_U+30FC 1
 62
     7
420
 16777215
370
     9
100
AcDbVertex
100
AcDb2dVertex
 10
82.77669288819062
 20
-117.5618185817208
 30
0.0
  0
VERTEX
  5
5E
330
5C
100
AcDbEntity
  8
_U+30EC_U+30A4_U+30E4_U+30FC 1
 62
     7
420
 16777215
370
     9
100
AcDbVertex
100
AcDb2dVertex
 10
82.77669288819062
 20
-120.0216321922167
 30
0.0
  0
SEQEND
  5
5F
330
5C
100
AcDbEntity
  8
_U+30EC_U+30A4_U+30E4_U+30FC 1
 62
     7
420
 16777215
370
     9
  0
SPLINE
  5
60
330
1F
100
AcDbEntity
  8
_U+30EC_U+30A4_U+30E4_U+30FC 1
 62
     7
420
 16777215
370
     9
100
AcDbSpline
210
0.0
220
0.0
230
1.0
 70
    11
 71
     3
 72
    17
 73
    13
 74
     0
 42
0.0000000001
 43
0.0000000001
 12
1.0
 22
0.0
 32
0.0
 13
1.0
 23
0.0
 33
0.0
 40
0.0
 40
0.0
 40
0.0
 40
0.0
 40
1.0
 40
1.0
 40
1.0
 40
2.0
 40
2.0
 40
2.0
 40
3.0
 40
3.0
 40
3.0
 40
4.0
 40
4.0
 40
4.0
 40
4.0
 10
92.78126108791595
 20
-118.9219533036028
 30
0.0
 10
92.72611957880405
 20
-118.9219533036028
 30
0.0
 10
92.68135207994617
 20
-118.9667208035917
 30
0.0
 10
92.68135207994617
 20
-119.0218599702445
 30
0.0
 10
92.68135207994617
 20
-119.0769638591197
 30
0.0
 10
92.72611957880405
 20
-119.1217666368861
 30
0.0
 10
92.78126108791595
 20
-119.1217666368861
 30
0.0
 10
92.83636263154708
 20
-119.1217666368861
 30
0.0
 10
92.88116540818183
 20
-119.0769638591197
 30
0.0
 10
92.88116540818183
 20
-119.0218599702445
 30
0.0
 10
92.88116540818183
 20
-118.9667208035917
 30
0.0
 10
92.83636263154708
 20
-118.9219533036028
 30
0.0
 10
92.78126108791595
 20
-118.9219533036028
 30
0.0
  0
POLYLINE
  5
61
330
1F
100
AcDbEntity
  8
_U+30EC_U+30A4_U+30E4_U+30FC 1
 62
     7
420
 16777215
370
     9
100
AcDb2dPolyline
 66
     1
 10
0.0
 20
0.0
 30
0.0
  0
VERTEX
  5
62
330
61
100
AcDbEntity
  8
_U+30EC_U+30A4_U+30E4_U+30FC 1
 62
     7
420
 16777215
370
     9
100
AcDbVertex
100
AcDb2dVertex
 10
92.78126108791595
 20
-117.5618185817208
 30
0.0
  0
VERTEX
  5
63
330
61
100
AcDbEntity
  8
_U+30EC_U+30A4_U+30E4_U+30FC 1
 62
     7
420
 16777215
370
     9
100
AcDbVertex
100
AcDb2dVertex
 10
92.78126108791595
 20
-120.0216321922167
 30
0.0
  0
SEQEND
  5
64
330
61
100
AcDbEntity
  8
_U+30EC_U+30A4_U+30E4_U+30FC 1
 62
     7
420
 16777215
370
     9
  0
INSERT
  5
66
330
1F
100
AcDbEntity
  8
_U+30EC_U+30A4_U+30E4_U+30FC 1
100
AcDbBlockReference
  2
block 4
 10
0.0
 20
0.0
 30
0.0
  0
SPLINE
  5
6E
330
1F
100
AcDbEntity
  8
_U+30EC_U+30A4_U+30E4_U+30FC 1
 62
     7
420
 16777215
370
     9
100
AcDbSpline
210
0.0
220
0.0
230
1.0
 70
    11
 71
     3
 72
    17
 73
    13
 74
     0
 42
0.0000000001
 43
0.0000000001
 12
1.0
 22
0.0
 32
0.0
 13
1.0
 23
0.0
 33
0.0
 40
0.0
 40
0.0
 40
0.0
 40
0.0
 40
1.0
 40
1.0
 40
1.0
 40
2.0
 40
2.0
 40
2.0
 40
3.0
 40
3.0
 40
3.0
 40
4.0
 40
4.0
 40
4.0
 40
4.0
 10
106.1513245140763
 20
-134.2602019108791
 30
0.0
 10
106.1513245140763
 20
-134.3160113553102
 30
0.0
 10
106.1960920129342
 20
-134.3601085775214
 30
0.0
 10
106.2512311781941
 20
-134.3601085775214
 30
0.0
 10
106.3063350656772
 20
-134.3601085775214
 30
0.0
 10
106.351137842312
 20
-134.3160113553102
 30
0.0
 10
106.351137842312
 20
-134.2602019108791
 30
0.0
 10
106.351137842312
 20
-134.2050627442267
 30
0.0
 10
106.3063350656772
 20
-134.1602952442375
 30
0.0
 10
106.2512311781941
 20
-134.1602952442375
 30
0.0
 10
106.1960920129342
 20
-134.1602952442375
 30
0.0
 10
106.1513245140763
 20
-134.2050627442267
 30
0.0
 10
106.1513245140763
 20
-134.2602019108791
 30
0.0
  0
SPLINE
  5
6F
330
1F
100
AcDbEntity
  8
_U+30EC_U+30A4_U+30E4_U+30FC 1
 62
     7
420
 16777215
370
     9
100
AcDbSpline
210
0.0
220
0.0
230
1.0
 70
    11
 71
     3
 72
    17
 73
    13
 74
     0
 42
0.0000000001
 43
0.0000000001
 12
1.0
 22
0.0
 32
0.0
 13
1.0
 23
0.0
 33
0.0
 40
0.0
 40
0.0
 40
0.0
 40
0.0
 40
1.0
 40
1.0
 40
1.0
 40
2.0
 40
2.0
 40
2.0
 40
3.0
 40
3.0
 40
3.0
 40
4.0
 40
4.0
 40
4.0
 40
4.0
 10
106.1513245140763
 20
-135.2599741328517
 30
0.0
 10
106.1513245140763
 20
-135.3157835772821
 30
0.0
 10
106.1960920129342
 20
-135.3605510772707
 30
0.0
 10
106.2512311781941
 20
-135.3605510772707
 30
0.0
 10
106.3063350656772
 20
-135.3605510772707
 30
0.0
 10
106.351137842312
 20
-135.3157835772821
 30
0.0
 10
106.351137842312
 20
-135.2599741328517
 30
0.0
 10
106.351137842312
 20
-135.2048349661986
 30
0.0
 10
106.3063350656772
 20
-135.16006746621
 30
0.0
 10
106.2512311781941
 20
-135.16006746621
 30
0.0
 10
106.1960920129342
 20
-135.16006746621
 30
0.0
 10
106.1513245140763
 20
-135.2048349661986
 30
0.0
 10
106.1513245140763
 20
-135.2599741328517
 30
0.0
  0
POLYLINE
  5
70
330
1F
100
AcDbEntity
  8
_U+30EC_U+30A4_U+30E4_U+30FC 1
 62
     7
420
 16777215
370
     9
100
AcDb2dPolyline
 66
     1
 10
0.0
 20
0.0
 30
0.0
  0
VERTEX
  5
71
330
70
100
AcDbEntity
  8
_U+30EC_U+30A4_U+30E4_U+30FC 1
 62
     7
420
 16777215
370
     9
100
AcDbVertex
100
AcDb2dVertex
 10
106.2512311781941
 20
-134.2567446886578
 30
0.0
  0
VERTEX
  5
72
330
70
100
AcDbEntity
  8
_U+30EC_U+30A4_U+30E4_U+30FC 1
 62
     7
420
 16777215
370
     9
100
AcDbVertex
100
AcDb2dVertex
 10
106.2512311781941
 20
-121.2564955252413
 30
0.0
  0
SEQEND
  5
73
330
70
100
AcDbEntity
  8
_U+30EC_U+30A4_U+30E4_U+30FC 1
 62
     7
420
 16777215
370
     9
  0
POLYLINE
  5
74
330
1F
100
AcDbEntity
  8
_U+30EC_U+30A4_U+30E4_U+30FC 1
 62
     7
420
 16777215
370
     9
100
AcDb2dPolyline
 66
     1
 10
0.0
 20
0.0
 30
0.0
  0
VERTEX
  5
75
330
74
100
AcDbEntity
  8
_U+30EC_U+30A4_U+30E4_U+30FC 1
 62
     7
420
 16777215
370
     9
100
AcDbVertex
100
AcDb2dVertex
 10
106.2512311781941
 20
-135.2599741328517
 30
0.0
  0
VERTEX
  5
76
330
74
100
AcDbEntity
  8
_U+30EC_U+30A4_U+30E4_U+30FC 1
 62
     7
420
 16777215
370
     9
100
AcDbVertex
100
AcDb2dVertex
 10
106.2512311781941
 20
-134.2602019108791
 30
0.0
  0
SEQEND
  5
77
330
74
100
AcDbEntity
  8
_U+30EC_U+30A4_U+30E4_U+30FC 1
 62
     7
420
 16777215
370
     9
  0
POLYLINE
  5
78
330
1F
100
AcDbEntity
  8
_U+30EC_U+30A4_U+30E4_U+30FC 1
 62
     7
420
 16777215
370
     9
100
AcDb2dPolyline
 66
     1
 10
0.0
 20
0.0
 30
0.0
  0
VERTEX
  5
79
330
78
100
AcDbEntity
  8
_U+30EC_U+30A4_U+30E4_U+30FC 1
 62
     7
420
 16777215
370
     9
100
AcDbVertex
100
AcDb2dVertex
 10
104.9654999737589
 20
-134.2602019108791
 30
0.0
  0
VERTEX
  5
7A
330
78
100
AcDbEntity
  8
_U+30EC_U+30A4_U+30E4_U+30FC 1
 62
     7
420
 16777215
370
     9
100
AcDbVertex
100
AcDb2dVertex
 10
107.4253108704631
 20
-134.2602019108791
 30
0.0
  0
SEQEND
  5
7B
330
78
100
AcDbEntity
  8
_U+30EC_U+30A4_U+30E4_U+30FC 1
 62
     7
420
 16777215
370
     9
  0
POLYLINE
  5
7C
330
1F
100
AcDbEntity
  8
_U+30EC_U+30A4_U+30E4_U+30FC 1
 62
     7
420
 16777215
370
     9
100
AcDb2dPolyline
 66
     1
 10
0.0
 20
0.0
 30
0.0
  0
VERTEX
  5
7D
330
7C
100
AcDbEntity
  8
_U+30EC_U+30A4_U+30E4_U+30FC 1
 62
     7
420
 16777215
370
     9
100
AcDbVertex
100
AcDb2dVertex
 10
104.9654999737589
 20
-135.2599741328517
 30
0.0
  0
VERTEX
  5
7E
330
7C
100
AcDbEntity
  8
_U+30EC_U+30A4_U+30E4_U+30FC 1
 62
     7
420
 16777215
370
     9
100
AcDbVertex
100
AcDb2dVertex
 10
107.4253108704631
 20
-135.2599741328517
 30
0.0
  0
SEQEND
  5
7F
330
7C
100
AcDbEntity
  8
_U+30EC_U+30A4_U+30E4_U+30FC 1
 62
     7
420
 16777215
370
     9
  0
SPLINE
  5
80
330
1F
100
AcDbEntity
  8
_U+30EC_U+30A4_U+30E4_U+30FC 1
 62
     7
420
 16777215
370
     9
100
AcDbSpline
210
0.0
220
0.0
230
1.0
 70
    11
 71
     3
 72
    17
 73
    13
 74
     0
 42
0.0000000001
 43
0.0000000001
 12
1.0
 22
0.0
 32
0.0
 13
1.0
 23
0.0
 33
0.0
 40
0.0
 40
0.0
 40
0.0
 40
0.0
 40
1.0
 40
1.0
 40
1.0
 40
2.0
 40
2.0
 40
2.0
 40
3.0
 40
3.0
 40
3.0
 40
4.0
 40
4.0
 40
4.0
 40
4.0
 10
106.3514906200808
 20
-121.2527208030201
 30
0.0
 10
106.3514906200808
 20
-121.1972641363674
 30
0.0
 10
106.306687843446
 20
-121.1528141363784
 30
0.0
 10
106.2515486781861
 20
-121.1528141363784
 30
0.0
 10
106.196444790703
 20
-121.1528141363784
 30
0.0
 10
106.1516420140682
 20
-121.1972641363674
 30
0.0
 10
106.1516420140682
 20
-121.2527208030201
 30
0.0
 10
106.1516420140682
 20
-121.3078246918953
 30
0.0
 10
106.196444790703
 20
-121.352627469662
 30
0.0
 10
106.2515486781861
 20
-121.352627469662
 30
0.0
 10
106.306687843446
 20
-121.352627469662
 30
0.0
 10
106.3514906200808
 20
-121.3078246918953
 30
0.0
 10
106.3514906200808
 20
-121.2527208030201
 30
0.0
  0
POLYLINE
  5
81
330
1F
100
AcDbEntity
  8
_U+30EC_U+30A4_U+30E4_U+30FC 1
 62
     7
420
 16777215
370
     9
100
AcDb2dPolyline
 66
     1
 10
0.0
 20
0.0
 30
0.0
  0
VERTEX
  5
82
330
81
100
AcDbEntity
  8
_U+30EC_U+30A4_U+30E4_U+30FC 1
 62
     7
420
 16777215
370
     9
100
AcDbVertex
100
AcDb2dVertex
 10
95.09636285166744
 20
-121.2527208030201
 30
0.0
  0
VERTEX
  5
83
330
81
100
AcDbEntity
  8
_U+30EC_U+30A4_U+30E4_U+30FC 1
 62
     7
420
 16777215
370
     9
100
AcDbVertex
100
AcDb2dVertex
 10
107.4253108704631
 20
-121.2527208030201
 30
0.0
  0
SEQEND
  5
84
330
81
100
AcDbEntity
  8
_U+30EC_U+30A4_U+30E4_U+30FC 1
 62
     7
420
 16777215
370
     9
  0
INSERT
  5
86
330
1F
100
AcDbEntity
  8
_U+30EC_U+30A4_U+30E4_U+30FC 1
100
AcDbBlockReference
  2
block 5
 10
0.0
 20
0.0
 30
0.0
  0
SPLINE
  5
8E
330
1F
100
AcDbEntity
  8
_U+30EC_U+30A4_U+30E4_U+30FC 1
 62
     7
420
 16777215
370
     9
100
AcDbSpline
210
0.0
220
0.0
230
1.0
 70
    11
 71
     3
 72
    17
 73
    13
 74
     0
 42
0.0000000001
 43
0.0000000001
 12
1.0
 22
0.0
 32
0.0
 13
1.0
 23
0.0
 33
0.0
 40
0.0
 40
0.0
 40
0.0
 40
0.0
 40
1.0
 40
1.0
 40
1.0
 40
2.0
 40
2.0
 40
2.0
 40
3.0
 40
3.0
 40
3.0
 40
4.0
 40
4.0
 40
4.0
 40
4.0
 10
102.8805454308542
 20
-139.1612024652098
 30
0.0
 10
102.8805454308542
 20
-139.2163063540847
 30
0.0
 10
102.8357426542194
 20
-139.2611091318514
 30
0.0
 10
102.7806387667363
 20
-139.2611091318514
 30
0.0
 10
102.7254996014764
 20
-139.2611091318514
 30
0.0
 10
102.6807321026185
 20
-139.2163063540847
 30
0.0
 10
102.6807321026185
 20
-139.1612024652098
 30
0.0
 10
102.6807321026185
 20
-139.1060632985567
 30
0.0
 10
102.7254996014764
 20
-139.0612957985682
 30
0.0
 10
102.7806387667363
 20
-139.0612957985682
 30
0.0
 10
102.8357426542194
 20
-139.0612957985682
 30
0.0
 10
102.8805454308542
 20
-139.1060632985567
 30
0.0
 10
102.8805454308542
 20
-139.1612024652098
 30
0.0
  0
SPLINE
  5
8F
330
1F
100
AcDbEntity
  8
_U+30EC_U+30A4_U+30E4_U+30FC 1
 62
     7
420
 16777215
370
     9
100
AcDbSpline
210
0.0
220
0.0
230
1.0
 70
    11
 71
     3
 72
    17
 73
    13
 74
     0
 42
0.0000000001
 43
0.0000000001
 12
1.0
 22
0.0
 32
0.0
 13
1.0
 23
0.0
 33
0.0
 40
0.0
 40
0.0
 40
0.0
 40
0.0
 40
1.0
 40
1.0
 40
1.0
 40
2.0
 40
2.0
 40
2.0
 40
3.0
 40
3.0
 40
3.0
 40
4.0
 40
4.0
 40
4.0
 40
4.0
 10
72.87753887066962
 20
-139.1612024652098
 30
0.0
 10
72.87753887066962
 20
-139.2163063540847
 30
0.0
 10
72.83276953077014
 20
-139.2611091318514
 30
0.0
 10
72.77763036551019
 20
-139.2611091318514
 30
0.0
 10
72.72252647802712
 20
-139.2611091318514
 30
0.0
 10
72.67772370139235
 20
-139.2163063540847
 30
0.0
 10
72.67772370139235
 20
-139.1612024652098
 30
0.0
 10
72.67772370139235
 20
-139.1060632985567
 30
0.0
 10
72.72252647802712
 20
-139.0612957985682
 30
0.0
 10
72.77763036551019
 20
-139.0612957985682
 30
0.0
 10
72.83276953077014
 20
-139.0612957985682
 30
0.0
 10
72.87753887066962
 20
-139.1060632985567
 30
0.0
 10
72.87753887066962
 20
-139.1612024652098
 30
0.0
  0
POLYLINE
  5
90
330
1F
100
AcDbEntity
  8
_U+30EC_U+30A4_U+30E4_U+30FC 1
 62
     7
420
 16777215
370
     9
100
AcDb2dPolyline
 66
     1
 10
0.0
 20
0.0
 30
0.0
  0
VERTEX
  5
91
330
90
100
AcDbEntity
  8
_U+30EC_U+30A4_U+30E4_U+30FC 1
 62
     7
420
 16777215
370
     9
100
AcDbVertex
100
AcDb2dVertex
 10
102.7789101556693
 20
-139.1612024652098
 30
0.0
  0
VERTEX
  5
92
330
90
100
AcDbEntity
  8
_U+30EC_U+30A4_U+30E4_U+30FC 1
 62
     7
420
 16777215
370
     9
100
AcDbVertex
100
AcDb2dVertex
 10
72.77900619880842
 20
-139.1612024652098
 30
0.0
  0
SEQEND
  5
93
330
90
100
AcDbEntity
  8
_U+30EC_U+30A4_U+30E4_U+30FC 1
 62
     7
420
 16777215
370
     9
  0
POLYLINE
  5
94
330
1F
100
AcDbEntity
  8
_U+30EC_U+30A4_U+30E4_U+30FC 1
 62
     7
420
 16777215
370
    25
100
AcDb2dPolyline
 66
     1
 10
0.0
 20
0.0
 30
0.0
  0
VERTEX
  5
95
330
94
100
AcDbEntity
  8
_U+30EC_U+30A4_U+30E4_U+30FC 1
 62
     7
420
 16777215
370
    25
100
AcDbVertex
100
AcDb2dVertex
 10
93.78134844077181
 20
-134.2602019108791
 30
0.0
  0
VERTEX
  5
96
330
94
100
AcDbEntity
  8
_U+30EC_U+30A4_U+30E4_U+30FC 1
 62
     7
420
 16777215
370
    25
100
AcDbVertex
100
AcDb2dVertex
 10
93.78134844077181
 20
-121.2563544141302
 30
0.0
  0
VERTEX
  5
97
330
94
100
AcDbEntity
  8
_U+30EC_U+30A4_U+30E4_U+30FC 1
 62
     7
420
 16777215
370
    25
100
AcDbVertex
100
AcDb2dVertex
 10
92.78126108791595
 20
-121.2563544141302
 30
0.0
  0
VERTEX
  5
98
330
94
100
AcDbEntity
  8
_U+30EC_U+30A4_U+30E4_U+30FC 1
 62
     7
420
 16777215
370
    25
100
AcDbVertex
100
AcDb2dVertex
 10
92.78126108791595
 20
-134.2602019108791
 30
0.0
  0
VERTEX
  5
99
330
94
100
AcDbEntity
  8
_U+30EC_U+30A4_U+30E4_U+30FC 1
 62
     7
420
 16777215
370
    25
100
AcDbVertex
100
AcDb2dVertex
 10
82.7753170548924
 20
-134.2602019108791
 30
0.0
  0
VERTEX
  5
9A
330
94
100
AcDbEntity
  8
_U+30EC_U+30A4_U+30E4_U+30FC 1
 62
     7
420
 16777215
370
    25
100
AcDbVertex
100
AcDb2dVertex
 10
82.7753170548924
 20
-121.2563544141302
 30
0.0
  0
VERTEX
  5
9B
330
94
100
AcDbEntity
  8
_U+30EC_U+30A4_U+30E4_U+30FC 1
 62
     7
420
 16777215
370
    25
100
AcDbVertex
100
AcDb2dVertex
 10
81.77483930263894
 20
-121.2563544141302
 30
0.0
  0
VERTEX
  5
9C
330
94
100
AcDbEntity
  8
_U+30EC_U+30A4_U+30E4_U+30FC 1
 62
     7
420
 16777215
370
    25
100
AcDbVertex
100
AcDb2dVertex
 10
81.77483930263894
 20
-134.2602019108791
 30
0.0
  0
VERTEX
  5
9D
330
94
100
AcDbEntity
  8
_U+30EC_U+30A4_U+30E4_U+30FC 1
 62
     7
420
 16777215
370
    25
100
AcDbVertex
100
AcDb2dVertex
 10
72.78108758764421
 20
-134.2602019108791
 30
0.0
  0
VERTEX
  5
9E
330
94
100
AcDbEntity
  8
_U+30EC_U+30A4_U+30E4_U+30FC 1
 62
     7
420
 16777215
370
    25
100
AcDbVertex
100
AcDb2dVertex
 10
72.78108758764421
 20
-135.260644410629
 30
0.0
  0
VERTEX
  5
9F
330
94
100
AcDbEntity
  8
_U+30EC_U+30A4_U+30E4_U+30FC 1
 62
     7
420
 16777215
370
    25
100
AcDbVertex
100
AcDb2dVertex
 10
102.7809915445051
 20
-135.260644410629
 30
0.0
  0
VERTEX
  5
A0
330
94
100
AcDbEntity
  8
_U+30EC_U+30A4_U+30E4_U+30FC 1
 62
     7
420
 16777215
370
    25
100
AcDbVertex
100
AcDb2dVertex
 10
102.7809915445051
 20
-134.2602019108791
 30
0.0
  0
VERTEX
  5
A1
330
94
100
AcDbEntity
  8
_U+30EC_U+30A4_U+30E4_U+30FC 1
 62
     7
420
 16777215
370
    25
100
AcDbVertex
100
AcDb2dVertex
 10
93.78134844077181
 20
-134.2602019108791
 30
0.0
  0
SEQEND
  5
A2
330
94
100
AcDbEntity
  8
_U+30EC_U+30A4_U+30E4_U+30FC 1
 62
     7
420
 16777215
370
    25
  0
ENDSEC
  0
SECTION
  2
OBJECTS
  0
DICTIONARY
  5
C
330
0
100
AcDbDictionary
281
     1
  3
ACAD_GROUP
350
D
  3
ACAD_LAYOUT
350
1A
  3
ACAD_MATERIAL
350
3B
  3
ACAD_MLEADERSTYLE
350
A4
  3
ACAD_MLINESTYLE
350
17
  3
ACAD_PLOTSETTINGS
350
19
  3
ACAD_PLOTSTYLENAME
350
E
  3
ACAD_TABLESTYLE
350
A3
  3
ACAD_VISUALSTYLE
350
2A
  0
SUN
  5
3F
330
29
100
AcDbSun
 90
        1
290
     0
 63
     7
421
 16777215
 40
1.0
291
     1
 91
  2455826
 92
 54000000
292
     0
 70
     2
 71
   256
280
     1
  0
DICTIONARY
  5
D
102
{ACAD_REACTORS
330
C
102
}
330
C
100
AcDbDictionary
281
     1
  0
DICTIONARY
  5
1A
102
{ACAD_REACTORS
330
C
102
}
330
C
100
AcDbDictionary
281
     1
  3
Layout1
350
1E
  3
Layout2
350
26
  3
Model
350
22
  0
DICTIONARY
  5
3B
102
{ACAD_REACTORS
330
C
102
}
330
C
100
AcDbDictionary
281
     1
  3
ByBlock
350
3D
  3
ByLayer
350
3C
  3
Global
350
3E
  0
DICTIONARY
  5
A4
102
{ACAD_REACTORS
330
C
102
}
330
C
100
AcDbDictionary
281
     1
  0
DICTIONARY
  5
17
102
{ACAD_REACTORS
330
C
102
}
330
C
100
AcDbDictionary
281
     1
  3
Standard
350
18
  0
DICTIONARY
  5
19
102
{ACAD_REACTORS
330
C
102
}
330
C
100
AcDbDictionary
281
     1
  0
ACDBDICTIONARYWDFLT
  5
E
102
{ACAD_REACTORS
330
C
102
}
330
C
100
AcDbDictionary
281
     1
  3
Normal
350
F
100
AcDbDictionaryWithDefault
340
F
  0
DICTIONARY
  5
A3
102
{ACAD_REACTORS
330
C
102
}
330
C
100
AcDbDictionary
281
     1
  0
DICTIONARY
  5
2A
102
{ACAD_REACTORS
330
C
102
}
330
C
100
AcDbDictionary
281
     1
  3
2dWireframe
350
2F
  3
3D Hidden
350
31
  3
3dWireframe
350
30
  3
Basic
350
32
  3
Brighten
350
36
  3
ColorChange
350
3A
  3
Conceptual
350
34
  3
Dim
350
35
  3
Facepattern
350
39
  3
Flat
350
2B
  3
FlatWithEdges
350
2C
  3
Gouraud
350
2D
  3
GouraudWithEdges
350
2E
  3
Linepattern
350
38
  3
Realistic
350
33
  3
Thicken
350
37
  0
LAYOUT
  5
1E
102
{ACAD_REACTORS
330
1A
102
}
330
1A
100
AcDbPlotSettings
  1

  2
none_device
  4

  6

 40
0.0
 41
0.0
 42
0.0
 43
0.0
 44
0.0
 45
0.0
 46
0.0
 47
0.0
 48
0.0
 49
0.0
140
0.0
141
0.0
142
1.0
143
1.0
 70
   688
 72
     0
 73
     0
 74
     5
  7

 75
    16
 76
     0
 77
     2
 78
   300
147
1.0
148
0.0
149
0.0
100
AcDbLayout
  1
Layout1
 70
     1
 71
     1
 10
0.0
 20
0.0
 11
12.0
 21
9.0
 12
0.0
 22
0.0
 32
0.0
 14
1.000000000000000E+20
 24
1.000000000000000E+20
 34
1.000000000000000E+20
 15
-1.000000000000000E+20
 25
-1.000000000000000E+20
 35
-1.000000000000000E+20
146
0.0
 13
0.0
 23
0.0
 33
0.0
 16
1.0
 26
0.0
 36
0.0
 17
0.0
 27
1.0
 37
0.0
 76
     0
330
1B
  0
LAYOUT
  5
26
102
{ACAD_REACTORS
330
1A
102
}
330
1A
100
AcDbPlotSettings
  1

  2
none_device
  4

  6

 40
0.0
 41
0.0
 42
0.0
 43
0.0
 44
0.0
 45
0.0
 46
0.0
 47
0.0
 48
0.0
 49
0.0
140
0.0
141
0.0
142
1.0
143
1.0
 70
   688
 72
     0
 73
     0
 74
     5
  7

 75
    16
 76
     0
 77
     2
 78
   300
147
1.0
148
0.0
149
0.0
100
AcDbLayout
  1
Layout2
 70
     1
 71
     2
 10
0.0
 20
0.0
 11
0.0
 21
0.0
 12
0.0
 22
0.0
 32
0.0
 14
0.0
 24
0.0
 34
0.0
 15
0.0
 25
0.0
 35
0.0
146
0.0
 13
0.0
 23
0.0
 33
0.0
 16
1.0
 26
0.0
 36
0.0
 17
0.0
 27
1.0
 37
0.0
 76
     0
330
23
  0
LAYOUT
  5
22
102
{ACAD_REACTORS
330
1A
102
}
330
1A
100
AcDbPlotSettings
  1

  2
none_device
  4

  6

 40
0.0
 41
0.0
 42
0.0
 43
0.0
 44
0.0
 45
0.0
 46
0.0
 47
0.0
 48
0.0
 49
0.0
140
0.0
141
0.0
142
1.0
143
1.0
 70
  1712
 72
     0
 73
     0
 74
     0
  7

 75
     0
 76
     0
 77
     2
 78
   300
147
1.0
148
0.0
149
0.0
100
AcDbLayout
  1
Model
 70
     1
 71
     0
 10
0.0
 20
0.0
 11
12.0
 21
9.0
 12
0.0
 22
0.0
 32
0.0
 14
1.000000000000000E+20
 24
1.000000000000000E+20
 34
1.000000000000000E+20
 15
-1.000000000000000E+20
 25
-1.000000000000000E+20
 35
-1.000000000000000E+20
146
0.0
 13
0.0
 23
0.0
 33
0.0
 16
1.0
 26
0.0
 36
0.0
 17
0.0
 27
1.0
 37
0.0
 76
     0
330
1F
331
29
  0
MATERIAL
  5
3D
102
{ACAD_REACTORS
330
3B
102
}
330
3B
100
AcDbMaterial
  1
ByBlock
 72
     1
 94
      127
  0
MATERIAL
  5
3C
102
{ACAD_REACTORS
330
3B
102
}
330
3B
100
AcDbMaterial
  1
ByLayer
 72
     1
 94
      127
  0
MATERIAL
  5
3E
102
{ACAD_REACTORS
330
3B
102
}
330
3B
100
AcDbMaterial
  1
Global
 72
     1
 94
      127
  0
MLINESTYLE
  5
18
102
{ACAD_REACTORS
330
17
102
}
330
17
100
AcDbMlineStyle
  2
Standard
 70
     0
  3

 62
   256
 51
90.0
 52
90.0
 71
     2
 49
0.5
 62
   256
  6
BYLAYER
 49
-0.5
 62
   256
  6
BYLAYER
  0
ACDBPLACEHOLDER
  5
F
102
{ACAD_REACTORS
330
E
102
}
330
E
  0
VISUALSTYLE
  5
2F
102
{ACAD_REACTORS
330
2A
102
}
330
2A
100
AcDbVisualStyle
  2
2dWireframe
 70
     4
177
     2
291
     0
 71
     0
176
     1
 72
     2
176
     1
 73
     0
176
     1
 90
        0
176
     1
 40
-0.6
176
     1
 41
-30.0
176
     1
 62
     5
 63
     7
421
 16777215
176
     1
 74
     1
176
     1
 91
        4
176
     1
 64
     7
176
     1
 65
   257
176
     1
 75
     1
176
     1
175
     1
176
     1
 42
1.0
176
     1
 92
        0
176
     1
 66
   257
176
     1
 43
1.0
176
     1
 76
     1
176
     1
 77
     6
176
     1
 78
     2
176
     1
 67
     7
176
     1
 79
     5
176
     1
170
     0
176
     1
171
     0
176
     1
290
     0
176
     1
 93
        1
176
     1
 44
0.0
176
     1
173
     0
176
     1
  0
VISUALSTYLE
  5
31
102
{ACAD_REACTORS
330
2A
102
}
330
2A
100
AcDbVisualStyle
  2
3D Hidden
 70
     6
177
     2
291
     0
 71
     1
176
     1
 72
     2
176
     1
 73
     2
176
     1
 90
        0
176
     1
 40
-0.6
176
     1
 41
-30.0
176
     1
 62
     5
 63
     7
421
 16777215
176
     1
 74
     2
176
     1
 91
        2
176
     1
 64
     7
176
     1
 65
   257
176
     1
 75
     2
176
     1
175
     1
176
     1
 42
40.0
176
     1
 92
        0
176
     1
 66
   257
176
     1
 43
1.0
176
     1
 76
     1
176
     1
 77
     6
176
     1
 78
     2
176
     1
 67
     7
176
     1
 79
     3
176
     1
170
     0
176
     1
171
     0
176
     1
290
     0
176
     1
 93
        1
176
     1
 44
0.0
176
     1
173
     0
176
     1
  0
VISUALSTYLE
  5
30
102
{ACAD_REACTORS
330
2A
102
}
330
2A
100
AcDbVisualStyle
  2
3dWireframe
 70
     5
177
     2
291
     0
 71
     0
176
     1
 72
     2
176
     1
 73
     0
176
     1
 90
        0
176
     1
 40
-0.6
176
     1
 41
-30.0
176
     1
 62
     5
 63
     7
421
 16777215
176
     1
 74
     1
176
     1
 91
        4
176
     1
 64
     7
176
     1
 65
   257
176
     1
 75
     1
176
     1
175
     1
176
     1
 42
1.0
176
     1
 92
        0
176
     1
 66
   257
176
     1
 43
1.0
176
     1
 76
     1
176
     1
 77
     6
176
     1
 78
     2
176
     1
 67
     7
176
     1
 79
     5
176
     1
170
     0
176
     1
171
     0
176
     1
290
     0
176
     1
 93
        1
176
     1
 44
0.0
176
     1
173
     0
176
     1
  0
VISUALSTYLE
  5
32
102
{ACAD_REACTORS
330
2A
102
}
330
2A
100
AcDbVisualStyle
  2
Basic
 70
     7
177
     2
291
     1
 71
     1
176
     1
 72
     0
176
     1
 73
     1
176
     1
 90
        0
176
     1
 40
-0.6
176
     1
 41
-30.0
176
     1
 62
     5
 63
     7
421
 16777215
176
     1
 74
     0
176
     1
 91
        4
176
     1
 64
     7
176
     1
 65
   257
176
     1
 75
     1
176
     1
175
     1
176
     1
 42
1.0
176
     1
 92
        8
176
     1
 66
     7
176
     1
 43
1.0
176
     1
 76
     1
176
     1
 77
     6
176
     1
 78
     2
176
     1
 67
     7
176
     1
 79
     5
176
     1
170
     0
176
     1
171
     0
176
     1
290
     0
176
     1
 93
        1
176
     1
 44
0.0
176
     1
173
     0
176
     1
  0
VISUALSTYLE
  5
36
102
{ACAD_REACTORS
330
2A
102
}
330
2A
100
AcDbVisualStyle
  2
Brighten
 70
    12
177
     2
291
     1
 71
     2
176
     1
 72
     2
176
     1
 73
     0
176
     1
 90
        0
176
     1
 40
-0.6
176
     1
 41
-30.0
176
     1
 62
     5
 63
     7
421
 16777215
176
     1
 74
     1
176
     1
 91
        4
176
     1
 64
     7
176
     1
 65
   257
176
     1
 75
     1
176
     1
175
     1
176
     1
 42
1.0
176
     1
 92
        8
176
     1
 66
     7
176
     1
 43
1.0
176
     1
 76
     1
176
     1
 77
     6
176
     1
 78
     2
176
     1
 67
     7
176
     1
 79
     5
176
     1
170
     0
176
     1
171
     0
176
     1
290
     0
176
     1
 93
        1
176
     1
 44
50.0
176
     1
173
     0
176
     1
  0
VISUALSTYLE
  5
3A
102
{ACAD_REACTORS
330
2A
102
}
330
2A
100
AcDbVisualStyle
  2
ColorChange
 70
    16
177
     2
291
     1
 71
     2
176
     1
 72
     2
176
     1
 73
     3
176
     1
 90
        0
176
     1
 40
-0.6
176
     1
 41
-30.0
176
     1
 62
     5
 63
     8
421
  8421504
176
     1
 74
     1
176
     1
 91
        4
176
     1
 64
     7
176
     1
 65
   257
176
     1
 75
     1
176
     1
175
     1
176
     1
 42
1.0
176
     1
 92
        8
176
     1
 66
     8
424
  8421504
176
     1
 43
1.0
176
     1
 76
     1
176
     1
 77
     6
176
     1
 78
     2
176
     1
 67
     7
176
     1
 79
     5
176
     1
170
     0
176
     1
171
     0
176
     1
290
     0
176
     1
 93
        1
176
     1
 44
0.0
176
     1
173
     0
176
     1
  0
VISUALSTYLE
  5
34
102
{ACAD_REACTORS
330
2A
102
}
330
2A
100
AcDbVisualStyle
  2
Conceptual
 70
     9
177
     2
291
     0
 71
     3
176
     1
 72
     2
176
     1
 73
     0
176
     1
 90
        0
176
     1
 40
-0.6
176
     1
 41
-30.0
176
     1
 62
     5
 63
     7
421
 16777215
176
     1
 74
     2
176
     1
 91
        2
176
     1
 64
     7
176
     1
 65
   257
176
     1
 75
     1
176
     1
175
     1
176
     1
 42
40.0
176
     1
 92
        8
176
     1
 66
     7
176
     1
 43
1.0
176
     1
 76
     1
176
     1
 77
     6
176
     1
 78
     2
176
     1
 67
     7
176
     1
 79
     3
176
     1
170
     0
176
     1
171
     0
176
     1
290
     0
176
     1
 93
        1
176
     1
 44
0.0
176
     1
173
     0
176
     1
  0
VISUALSTYLE
  5
35
102
{ACAD_REACTORS
330
2A
102
}
330
2A
100
AcDbVisualStyle
  2
Dim
 70
    11
177
     2
291
     1
 71
     2
176
     1
 72
     2
176
     1
 73
     0
176
     1
 90
        0
176
     1
 40
-0.6
176
     1
 41
-30.0
176
     1
 62
     5
 63
     7
421
 16777215
176
     1
 74
     1
176
     1
 91
        4
176
     1
 64
     7
176
     1
 65
   257
176
     1
 75
     1
176
     1
175
     1
176
     1
 42
1.0
176
     1
 92
        8
176
     1
 66
     7
176
     1
 43
1.0
176
     1
 76
     1
176
     1
 77
     6
176
     1
 78
     2
176
     1
 67
     7
176
     1
 79
     5
176
     1
170
     0
176
     1
171
     0
176
     1
290
     0
176
     1
 93
        1
176
     1
 44
-50.0
176
     1
173
     0
176
     1
  0
VISUALSTYLE
  5
39
102
{ACAD_REACTORS
330
2A
102
}
330
2A
100
AcDbVisualStyle
  2
Facepattern
 70
    15
177
     2
291
     1
 71
     2
176
     1
 72
     2
176
     1
 73
     0
176
     1
 90
        0
176
     1
 40
-0.6
176
     1
 41
-30.0
176
     1
 62
     5
 63
     7
421
 16777215
176
     1
 74
     1
176
     1
 91
        4
176
     1
 64
     7
176
     1
 65
   257
176
     1
 75
     1
176
     1
175
     1
176
     1
 42
1.0
176
     1
 92
        8
176
     1
 66
     7
176
     1
 43
1.0
176
     1
 76
     1
176
     1
 77
     6
176
     1
 78
     2
176
     1
 67
     7
176
     1
 79
     5
176
     1
170
     0
176
     1
171
     0
176
     1
290
     0
176
     1
 93
        1
176
     1
 44
0.0
176
     1
173
     0
176
     1
  0
VISUALSTYLE
  5
2B
102
{ACAD_REACTORS
330
2A
102
}
330
2A
100
AcDbVisualStyle
  2
Flat
 70
     0
177
     2
291
     1
 71
     2
176
     1
 72
     1
176
     1
 73
     1
176
     1
 90
        2
176
     1
 40
-0.6
176
     1
 41
30.0
176
     1
 62
     5
 63
     7
421
 16777215
176
     1
 74
     0
176
     1
 91
        4
176
     1
 64
     7
176
     1
 65
   257
176
     1
 75
     1
176
     1
175
     1
176
     1
 42
1.0
176
     1
 92
        8
176
     1
 66
     7
176
     1
 43
1.0
176
     1
 76
     1
176
     1
 77
     6
176
     1
 78
     2
176
     1
 67
     7
176
     1
 79
     5
176
     1
170
     0
176
     1
171
     0
176
     1
290
     0
176
     1
 93
       13
176
     1
 44
0.0
176
     1
173
     0
176
     1
  0
VISUALSTYLE
  5
2C
102
{ACAD_REACTORS
330
2A
102
}
330
2A
100
AcDbVisualStyle
  2
FlatWithEdges
 70
     1
177
     2
291
     1
 71
     2
176
     1
 72
     1
176
     1
 73
     1
176
     1
 90
        2
176
     1
 40
-0.6
176
     1
 41
30.0
176
     1
 62
     5
 63
     7
421
 16777215
176
     1
 74
     1
176
     1
 91
        4
176
     1
 64
     7
176
     1
 65
   257
176
     1
 75
     1
176
     1
175
     1
176
     1
 42
1.0
176
     1
 92
        0
176
     1
 66
   257
176
     1
 43
1.0
176
     1
 76
     1
176
     1
 77
     6
176
     1
 78
     2
176
     1
 67
     7
176
     1
 79
     5
176
     1
170
     0
176
     1
171
     0
176
     1
290
     0
176
     1
 93
       13
176
     1
 44
0.0
176
     1
173
     0
176
     1
  0
VISUALSTYLE
  5
2D
102
{ACAD_REACTORS
330
2A
102
}
330
2A
100
AcDbVisualStyle
  2
Gouraud
 70
     2
177
     2
291
     1
 71
     2
176
     1
 72
     2
176
     1
 73
     1
176
     1
 90
        2
176
     1
 40
-0.6
176
     1
 41
30.0
176
     1
 62
     5
 63
     7
421
 16777215
176
     1
 74
     0
176
     1
 91
        4
176
     1
 64
     7
176
     1
 65
   257
176
     1
 75
     1
176
     1
175
     1
176
     1
 42
1.0
176
     1
 92
        0
176
     1
 66
     7
176
     1
 43
1.0
176
     1
 76
     1
176
     1
 77
     6
176
     1
 78
     2
176
     1
 67
     7
176
     1
 79
     5
176
     1
170
     0
176
     1
171
     0
176
     1
290
     0
176
     1
 93
       13
176
     1
 44
0.0
176
     1
173
     0
176
     1
  0
VISUALSTYLE
  5
2E
102
{ACAD_REACTORS
330
2A
102
}
330
2A
100
AcDbVisualStyle
  2
GouraudWithEdges
 70
     3
177
     2
291
     1
 71
     2
176
     1
 72
     2
176
     1
 73
     1
176
     1
 90
        2
176
     1
 40
-0.6
176
     1
 41
30.0
176
     1
 62
     5
 63
     7
421
 16777215
176
     1
 74
     1
176
     1
 91
        4
176
     1
 64
     7
176
     1
 65
   257
176
     1
 75
     1
176
     1
175
     1
176
     1
 42
1.0
176
     1
 92
        0
176
     1
 66
   257
176
     1
 43
1.0
176
     1
 76
     1
176
     1
 77
     6
176
     1
 78
     2
176
     1
 67
     7
176
     1
 79
     5
176
     1
170
     0
176
     1
171
     0
176
     1
290
     0
176
     1
 93
       13
176
     1
 44
0.0
176
     1
173
     0
176
     1
  0
VISUALSTYLE
  5
38
102
{ACAD_REACTORS
330
2A
102
}
330
2A
100
AcDbVisualStyle
  2
Linepattern
 70
    14
177
     2
291
     1
 71
     2
176
     1
 72
     2
176
     1
 73
     0
176
     1
 90
        0
176
     1
 40
-0.6
176
     1
 41
-30.0
176
     1
 62
     5
 63
     7
421
 16777215
176
     1
 74
     1
176
     1
 91
        4
176
     1
 64
     7
176
     1
 65
   257
176
     1
 75
     7
176
     1
175
     7
176
     1
 42
1.0
176
     1
 92
        8
176
     1
 66
     7
176
     1
 43
1.0
176
     1
 76
     1
176
     1
 77
     6
176
     1
 78
     2
176
     1
 67
     7
176
     1
 79
     5
176
     1
170
     0
176
     1
171
     0
176
     1
290
     0
176
     1
 93
        1
176
     1
 44
0.0
176
     1
173
     0
176
     1
  0
VISUALSTYLE
  5
33
102
{ACAD_REACTORS
330
2A
102
}
330
2A
100
AcDbVisualStyle
  2
Realistic
 70
     8
177
     2
291
     0
 71
     2
176
     1
 72
     2
176
     1
 73
     0
176
     1
 90
        0
176
     1
 40
-0.6
176
     1
 41
-30.0
176
     1
 62
     5
 63
     7
421
 16777215
176
     1
 74
     1
176
     1
 91
        0
176
     1
 64
     7
176
     1
 65
   257
176
     1
 75
     1
176
     1
175
     1
176
     1
 42
1.0
176
     1
 92
        8
176
     1
 66
     8
424
  7895160
176
     1
 43
1.0
176
     1
 76
     1
176
     1
 77
     6
176
     1
 78
     2
176
     1
 67
     7
176
     1
 79
     5
176
     1
170
     0
176
     1
171
     0
176
     1
290
     0
176
     1
 93
       13
176
     1
 44
0.0
176
     1
173
     0
176
     1
  0
VISUALSTYLE
  5
37
102
{ACAD_REACTORS
330
2A
102
}
330
2A
100
AcDbVisualStyle
  2
Thicken
 70
    13
177
     2
291
     1
 71
     2
176
     1
 72
     2
176
     1
 73
     0
176
     1
 90
        0
176
     1
 40
-0.6
176
     1
 41
-30.0
176
     1
 62
     5
 63
     7
421
 16777215
176
     1
 74
     1
176
     1
 91
        4
176
     1
 64
     7
176
     1
 65
   257
176
     1
 75
     1
176
     1
175
     1
176
     1
 42
1.0
176
     1
 92
       12
176
     1
 66
     7
176
     1
 43
1.0
176
     1
 76
     1
176
     1
 77
     6
176
     1
 78
     2
176
     1
 67
     7
176
     1
 79
     5
176
     1
170
     0
176
     1
171
     0
176
     1
290
     0
176
     1
 93
        1
176
     1
 44
0.0
176
     1
173
     0
176
     1
  0
ENDSEC
  0
EOF
