  0
SECTION
  2
HEADER
  9
$ACADVER
  1
AC1024
  9
$ACADMAINTVER
 70
     6
  9
$DWGCODEPAGE
  3
UNDEFINED
  9
$INSBASE
 10
0.0
 20
0.0
 30
0.0
  9
$EXTMIN
 10
1.000000000000000E+20
 20
1.000000000000000E+20
 30
1.000000000000000E+20
  9
$EXTMAX
 10
-1.000000000000000E+20
 20
-1.000000000000000E+20
 30
-1.000000000000000E+20
  9
$LIMMIN
 10
0.0
 20
0.0
  9
$LIMMAX
 10
12.0
 20
9.0
  9
$ORTHOMODE
 70
     0
  9
$REGENMODE
 70
     1
  9
$FILLMODE
 70
     1
  9
$QTEXTMODE
 70
     0
  9
$MIRRTEXT
 70
     1
  9
$LTSCALE
 40
1.0
  9
$ATTMODE
 70
     1
  9
$TEXTSIZE
 40
0.2
  9
$TRACEWID
 40
0.05
  9
$TEXTSTYLE
  7
Standard
  9
$CLAYER
  8
0
  9
$CELTYPE
  6
ByLayer
  9
$CECOLOR
 62
   256
  9
$CELTSCALE
 40
1.0
  9
$DISPSILH
 70
     0
  9
$DIMSCALE
 40
1.0
  9
$DIMASZ
 40
0.18
  9
$DIMEXO
 40
0.0625
  9
$DIMDLI
 40
0.38
  9
$DIMRND
 40
0.0
  9
$DIMDLE
 40
0.0
  9
$DIMEXE
 40
0.18
  9
$DIMTP
 40
0.0
  9
$DIMTM
 40
0.0
  9
$DIMTXT
 40
0.18
  9
$DIMCEN
 40
0.09
  9
$DIMTSZ
 40
0.0
  9
$DIMTOL
 70
     0
  9
$DIMLIM
 70
     0
  9
$DIMTIH
 70
     1
  9
$DIMTOH
 70
     1
  9
$DIMSE1
 70
     0
  9
$DIMSE2
 70
     0
  9
$DIMTAD
 70
     0
  9
$DIMZIN
 70
     0
  9
$DIMBLK
  1

  9
$DIMASO
 70
     1
  9
$DIMSHO
 70
     1
  9
$DIMPOST
  1

  9
$DIMAPOST
  1

  9
$DIMALT
 70
     0
  9
$DIMALTD
 70
     2
  9
$DIMALTF
 40
25.4
  9
$DIMLFAC
 40
1.0
  9
$DIMTOFL
 70
     0
  9
$DIMTVP
 40
0.0
  9
$DIMTIX
 70
     0
  9
$DIMSOXD
 70
     0
  9
$DIMSAH
 70
     0
  9
$DIMBLK1
  1

  9
$DIMBLK2
  1

  9
$DIMSTYLE
  2
Standard
  9
$DIMCLRD
 70
     0
  9
$DIMCLRE
 70
     0
  9
$DIMCLRT
 70
     0
  9
$DIMTFAC
 40
1.0
  9
$DIMGAP
 40
0.09
  9
$DIMJUST
 70
     0
  9
$DIMSD1
 70
     0
  9
$DIMSD2
 70
     0
  9
$DIMTOLJ
 70
     1
  9
$DIMTZIN
 70
     0
  9
$DIMALTZ
 70
     0
  9
$DIMALTTZ
 70
     0
  9
$DIMUPT
 70
     0
  9
$DIMDEC
 70
     4
  9
$DIMTDEC
 70
     4
  9
$DIMALTU
 70
     2
  9
$DIMALTTD
 70
     2
  9
$DIMTXSTY
  7
Standard
  9
$DIMAUNIT
 70
     0
  9
$DIMADEC
 70
     0
  9
$DIMALTRND
 40
0.0
  9
$DIMAZIN
 70
     0
  9
$DIMDSEP
 70
    46
  9
$DIMATFIT
 70
     3
  9
$DIMFRAC
 70
     0
  9
$DIMLDRBLK
  1

  9
$DIMLUNIT
 70
     2
  9
$DIMLWD
 70
    -2
  9
$DIMLWE
 70
    -2
  9
$DIMTMOVE
 70
     0
  9
$DIMFXL
 40
1.0
  9
$DIMFXLON
 70
     0
  9
$DIMJOGANG
 40
0.7853981633974483
  9
$DIMTFILL
 70
     0
  9
$DIMTFILLCLR
 70
     0
  9
$DIMARCSYM
 70
     0
  9
$DIMLTYPE
  6

  9
$DIMLTEX1
  6

  9
$DIMLTEX2
  6

  9
$DIMTXTDIRECTION
 70
     0
  9
$LUNITS
 70
     2
  9
$LUPREC
 70
     4
  9
$SKETCHINC
 40
0.1
  9
$FILLETRAD
 40
0.5
  9
$AUNITS
 70
     0
  9
$AUPREC
 70
     0
  9
$MENU
  1
.
  9
$ELEVATION
 40
0.0
  9
$PELEVATION
 40
0.0
  9
$THICKNESS
 40
0.0
  9
$LIMCHECK
 70
     0
  9
$CHAMFERA
 40
0.5
  9
$CHAMFERB
 40
0.5
  9
$CHAMFERC
 40
1.0
  9
$CHAMFERD
 40
0.0
  9
$SKPOLY
 70
     0
  9
$TDCREATE
 40
2457917.593263877
  9
$TDUCREATE
 40
2457917.218263889
  9
$TDUPDATE
 40
2457917.593263877
  9
$TDUUPDATE
 40
2457917.218263889
  9
$TDINDWG
 40
0.0000000116
  9
$TDUSRTIMER
 40
0.0000000116
  9
$USRTIMER
 70
     1
  9
$ANGBASE
 50
0.0
  9
$ANGDIR
 70
     0
  9
$PDMODE
 70
     0
  9
$PDSIZE
 40
0.0
  9
$PLINEWID
 40
0.0
  9
$SPLFRAME
 70
     0
  9
$SPLINETYPE
 70
     6
  9
$SPLINESEGS
 70
     8
  9
$HANDSEED
  5
A6
  9
$SURFTAB1
 70
     6
  9
$SURFTAB2
 70
     6
  9
$SURFTYPE
 70
     6
  9
$SURFU
 70
     6
  9
$SURFV
 70
     6
  9
$UCSBASE
  2

  9
$UCSNAME
  2

  9
$UCSORG
 10
0.0
 20
0.0
 30
0.0
  9
$UCSXDIR
 10
1.0
 20
0.0
 30
0.0
  9
$UCSYDIR
 10
0.0
 20
1.0
 30
0.0
  9
$UCSORTHOREF
  2

  9
$UCSORTHOVIEW
 70
     0
  9
$UCSORGTOP
 10
0.0
 20
0.0
 30
0.0
  9
$UCSORGBOTTOM
 10
0.0
 20
0.0
 30
0.0
  9
$UCSORGLEFT
 10
0.0
 20
0.0
 30
0.0
  9
$UCSORGRIGHT
 10
0.0
 20
0.0
 30
0.0
  9
$UCSORGFRONT
 10
0.0
 20
0.0
 30
0.0
  9
$UCSORGBACK
 10
0.0
 20
0.0
 30
0.0
  9
$PUCSBASE
  2

  9
$PUCSNAME
  2

  9
$PUCSORG
 10
0.0
 20
0.0
 30
0.0
  9
$PUCSXDIR
 10
1.0
 20
0.0
 30
0.0
  9
$PUCSYDIR
 10
0.0
 20
1.0
 30
0.0
  9
$PUCSORTHOREF
  2

  9
$PUCSORTHOVIEW
 70
     0
  9
$PUCSORGTOP
 10
0.0
 20
0.0
 30
0.0
  9
$PUCSORGBOTTOM
 10
0.0
 20
0.0
 30
0.0
  9
$PUCSORGLEFT
 10
0.0
 20
0.0
 30
0.0
  9
$PUCSORGRIGHT
 10
0.0
 20
0.0
 30
0.0
  9
$PUCSORGFRONT
 10
0.0
 20
0.0
 30
0.0
  9
$PUCSORGBACK
 10
0.0
 20
0.0
 30
0.0
  9
$USERI1
 70
     0
  9
$USERI2
 70
     0
  9
$USERI3
 70
     0
  9
$USERI4
 70
     0
  9
$USERI5
 70
     0
  9
$USERR1
 40
0.0
  9
$USERR2
 40
0.0
  9
$USERR3
 40
0.0
  9
$USERR4
 40
0.0
  9
$USERR5
 40
0.0
  9
$WORLDVIEW
 70
     1
  9
$SHADEDGE
 70
     3
  9
$SHADEDIF
 70
    70
  9
$TILEMODE
 70
     1
  9
$MAXACTVP
 70
    64
  9
$PINSBASE
 10
0.0
 20
0.0
 30
0.0
  9
$PLIMCHECK
 70
     0
  9
$PEXTMIN
 10
1.000000000000000E+20
 20
1.000000000000000E+20
 30
1.000000000000000E+20
  9
$PEXTMAX
 10
-1.000000000000000E+20
 20
-1.000000000000000E+20
 30
-1.000000000000000E+20
  9
$PLIMMIN
 10
0.0
 20
0.0
  9
$PLIMMAX
 10
12.0
 20
9.0
  9
$UNITMODE
 70
     0
  9
$VISRETAIN
 70
     1
  9
$PLINEGEN
 70
     0
  9
$PSLTSCALE
 70
     1
  9
$TREEDEPTH
 70
  3020
  9
$CMLSTYLE
  2
Standard
  9
$CMLJUST
 70
     0
  9
$CMLSCALE
 40
1.0
  9
$PROXYGRAPHICS
 70
     1
  9
$MEASUREMENT
 70
     0
  9
$CELWEIGHT
370
    -1
  9
$ENDCAPS
280
     0
  9
$JOINSTYLE
280
     0
  9
$LWDISPLAY
290
     1
  9
$INSUNITS
 70
     1
  9
$HYPERLINKBASE
  1

  9
$STYLESHEET
  1

  9
$XEDIT
290
     1
  9
$CEPSNTYPE
380
     0
  9
$PSTYLEMODE
290
     1
  9
$FINGERPRINTGUID
  2
{8DA76548-69F0-EAD4-E9E4-75AD8A89D1C6}
  9
$VERSIONGUID
  2
{FAEB1C32-E019-11D5-929B-00C0DF256EC4}
  9
$EXTNAMES
290
     1
  9
$PSVPSCALE
 40
0.0
  9
$OLESTARTUP
290
     0
  9
$SORTENTS
280
   127
  9
$INDEXCTL
280
     0
  9
$HIDETEXT
280
     1
  9
$XCLIPFRAME
280
     2
  9
$HALOGAP
280
     0
  9
$OBSCOLOR
 70
   257
  9
$OBSLTYPE
280
     0
  9
$INTERSECTIONDISPLAY
280
     0
  9
$INTERSECTIONCOLOR
 70
   257
  9
$DIMASSOC
280
     2
  9
$PROJECTNAME
  1

  9
$CAMERADISPLAY
290
     0
  9
$LENSLENGTH
 40
50.0
  9
$CAMERAHEIGHT
 40
0.0
  9
$STEPSPERSEC
 40
2.0
  9
$STEPSIZE
 40
6.0
  9
$3DDWFPREC
 40
2.0
  9
$PSOLWIDTH
 40
0.25
  9
$PSOLHEIGHT
 40
4.0
  9
$LOFTANG1
 40
1.570796326794897
  9
$LOFTANG2
 40
1.570796326794897
  9
$LOFTMAG1
 40
0.0
  9
$LOFTMAG2
 40
0.0
  9
$LOFTPARAM
 70
     7
  9
$LOFTNORMALS
280
     1
  9
$LATITUDE
 40
37.795
  9
$LONGITUDE
 40
-122.394
  9
$NORTHDIRECTION
 40
0.0
  9
$TIMEZONE
 70
 -8000
  9
$LIGHTGLYPHDISPLAY
280
     1
  9
$TILEMODELIGHTSYNCH
280
     1
  9
$CMATERIAL
347
3C
  9
$SOLIDHIST
280
     1
  9
$SHOWHIST
280
     1
  9
$DWFFRAME
280
     2
  9
$DGNFRAME
280
     2
  9
$REALWORLDSCALE
290
     1
  9
$INTERFERECOLOR
 62
   256
  9
$CSHADOW
280
     0
  9
$SHADOWPLANELOCATION
 40
0.0
  0
ENDSEC
  0
SECTION
  2
CLASSES
  0
CLASS
  1
ACDBDICTIONARYWDFLT
  2
AcDbDictionaryWithDefault
  3
ObjectDBX Classes
 90
        0
 91
        4
280
     0
281
     0
  0
CLASS
  1
VISUALSTYLE
  2
AcDbVisualStyle
  3
ObjectDBX Classes
 90
     4095
 91
        4
280
     0
281
     0
  0
CLASS
  1
MATERIAL
  2
AcDbMaterial
  3
ObjectDBX Classes
 90
     1153
 91
        4
280
     0
281
     0
  0
CLASS
  1
SUN
  2
AcDbSun
  3
SCENEOE
 90
     1024
 91
        4
280
     0
281
     0
  0
ENDSEC
  0
SECTION
  2
TABLES
  0
TABLE
  2
VPORT
  5
8
330
0
100
AcDbSymbolTable
 70
     1
  0
VPORT
  5
29
330
8
100
AcDbSymbolTableRecord
100
AcDbViewportTableRecord
  2
*Active
 70
     0
 10
0.0
 20
0.0
 11
1.0
 21
1.0
 12
0.0
 22
0.0
 13
0.0
 23
0.0
 14
0.5
 24
0.5
 15
0.5
 25
0.5
 16
0.0
 26
0.0
 36
1.0
 17
91.00082462281999
 27
-128.4993055234307
 37
0.0
 40
256.9986110468615
 41
0.7081814508812795
 42
50.0
 43
0.0
 44
0.0
 50
0.0
 51
0.0
 71
     0
 72
   100
 73
     1
 74
     3
 75
     0
 76
     0
 77
     0
 78
     0
281
     0
 65
     1
110
0.0
120
0.0
130
0.0
111
1.0
121
0.0
131
0.0
112
0.0
122
1.0
132
0.0
 79
     0
146
0.0
 60
     3
 61
     5
292
     1
282
     1
141
0.0
142
0.0
 63
   250
361
3F
  0
ENDTAB
  0
TABLE
  2
LTYPE
  5
5
330
0
100
AcDbSymbolTable
 70
     1
  0
LTYPE
  5
14
330
5
100
AcDbSymbolTableRecord
100
AcDbLinetypeTableRecord
  2
ByBlock
 70
     0
  3

 72
    65
 73
     0
 40
0.0
  0
LTYPE
  5
15
330
5
100
AcDbSymbolTableRecord
100
AcDbLinetypeTableRecord
  2
ByLayer
 70
     0
  3

 72
    65
 73
     0
 40
0.0
  0
LTYPE
  5
16
330
5
100
AcDbSymbolTableRecord
100
AcDbLinetypeTableRecord
  2
Continuous
 70
     0
  3
Solid line
 72
    65
 73
     0
 40
0.0
  0
ENDTAB
  0
TABLE
  2
LAYER
  5
2
330
0
100
AcDbSymbolTable
 70
     2
  0
LAYER
  5
10
330
2
100
AcDbSymbolTableRecord
100
AcDbLayerTableRecord
  2
0
 70
     0
 62
     7
  6
Continuous
370
    -3
390
F
347
3E
  0
LAYER
  5
40
330
2
100
AcDbSymbolTableRecord
100
AcDbLayerTableRecord
  2
_U+30EC_U+30A4_U+30E4_U+30FC 1
 70
     0
 62
     7
  6
Continuous
370
    -3
390
F
347
3E
  0
ENDTAB
  0
TABLE
  2
STYLE
  5
3
330
0
100
AcDbSymbolTable
 70
     1
  0
STYLE
  5
11
330
3
100
AcDbSymbolTableRecord
100
AcDbTextStyleTableRecord
  2
Standard
 70
     0
 40
0.0
 41
1.0
 50
0.0
 71
     0
 42
0.2
  3
txt
  4

  0
ENDTAB
  0
TABLE
  2
VIEW
  5
6
330
0
100
AcDbSymbolTable
 70
     0
  0
ENDTAB
  0
TABLE
  2
UCS
  5
7
330
0
100
AcDbSymbolTable
 70
     0
  0
ENDTAB
  0
TABLE
  2
APPID
  5
9
330
0
100
AcDbSymbolTable
 70
     1
  0
APPID
  5
12
330
9
100
AcDbSymbolTableRecord
100
AcDbRegAppTableRecord
  2
ACAD
 70
     0
  0
ENDTAB
  0
TABLE
  2
DIMSTYLE
  5
A
330
0
100
AcDbSymbolTable
 70
     1
100
AcDbDimStyleTable
  0
DIMSTYLE
105
27
330
A
100
AcDbSymbolTableRecord
100
AcDbDimStyleTableRecord
  2
Standard
 70
     0
178
     0
340
11
  0
ENDTAB
  0
TABLE
  2
BLOCK_RECORD
  5
1
330
0
100
AcDbSymbolTable
 70
     5
  0
BLOCK_RECORD
  5
1F
330
1
100
AcDbSymbolTableRecord
100
AcDbBlockTableRecord
  2
*Model_Space
340
22
 70
     0
280
     1
281
     0
  0
BLOCK_RECORD
  5
1B
330
1
100
AcDbSymbolTableRecord
100
AcDbBlockTableRecord
  2
*Paper_Space
340
1E
 70
     0
280
     1
281
     0
  0
BLOCK_RECORD
  5
23
330
1
100
AcDbSymbolTableRecord
100
AcDbBlockTableRecord
  2
*Paper_Space0
340
26
 70
     0
280
     1
281
     0
  0
BLOCK_RECORD
  5
41
330
1
100
AcDbSymbolTableRecord
100
AcDbBlockTableRecord
  2
block 2
340
0
102
{BLKREFS
331
42
102
}
 70
     0
280
     1
281
     0
  0
BLOCK_RECORD
  5
4A
330
1
100
AcDbSymbolTableRecord
100
AcDbBlockTableRecord
  2
block 3
340
0
102
{BLKREFS
331
4B
102
}
 70
     0
280
     1
281
     0
  0
BLOCK_RECORD
  5
66
330
1
100
AcDbSymbolTableRecord
100
AcDbBlockTableRecord
  2
block 4
340
0
102
{BLKREFS
331
67
102
}
 70
     0
280
     1
281
     0
  0
BLOCK_RECORD
  5
86
330
1
100
AcDbSymbolTableRecord
100
AcDbBlockTableRecord
  2
block 5
340
0
102
{BLKREFS
331
87
102
}
 70
     0
280
     1
281
     0
  0
ENDTAB
  0
ENDSEC
  0
SECTION
  2
BLOCKS
  0
BLOCK
  5
20
330
1F
100
AcDbEntity
  8
0
100
AcDbBlockBegin
  2
*Model_Space
 70
     0
 10
0.0
 20
0.0
 30
0.0
  3
*Model_Space
  1

  0
ENDBLK
  5
21
330
1F
100
AcDbEntity
  8
0
100
AcDbBlockEnd
  0
BLOCK
  5
1C
330
1B
100
AcDbEntity
 67
     1
  8
0
100
AcDbBlockBegin
  2
*Paper_Space
 70
     0
 10
0.0
 20
0.0
 30
0.0
  3
*Paper_Space
  1

  0
ENDBLK
  5
1D
330
1B
100
AcDbEntity
 67
     1
  8
0
100
AcDbBlockEnd
  0
BLOCK
  5
24
330
23
100
AcDbEntity
  8
0
100
AcDbBlockBegin
  2
*Paper_Space0
 70
     0
 10
0.0
 20
0.0
 30
0.0
  3
*Paper_Space0
  1

  0
ENDBLK
  5
25
330
23
100
AcDbEntity
  8
0
100
AcDbBlockEnd
  0
BLOCK
  5
43
330
41
100
AcDbEntity
  8
0
100
AcDbBlockBegin
  2
block 2
 70
     0
 10
0.0
 20
0.0
 30
0.0
  3
block 2
  1

  0
SPLINE
  5
45
330
41
100
AcDbEntity
  8
_U+30EC_U+30A4_U+30E4_U+30FC 1
370
     0
100
AcDbSpline
210
0.0
220
0.0
230
1.0
 70
    11
 71
     3
 72
    26
 73
    22
 74
     0
 42
0.0000000001
 43
0.0000000001
 12
1.0
 22
0.0
 32
0.0
 13
1.0
 23
0.0
 33
0.0
 40
0.0
 40
0.0
 40
0.0
 40
0.0
 40
1.0
 40
1.0
 40
1.0
 40
2.0
 40
2.0
 40
2.0
 40
3.0
 40
3.0
 40
3.0
 40
4.0
 40
4.0
 40
4.0
 40
5.0
 40
5.0
 40
5.0
 40
6.0
 40
6.0
 40
6.0
 40
7.0
 40
7.0
 40
7.0
 40
7.0
 10
108.5522026638342
 20
-128.4841471032956
 30
0.0
 10
108.5522026638342
 20
-128.4841471032956
 30
0.0
 10
107.4483940703601
 20
-128.4841471032956
 30
0.0
 10
107.4483940703601
 20
-128.4841471032956
 30
0.0
 10
107.4483940703601
 20
-128.4841471032956
 30
0.0
 10
107.4483940703601
 20
-128.8141872507826
 30
0.0
 10
107.4483940703601
 20
-128.8141872507826
 30
0.0
 10
107.4483940703601
 20
-128.8141872507826
 30
0.0
 10
107.3002549644944
 20
-128.8141872507826
 30
0.0
 10
107.3002549644944
 20
-128.8141872507826
 30
0.0
 10
107.2850965443593
 20
-128.4820800460045
 30
0.0
 10
107.1224880374555
 20
-128.4355712569536
 30
0.0
 10
107.0081108673452
 20
-128.4059434357805
 30
0.0
 10
107.0081108673452
 20
-128.4059434357805
 30
0.0
 10
107.0081108673452
 20
-128.2598713872059
 30
0.0
 10
107.0081108673452
 20
-128.2598713872059
 30
0.0
 10
107.0081108673452
 20
-128.2598713872059
 30
0.0
 10
108.5522026638342
 20
-128.2598713872059
 30
0.0
 10
108.5522026638342
 20
-128.2598713872059
 30
0.0
 10
108.5522026638342
 20
-128.2598713872059
 30
0.0
 10
108.5522026638342
 20
-128.4841471032956
 30
0.0
 10
108.5522026638342
 20
-128.4841471032956
 30
0.0
  0
HATCH
  5
46
330
41
100
AcDbEntity
  8
_U+30EC_U+30A4_U+30E4_U+30FC 1
 62
     7
420
 16777215
100
AcDbHatch
 10
0.0
 20
0.0
 30
0.0
210
0.0
220
0.0
230
1.0
  2
SOLID
 70
     1
 71
     0
 91
        1
 92
        1
 93
        1
 72
     4
 94
        3
 73
     0
 74
     1
 95
       26
 96
       22
 40
0.0
 40
0.0
 40
0.0
 40
0.0
 40
1.0
 40
1.0
 40
1.0
 40
2.0
 40
2.0
 40
2.0
 40
3.0
 40
3.0
 40
3.0
 40
4.0
 40
4.0
 40
4.0
 40
5.0
 40
5.0
 40
5.0
 40
6.0
 40
6.0
 40
6.0
 40
7.0
 40
7.0
 40
7.0
 40
7.0
 10
108.5522026638342
 20
-128.4841471032956
 10
108.5522026638342
 20
-128.4841471032956
 10
107.4483940703601
 20
-128.4841471032956
 10
107.4483940703601
 20
-128.4841471032956
 10
107.4483940703601
 20
-128.4841471032956
 10
107.4483940703601
 20
-128.8141872507826
 10
107.4483940703601
 20
-128.8141872507826
 10
107.4483940703601
 20
-128.8141872507826
 10
107.3002549644944
 20
-128.8141872507826
 10
107.3002549644944
 20
-128.8141872507826
 10
107.2850965443593
 20
-128.4820800460045
 10
107.1224880374555
 20
-128.4355712569536
 10
107.0081108673452
 20
-128.4059434357805
 10
107.0081108673452
 20
-128.4059434357805
 10
107.0081108673452
 20
-128.2598713872059
 10
107.0081108673452
 20
-128.2598713872059
 10
107.0081108673452
 20
-128.2598713872059
 10
108.5522026638342
 20
-128.2598713872059
 10
108.5522026638342
 20
-128.2598713872059
 10
108.5522026638342
 20
-128.2598713872059
 10
108.5522026638342
 20
-128.4841471032956
 10
108.5522026638342
 20
-128.4841471032956
 97
        0
 97
        0
 75
     2
 76
     1
 98
        0
  0
SPLINE
  5
47
330
41
100
AcDbEntity
  8
_U+30EC_U+30A4_U+30E4_U+30FC 1
370
     0
100
AcDbSpline
210
0.0
220
0.0
230
1.0
 70
    11
 71
     3
 72
    29
 73
    25
 74
     0
 42
0.0000000001
 43
0.0000000001
 12
1.0
 22
0.0
 32
0.0
 13
1.0
 23
0.0
 33
0.0
 40
0.0
 40
0.0
 40
0.0
 40
0.0
 40
1.0
 40
1.0
 40
1.0
 40
2.0
 40
2.0
 40
2.0
 40
3.0
 40
3.0
 40
3.0
 40
4.0
 40
4.0
 40
4.0
 40
5.0
 40
5.0
 40
5.0
 40
6.0
 40
6.0
 40
6.0
 40
7.0
 40
7.0
 40
7.0
 40
8.0
 40
8.0
 40
8.0
 40
8.0
 10
108.3744357367953
 20
-126.8608181106459
 30
0.0
 10
108.5838975422985
 20
-126.9689941088828
 30
0.0
 10
108.6031900770159
 20
-127.1422824117908
 30
0.0
 10
108.6031900770159
 20
-127.2587266391923
 30
0.0
 10
108.6031900770159
 20
-127.4196125983534
 30
0.0
 10
108.5563367784165
 20
-127.5612060227972
 30
0.0
 10
108.3744357367953
 20
-127.6562906581901
 30
0.0
 10
108.1801323514272
 20
-127.7599880322961
 30
0.0
 10
107.943109782042
 20
-127.7792805670135
 30
0.0
 10
107.7805012751382
 20
-127.7792805670135
 30
0.0
 10
107.6364962838548
 20
-127.7792805670135
 30
0.0
 10
107.3843152943345
 20
-127.7620550895873
 30
0.0
 10
107.1858777943841
 20
-127.6562906581901
 30
0.0
 10
106.9826171607543
 20
-127.5484591695018
 30
0.0
 10
106.9591905114547
 20
-127.3875732103406
 30
0.0
 10
106.9591905114547
 20
-127.2587266391923
 30
0.0
 10
106.9591905114547
 20
-127.0999077373223
 30
0.0
 10
107.0039767527629
 20
-126.9562472555873
 30
0.0
 10
107.1858777943841
 20
-126.8608181106459
 30
0.0
 10
107.378114122461
 20
-126.7615993606707
 30
0.0
 10
107.6068684626816
 20
-126.738172711371
 30
0.0
 10
107.7805012751382
 20
-126.738172711371
 30
0.0
 10
107.9513780112066
 20
-126.738172711371
 30
0.0
 10
108.1821994087183
 20
-126.7595323033796
 30
0.0
 10
108.3744357367953
 20
-126.8608181106459
 30
0.0
  0
SPLINE
  5
48
330
41
100
AcDbEntity
  8
_U+30EC_U+30A4_U+30E4_U+30FC 1
370
     0
100
AcDbSpline
210
0.0
220
0.0
230
1.0
 70
    11
 71
     3
 72
    17
 73
    13
 74
     0
 42
0.0000000001
 43
0.0000000001
 12
1.0
 22
0.0
 32
0.0
 13
1.0
 23
0.0
 33
0.0
 40
0.0
 40
0.0
 40
0.0
 40
0.0
 40
1.0
 40
1.0
 40
1.0
 40
2.0
 40
2.0
 40
2.0
 40
3.0
 40
3.0
 40
3.0
 40
4.0
 40
4.0
 40
4.0
 40
4.0
 10
107.1521158586286
 20
-127.2587266391923
 30
0.0
 10
107.1521158586286
 20
-127.5084960618729
 30
0.0
 10
107.4353027075162
 20
-127.5550048509238
 30
0.0
 10
107.7805012751382
 20
-127.5550048509238
 30
0.0
 10
108.0995171170724
 20
-127.5550048509238
 30
0.0
 10
108.4081976725507
 20
-127.5188313483286
 30
0.0
 10
108.4081976725507
 20
-127.2587266391923
 30
0.0
 10
108.4081976725507
 20
-127.0110242738028
 30
0.0
 10
108.1270778809543
 20
-126.9624484274608
 30
0.0
 10
107.7805012751382
 20
-126.9624484274608
 30
0.0
 10
107.460796414107
 20
-126.9624484274608
 30
0.0
 10
107.1521158586286
 20
-127.0006889873471
 30
0.0
 10
107.1521158586286
 20
-127.2587266391923
 30
0.0
  0
HATCH
  5
49
330
41
100
AcDbEntity
  8
_U+30EC_U+30A4_U+30E4_U+30FC 1
 62
     7
420
 16777215
100
AcDbHatch
 10
0.0
 20
0.0
 30
0.0
210
0.0
220
0.0
230
1.0
  2
SOLID
 70
     1
 71
     0
 91
        2
 92
        1
 93
        1
 72
     4
 94
        3
 73
     0
 74
     1
 95
       29
 96
       25
 40
0.0
 40
0.0
 40
0.0
 40
0.0
 40
1.0
 40
1.0
 40
1.0
 40
2.0
 40
2.0
 40
2.0
 40
3.0
 40
3.0
 40
3.0
 40
4.0
 40
4.0
 40
4.0
 40
5.0
 40
5.0
 40
5.0
 40
6.0
 40
6.0
 40
6.0
 40
7.0
 40
7.0
 40
7.0
 40
8.0
 40
8.0
 40
8.0
 40
8.0
 10
108.3744357367953
 20
-126.8608181106459
 10
108.5838975422985
 20
-126.9689941088828
 10
108.6031900770159
 20
-127.1422824117908
 10
108.6031900770159
 20
-127.2587266391923
 10
108.6031900770159
 20
-127.4196125983534
 10
108.5563367784165
 20
-127.5612060227972
 10
108.3744357367953
 20
-127.6562906581901
 10
108.1801323514272
 20
-127.7599880322961
 10
107.943109782042
 20
-127.7792805670135
 10
107.7805012751382
 20
-127.7792805670135
 10
107.6364962838548
 20
-127.7792805670135
 10
107.3843152943345
 20
-127.7620550895873
 10
107.1858777943841
 20
-127.6562906581901
 10
106.9826171607543
 20
-127.5484591695018
 10
106.9591905114547
 20
-127.3875732103406
 10
106.9591905114547
 20
-127.2587266391923
 10
106.9591905114547
 20
-127.0999077373223
 10
107.0039767527629
 20
-126.9562472555873
 10
107.1858777943841
 20
-126.8608181106459
 10
107.378114122461
 20
-126.7615993606707
 10
107.6068684626816
 20
-126.738172711371
 10
107.7805012751382
 20
-126.738172711371
 10
107.9513780112066
 20
-126.738172711371
 10
108.1821994087183
 20
-126.7595323033796
 10
108.3744357367953
 20
-126.8608181106459
 97
        0
 97
        0
 92
        1
 93
        1
 72
     4
 94
        3
 73
     0
 74
     1
 95
       17
 96
       13
 40
0.0
 40
0.0
 40
0.0
 40
0.0
 40
1.0
 40
1.0
 40
1.0
 40
2.0
 40
2.0
 40
2.0
 40
3.0
 40
3.0
 40
3.0
 40
4.0
 40
4.0
 40
4.0
 40
4.0
 10
107.1521158586286
 20
-127.2587266391923
 10
107.1521158586286
 20
-127.5084960618729
 10
107.4353027075162
 20
-127.5550048509238
 10
107.7805012751382
 20
-127.5550048509238
 10
108.0995171170724
 20
-127.5550048509238
 10
108.4081976725507
 20
-127.5188313483286
 10
108.4081976725507
 20
-127.2587266391923
 10
108.4081976725507
 20
-127.0110242738028
 10
108.1270778809543
 20
-126.9624484274608
 10
107.7805012751382
 20
-126.9624484274608
 10
107.460796414107
 20
-126.9624484274608
 10
107.1521158586286
 20
-127.0006889873471
 10
107.1521158586286
 20
-127.2587266391923
 97
        0
 97
        0
 75
     2
 76
     1
 98
        0
  0
ENDBLK
  5
44
330
41
100
AcDbEntity
  8
0
100
AcDbBlockEnd
  0
BLOCK
  5
4C
330
4A
100
AcDbEntity
  8
0
100
AcDbBlockBegin
  2
block 3
 70
     0
 10
0.0
 20
0.0
 30
0.0
  3
block 3
  1

  0
SPLINE
  5
4E
330
4A
100
AcDbEntity
  8
_U+30EC_U+30A4_U+30E4_U+30FC 1
370
     0
100
AcDbSpline
210
0.0
220
0.0
230
1.0
 70
    11
 71
     3
 72
    26
 73
    22
 74
     0
 42
0.0000000001
 43
0.0000000001
 12
1.0
 22
0.0
 32
0.0
 13
1.0
 23
0.0
 33
0.0
 40
0.0
 40
0.0
 40
0.0
 40
0.0
 40
1.0
 40
1.0
 40
1.0
 40
2.0
 40
2.0
 40
2.0
 40
3.0
 40
3.0
 40
3.0
 40
4.0
 40
4.0
 40
4.0
 40
5.0
 40
5.0
 40
5.0
 40
6.0
 40
6.0
 40
6.0
 40
7.0
 40
7.0
 40
7.0
 40
7.0
 10
108.5522026638342
 20
-133.398231303456
 30
0.0
 10
108.5522026638342
 20
-133.398231303456
 30
0.0
 10
107.4483940703601
 20
-133.398231303456
 30
0.0
 10
107.4483940703601
 20
-133.398231303456
 30
0.0
 10
107.4483940703601
 20
-133.398231303456
 30
0.0
 10
107.4483940703601
 20
-133.7282714509429
 30
0.0
 10
107.4483940703601
 20
-133.7282714509429
 30
0.0
 10
107.4483940703601
 20
-133.7282714509429
 30
0.0
 10
107.3002549644944
 20
-133.7282714509429
 30
0.0
 10
107.3002549644944
 20
-133.7282714509429
 30
0.0
 10
107.2850965443593
 20
-133.3961642461649
 30
0.0
 10
107.1224880374555
 20
-133.349655457114
 30
0.0
 10
107.0081108673452
 20
-133.3200276359408
 30
0.0
 10
107.0081108673452
 20
-133.3200276359408
 30
0.0
 10
107.0081108673452
 20
-133.1739555873662
 30
0.0
 10
107.0081108673452
 20
-133.1739555873662
 30
0.0
 10
107.0081108673452
 20
-133.1739555873662
 30
0.0
 10
108.5522026638342
 20
-133.1739555873662
 30
0.0
 10
108.5522026638342
 20
-133.1739555873662
 30
0.0
 10
108.5522026638342
 20
-133.1739555873662
 30
0.0
 10
108.5522026638342
 20
-133.398231303456
 30
0.0
 10
108.5522026638342
 20
-133.398231303456
 30
0.0
  0
HATCH
  5
4F
330
4A
100
AcDbEntity
  8
_U+30EC_U+30A4_U+30E4_U+30FC 1
 62
     7
420
 16777215
100
AcDbHatch
 10
0.0
 20
0.0
 30
0.0
210
0.0
220
0.0
230
1.0
  2
SOLID
 70
     1
 71
     0
 91
        1
 92
        1
 93
        1
 72
     4
 94
        3
 73
     0
 74
     1
 95
       26
 96
       22
 40
0.0
 40
0.0
 40
0.0
 40
0.0
 40
1.0
 40
1.0
 40
1.0
 40
2.0
 40
2.0
 40
2.0
 40
3.0
 40
3.0
 40
3.0
 40
4.0
 40
4.0
 40
4.0
 40
5.0
 40
5.0
 40
5.0
 40
6.0
 40
6.0
 40
6.0
 40
7.0
 40
7.0
 40
7.0
 40
7.0
 10
108.5522026638342
 20
-133.398231303456
 10
108.5522026638342
 20
-133.398231303456
 10
107.4483940703601
 20
-133.398231303456
 10
107.4483940703601
 20
-133.398231303456
 10
107.4483940703601
 20
-133.398231303456
 10
107.4483940703601
 20
-133.7282714509429
 10
107.4483940703601
 20
-133.7282714509429
 10
107.4483940703601
 20
-133.7282714509429
 10
107.3002549644944
 20
-133.7282714509429
 10
107.3002549644944
 20
-133.7282714509429
 10
107.2850965443593
 20
-133.3961642461649
 10
107.1224880374555
 20
-133.349655457114
 10
107.0081108673452
 20
-133.3200276359408
 10
107.0081108673452
 20
-133.3200276359408
 10
107.0081108673452
 20
-133.1739555873662
 10
107.0081108673452
 20
-133.1739555873662
 10
107.0081108673452
 20
-133.1739555873662
 10
108.5522026638342
 20
-133.1739555873662
 10
108.5522026638342
 20
-133.1739555873662
 10
108.5522026638342
 20
-133.1739555873662
 10
108.5522026638342
 20
-133.398231303456
 10
108.5522026638342
 20
-133.398231303456
 97
        0
 97
        0
 75
     2
 76
     1
 98
        0
  0
ENDBLK
  5
4D
330
4A
100
AcDbEntity
  8
0
100
AcDbBlockEnd
  0
BLOCK
  5
68
330
66
100
AcDbEntity
  8
0
100
AcDbBlockBegin
  2
block 4
 70
     0
 10
0.0
 20
0.0
 30
0.0
  3
block 4
  1

  0
SPLINE
  5
6A
330
66
100
AcDbEntity
  8
_U+30EC_U+30A4_U+30E4_U+30FC 1
370
     0
100
AcDbSpline
210
0.0
220
0.0
230
1.0
 70
    11
 71
     3
 72
    26
 73
    22
 74
     0
 42
0.0000000001
 43
0.0000000001
 12
1.0
 22
0.0
 32
0.0
 13
1.0
 23
0.0
 33
0.0
 40
0.0
 40
0.0
 40
0.0
 40
0.0
 40
1.0
 40
1.0
 40
1.0
 40
2.0
 40
2.0
 40
2.0
 40
3.0
 40
3.0
 40
3.0
 40
4.0
 40
4.0
 40
4.0
 40
5.0
 40
5.0
 40
5.0
 40
6.0
 40
6.0
 40
6.0
 40
7.0
 40
7.0
 40
7.0
 40
7.0
 10
87.02500675992778
 20
-120.0353949352689
 30
0.0
 10
87.02500675992778
 20
-120.0353949352689
 30
0.0
 10
87.02500675992778
 20
-118.9312418322464
 30
0.0
 10
87.02500675992778
 20
-118.9312418322464
 30
0.0
 10
87.02500675992778
 20
-118.9312418322464
 30
0.0
 10
86.69496661244085
 20
-118.9312418322464
 30
0.0
 10
86.69496661244085
 20
-118.9312418322464
 30
0.0
 10
86.69496661244085
 20
-118.9312418322464
 30
0.0
 10
86.69496661244085
 20
-118.7831027263806
 30
0.0
 10
86.69496661244085
 20
-118.7831027263806
 30
0.0
 10
87.02707381721893
 20
-118.7682888157941
 30
0.0
 10
87.07358260626981
 20
-118.6053357993417
 30
0.0
 10
87.10321042744295
 20
-118.4909586292314
 30
0.0
 10
87.10321042744295
 20
-118.4909586292314
 30
0.0
 10
87.24928247601754
 20
-118.4909586292314
 30
0.0
 10
87.24928247601754
 20
-118.4909586292314
 30
0.0
 10
87.24928247601754
 20
-118.4909586292314
 30
0.0
 10
87.24928247601754
 20
-120.0353949352689
 30
0.0
 10
87.24928247601754
 20
-120.0353949352689
 30
0.0
 10
87.24928247601754
 20
-120.0353949352689
 30
0.0
 10
87.02500675992778
 20
-120.0353949352689
 30
0.0
 10
87.02500675992778
 20
-120.0353949352689
 30
0.0
  0
HATCH
  5
6B
330
66
100
AcDbEntity
  8
_U+30EC_U+30A4_U+30E4_U+30FC 1
 62
     7
420
 16777215
100
AcDbHatch
 10
0.0
 20
0.0
 30
0.0
210
0.0
220
0.0
230
1.0
  2
SOLID
 70
     1
 71
     0
 91
        1
 92
        1
 93
        1
 72
     4
 94
        3
 73
     0
 74
     1
 95
       26
 96
       22
 40
0.0
 40
0.0
 40
0.0
 40
0.0
 40
1.0
 40
1.0
 40
1.0
 40
2.0
 40
2.0
 40
2.0
 40
3.0
 40
3.0
 40
3.0
 40
4.0
 40
4.0
 40
4.0
 40
5.0
 40
5.0
 40
5.0
 40
6.0
 40
6.0
 40
6.0
 40
7.0
 40
7.0
 40
7.0
 40
7.0
 10
87.02500675992778
 20
-120.0353949352689
 10
87.02500675992778
 20
-120.0353949352689
 10
87.02500675992778
 20
-118.9312418322464
 10
87.02500675992778
 20
-118.9312418322464
 10
87.02500675992778
 20
-118.9312418322464
 10
86.69496661244085
 20
-118.9312418322464
 10
86.69496661244085
 20
-118.9312418322464
 10
86.69496661244085
 20
-118.9312418322464
 10
86.69496661244085
 20
-118.7831027263806
 10
86.69496661244085
 20
-118.7831027263806
 10
87.02707381721893
 20
-118.7682888157941
 10
87.07358260626981
 20
-118.6053357993417
 10
87.10321042744295
 20
-118.4909586292314
 10
87.10321042744295
 20
-118.4909586292314
 10
87.24928247601754
 20
-118.4909586292314
 10
87.24928247601754
 20
-118.4909586292314
 10
87.24928247601754
 20
-118.4909586292314
 10
87.24928247601754
 20
-120.0353949352689
 10
87.24928247601754
 20
-120.0353949352689
 10
87.24928247601754
 20
-120.0353949352689
 10
87.02500675992778
 20
-120.0353949352689
 10
87.02500675992778
 20
-120.0353949352689
 97
        0
 97
        0
 75
     2
 76
     1
 98
        0
  0
SPLINE
  5
6C
330
66
100
AcDbEntity
  8
_U+30EC_U+30A4_U+30E4_U+30FC 1
370
     0
100
AcDbSpline
210
0.0
220
0.0
230
1.0
 70
    11
 71
     3
 72
    29
 73
    25
 74
     0
 42
0.0000000001
 43
0.0000000001
 12
1.0
 22
0.0
 32
0.0
 13
1.0
 23
0.0
 33
0.0
 40
0.0
 40
0.0
 40
0.0
 40
0.0
 40
1.0
 40
1.0
 40
1.0
 40
2.0
 40
2.0
 40
2.0
 40
3.0
 40
3.0
 40
3.0
 40
4.0
 40
4.0
 40
4.0
 40
5.0
 40
5.0
 40
5.0
 40
6.0
 40
6.0
 40
6.0
 40
7.0
 40
7.0
 40
7.0
 40
8.0
 40
8.0
 40
8.0
 40
8.0
 10
88.64833575257751
 20
-119.85762800823
 30
0.0
 10
88.54015975434066
 20
-120.0670898137332
 30
0.0
 10
88.36687145143259
 20
-120.0860378389021
 30
0.0
 10
88.25042722403114
 20
-120.0860378389021
 30
0.0
 10
88.08954126486998
 20
-120.0860378389021
 30
0.0
 10
87.94794784042621
 20
-120.0395290498512
 30
0.0
 10
87.85286320503332
 20
-119.85762800823
 30
0.0
 10
87.7491658309273
 20
-119.6629801133134
 30
0.0
 10
87.7298732962099
 20
-119.4263020534768
 30
0.0
 10
87.7298732962099
 20
-119.2633490370244
 30
0.0
 10
87.7298732962099
 20
-119.119344045741
 30
0.0
 10
87.74709877363614
 20
-118.8675075657692
 30
0.0
 10
87.85286320503332
 20
-118.6687255562703
 30
0.0
 10
87.96069469372163
 20
-118.4658094321891
 30
0.0
 10
88.1215806528828
 20
-118.4423827828894
 30
0.0
 10
88.25042722403114
 20
-118.4423827828894
 30
0.0
 10
88.40924612590116
 20
-118.4423827828894
 30
0.0
 10
88.55290660763609
 20
-118.4868245146491
 30
0.0
 10
88.64833575257751
 20
-118.6687255562703
 30
0.0
 10
88.7475545025527
 20
-118.8613063938958
 30
0.0
 10
88.7709811518524
 20
-119.0897162245679
 30
0.0
 10
88.7709811518524
 20
-119.2633490370244
 30
0.0
 10
88.7709811518524
 20
-119.4345702826414
 30
0.0
 10
88.74962155984385
 20
-119.6650471706046
 30
0.0
 10
88.64833575257751
 20
-119.85762800823
 30
0.0
  0
SPLINE
  5
6D
330
66
100
AcDbEntity
  8
_U+30EC_U+30A4_U+30E4_U+30FC 1
370
     0
100
AcDbSpline
210
0.0
220
0.0
230
1.0
 70
    11
 71
     3
 72
    17
 73
    13
 74
     0
 42
0.0000000001
 43
0.0000000001
 12
1.0
 22
0.0
 32
0.0
 13
1.0
 23
0.0
 33
0.0
 40
0.0
 40
0.0
 40
0.0
 40
0.0
 40
1.0
 40
1.0
 40
1.0
 40
2.0
 40
2.0
 40
2.0
 40
3.0
 40
3.0
 40
3.0
 40
4.0
 40
4.0
 40
4.0
 40
4.0
 10
88.25042722403114
 20
-118.6349636205149
 30
0.0
 10
88.00065780135053
 20
-118.6349636205149
 30
0.0
 10
87.95414901229967
 20
-118.9184949789509
 30
0.0
 10
87.95414901229967
 20
-119.2633490370244
 30
0.0
 10
87.95414901229967
 20
-119.5827093885071
 30
0.0
 10
87.99032251489479
 20
-119.8913899439855
 30
0.0
 10
88.25042722403114
 20
-119.8913899439855
 30
0.0
 10
88.49812958942061
 20
-119.8913899439855
 30
0.0
 10
88.54670543576263
 20
-119.6102701523891
 30
0.0
 10
88.54670543576263
 20
-119.2633490370244
 30
0.0
 10
88.54670543576263
 20
-118.9436441759933
 30
0.0
 10
88.50846487587636
 20
-118.6349636205149
 30
0.0
 10
88.25042722403114
 20
-118.6349636205149
 30
0.0
  0
HATCH
  5
6E
330
66
100
AcDbEntity
  8
_U+30EC_U+30A4_U+30E4_U+30FC 1
 62
     7
420
 16777215
100
AcDbHatch
 10
0.0
 20
0.0
 30
0.0
210
0.0
220
0.0
230
1.0
  2
SOLID
 70
     1
 71
     0
 91
        2
 92
        1
 93
        1
 72
     4
 94
        3
 73
     0
 74
     1
 95
       29
 96
       25
 40
0.0
 40
0.0
 40
0.0
 40
0.0
 40
1.0
 40
1.0
 40
1.0
 40
2.0
 40
2.0
 40
2.0
 40
3.0
 40
3.0
 40
3.0
 40
4.0
 40
4.0
 40
4.0
 40
5.0
 40
5.0
 40
5.0
 40
6.0
 40
6.0
 40
6.0
 40
7.0
 40
7.0
 40
7.0
 40
8.0
 40
8.0
 40
8.0
 40
8.0
 10
88.64833575257751
 20
-119.85762800823
 10
88.54015975434066
 20
-120.0670898137332
 10
88.36687145143259
 20
-120.0860378389021
 10
88.25042722403114
 20
-120.0860378389021
 10
88.08954126486998
 20
-120.0860378389021
 10
87.94794784042621
 20
-120.0395290498512
 10
87.85286320503332
 20
-119.85762800823
 10
87.7491658309273
 20
-119.6629801133134
 10
87.7298732962099
 20
-119.4263020534768
 10
87.7298732962099
 20
-119.2633490370244
 10
87.7298732962099
 20
-119.119344045741
 10
87.74709877363614
 20
-118.8675075657692
 10
87.85286320503332
 20
-118.6687255562703
 10
87.96069469372163
 20
-118.4658094321891
 10
88.1215806528828
 20
-118.4423827828894
 10
88.25042722403114
 20
-118.4423827828894
 10
88.40924612590116
 20
-118.4423827828894
 10
88.55290660763609
 20
-118.4868245146491
 10
88.64833575257751
 20
-118.6687255562703
 10
88.7475545025527
 20
-118.8613063938958
 10
88.7709811518524
 20
-119.0897162245679
 10
88.7709811518524
 20
-119.2633490370244
 10
88.7709811518524
 20
-119.4345702826414
 10
88.74962155984385
 20
-119.6650471706046
 10
88.64833575257751
 20
-119.85762800823
 97
        0
 97
        0
 92
        1
 93
        1
 72
     4
 94
        3
 73
     0
 74
     1
 95
       17
 96
       13
 40
0.0
 40
0.0
 40
0.0
 40
0.0
 40
1.0
 40
1.0
 40
1.0
 40
2.0
 40
2.0
 40
2.0
 40
3.0
 40
3.0
 40
3.0
 40
4.0
 40
4.0
 40
4.0
 40
4.0
 10
88.25042722403114
 20
-118.6349636205149
 10
88.00065780135053
 20
-118.6349636205149
 10
87.95414901229967
 20
-118.9184949789509
 10
87.95414901229967
 20
-119.2633490370244
 10
87.95414901229967
 20
-119.5827093885071
 10
87.99032251489479
 20
-119.8913899439855
 10
88.25042722403114
 20
-119.8913899439855
 10
88.49812958942061
 20
-119.8913899439855
 10
88.54670543576263
 20
-119.6102701523891
 10
88.54670543576263
 20
-119.2633490370244
 10
88.54670543576263
 20
-118.9436441759933
 10
88.50846487587636
 20
-118.6349636205149
 10
88.25042722403114
 20
-118.6349636205149
 97
        0
 97
        0
 75
     2
 76
     1
 98
        0
  0
ENDBLK
  5
69
330
66
100
AcDbEntity
  8
0
100
AcDbBlockEnd
  0
BLOCK
  5
88
330
86
100
AcDbEntity
  8
0
100
AcDbBlockBegin
  2
block 5
 70
     0
 10
0.0
 20
0.0
 30
0.0
  3
block 5
  1

  0
SPLINE
  5
8A
330
86
100
AcDbEntity
  8
_U+30EC_U+30A4_U+30E4_U+30FC 1
370
     0
100
AcDbSpline
210
0.0
220
0.0
230
1.0
 70
    11
 71
     3
 72
    62
 73
    58
 74
     0
 42
0.0000000001
 43
0.0000000001
 12
1.0
 22
0.0
 32
0.0
 13
1.0
 23
0.0
 33
0.0
 40
0.0
 40
0.0
 40
0.0
 40
0.0
 40
1.0
 40
1.0
 40
1.0
 40
2.0
 40
2.0
 40
2.0
 40
3.0
 40
3.0
 40
3.0
 40
4.0
 40
4.0
 40
4.0
 40
5.0
 40
5.0
 40
5.0
 40
6.0
 40
6.0
 40
6.0
 40
7.0
 40
7.0
 40
7.0
 40
8.0
 40
8.0
 40
8.0
 40
9.0
 40
9.0
 40
9.0
 40
10.0
 40
10.0
 40
10.0
 40
11.0
 40
11.0
 40
11.0
 40
12.0
 40
12.0
 40
12.0
 40
13.0
 40
13.0
 40
13.0
 40
14.0
 40
14.0
 40
14.0
 40
15.0
 40
15.0
 40
15.0
 40
16.0
 40
16.0
 40
16.0
 40
17.0
 40
17.0
 40
17.0
 40
18.0
 40
18.0
 40
18.0
 40
19.0
 40
19.0
 40
19.0
 40
19.0
 10
87.06548663187947
 20
-137.3042805646323
 30
0.0
 10
86.97005748693805
 20
-137.3042805646323
 30
0.0
 10
86.75232745227025
 20
-137.2829209726237
 30
0.0
 10
86.62727048615568
 20
-137.0968858164202
 30
0.0
 10
86.55354544277134
 20
-136.9845757036011
 30
0.0
 10
86.54906681864051
 20
-136.8853569536259
 30
0.0
 10
86.54493270405821
 20
-136.8006076046887
 30
0.0
 10
86.54493270405821
 20
-136.8006076046887
 30
0.0
 10
86.76507430556568
 20
-136.8006076046887
 30
0.0
 10
86.76507430556568
 20
-136.8006076046887
 30
0.0
 10
86.76714136285683
 20
-136.8746771576216
 30
0.0
 10
86.77747664931258
 20
-137.1096326697157
 30
0.0
 10
87.06100800774864
 20
-137.1096326697157
 30
0.0
 10
87.19846731761011
 20
-137.1096326697157
 30
0.0
 10
87.35108504760667
 20
-137.0396972313651
 30
0.0
 10
87.35108504760667
 20
-136.811287400693
 30
0.0
 10
87.35108504760667
 20
-136.6948431732916
 30
0.0
 10
87.3128444877204
 20
-136.6462673269496
 30
0.0
 10
87.2811496092561
 20
-136.6145724484853
 30
0.0
 10
87.20708005632324
 20
-136.5405028955524
 30
0.0
 10
87.09063582892179
 20
-136.527756042257
 30
0.0
 10
87.03585881070632
 20
-136.527756042257
 30
0.0
 10
87.01656627598892
 20
-136.527756042257
 30
0.0
 10
86.98073728294231
 20
-136.5298230995481
 30
0.0
 10
86.95317651906032
 20
-136.5339572141304
 30
0.0
 10
86.95317651906032
 20
-136.5339572141304
 30
0.0
 10
86.95317651906032
 20
-136.3396538287623
 30
0.0
 10
86.95317651906032
 20
-136.3396538287623
 30
0.0
 10
86.9914170789466
 20
-136.3458550006358
 30
0.0
 10
87.03344724386665
 20
-136.3479220579269
 30
0.0
 10
87.03999292528862
 20
-136.3479220579269
 30
0.0
 10
87.10544973950836
 20
-136.3479220579269
 30
0.0
 10
87.30423174900729
 20
-136.3269069754669
 30
0.0
 10
87.30423174900729
 20
-136.0898844060817
 30
0.0
 10
87.30423174900729
 20
-135.9121174790428
 30
0.0
 10
87.17331812056779
 20
-135.8569959512788
 30
0.0
 10
87.0630750650398
 20
-135.8569959512788
 30
0.0
 10
86.79883624132113
 20
-135.8569959512788
 30
0.0
 10
86.790223502608
 20
-136.0898844060817
 30
0.0
 10
86.7860893880257
 20
-136.1618869017234
 30
0.0
 10
86.7860893880257
 20
-136.1618869017234
 30
0.0
 10
86.58282875439596
 20
-136.1618869017234
 30
0.0
 10
86.58282875439596
 20
-136.1618869017234
 30
0.0
 10
86.59144149310909
 20
-136.0368299356089
 30
0.0
 10
86.61900225699108
 20
-135.660280999071
 30
0.0
 10
87.07582191833521
 20
-135.660280999071
 30
0.0
 10
87.30009763442499
 20
-135.660280999071
 30
0.0
 10
87.54125431839246
 20
-135.7874050224768
 30
0.0
 10
87.54125431839246
 20
-136.0833387246597
 30
0.0
 10
87.54125431839246
 20
-136.2697183904118
 30
0.0
 10
87.44616968299957
 20
-136.3520561725092
 30
0.0
 10
87.34660642347585
 20
-136.4133788721467
 30
0.0
 10
87.4079291231133
 20
-136.4409396360287
 30
0.0
 10
87.5898301647345
 20
-136.5215548703835
 30
0.0
 10
87.5898301647345
 20
-136.7985405473976
 30
0.0
 10
87.5898301647345
 20
-137.1371934335976
 30
0.0
 10
87.34247230889355
 20
-137.3042805646323
 30
0.0
 10
87.06548663187947
 20
-137.3042805646323
 30
0.0
  0
HATCH
  5
8B
330
86
100
AcDbEntity
  8
_U+30EC_U+30A4_U+30E4_U+30FC 1
 62
     7
420
 16777215
100
AcDbHatch
 10
0.0
 20
0.0
 30
0.0
210
0.0
220
0.0
230
1.0
  2
SOLID
 70
     1
 71
     0
 91
        1
 92
        1
 93
        1
 72
     4
 94
        3
 73
     0
 74
     1
 95
       62
 96
       58
 40
0.0
 40
0.0
 40
0.0
 40
0.0
 40
1.0
 40
1.0
 40
1.0
 40
2.0
 40
2.0
 40
2.0
 40
3.0
 40
3.0
 40
3.0
 40
4.0
 40
4.0
 40
4.0
 40
5.0
 40
5.0
 40
5.0
 40
6.0
 40
6.0
 40
6.0
 40
7.0
 40
7.0
 40
7.0
 40
8.0
 40
8.0
 40
8.0
 40
9.0
 40
9.0
 40
9.0
 40
10.0
 40
10.0
 40
10.0
 40
11.0
 40
11.0
 40
11.0
 40
12.0
 40
12.0
 40
12.0
 40
13.0
 40
13.0
 40
13.0
 40
14.0
 40
14.0
 40
14.0
 40
15.0
 40
15.0
 40
15.0
 40
16.0
 40
16.0
 40
16.0
 40
17.0
 40
17.0
 40
17.0
 40
18.0
 40
18.0
 40
18.0
 40
19.0
 40
19.0
 40
19.0
 40
19.0
 10
87.06548663187947
 20
-137.3042805646323
 10
86.97005748693805
 20
-137.3042805646323
 10
86.75232745227025
 20
-137.2829209726237
 10
86.62727048615568
 20
-137.0968858164202
 10
86.55354544277134
 20
-136.9845757036011
 10
86.54906681864051
 20
-136.8853569536259
 10
86.54493270405821
 20
-136.8006076046887
 10
86.54493270405821
 20
-136.8006076046887
 10
86.76507430556568
 20
-136.8006076046887
 10
86.76507430556568
 20
-136.8006076046887
 10
86.76714136285683
 20
-136.8746771576216
 10
86.77747664931258
 20
-137.1096326697157
 10
87.06100800774864
 20
-137.1096326697157
 10
87.19846731761011
 20
-137.1096326697157
 10
87.35108504760667
 20
-137.0396972313651
 10
87.35108504760667
 20
-136.811287400693
 10
87.35108504760667
 20
-136.6948431732916
 10
87.3128444877204
 20
-136.6462673269496
 10
87.2811496092561
 20
-136.6145724484853
 10
87.20708005632324
 20
-136.5405028955524
 10
87.09063582892179
 20
-136.527756042257
 10
87.03585881070632
 20
-136.527756042257
 10
87.01656627598892
 20
-136.527756042257
 10
86.98073728294231
 20
-136.5298230995481
 10
86.95317651906032
 20
-136.5339572141304
 10
86.95317651906032
 20
-136.5339572141304
 10
86.95317651906032
 20
-136.3396538287623
 10
86.95317651906032
 20
-136.3396538287623
 10
86.9914170789466
 20
-136.3458550006358
 10
87.03344724386665
 20
-136.3479220579269
 10
87.03999292528862
 20
-136.3479220579269
 10
87.10544973950836
 20
-136.3479220579269
 10
87.30423174900729
 20
-136.3269069754669
 10
87.30423174900729
 20
-136.0898844060817
 10
87.30423174900729
 20
-135.9121174790428
 10
87.17331812056779
 20
-135.8569959512788
 10
87.0630750650398
 20
-135.8569959512788
 10
86.79883624132113
 20
-135.8569959512788
 10
86.790223502608
 20
-136.0898844060817
 10
86.7860893880257
 20
-136.1618869017234
 10
86.7860893880257
 20
-136.1618869017234
 10
86.58282875439596
 20
-136.1618869017234
 10
86.58282875439596
 20
-136.1618869017234
 10
86.59144149310909
 20
-136.0368299356089
 10
86.61900225699108
 20
-135.660280999071
 10
87.07582191833521
 20
-135.660280999071
 10
87.30009763442499
 20
-135.660280999071
 10
87.54125431839246
 20
-135.7874050224768
 10
87.54125431839246
 20
-136.0833387246597
 10
87.54125431839246
 20
-136.2697183904118
 10
87.44616968299957
 20
-136.3520561725092
 10
87.34660642347585
 20
-136.4133788721467
 10
87.4079291231133
 20
-136.4409396360287
 10
87.5898301647345
 20
-136.5215548703835
 10
87.5898301647345
 20
-136.7985405473976
 10
87.5898301647345
 20
-137.1371934335976
 10
87.34247230889355
 20
-137.3042805646323
 10
87.06548663187947
 20
-137.3042805646323
 97
        0
 97
        0
 75
     2
 76
     1
 98
        0
  0
SPLINE
  5
8C
330
86
100
AcDbEntity
  8
_U+30EC_U+30A4_U+30E4_U+30FC 1
370
     0
100
AcDbSpline
210
0.0
220
0.0
230
1.0
 70
    11
 71
     3
 72
    29
 73
    25
 74
     0
 42
0.0000000001
 43
0.0000000001
 12
1.0
 22
0.0
 32
0.0
 13
1.0
 23
0.0
 33
0.0
 40
0.0
 40
0.0
 40
0.0
 40
0.0
 40
1.0
 40
1.0
 40
1.0
 40
2.0
 40
2.0
 40
2.0
 40
3.0
 40
3.0
 40
3.0
 40
4.0
 40
4.0
 40
4.0
 40
5.0
 40
5.0
 40
5.0
 40
6.0
 40
6.0
 40
6.0
 40
7.0
 40
7.0
 40
7.0
 40
8.0
 40
8.0
 40
8.0
 40
8.0
 10
88.64850800735177
 20
-137.0755262244117
 30
0.0
 10
88.54033200911492
 20
-137.2849880299149
 30
0.0
 10
88.36704370620686
 20
-137.3042805646323
 30
0.0
 10
88.25059947880541
 20
-137.3042805646323
 30
0.0
 10
88.08971351964425
 20
-137.3042805646323
 30
0.0
 10
87.94812009520048
 20
-137.2577717755814
 30
0.0
 10
87.85303545980757
 20
-137.0755262244117
 30
0.0
 10
87.74933808570155
 20
-136.8812228390436
 30
0.0
 10
87.73039006053268
 20
-136.6442002696584
 30
0.0
 10
87.73039006053268
 20
-136.4812472532061
 30
0.0
 10
87.73039006053268
 20
-136.3372422619227
 30
0.0
 10
87.74727102841041
 20
-136.0857502914994
 30
0.0
 10
87.85303545980757
 20
-135.886623772452
 30
0.0
 10
87.9608669484959
 20
-135.6837076483708
 30
0.0
 10
88.12175290765707
 20
-135.660280999071
 30
0.0
 10
88.25059947880541
 20
-135.660280999071
 30
0.0
 10
88.40941838067543
 20
-135.660280999071
 30
0.0
 10
88.55307886241035
 20
-135.7047227308308
 30
0.0
 10
88.64850800735177
 20
-135.886623772452
 30
0.0
 10
88.74772675732696
 20
-136.0792046100774
 30
0.0
 10
88.77115340662667
 20
-136.3076144407495
 30
0.0
 10
88.77115340662667
 20
-136.4812472532061
 30
0.0
 10
88.77115340662667
 20
-136.652468498823
 30
0.0
 10
88.74979381461812
 20
-136.8832898963347
 30
0.0
 10
88.64850800735177
 20
-137.0755262244117
 30
0.0
  0
SPLINE
  5
8D
330
86
100
AcDbEntity
  8
_U+30EC_U+30A4_U+30E4_U+30FC 1
370
     0
100
AcDbSpline
210
0.0
220
0.0
230
1.0
 70
    11
 71
     3
 72
    17
 73
    13
 74
     0
 42
0.0000000001
 43
0.0000000001
 12
1.0
 22
0.0
 32
0.0
 13
1.0
 23
0.0
 33
0.0
 40
0.0
 40
0.0
 40
0.0
 40
0.0
 40
1.0
 40
1.0
 40
1.0
 40
2.0
 40
2.0
 40
2.0
 40
3.0
 40
3.0
 40
3.0
 40
4.0
 40
4.0
 40
4.0
 40
4.0
 10
88.25059947880541
 20
-135.8528618366965
 30
0.0
 10
88.00117456567332
 20
-135.8528618366965
 30
0.0
 10
87.95432126707392
 20
-136.1363931951326
 30
0.0
 10
87.95432126707392
 20
-136.4812472532061
 30
0.0
 10
87.95432126707392
 20
-136.8006076046887
 30
0.0
 10
87.99049476966904
 20
-137.1096326697157
 30
0.0
 10
88.25059947880541
 20
-137.1096326697157
 30
0.0
 10
88.49830184419487
 20
-137.1096326697157
 30
0.0
 10
88.5468776905369
 20
-136.8281683685707
 30
0.0
 10
88.5468776905369
 20
-136.4812472532061
 30
0.0
 10
88.5468776905369
 20
-136.1618869017234
 30
0.0
 10
88.50863713065063
 20
-135.8528618366965
 30
0.0
 10
88.25059947880541
 20
-135.8528618366965
 30
0.0
  0
HATCH
  5
8E
330
86
100
AcDbEntity
  8
_U+30EC_U+30A4_U+30E4_U+30FC 1
 62
     7
420
 16777215
100
AcDbHatch
 10
0.0
 20
0.0
 30
0.0
210
0.0
220
0.0
230
1.0
  2
SOLID
 70
     1
 71
     0
 91
        2
 92
        1
 93
        1
 72
     4
 94
        3
 73
     0
 74
     1
 95
       29
 96
       25
 40
0.0
 40
0.0
 40
0.0
 40
0.0
 40
1.0
 40
1.0
 40
1.0
 40
2.0
 40
2.0
 40
2.0
 40
3.0
 40
3.0
 40
3.0
 40
4.0
 40
4.0
 40
4.0
 40
5.0
 40
5.0
 40
5.0
 40
6.0
 40
6.0
 40
6.0
 40
7.0
 40
7.0
 40
7.0
 40
8.0
 40
8.0
 40
8.0
 40
8.0
 10
88.64850800735177
 20
-137.0755262244117
 10
88.54033200911492
 20
-137.2849880299149
 10
88.36704370620686
 20
-137.3042805646323
 10
88.25059947880541
 20
-137.3042805646323
 10
88.08971351964425
 20
-137.3042805646323
 10
87.94812009520048
 20
-137.2577717755814
 10
87.85303545980757
 20
-137.0755262244117
 10
87.74933808570155
 20
-136.8812228390436
 10
87.73039006053268
 20
-136.6442002696584
 10
87.73039006053268
 20
-136.4812472532061
 10
87.73039006053268
 20
-136.3372422619227
 10
87.74727102841041
 20
-136.0857502914994
 10
87.85303545980757
 20
-135.886623772452
 10
87.9608669484959
 20
-135.6837076483708
 10
88.12175290765707
 20
-135.660280999071
 10
88.25059947880541
 20
-135.660280999071
 10
88.40941838067543
 20
-135.660280999071
 10
88.55307886241035
 20
-135.7047227308308
 10
88.64850800735177
 20
-135.886623772452
 10
88.74772675732696
 20
-136.0792046100774
 10
88.77115340662667
 20
-136.3076144407495
 10
88.77115340662667
 20
-136.4812472532061
 10
88.77115340662667
 20
-136.652468498823
 10
88.74979381461812
 20
-136.8832898963347
 10
88.64850800735177
 20
-137.0755262244117
 97
        0
 97
        0
 92
        1
 93
        1
 72
     4
 94
        3
 73
     0
 74
     1
 95
       17
 96
       13
 40
0.0
 40
0.0
 40
0.0
 40
0.0
 40
1.0
 40
1.0
 40
1.0
 40
2.0
 40
2.0
 40
2.0
 40
3.0
 40
3.0
 40
3.0
 40
4.0
 40
4.0
 40
4.0
 40
4.0
 10
88.25059947880541
 20
-135.8528618366965
 10
88.00117456567332
 20
-135.8528618366965
 10
87.95432126707392
 20
-136.1363931951326
 10
87.95432126707392
 20
-136.4812472532061
 10
87.95432126707392
 20
-136.8006076046887
 10
87.99049476966904
 20
-137.1096326697157
 10
88.25059947880541
 20
-137.1096326697157
 10
88.49830184419487
 20
-137.1096326697157
 10
88.5468776905369
 20
-136.8281683685707
 10
88.5468776905369
 20
-136.4812472532061
 10
88.5468776905369
 20
-136.1618869017234
 10
88.50863713065063
 20
-135.8528618366965
 10
88.25059947880541
 20
-135.8528618366965
 97
        0
 97
        0
 75
     2
 76
     1
 98
        0
  0
ENDBLK
  5
89
330
86
100
AcDbEntity
  8
0
100
AcDbBlockEnd
  0
ENDSEC
  0
SECTION
  2
ENTITIES
  0
INSERT
  5
42
330
1F
100
AcDbEntity
  8
_U+30EC_U+30A4_U+30E4_U+30FC 1
100
AcDbBlockReference
  2
block 2
 10
0.0
 20
0.0
 30
0.0
  0
INSERT
  5
4B
330
1F
100
AcDbEntity
  8
_U+30EC_U+30A4_U+30E4_U+30FC 1
100
AcDbBlockReference
  2
block 3
 10
0.0
 20
0.0
 30
0.0
  0
POLYLINE
  5
50
330
1F
100
AcDbEntity
  8
_U+30EC_U+30A4_U+30E4_U+30FC 1
 62
     7
420
 16777215
370
     9
100
AcDb2dPolyline
 66
     1
 10
0.0
 20
0.0
 30
0.0
  0
VERTEX
  5
51
330
50
100
AcDbEntity
  8
_U+30EC_U+30A4_U+30E4_U+30FC 1
 62
     7
420
 16777215
370
     9
100
AcDbVertex
100
AcDb2dVertex
 10
72.66103731292917
 20
-135.3895141328195
 30
0.0
  0
VERTEX
  5
52
330
50
100
AcDbEntity
  8
_U+30EC_U+30A4_U+30E4_U+30FC 1
 62
     7
420
 16777215
370
     9
100
AcDbVertex
100
AcDb2dVertex
 10
72.66103731292917
 20
-138.8497349652875
 30
0.0
  0
SEQEND
  5
53
330
50
100
AcDbEntity
  8
_U+30EC_U+30A4_U+30E4_U+30FC 1
 62
     7
420
 16777215
370
     9
  0
POLYLINE
  5
54
330
1F
100
AcDbEntity
  8
_U+30EC_U+30A4_U+30E4_U+30FC 1
 62
     7
420
 16777215
370
     9
100
AcDb2dPolyline
 66
     1
 10
0.0
 20
0.0
 30
0.0
  0
VERTEX
  5
55
330
54
100
AcDbEntity
  8
_U+30EC_U+30A4_U+30E4_U+30FC 1
 62
     7
420
 16777215
370
     9
100
AcDbVertex
100
AcDb2dVertex
 10
102.6645396030316
 20
-136.3899566325694
 30
0.0
  0
VERTEX
  5
56
330
54
100
AcDbEntity
  8
_U+30EC_U+30A4_U+30E4_U+30FC 1
 62
     7
420
 16777215
370
     9
100
AcDbVertex
100
AcDb2dVertex
 10
102.6645396030316
 20
-138.8497349652875
 30
0.0
  0
SEQEND
  5
57
330
54
100
AcDbEntity
  8
_U+30EC_U+30A4_U+30E4_U+30FC 1
 62
     7
420
 16777215
370
     9
  0
SPLINE
  5
58
330
1F
100
AcDbEntity
  8
_U+30EC_U+30A4_U+30E4_U+30FC 1
 62
     7
420
 16777215
370
     9
100
AcDbSpline
210
0.0
220
0.0
230
1.0
 70
    11
 71
     3
 72
    17
 73
    13
 74
     0
 42
0.0000000001
 43
0.0000000001
 12
1.0
 22
0.0
 32
0.0
 13
1.0
 23
0.0
 33
0.0
 40
0.0
 40
0.0
 40
0.0
 40
0.0
 40
1.0
 40
1.0
 40
1.0
 40
2.0
 40
2.0
 40
2.0
 40
3.0
 40
3.0
 40
3.0
 40
4.0
 40
4.0
 40
4.0
 40
4.0
 10
82.66006664600162
 20
-120.5142510809826
 30
0.0
 10
82.60496067034966
 20
-120.5142510809826
 30
0.0
 10
82.5601578937149
 20
-120.559053858749
 30
0.0
 10
82.5601578937149
 20
-120.6141577476243
 30
0.0
 10
82.5601578937149
 20
-120.669296914277
 30
0.0
 10
82.60496067034966
 20
-120.7140644142659
 30
0.0
 10
82.66006664600162
 20
-120.7140644142659
 30
0.0
 10
82.71520372309269
 20
-120.7140644142659
 30
0.0
 10
82.75997122195056
 20
-120.669296914277
 30
0.0
 10
82.75997122195056
 20
-120.6141577476243
 30
0.0
 10
82.75997122195056
 20
-120.559053858749
 30
0.0
 10
82.71520372309269
 20
-120.5142510809826
 30
0.0
 10
82.66006664600162
 20
-120.5142510809826
 30
0.0
  0
POLYLINE
  5
59
330
1F
100
AcDbEntity
  8
_U+30EC_U+30A4_U+30E4_U+30FC 1
 62
     7
420
 16777215
370
     9
100
AcDb2dPolyline
 66
     1
 10
0.0
 20
0.0
 30
0.0
  0
VERTEX
  5
5A
330
59
100
AcDbEntity
  8
_U+30EC_U+30A4_U+30E4_U+30FC 1
 62
     7
420
 16777215
370
     9
100
AcDbVertex
100
AcDb2dVertex
 10
92.66237497683471
 20
-120.6141577476243
 30
0.0
  0
VERTEX
  5
5B
330
59
100
AcDbEntity
  8
_U+30EC_U+30A4_U+30E4_U+30FC 1
 62
     7
420
 16777215
370
     9
100
AcDbVertex
100
AcDb2dVertex
 10
82.66232233555291
 20
-120.6141577476243
 30
0.0
  0
SEQEND
  5
5C
330
59
100
AcDbEntity
  8
_U+30EC_U+30A4_U+30E4_U+30FC 1
 62
     7
420
 16777215
370
     9
  0
POLYLINE
  5
5D
330
1F
100
AcDbEntity
  8
_U+30EC_U+30A4_U+30E4_U+30FC 1
 62
     7
420
 16777215
370
     9
100
AcDb2dPolyline
 66
     1
 10
0.0
 20
0.0
 30
0.0
  0
VERTEX
  5
5E
330
5D
100
AcDbEntity
  8
_U+30EC_U+30A4_U+30E4_U+30FC 1
 62
     7
420
 16777215
370
     9
100
AcDbVertex
100
AcDb2dVertex
 10
82.66006664600162
 20
-119.1541516368781
 30
0.0
  0
VERTEX
  5
5F
330
5D
100
AcDbEntity
  8
_U+30EC_U+30A4_U+30E4_U+30FC 1
 62
     7
420
 16777215
370
     9
100
AcDbVertex
100
AcDb2dVertex
 10
82.66006664600162
 20
-121.6139299695965
 30
0.0
  0
SEQEND
  5
60
330
5D
100
AcDbEntity
  8
_U+30EC_U+30A4_U+30E4_U+30FC 1
 62
     7
420
 16777215
370
     9
  0
SPLINE
  5
61
330
1F
100
AcDbEntity
  8
_U+30EC_U+30A4_U+30E4_U+30FC 1
 62
     7
420
 16777215
370
     9
100
AcDbSpline
210
0.0
220
0.0
230
1.0
 70
    11
 71
     3
 72
    17
 73
    13
 74
     0
 42
0.0000000001
 43
0.0000000001
 12
1.0
 22
0.0
 32
0.0
 13
1.0
 23
0.0
 33
0.0
 40
0.0
 40
0.0
 40
0.0
 40
0.0
 40
1.0
 40
1.0
 40
1.0
 40
2.0
 40
2.0
 40
2.0
 40
3.0
 40
3.0
 40
3.0
 40
4.0
 40
4.0
 40
4.0
 40
4.0
 10
92.66480680259049
 20
-120.5142510809826
 30
0.0
 10
92.60966763733055
 20
-120.5142510809826
 30
0.0
 10
92.56490013847265
 20
-120.559053858749
 30
0.0
 10
92.56490013847265
 20
-120.6141577476243
 30
0.0
 10
92.56490013847265
 20
-120.669296914277
 30
0.0
 10
92.60966763733055
 20
-120.7140644142659
 30
0.0
 10
92.66480680259049
 20
-120.7140644142659
 30
0.0
 10
92.71991069007356
 20
-120.7140644142659
 30
0.0
 10
92.76471346670833
 20
-120.669296914277
 30
0.0
 10
92.76471346670833
 20
-120.6141577476243
 30
0.0
 10
92.76471346670833
 20
-120.559053858749
 30
0.0
 10
92.71991069007356
 20
-120.5142510809826
 30
0.0
 10
92.66480680259049
 20
-120.5142510809826
 30
0.0
  0
POLYLINE
  5
62
330
1F
100
AcDbEntity
  8
_U+30EC_U+30A4_U+30E4_U+30FC 1
 62
     7
420
 16777215
370
     9
100
AcDb2dPolyline
 66
     1
 10
0.0
 20
0.0
 30
0.0
  0
VERTEX
  5
63
330
62
100
AcDbEntity
  8
_U+30EC_U+30A4_U+30E4_U+30FC 1
 62
     7
420
 16777215
370
     9
100
AcDbVertex
100
AcDb2dVertex
 10
92.66480680259049
 20
-119.1541516368781
 30
0.0
  0
VERTEX
  5
64
330
62
100
AcDbEntity
  8
_U+30EC_U+30A4_U+30E4_U+30FC 1
 62
     7
420
 16777215
370
     9
100
AcDbVertex
100
AcDb2dVertex
 10
92.66480680259049
 20
-121.6139299695965
 30
0.0
  0
SEQEND
  5
65
330
62
100
AcDbEntity
  8
_U+30EC_U+30A4_U+30E4_U+30FC 1
 62
     7
420
 16777215
370
     9
  0
INSERT
  5
67
330
1F
100
AcDbEntity
  8
_U+30EC_U+30A4_U+30E4_U+30FC 1
100
AcDbBlockReference
  2
block 4
 10
0.0
 20
0.0
 30
0.0
  0
SPLINE
  5
6F
330
1F
100
AcDbEntity
  8
_U+30EC_U+30A4_U+30E4_U+30FC 1
 62
     7
420
 16777215
370
     9
100
AcDbSpline
210
0.0
220
0.0
230
1.0
 70
    11
 71
     3
 72
    17
 73
    13
 74
     0
 42
0.0000000001
 43
0.0000000001
 12
1.0
 22
0.0
 32
0.0
 13
1.0
 23
0.0
 33
0.0
 40
0.0
 40
0.0
 40
0.0
 40
0.0
 40
1.0
 40
1.0
 40
1.0
 40
2.0
 40
2.0
 40
2.0
 40
3.0
 40
3.0
 40
3.0
 40
4.0
 40
4.0
 40
4.0
 40
4.0
 10
106.034519794834
 20
-132.8490908001208
 30
0.0
 10
106.034519794834
 20
-132.9049002445519
 30
0.0
 10
106.0793225714688
 20
-132.9489974667631
 30
0.0
 10
106.1344264589519
 20
-132.9489974667631
 30
0.0
 10
106.1895656242118
 20
-132.9489974667631
 30
0.0
 10
106.2343331230697
 20
-132.9049002445519
 30
0.0
 10
106.2343331230697
 20
-132.8490908001208
 30
0.0
 10
106.2343331230697
 20
-132.7939516334684
 30
0.0
 10
106.1895656242118
 20
-132.7491841334792
 30
0.0
 10
106.1344264589519
 20
-132.7491841334792
 30
0.0
 10
106.0793225714688
 20
-132.7491841334792
 30
0.0
 10
106.034519794834
 20
-132.7939516334684
 30
0.0
 10
106.034519794834
 20
-132.8490908001208
 30
0.0
  0
SPLINE
  5
70
330
1F
100
AcDbEntity
  8
_U+30EC_U+30A4_U+30E4_U+30FC 1
 62
     7
420
 16777215
370
     9
100
AcDbSpline
210
0.0
220
0.0
230
1.0
 70
    11
 71
     3
 72
    17
 73
    13
 74
     0
 42
0.0000000001
 43
0.0000000001
 12
1.0
 22
0.0
 32
0.0
 13
1.0
 23
0.0
 33
0.0
 40
0.0
 40
0.0
 40
0.0
 40
0.0
 40
1.0
 40
1.0
 40
1.0
 40
2.0
 40
2.0
 40
2.0
 40
3.0
 40
3.0
 40
3.0
 40
4.0
 40
4.0
 40
4.0
 40
4.0
 10
106.034519794834
 20
-133.8488630220933
 30
0.0
 10
106.034519794834
 20
-133.9046724665238
 30
0.0
 10
106.0793225714688
 20
-133.9494399665123
 30
0.0
 10
106.1344264589519
 20
-133.9494399665123
 30
0.0
 10
106.1895656242118
 20
-133.9494399665123
 30
0.0
 10
106.2343331230697
 20
-133.9046724665238
 30
0.0
 10
106.2343331230697
 20
-133.8488630220933
 30
0.0
 10
106.2343331230697
 20
-133.7937238554402
 30
0.0
 10
106.1895656242118
 20
-133.7489563554517
 30
0.0
 10
106.1344264589519
 20
-133.7489563554517
 30
0.0
 10
106.0793225714688
 20
-133.7489563554517
 30
0.0
 10
106.034519794834
 20
-133.7937238554402
 30
0.0
 10
106.034519794834
 20
-133.8488630220933
 30
0.0
  0
POLYLINE
  5
71
330
1F
100
AcDbEntity
  8
_U+30EC_U+30A4_U+30E4_U+30FC 1
 62
     7
420
 16777215
370
     9
100
AcDb2dPolyline
 66
     1
 10
0.0
 20
0.0
 30
0.0
  0
VERTEX
  5
72
330
71
100
AcDbEntity
  8
_U+30EC_U+30A4_U+30E4_U+30FC 1
 62
     7
420
 16777215
370
     9
100
AcDbVertex
100
AcDb2dVertex
 10
106.1344264589519
 20
-132.8470094112324
 30
0.0
  0
VERTEX
  5
73
330
71
100
AcDbEntity
  8
_U+30EC_U+30A4_U+30E4_U+30FC 1
 62
     7
420
 16777215
370
     9
100
AcDbVertex
100
AcDb2dVertex
 10
106.1344264589519
 20
-122.8470999692883
 30
0.0
  0
SEQEND
  5
74
330
71
100
AcDbEntity
  8
_U+30EC_U+30A4_U+30E4_U+30FC 1
 62
     7
420
 16777215
370
     9
  0
POLYLINE
  5
75
330
1F
100
AcDbEntity
  8
_U+30EC_U+30A4_U+30E4_U+30FC 1
 62
     7
420
 16777215
370
     9
100
AcDb2dPolyline
 66
     1
 10
0.0
 20
0.0
 30
0.0
  0
VERTEX
  5
76
330
75
100
AcDbEntity
  8
_U+30EC_U+30A4_U+30E4_U+30FC 1
 62
     7
420
 16777215
370
     9
100
AcDbVertex
100
AcDb2dVertex
 10
106.1344264589519
 20
-133.8488630220933
 30
0.0
  0
VERTEX
  5
77
330
75
100
AcDbEntity
  8
_U+30EC_U+30A4_U+30E4_U+30FC 1
 62
     7
420
 16777215
370
     9
100
AcDbVertex
100
AcDb2dVertex
 10
106.1344264589519
 20
-132.8490908001208
 30
0.0
  0
SEQEND
  5
78
330
75
100
AcDbEntity
  8
_U+30EC_U+30A4_U+30E4_U+30FC 1
 62
     7
420
 16777215
370
     9
  0
POLYLINE
  5
79
330
1F
100
AcDbEntity
  8
_U+30EC_U+30A4_U+30E4_U+30FC 1
 62
     7
420
 16777215
370
     9
100
AcDb2dPolyline
 66
     1
 10
0.0
 20
0.0
 30
0.0
  0
VERTEX
  5
7A
330
79
100
AcDbEntity
  8
_U+30EC_U+30A4_U+30E4_U+30FC 1
 62
     7
420
 16777215
370
     9
100
AcDbVertex
100
AcDb2dVertex
 10
104.8487305293436
 20
-132.8490908001208
 30
0.0
  0
VERTEX
  5
7B
330
79
100
AcDbEntity
  8
_U+30EC_U+30A4_U+30E4_U+30FC 1
 62
     7
420
 16777215
370
     9
100
AcDbVertex
100
AcDb2dVertex
 10
107.3085061512208
 20
-132.8490908001208
 30
0.0
  0
SEQEND
  5
7C
330
79
100
AcDbEntity
  8
_U+30EC_U+30A4_U+30E4_U+30FC 1
 62
     7
420
 16777215
370
     9
  0
POLYLINE
  5
7D
330
1F
100
AcDbEntity
  8
_U+30EC_U+30A4_U+30E4_U+30FC 1
 62
     7
420
 16777215
370
     9
100
AcDb2dPolyline
 66
     1
 10
0.0
 20
0.0
 30
0.0
  0
VERTEX
  5
7E
330
7D
100
AcDbEntity
  8
_U+30EC_U+30A4_U+30E4_U+30FC 1
 62
     7
420
 16777215
370
     9
100
AcDbVertex
100
AcDb2dVertex
 10
104.8487305293436
 20
-133.8488630220933
 30
0.0
  0
VERTEX
  5
7F
330
7D
100
AcDbEntity
  8
_U+30EC_U+30A4_U+30E4_U+30FC 1
 62
     7
420
 16777215
370
     9
100
AcDbVertex
100
AcDb2dVertex
 10
107.3085061512208
 20
-133.8488630220933
 30
0.0
  0
SEQEND
  5
80
330
7D
100
AcDbEntity
  8
_U+30EC_U+30A4_U+30E4_U+30FC 1
 62
     7
420
 16777215
370
     9
  0
SPLINE
  5
81
330
1F
100
AcDbEntity
  8
_U+30EC_U+30A4_U+30E4_U+30FC 1
 62
     7
420
 16777215
370
     9
100
AcDbSpline
210
0.0
220
0.0
230
1.0
 70
    11
 71
     3
 72
    17
 73
    13
 74
     0
 42
0.0000000001
 43
0.0000000001
 12
1.0
 22
0.0
 32
0.0
 13
1.0
 23
0.0
 33
0.0
 40
0.0
 40
0.0
 40
0.0
 40
0.0
 40
1.0
 40
1.0
 40
1.0
 40
2.0
 40
2.0
 40
2.0
 40
3.0
 40
3.0
 40
3.0
 40
4.0
 40
4.0
 40
4.0
 40
4.0
 10
106.2350386786073
 20
-122.8450538581777
 30
0.0
 10
106.2350386786073
 20
-122.7895619137472
 30
0.0
 10
106.1902359019725
 20
-122.745147191536
 30
0.0
 10
106.1351320144894
 20
-122.745147191536
 30
0.0
 10
106.0799928492295
 20
-122.745147191536
 30
0.0
 10
106.0352253503716
 20
-122.7895619137472
 30
0.0
 10
106.0352253503716
 20
-122.8450538581777
 30
0.0
 10
106.0352253503716
 20
-122.9001577470526
 30
0.0
 10
106.0799928492295
 20
-122.9449605248193
 30
0.0
 10
106.1351320144894
 20
-122.9449605248193
 30
0.0
 10
106.1902359019725
 20
-122.9449605248193
 30
0.0
 10
106.2350386786073
 20
-122.9001577470526
 30
0.0
 10
106.2350386786073
 20
-122.8450538581777
 30
0.0
  0
POLYLINE
  5
82
330
1F
100
AcDbEntity
  8
_U+30EC_U+30A4_U+30E4_U+30FC 1
 62
     7
420
 16777215
370
     9
100
AcDb2dPolyline
 66
     1
 10
0.0
 20
0.0
 30
0.0
  0
VERTEX
  5
83
330
82
100
AcDbEntity
  8
_U+30EC_U+30A4_U+30E4_U+30FC 1
 62
     7
420
 16777215
370
     9
100
AcDbVertex
100
AcDb2dVertex
 10
94.97955813242515
 20
-122.8450538581777
 30
0.0
  0
VERTEX
  5
84
330
82
100
AcDbEntity
  8
_U+30EC_U+30A4_U+30E4_U+30FC 1
 62
     7
420
 16777215
370
     9
100
AcDbVertex
100
AcDb2dVertex
 10
107.3085061512208
 20
-122.8450538581777
 30
0.0
  0
SEQEND
  5
85
330
82
100
AcDbEntity
  8
_U+30EC_U+30A4_U+30E4_U+30FC 1
 62
     7
420
 16777215
370
     9
  0
INSERT
  5
87
330
1F
100
AcDbEntity
  8
_U+30EC_U+30A4_U+30E4_U+30FC 1
100
AcDbBlockReference
  2
block 5
 10
0.0
 20
0.0
 30
0.0
  0
SPLINE
  5
8F
330
1F
100
AcDbEntity
  8
_U+30EC_U+30A4_U+30E4_U+30FC 1
 62
     7
420
 16777215
370
     9
100
AcDbSpline
210
0.0
220
0.0
230
1.0
 70
    11
 71
     3
 72
    17
 73
    13
 74
     0
 42
0.0000000001
 43
0.0000000001
 12
1.0
 22
0.0
 32
0.0
 13
1.0
 23
0.0
 33
0.0
 40
0.0
 40
0.0
 40
0.0
 40
0.0
 40
1.0
 40
1.0
 40
1.0
 40
2.0
 40
2.0
 40
2.0
 40
3.0
 40
3.0
 40
3.0
 40
4.0
 40
4.0
 40
4.0
 40
4.0
 10
102.7637407116119
 20
-137.7500913544515
 30
0.0
 10
102.7637407116119
 20
-137.8051952433264
 30
0.0
 10
102.718973212754
 20
-137.8499980210931
 30
0.0
 10
102.663834047494
 20
-137.8499980210931
 30
0.0
 10
102.608730160011
 20
-137.8499980210931
 30
0.0
 10
102.5639273833762
 20
-137.8051952433264
 30
0.0
 10
102.5639273833762
 20
-137.7500913544515
 30
0.0
 10
102.5639273833762
 20
-137.6949521877984
 30
0.0
 10
102.608730160011
 20
-137.6501846878098
 30
0.0
 10
102.663834047494
 20
-137.6501846878098
 30
0.0
 10
102.718973212754
 20
-137.6501846878098
 30
0.0
 10
102.7637407116119
 20
-137.6949521877984
 30
0.0
 10
102.7637407116119
 20
-137.7500913544515
 30
0.0
  0
SPLINE
  5
90
330
1F
100
AcDbEntity
  8
_U+30EC_U+30A4_U+30E4_U+30FC 1
 62
     7
420
 16777215
370
     9
100
AcDbSpline
210
0.0
220
0.0
230
1.0
 70
    11
 71
     3
 72
    17
 73
    13
 74
     0
 42
0.0000000001
 43
0.0000000001
 12
1.0
 22
0.0
 32
0.0
 13
1.0
 23
0.0
 33
0.0
 40
0.0
 40
0.0
 40
0.0
 40
0.0
 40
1.0
 40
1.0
 40
1.0
 40
2.0
 40
2.0
 40
2.0
 40
3.0
 40
3.0
 40
3.0
 40
4.0
 40
4.0
 40
4.0
 40
4.0
 10
72.760943977047
 20
-137.7500913544515
 30
0.0
 10
72.760943977047
 20
-137.8051952433264
 30
0.0
 10
72.71614120041224
 20
-137.8499980210931
 30
0.0
 10
72.66103731292917
 20
-137.8499980210931
 30
0.0
 10
72.6058999818485
 20
-137.8499980210931
 30
0.0
 10
72.56113064881133
 20
-137.8051952433264
 30
0.0
 10
72.56113064881133
 20
-137.7500913544515
 30
0.0
 10
72.56113064881133
 20
-137.6949521877984
 30
0.0
 10
72.6058999818485
 20
-137.6501846878098
 30
0.0
 10
72.66103731292917
 20
-137.6501846878098
 30
0.0
 10
72.71614120041224
 20
-137.6501846878098
 30
0.0
 10
72.760943977047
 20
-137.6949521877984
 30
0.0
 10
72.760943977047
 20
-137.7500913544515
 30
0.0
  0
POLYLINE
  5
91
330
1F
100
AcDbEntity
  8
_U+30EC_U+30A4_U+30E4_U+30FC 1
 62
     7
420
 16777215
370
     9
100
AcDb2dPolyline
 66
     1
 10
0.0
 20
0.0
 30
0.0
  0
VERTEX
  5
92
330
91
100
AcDbEntity
  8
_U+30EC_U+30A4_U+30E4_U+30FC 1
 62
     7
420
 16777215
370
     9
100
AcDbVertex
100
AcDb2dVertex
 10
102.6624582141958
 20
-137.7500913544515
 30
0.0
  0
VERTEX
  5
93
330
91
100
AcDbEntity
  8
_U+30EC_U+30A4_U+30E4_U+30FC 1
 62
     7
420
 16777215
370
     9
100
AcDbVertex
100
AcDb2dVertex
 10
72.66241314622741
 20
-137.7500913544515
 30
0.0
  0
SEQEND
  5
94
330
91
100
AcDbEntity
  8
_U+30EC_U+30A4_U+30E4_U+30FC 1
 62
     7
420
 16777215
370
     9
  0
POLYLINE
  5
95
330
1F
100
AcDbEntity
  8
_U+30EC_U+30A4_U+30E4_U+30FC 1
 62
     7
420
 16777215
370
    25
100
AcDb2dPolyline
 66
     1
 10
0.0
 20
0.0
 30
0.0
  0
VERTEX
  5
96
330
95
100
AcDbEntity
  8
_U+30EC_U+30A4_U+30E4_U+30FC 1
 62
     7
420
 16777215
370
    25
100
AcDbVertex
100
AcDb2dVertex
 10
93.6645789993064
 20
-132.8490908001208
 30
0.0
  0
VERTEX
  5
97
330
95
100
AcDbEntity
  8
_U+30EC_U+30A4_U+30E4_U+30FC 1
 62
     7
420
 16777215
370
    25
100
AcDbVertex
100
AcDb2dVertex
 10
93.6645789993064
 20
-122.8450538581777
 30
0.0
  0
VERTEX
  5
98
330
95
100
AcDbEntity
  8
_U+30EC_U+30A4_U+30E4_U+30FC 1
 62
     7
420
 16777215
370
    25
100
AcDbVertex
100
AcDb2dVertex
 10
92.66480680259049
 20
-122.8450538581777
 30
0.0
  0
VERTEX
  5
99
330
95
100
AcDbEntity
  8
_U+30EC_U+30A4_U+30E4_U+30FC 1
 62
     7
420
 16777215
370
    25
100
AcDbVertex
100
AcDb2dVertex
 10
92.66480680259049
 20
-132.8490908001208
 30
0.0
  0
VERTEX
  5
9A
330
95
100
AcDbEntity
  8
_U+30EC_U+30A4_U+30E4_U+30FC 1
 62
     7
420
 16777215
370
    25
100
AcDbVertex
100
AcDb2dVertex
 10
82.65851233565012
 20
-132.8490908001208
 30
0.0
  0
VERTEX
  5
9B
330
95
100
AcDbEntity
  8
_U+30EC_U+30A4_U+30E4_U+30FC 1
 62
     7
420
 16777215
370
    25
100
AcDbVertex
100
AcDb2dVertex
 10
82.65851233565012
 20
-122.8450538581777
 30
0.0
  0
VERTEX
  5
9C
330
95
100
AcDbEntity
  8
_U+30EC_U+30A4_U+30E4_U+30FC 1
 62
     7
420
 16777215
370
    25
100
AcDbVertex
100
AcDb2dVertex
 10
81.6584226389423
 20
-122.8450538581777
 30
0.0
  0
VERTEX
  5
9D
330
95
100
AcDbEntity
  8
_U+30EC_U+30A4_U+30E4_U+30FC 1
 62
     7
420
 16777215
370
    25
100
AcDbVertex
100
AcDb2dVertex
 10
81.6584226389423
 20
-132.8490908001208
 30
0.0
  0
VERTEX
  5
9E
330
95
100
AcDbEntity
  8
_U+30EC_U+30A4_U+30E4_U+30FC 1
 62
     7
420
 16777215
370
    25
100
AcDbVertex
100
AcDb2dVertex
 10
72.66446109294502
 20
-132.8490908001208
 30
0.0
  0
VERTEX
  5
9F
330
95
100
AcDbEntity
  8
_U+30EC_U+30A4_U+30E4_U+30FC 1
 62
     7
420
 16777215
370
    25
100
AcDbVertex
100
AcDb2dVertex
 10
72.66446109294502
 20
-133.8495332998707
 30
0.0
  0
VERTEX
  5
A0
330
95
100
AcDbEntity
  8
_U+30EC_U+30A4_U+30E4_U+30FC 1
 62
     7
420
 16777215
370
    25
100
AcDbVertex
100
AcDb2dVertex
 10
102.6645396030316
 20
-133.8495332998707
 30
0.0
  0
VERTEX
  5
A1
330
95
100
AcDbEntity
  8
_U+30EC_U+30A4_U+30E4_U+30FC 1
 62
     7
420
 16777215
370
    25
100
AcDbVertex
100
AcDb2dVertex
 10
102.6645396030316
 20
-132.8490908001208
 30
0.0
  0
VERTEX
  5
A2
330
95
100
AcDbEntity
  8
_U+30EC_U+30A4_U+30E4_U+30FC 1
 62
     7
420
 16777215
370
    25
100
AcDbVertex
100
AcDb2dVertex
 10
93.6645789993064
 20
-132.8490908001208
 30
0.0
  0
SEQEND
  5
A3
330
95
100
AcDbEntity
  8
_U+30EC_U+30A4_U+30E4_U+30FC 1
 62
     7
420
 16777215
370
    25
  0
ENDSEC
  0
SECTION
  2
OBJECTS
  0
DICTIONARY
  5
C
330
0
100
AcDbDictionary
281
     1
  3
ACAD_GROUP
350
D
  3
ACAD_LAYOUT
350
1A
  3
ACAD_MATERIAL
350
3B
  3
ACAD_MLEADERSTYLE
350
A5
  3
ACAD_MLINESTYLE
350
17
  3
ACAD_PLOTSETTINGS
350
19
  3
ACAD_PLOTSTYLENAME
350
E
  3
ACAD_TABLESTYLE
350
A4
  3
ACAD_VISUALSTYLE
350
2A
  0
SUN
  5
3F
330
29
100
AcDbSun
 90
        1
290
     0
 63
     7
421
 16777215
 40
1.0
291
     1
 91
  2455826
 92
 54000000
292
     0
 70
     2
 71
   256
280
     1
  0
DICTIONARY
  5
D
102
{ACAD_REACTORS
330
C
102
}
330
C
100
AcDbDictionary
281
     1
  0
DICTIONARY
  5
1A
102
{ACAD_REACTORS
330
C
102
}
330
C
100
AcDbDictionary
281
     1
  3
Layout1
350
1E
  3
Layout2
350
26
  3
Model
350
22
  0
DICTIONARY
  5
3B
102
{ACAD_REACTORS
330
C
102
}
330
C
100
AcDbDictionary
281
     1
  3
ByBlock
350
3D
  3
ByLayer
350
3C
  3
Global
350
3E
  0
DICTIONARY
  5
A5
102
{ACAD_REACTORS
330
C
102
}
330
C
100
AcDbDictionary
281
     1
  0
DICTIONARY
  5
17
102
{ACAD_REACTORS
330
C
102
}
330
C
100
AcDbDictionary
281
     1
  3
Standard
350
18
  0
DICTIONARY
  5
19
102
{ACAD_REACTORS
330
C
102
}
330
C
100
AcDbDictionary
281
     1
  0
ACDBDICTIONARYWDFLT
  5
E
102
{ACAD_REACTORS
330
C
102
}
330
C
100
AcDbDictionary
281
     1
  3
Normal
350
F
100
AcDbDictionaryWithDefault
340
F
  0
DICTIONARY
  5
A4
102
{ACAD_REACTORS
330
C
102
}
330
C
100
AcDbDictionary
281
     1
  0
DICTIONARY
  5
2A
102
{ACAD_REACTORS
330
C
102
}
330
C
100
AcDbDictionary
281
     1
  3
2dWireframe
350
2F
  3
3D Hidden
350
31
  3
3dWireframe
350
30
  3
Basic
350
32
  3
Brighten
350
36
  3
ColorChange
350
3A
  3
Conceptual
350
34
  3
Dim
350
35
  3
Facepattern
350
39
  3
Flat
350
2B
  3
FlatWithEdges
350
2C
  3
Gouraud
350
2D
  3
GouraudWithEdges
350
2E
  3
Linepattern
350
38
  3
Realistic
350
33
  3
Thicken
350
37
  0
LAYOUT
  5
1E
102
{ACAD_REACTORS
330
1A
102
}
330
1A
100
AcDbPlotSettings
  1

  2
none_device
  4

  6

 40
0.0
 41
0.0
 42
0.0
 43
0.0
 44
0.0
 45
0.0
 46
0.0
 47
0.0
 48
0.0
 49
0.0
140
0.0
141
0.0
142
1.0
143
1.0
 70
   688
 72
     0
 73
     0
 74
     5
  7

 75
    16
 76
     0
 77
     2
 78
   300
147
1.0
148
0.0
149
0.0
100
AcDbLayout
  1
Layout1
 70
     1
 71
     1
 10
0.0
 20
0.0
 11
12.0
 21
9.0
 12
0.0
 22
0.0
 32
0.0
 14
1.000000000000000E+20
 24
1.000000000000000E+20
 34
1.000000000000000E+20
 15
-1.000000000000000E+20
 25
-1.000000000000000E+20
 35
-1.000000000000000E+20
146
0.0
 13
0.0
 23
0.0
 33
0.0
 16
1.0
 26
0.0
 36
0.0
 17
0.0
 27
1.0
 37
0.0
 76
     0
330
1B
  0
LAYOUT
  5
26
102
{ACAD_REACTORS
330
1A
102
}
330
1A
100
AcDbPlotSettings
  1

  2
none_device
  4

  6

 40
0.0
 41
0.0
 42
0.0
 43
0.0
 44
0.0
 45
0.0
 46
0.0
 47
0.0
 48
0.0
 49
0.0
140
0.0
141
0.0
142
1.0
143
1.0
 70
   688
 72
     0
 73
     0
 74
     5
  7

 75
    16
 76
     0
 77
     2
 78
   300
147
1.0
148
0.0
149
0.0
100
AcDbLayout
  1
Layout2
 70
     1
 71
     2
 10
0.0
 20
0.0
 11
0.0
 21
0.0
 12
0.0
 22
0.0
 32
0.0
 14
0.0
 24
0.0
 34
0.0
 15
0.0
 25
0.0
 35
0.0
146
0.0
 13
0.0
 23
0.0
 33
0.0
 16
1.0
 26
0.0
 36
0.0
 17
0.0
 27
1.0
 37
0.0
 76
     0
330
23
  0
LAYOUT
  5
22
102
{ACAD_REACTORS
330
1A
102
}
330
1A
100
AcDbPlotSettings
  1

  2
none_device
  4

  6

 40
0.0
 41
0.0
 42
0.0
 43
0.0
 44
0.0
 45
0.0
 46
0.0
 47
0.0
 48
0.0
 49
0.0
140
0.0
141
0.0
142
1.0
143
1.0
 70
  1712
 72
     0
 73
     0
 74
     0
  7

 75
     0
 76
     0
 77
     2
 78
   300
147
1.0
148
0.0
149
0.0
100
AcDbLayout
  1
Model
 70
     1
 71
     0
 10
0.0
 20
0.0
 11
12.0
 21
9.0
 12
0.0
 22
0.0
 32
0.0
 14
1.000000000000000E+20
 24
1.000000000000000E+20
 34
1.000000000000000E+20
 15
-1.000000000000000E+20
 25
-1.000000000000000E+20
 35
-1.000000000000000E+20
146
0.0
 13
0.0
 23
0.0
 33
0.0
 16
1.0
 26
0.0
 36
0.0
 17
0.0
 27
1.0
 37
0.0
 76
     0
330
1F
331
29
  0
MATERIAL
  5
3D
102
{ACAD_REACTORS
330
3B
102
}
330
3B
100
AcDbMaterial
  1
ByBlock
 72
     1
 94
      127
  0
MATERIAL
  5
3C
102
{ACAD_REACTORS
330
3B
102
}
330
3B
100
AcDbMaterial
  1
ByLayer
 72
     1
 94
      127
  0
MATERIAL
  5
3E
102
{ACAD_REACTORS
330
3B
102
}
330
3B
100
AcDbMaterial
  1
Global
 72
     1
 94
      127
  0
MLINESTYLE
  5
18
102
{ACAD_REACTORS
330
17
102
}
330
17
100
AcDbMlineStyle
  2
Standard
 70
     0
  3

 62
   256
 51
90.0
 52
90.0
 71
     2
 49
0.5
 62
   256
  6
BYLAYER
 49
-0.5
 62
   256
  6
BYLAYER
  0
ACDBPLACEHOLDER
  5
F
102
{ACAD_REACTORS
330
E
102
}
330
E
  0
VISUALSTYLE
  5
2F
102
{ACAD_REACTORS
330
2A
102
}
330
2A
100
AcDbVisualStyle
  2
2dWireframe
 70
     4
177
     2
291
     0
 71
     0
176
     1
 72
     2
176
     1
 73
     0
176
     1
 90
        0
176
     1
 40
-0.6
176
     1
 41
-30.0
176
     1
 62
     5
 63
     7
421
 16777215
176
     1
 74
     1
176
     1
 91
        4
176
     1
 64
     7
176
     1
 65
   257
176
     1
 75
     1
176
     1
175
     1
176
     1
 42
1.0
176
     1
 92
        0
176
     1
 66
   257
176
     1
 43
1.0
176
     1
 76
     1
176
     1
 77
     6
176
     1
 78
     2
176
     1
 67
     7
176
     1
 79
     5
176
     1
170
     0
176
     1
171
     0
176
     1
290
     0
176
     1
 93
        1
176
     1
 44
0.0
176
     1
173
     0
176
     1
  0
VISUALSTYLE
  5
31
102
{ACAD_REACTORS
330
2A
102
}
330
2A
100
AcDbVisualStyle
  2
3D Hidden
 70
     6
177
     2
291
     0
 71
     1
176
     1
 72
     2
176
     1
 73
     2
176
     1
 90
        0
176
     1
 40
-0.6
176
     1
 41
-30.0
176
     1
 62
     5
 63
     7
421
 16777215
176
     1
 74
     2
176
     1
 91
        2
176
     1
 64
     7
176
     1
 65
   257
176
     1
 75
     2
176
     1
175
     1
176
     1
 42
40.0
176
     1
 92
        0
176
     1
 66
   257
176
     1
 43
1.0
176
     1
 76
     1
176
     1
 77
     6
176
     1
 78
     2
176
     1
 67
     7
176
     1
 79
     3
176
     1
170
     0
176
     1
171
     0
176
     1
290
     0
176
     1
 93
        1
176
     1
 44
0.0
176
     1
173
     0
176
     1
  0
VISUALSTYLE
  5
30
102
{ACAD_REACTORS
330
2A
102
}
330
2A
100
AcDbVisualStyle
  2
3dWireframe
 70
     5
177
     2
291
     0
 71
     0
176
     1
 72
     2
176
     1
 73
     0
176
     1
 90
        0
176
     1
 40
-0.6
176
     1
 41
-30.0
176
     1
 62
     5
 63
     7
421
 16777215
176
     1
 74
     1
176
     1
 91
        4
176
     1
 64
     7
176
     1
 65
   257
176
     1
 75
     1
176
     1
175
     1
176
     1
 42
1.0
176
     1
 92
        0
176
     1
 66
   257
176
     1
 43
1.0
176
     1
 76
     1
176
     1
 77
     6
176
     1
 78
     2
176
     1
 67
     7
176
     1
 79
     5
176
     1
170
     0
176
     1
171
     0
176
     1
290
     0
176
     1
 93
        1
176
     1
 44
0.0
176
     1
173
     0
176
     1
  0
VISUALSTYLE
  5
32
102
{ACAD_REACTORS
330
2A
102
}
330
2A
100
AcDbVisualStyle
  2
Basic
 70
     7
177
     2
291
     1
 71
     1
176
     1
 72
     0
176
     1
 73
     1
176
     1
 90
        0
176
     1
 40
-0.6
176
     1
 41
-30.0
176
     1
 62
     5
 63
     7
421
 16777215
176
     1
 74
     0
176
     1
 91
        4
176
     1
 64
     7
176
     1
 65
   257
176
     1
 75
     1
176
     1
175
     1
176
     1
 42
1.0
176
     1
 92
        8
176
     1
 66
     7
176
     1
 43
1.0
176
     1
 76
     1
176
     1
 77
     6
176
     1
 78
     2
176
     1
 67
     7
176
     1
 79
     5
176
     1
170
     0
176
     1
171
     0
176
     1
290
     0
176
     1
 93
        1
176
     1
 44
0.0
176
     1
173
     0
176
     1
  0
VISUALSTYLE
  5
36
102
{ACAD_REACTORS
330
2A
102
}
330
2A
100
AcDbVisualStyle
  2
Brighten
 70
    12
177
     2
291
     1
 71
     2
176
     1
 72
     2
176
     1
 73
     0
176
     1
 90
        0
176
     1
 40
-0.6
176
     1
 41
-30.0
176
     1
 62
     5
 63
     7
421
 16777215
176
     1
 74
     1
176
     1
 91
        4
176
     1
 64
     7
176
     1
 65
   257
176
     1
 75
     1
176
     1
175
     1
176
     1
 42
1.0
176
     1
 92
        8
176
     1
 66
     7
176
     1
 43
1.0
176
     1
 76
     1
176
     1
 77
     6
176
     1
 78
     2
176
     1
 67
     7
176
     1
 79
     5
176
     1
170
     0
176
     1
171
     0
176
     1
290
     0
176
     1
 93
        1
176
     1
 44
50.0
176
     1
173
     0
176
     1
  0
VISUALSTYLE
  5
3A
102
{ACAD_REACTORS
330
2A
102
}
330
2A
100
AcDbVisualStyle
  2
ColorChange
 70
    16
177
     2
291
     1
 71
     2
176
     1
 72
     2
176
     1
 73
     3
176
     1
 90
        0
176
     1
 40
-0.6
176
     1
 41
-30.0
176
     1
 62
     5
 63
     8
421
  8421504
176
     1
 74
     1
176
     1
 91
        4
176
     1
 64
     7
176
     1
 65
   257
176
     1
 75
     1
176
     1
175
     1
176
     1
 42
1.0
176
     1
 92
        8
176
     1
 66
     8
424
  8421504
176
     1
 43
1.0
176
     1
 76
     1
176
     1
 77
     6
176
     1
 78
     2
176
     1
 67
     7
176
     1
 79
     5
176
     1
170
     0
176
     1
171
     0
176
     1
290
     0
176
     1
 93
        1
176
     1
 44
0.0
176
     1
173
     0
176
     1
  0
VISUALSTYLE
  5
34
102
{ACAD_REACTORS
330
2A
102
}
330
2A
100
AcDbVisualStyle
  2
Conceptual
 70
     9
177
     2
291
     0
 71
     3
176
     1
 72
     2
176
     1
 73
     0
176
     1
 90
        0
176
     1
 40
-0.6
176
     1
 41
-30.0
176
     1
 62
     5
 63
     7
421
 16777215
176
     1
 74
     2
176
     1
 91
        2
176
     1
 64
     7
176
     1
 65
   257
176
     1
 75
     1
176
     1
175
     1
176
     1
 42
40.0
176
     1
 92
        8
176
     1
 66
     7
176
     1
 43
1.0
176
     1
 76
     1
176
     1
 77
     6
176
     1
 78
     2
176
     1
 67
     7
176
     1
 79
     3
176
     1
170
     0
176
     1
171
     0
176
     1
290
     0
176
     1
 93
        1
176
     1
 44
0.0
176
     1
173
     0
176
     1
  0
VISUALSTYLE
  5
35
102
{ACAD_REACTORS
330
2A
102
}
330
2A
100
AcDbVisualStyle
  2
Dim
 70
    11
177
     2
291
     1
 71
     2
176
     1
 72
     2
176
     1
 73
     0
176
     1
 90
        0
176
     1
 40
-0.6
176
     1
 41
-30.0
176
     1
 62
     5
 63
     7
421
 16777215
176
     1
 74
     1
176
     1
 91
        4
176
     1
 64
     7
176
     1
 65
   257
176
     1
 75
     1
176
     1
175
     1
176
     1
 42
1.0
176
     1
 92
        8
176
     1
 66
     7
176
     1
 43
1.0
176
     1
 76
     1
176
     1
 77
     6
176
     1
 78
     2
176
     1
 67
     7
176
     1
 79
     5
176
     1
170
     0
176
     1
171
     0
176
     1
290
     0
176
     1
 93
        1
176
     1
 44
-50.0
176
     1
173
     0
176
     1
  0
VISUALSTYLE
  5
39
102
{ACAD_REACTORS
330
2A
102
}
330
2A
100
AcDbVisualStyle
  2
Facepattern
 70
    15
177
     2
291
     1
 71
     2
176
     1
 72
     2
176
     1
 73
     0
176
     1
 90
        0
176
     1
 40
-0.6
176
     1
 41
-30.0
176
     1
 62
     5
 63
     7
421
 16777215
176
     1
 74
     1
176
     1
 91
        4
176
     1
 64
     7
176
     1
 65
   257
176
     1
 75
     1
176
     1
175
     1
176
     1
 42
1.0
176
     1
 92
        8
176
     1
 66
     7
176
     1
 43
1.0
176
     1
 76
     1
176
     1
 77
     6
176
     1
 78
     2
176
     1
 67
     7
176
     1
 79
     5
176
     1
170
     0
176
     1
171
     0
176
     1
290
     0
176
     1
 93
        1
176
     1
 44
0.0
176
     1
173
     0
176
     1
  0
VISUALSTYLE
  5
2B
102
{ACAD_REACTORS
330
2A
102
}
330
2A
100
AcDbVisualStyle
  2
Flat
 70
     0
177
     2
291
     1
 71
     2
176
     1
 72
     1
176
     1
 73
     1
176
     1
 90
        2
176
     1
 40
-0.6
176
     1
 41
30.0
176
     1
 62
     5
 63
     7
421
 16777215
176
     1
 74
     0
176
     1
 91
        4
176
     1
 64
     7
176
     1
 65
   257
176
     1
 75
     1
176
     1
175
     1
176
     1
 42
1.0
176
     1
 92
        8
176
     1
 66
     7
176
     1
 43
1.0
176
     1
 76
     1
176
     1
 77
     6
176
     1
 78
     2
176
     1
 67
     7
176
     1
 79
     5
176
     1
170
     0
176
     1
171
     0
176
     1
290
     0
176
     1
 93
       13
176
     1
 44
0.0
176
     1
173
     0
176
     1
  0
VISUALSTYLE
  5
2C
102
{ACAD_REACTORS
330
2A
102
}
330
2A
100
AcDbVisualStyle
  2
FlatWithEdges
 70
     1
177
     2
291
     1
 71
     2
176
     1
 72
     1
176
     1
 73
     1
176
     1
 90
        2
176
     1
 40
-0.6
176
     1
 41
30.0
176
     1
 62
     5
 63
     7
421
 16777215
176
     1
 74
     1
176
     1
 91
        4
176
     1
 64
     7
176
     1
 65
   257
176
     1
 75
     1
176
     1
175
     1
176
     1
 42
1.0
176
     1
 92
        0
176
     1
 66
   257
176
     1
 43
1.0
176
     1
 76
     1
176
     1
 77
     6
176
     1
 78
     2
176
     1
 67
     7
176
     1
 79
     5
176
     1
170
     0
176
     1
171
     0
176
     1
290
     0
176
     1
 93
       13
176
     1
 44
0.0
176
     1
173
     0
176
     1
  0
VISUALSTYLE
  5
2D
102
{ACAD_REACTORS
330
2A
102
}
330
2A
100
AcDbVisualStyle
  2
Gouraud
 70
     2
177
     2
291
     1
 71
     2
176
     1
 72
     2
176
     1
 73
     1
176
     1
 90
        2
176
     1
 40
-0.6
176
     1
 41
30.0
176
     1
 62
     5
 63
     7
421
 16777215
176
     1
 74
     0
176
     1
 91
        4
176
     1
 64
     7
176
     1
 65
   257
176
     1
 75
     1
176
     1
175
     1
176
     1
 42
1.0
176
     1
 92
        0
176
     1
 66
     7
176
     1
 43
1.0
176
     1
 76
     1
176
     1
 77
     6
176
     1
 78
     2
176
     1
 67
     7
176
     1
 79
     5
176
     1
170
     0
176
     1
171
     0
176
     1
290
     0
176
     1
 93
       13
176
     1
 44
0.0
176
     1
173
     0
176
     1
  0
VISUALSTYLE
  5
2E
102
{ACAD_REACTORS
330
2A
102
}
330
2A
100
AcDbVisualStyle
  2
GouraudWithEdges
 70
     3
177
     2
291
     1
 71
     2
176
     1
 72
     2
176
     1
 73
     1
176
     1
 90
        2
176
     1
 40
-0.6
176
     1
 41
30.0
176
     1
 62
     5
 63
     7
421
 16777215
176
     1
 74
     1
176
     1
 91
        4
176
     1
 64
     7
176
     1
 65
   257
176
     1
 75
     1
176
     1
175
     1
176
     1
 42
1.0
176
     1
 92
        0
176
     1
 66
   257
176
     1
 43
1.0
176
     1
 76
     1
176
     1
 77
     6
176
     1
 78
     2
176
     1
 67
     7
176
     1
 79
     5
176
     1
170
     0
176
     1
171
     0
176
     1
290
     0
176
     1
 93
       13
176
     1
 44
0.0
176
     1
173
     0
176
     1
  0
VISUALSTYLE
  5
38
102
{ACAD_REACTORS
330
2A
102
}
330
2A
100
AcDbVisualStyle
  2
Linepattern
 70
    14
177
     2
291
     1
 71
     2
176
     1
 72
     2
176
     1
 73
     0
176
     1
 90
        0
176
     1
 40
-0.6
176
     1
 41
-30.0
176
     1
 62
     5
 63
     7
421
 16777215
176
     1
 74
     1
176
     1
 91
        4
176
     1
 64
     7
176
     1
 65
   257
176
     1
 75
     7
176
     1
175
     7
176
     1
 42
1.0
176
     1
 92
        8
176
     1
 66
     7
176
     1
 43
1.0
176
     1
 76
     1
176
     1
 77
     6
176
     1
 78
     2
176
     1
 67
     7
176
     1
 79
     5
176
     1
170
     0
176
     1
171
     0
176
     1
290
     0
176
     1
 93
        1
176
     1
 44
0.0
176
     1
173
     0
176
     1
  0
VISUALSTYLE
  5
33
102
{ACAD_REACTORS
330
2A
102
}
330
2A
100
AcDbVisualStyle
  2
Realistic
 70
     8
177
     2
291
     0
 71
     2
176
     1
 72
     2
176
     1
 73
     0
176
     1
 90
        0
176
     1
 40
-0.6
176
     1
 41
-30.0
176
     1
 62
     5
 63
     7
421
 16777215
176
     1
 74
     1
176
     1
 91
        0
176
     1
 64
     7
176
     1
 65
   257
176
     1
 75
     1
176
     1
175
     1
176
     1
 42
1.0
176
     1
 92
        8
176
     1
 66
     8
424
  7895160
176
     1
 43
1.0
176
     1
 76
     1
176
     1
 77
     6
176
     1
 78
     2
176
     1
 67
     7
176
     1
 79
     5
176
     1
170
     0
176
     1
171
     0
176
     1
290
     0
176
     1
 93
       13
176
     1
 44
0.0
176
     1
173
     0
176
     1
  0
VISUALSTYLE
  5
37
102
{ACAD_REACTORS
330
2A
102
}
330
2A
100
AcDbVisualStyle
  2
Thicken
 70
    13
177
     2
291
     1
 71
     2
176
     1
 72
     2
176
     1
 73
     0
176
     1
 90
        0
176
     1
 40
-0.6
176
     1
 41
-30.0
176
     1
 62
     5
 63
     7
421
 16777215
176
     1
 74
     1
176
     1
 91
        4
176
     1
 64
     7
176
     1
 65
   257
176
     1
 75
     1
176
     1
175
     1
176
     1
 42
1.0
176
     1
 92
       12
176
     1
 66
     7
176
     1
 43
1.0
176
     1
 76
     1
176
     1
 77
     6
176
     1
 78
     2
176
     1
 67
     7
176
     1
 79
     5
176
     1
170
     0
176
     1
171
     0
176
     1
290
     0
176
     1
 93
        1
176
     1
 44
0.0
176
     1
173
     0
176
     1
  0
ENDSEC
  0
EOF
