  0
SECTION
  2
HEADER
  9
$ACADVER
  1
AC1024
  9
$ACADMAINTVER
 70
     6
  9
$DWGCODEPAGE
  3
UNDEFINED
  9
$INSBASE
 10
0.0
 20
0.0
 30
0.0
  9
$EXTMIN
 10
1.000000000000000E+20
 20
1.000000000000000E+20
 30
1.000000000000000E+20
  9
$EXTMAX
 10
-1.000000000000000E+20
 20
-1.000000000000000E+20
 30
-1.000000000000000E+20
  9
$LIMMIN
 10
0.0
 20
0.0
  9
$LIMMAX
 10
12.0
 20
9.0
  9
$ORTHOMODE
 70
     0
  9
$REGENMODE
 70
     1
  9
$FILLMODE
 70
     1
  9
$QTEXTMODE
 70
     0
  9
$MIRRTEXT
 70
     1
  9
$LTSCALE
 40
1.0
  9
$ATTMODE
 70
     1
  9
$TEXTSIZE
 40
0.2
  9
$TRACEWID
 40
0.05
  9
$TEXTSTYLE
  7
Standard
  9
$CLAYER
  8
0
  9
$CELTYPE
  6
ByLayer
  9
$CECOLOR
 62
   256
  9
$CELTSCALE
 40
1.0
  9
$DISPSILH
 70
     0
  9
$DIMSCALE
 40
1.0
  9
$DIMASZ
 40
0.18
  9
$DIMEXO
 40
0.0625
  9
$DIMDLI
 40
0.38
  9
$DIMRND
 40
0.0
  9
$DIMDLE
 40
0.0
  9
$DIMEXE
 40
0.18
  9
$DIMTP
 40
0.0
  9
$DIMTM
 40
0.0
  9
$DIMTXT
 40
0.18
  9
$DIMCEN
 40
0.09
  9
$DIMTSZ
 40
0.0
  9
$DIMTOL
 70
     0
  9
$DIMLIM
 70
     0
  9
$DIMTIH
 70
     1
  9
$DIMTOH
 70
     1
  9
$DIMSE1
 70
     0
  9
$DIMSE2
 70
     0
  9
$DIMTAD
 70
     0
  9
$DIMZIN
 70
     0
  9
$DIMBLK
  1

  9
$DIMASO
 70
     1
  9
$DIMSHO
 70
     1
  9
$DIMPOST
  1

  9
$DIMAPOST
  1

  9
$DIMALT
 70
     0
  9
$DIMALTD
 70
     2
  9
$DIMALTF
 40
25.4
  9
$DIMLFAC
 40
1.0
  9
$DIMTOFL
 70
     0
  9
$DIMTVP
 40
0.0
  9
$DIMTIX
 70
     0
  9
$DIMSOXD
 70
     0
  9
$DIMSAH
 70
     0
  9
$DIMBLK1
  1

  9
$DIMBLK2
  1

  9
$DIMSTYLE
  2
Standard
  9
$DIMCLRD
 70
     0
  9
$DIMCLRE
 70
     0
  9
$DIMCLRT
 70
     0
  9
$DIMTFAC
 40
1.0
  9
$DIMGAP
 40
0.09
  9
$DIMJUST
 70
     0
  9
$DIMSD1
 70
     0
  9
$DIMSD2
 70
     0
  9
$DIMTOLJ
 70
     1
  9
$DIMTZIN
 70
     0
  9
$DIMALTZ
 70
     0
  9
$DIMALTTZ
 70
     0
  9
$DIMUPT
 70
     0
  9
$DIMDEC
 70
     4
  9
$DIMTDEC
 70
     4
  9
$DIMALTU
 70
     2
  9
$DIMALTTD
 70
     2
  9
$DIMTXSTY
  7
Standard
  9
$DIMAUNIT
 70
     0
  9
$DIMADEC
 70
     0
  9
$DIMALTRND
 40
0.0
  9
$DIMAZIN
 70
     0
  9
$DIMDSEP
 70
    46
  9
$DIMATFIT
 70
     3
  9
$DIMFRAC
 70
     0
  9
$DIMLDRBLK
  1

  9
$DIMLUNIT
 70
     2
  9
$DIMLWD
 70
    -2
  9
$DIMLWE
 70
    -2
  9
$DIMTMOVE
 70
     0
  9
$DIMFXL
 40
1.0
  9
$DIMFXLON
 70
     0
  9
$DIMJOGANG
 40
0.7853981633974483
  9
$DIMTFILL
 70
     0
  9
$DIMTFILLCLR
 70
     0
  9
$DIMARCSYM
 70
     0
  9
$DIMLTYPE
  6

  9
$DIMLTEX1
  6

  9
$DIMLTEX2
  6

  9
$DIMTXTDIRECTION
 70
     0
  9
$LUNITS
 70
     2
  9
$LUPREC
 70
     4
  9
$SKETCHINC
 40
0.1
  9
$FILLETRAD
 40
0.5
  9
$AUNITS
 70
     0
  9
$AUPREC
 70
     0
  9
$MENU
  1
.
  9
$ELEVATION
 40
0.0
  9
$PELEVATION
 40
0.0
  9
$THICKNESS
 40
0.0
  9
$LIMCHECK
 70
     0
  9
$CHAMFERA
 40
0.5
  9
$CHAMFERB
 40
0.5
  9
$CHAMFERC
 40
1.0
  9
$CHAMFERD
 40
0.0
  9
$SKPOLY
 70
     0
  9
$TDCREATE
 40
2457917.593240729
  9
$TDUCREATE
 40
2457917.218240741
  9
$TDUPDATE
 40
2457917.593240729
  9
$TDUUPDATE
 40
2457917.218240741
  9
$TDINDWG
 40
0.0000000116
  9
$TDUSRTIMER
 40
0.0000000116
  9
$USRTIMER
 70
     1
  9
$ANGBASE
 50
0.0
  9
$ANGDIR
 70
     0
  9
$PDMODE
 70
     0
  9
$PDSIZE
 40
0.0
  9
$PLINEWID
 40
0.0
  9
$SPLFRAME
 70
     0
  9
$SPLINETYPE
 70
     6
  9
$SPLINESEGS
 70
     8
  9
$HANDSEED
  5
AE
  9
$SURFTAB1
 70
     6
  9
$SURFTAB2
 70
     6
  9
$SURFTYPE
 70
     6
  9
$SURFU
 70
     6
  9
$SURFV
 70
     6
  9
$UCSBASE
  2

  9
$UCSNAME
  2

  9
$UCSORG
 10
0.0
 20
0.0
 30
0.0
  9
$UCSXDIR
 10
1.0
 20
0.0
 30
0.0
  9
$UCSYDIR
 10
0.0
 20
1.0
 30
0.0
  9
$UCSORTHOREF
  2

  9
$UCSORTHOVIEW
 70
     0
  9
$UCSORGTOP
 10
0.0
 20
0.0
 30
0.0
  9
$UCSORGBOTTOM
 10
0.0
 20
0.0
 30
0.0
  9
$UCSORGLEFT
 10
0.0
 20
0.0
 30
0.0
  9
$UCSORGRIGHT
 10
0.0
 20
0.0
 30
0.0
  9
$UCSORGFRONT
 10
0.0
 20
0.0
 30
0.0
  9
$UCSORGBACK
 10
0.0
 20
0.0
 30
0.0
  9
$PUCSBASE
  2

  9
$PUCSNAME
  2

  9
$PUCSORG
 10
0.0
 20
0.0
 30
0.0
  9
$PUCSXDIR
 10
1.0
 20
0.0
 30
0.0
  9
$PUCSYDIR
 10
0.0
 20
1.0
 30
0.0
  9
$PUCSORTHOREF
  2

  9
$PUCSORTHOVIEW
 70
     0
  9
$PUCSORGTOP
 10
0.0
 20
0.0
 30
0.0
  9
$PUCSORGBOTTOM
 10
0.0
 20
0.0
 30
0.0
  9
$PUCSORGLEFT
 10
0.0
 20
0.0
 30
0.0
  9
$PUCSORGRIGHT
 10
0.0
 20
0.0
 30
0.0
  9
$PUCSORGFRONT
 10
0.0
 20
0.0
 30
0.0
  9
$PUCSORGBACK
 10
0.0
 20
0.0
 30
0.0
  9
$USERI1
 70
     0
  9
$USERI2
 70
     0
  9
$USERI3
 70
     0
  9
$USERI4
 70
     0
  9
$USERI5
 70
     0
  9
$USERR1
 40
0.0
  9
$USERR2
 40
0.0
  9
$USERR3
 40
0.0
  9
$USERR4
 40
0.0
  9
$USERR5
 40
0.0
  9
$WORLDVIEW
 70
     1
  9
$SHADEDGE
 70
     3
  9
$SHADEDIF
 70
    70
  9
$TILEMODE
 70
     1
  9
$MAXACTVP
 70
    64
  9
$PINSBASE
 10
0.0
 20
0.0
 30
0.0
  9
$PLIMCHECK
 70
     0
  9
$PEXTMIN
 10
1.000000000000000E+20
 20
1.000000000000000E+20
 30
1.000000000000000E+20
  9
$PEXTMAX
 10
-1.000000000000000E+20
 20
-1.000000000000000E+20
 30
-1.000000000000000E+20
  9
$PLIMMIN
 10
0.0
 20
0.0
  9
$PLIMMAX
 10
12.0
 20
9.0
  9
$UNITMODE
 70
     0
  9
$VISRETAIN
 70
     1
  9
$PLINEGEN
 70
     0
  9
$PSLTSCALE
 70
     1
  9
$TREEDEPTH
 70
  3020
  9
$CMLSTYLE
  2
Standard
  9
$CMLJUST
 70
     0
  9
$CMLSCALE
 40
1.0
  9
$PROXYGRAPHICS
 70
     1
  9
$MEASUREMENT
 70
     0
  9
$CELWEIGHT
370
    -1
  9
$ENDCAPS
280
     0
  9
$JOINSTYLE
280
     0
  9
$LWDISPLAY
290
     1
  9
$INSUNITS
 70
     1
  9
$HYPERLINKBASE
  1

  9
$STYLESHEET
  1

  9
$XEDIT
290
     1
  9
$CEPSNTYPE
380
     0
  9
$PSTYLEMODE
290
     1
  9
$FINGERPRINTGUID
  2
{C717D341-6ADC-E560-05C1-2F37C136A750}
  9
$VERSIONGUID
  2
{FAEB1C32-E019-11D5-929B-00C0DF256EC4}
  9
$EXTNAMES
290
     1
  9
$PSVPSCALE
 40
0.0
  9
$OLESTARTUP
290
     0
  9
$SORTENTS
280
   127
  9
$INDEXCTL
280
     0
  9
$HIDETEXT
280
     1
  9
$XCLIPFRAME
280
     2
  9
$HALOGAP
280
     0
  9
$OBSCOLOR
 70
   257
  9
$OBSLTYPE
280
     0
  9
$INTERSECTIONDISPLAY
280
     0
  9
$INTERSECTIONCOLOR
 70
   257
  9
$DIMASSOC
280
     2
  9
$PROJECTNAME
  1

  9
$CAMERADISPLAY
290
     0
  9
$LENSLENGTH
 40
50.0
  9
$CAMERAHEIGHT
 40
0.0
  9
$STEPSPERSEC
 40
2.0
  9
$STEPSIZE
 40
6.0
  9
$3DDWFPREC
 40
2.0
  9
$PSOLWIDTH
 40
0.25
  9
$PSOLHEIGHT
 40
4.0
  9
$LOFTANG1
 40
1.570796326794897
  9
$LOFTANG2
 40
1.570796326794897
  9
$LOFTMAG1
 40
0.0
  9
$LOFTMAG2
 40
0.0
  9
$LOFTPARAM
 70
     7
  9
$LOFTNORMALS
280
     1
  9
$LATITUDE
 40
37.795
  9
$LONGITUDE
 40
-122.394
  9
$NORTHDIRECTION
 40
0.0
  9
$TIMEZONE
 70
 -8000
  9
$LIGHTGLYPHDISPLAY
280
     1
  9
$TILEMODELIGHTSYNCH
280
     1
  9
$CMATERIAL
347
3C
  9
$SOLIDHIST
280
     1
  9
$SHOWHIST
280
     1
  9
$DWFFRAME
280
     2
  9
$DGNFRAME
280
     2
  9
$REALWORLDSCALE
290
     1
  9
$INTERFERECOLOR
 62
   256
  9
$CSHADOW
280
     0
  9
$SHADOWPLANELOCATION
 40
0.0
  0
ENDSEC
  0
SECTION
  2
CLASSES
  0
CLASS
  1
ACDBDICTIONARYWDFLT
  2
AcDbDictionaryWithDefault
  3
ObjectDBX Classes
 90
        0
 91
        4
280
     0
281
     0
  0
CLASS
  1
VISUALSTYLE
  2
AcDbVisualStyle
  3
ObjectDBX Classes
 90
     4095
 91
        4
280
     0
281
     0
  0
CLASS
  1
MATERIAL
  2
AcDbMaterial
  3
ObjectDBX Classes
 90
     1153
 91
        4
280
     0
281
     0
  0
CLASS
  1
SUN
  2
AcDbSun
  3
SCENEOE
 90
     1024
 91
        4
280
     0
281
     0
  0
ENDSEC
  0
SECTION
  2
TABLES
  0
TABLE
  2
VPORT
  5
8
330
0
100
AcDbSymbolTable
 70
     1
  0
VPORT
  5
29
330
8
100
AcDbSymbolTableRecord
100
AcDbViewportTableRecord
  2
*Active
 70
     0
 10
0.0
 20
0.0
 11
1.0
 21
1.0
 12
0.0
 22
0.0
 13
0.0
 23
0.0
 14
0.5
 24
0.5
 15
0.5
 25
0.5
 16
0.0
 26
0.0
 36
1.0
 17
91.00082462281999
 27
-128.4993055234307
 37
0.0
 40
256.9986110468615
 41
0.7081814508812795
 42
50.0
 43
0.0
 44
0.0
 50
0.0
 51
0.0
 71
     0
 72
   100
 73
     1
 74
     3
 75
     0
 76
     0
 77
     0
 78
     0
281
     0
 65
     1
110
0.0
120
0.0
130
0.0
111
1.0
121
0.0
131
0.0
112
0.0
122
1.0
132
0.0
 79
     0
146
0.0
 60
     3
 61
     5
292
     1
282
     1
141
0.0
142
0.0
 63
   250
361
3F
  0
ENDTAB
  0
TABLE
  2
LTYPE
  5
5
330
0
100
AcDbSymbolTable
 70
     1
  0
LTYPE
  5
14
330
5
100
AcDbSymbolTableRecord
100
AcDbLinetypeTableRecord
  2
ByBlock
 70
     0
  3

 72
    65
 73
     0
 40
0.0
  0
LTYPE
  5
15
330
5
100
AcDbSymbolTableRecord
100
AcDbLinetypeTableRecord
  2
ByLayer
 70
     0
  3

 72
    65
 73
     0
 40
0.0
  0
LTYPE
  5
16
330
5
100
AcDbSymbolTableRecord
100
AcDbLinetypeTableRecord
  2
Continuous
 70
     0
  3
Solid line
 72
    65
 73
     0
 40
0.0
  0
ENDTAB
  0
TABLE
  2
LAYER
  5
2
330
0
100
AcDbSymbolTable
 70
     2
  0
LAYER
  5
10
330
2
100
AcDbSymbolTableRecord
100
AcDbLayerTableRecord
  2
0
 70
     0
 62
     7
  6
Continuous
370
    -3
390
F
347
3E
  0
LAYER
  5
40
330
2
100
AcDbSymbolTableRecord
100
AcDbLayerTableRecord
  2
_U+30EC_U+30A4_U+30E4_U+30FC 1
 70
     0
 62
     7
  6
Continuous
370
    -3
390
F
347
3E
  0
ENDTAB
  0
TABLE
  2
STYLE
  5
3
330
0
100
AcDbSymbolTable
 70
     1
  0
STYLE
  5
11
330
3
100
AcDbSymbolTableRecord
100
AcDbTextStyleTableRecord
  2
Standard
 70
     0
 40
0.0
 41
1.0
 50
0.0
 71
     0
 42
0.2
  3
txt
  4

  0
ENDTAB
  0
TABLE
  2
VIEW
  5
6
330
0
100
AcDbSymbolTable
 70
     0
  0
ENDTAB
  0
TABLE
  2
UCS
  5
7
330
0
100
AcDbSymbolTable
 70
     0
  0
ENDTAB
  0
TABLE
  2
APPID
  5
9
330
0
100
AcDbSymbolTable
 70
     1
  0
APPID
  5
12
330
9
100
AcDbSymbolTableRecord
100
AcDbRegAppTableRecord
  2
ACAD
 70
     0
  0
ENDTAB
  0
TABLE
  2
DIMSTYLE
  5
A
330
0
100
AcDbSymbolTable
 70
     1
100
AcDbDimStyleTable
  0
DIMSTYLE
105
27
330
A
100
AcDbSymbolTableRecord
100
AcDbDimStyleTableRecord
  2
Standard
 70
     0
178
     0
340
11
  0
ENDTAB
  0
TABLE
  2
BLOCK_RECORD
  5
1
330
0
100
AcDbSymbolTable
 70
     5
  0
BLOCK_RECORD
  5
1F
330
1
100
AcDbSymbolTableRecord
100
AcDbBlockTableRecord
  2
*Model_Space
340
22
 70
     0
280
     1
281
     0
  0
BLOCK_RECORD
  5
1B
330
1
100
AcDbSymbolTableRecord
100
AcDbBlockTableRecord
  2
*Paper_Space
340
1E
 70
     0
280
     1
281
     0
  0
BLOCK_RECORD
  5
23
330
1
100
AcDbSymbolTableRecord
100
AcDbBlockTableRecord
  2
*Paper_Space0
340
26
 70
     0
280
     1
281
     0
  0
BLOCK_RECORD
  5
41
330
1
100
AcDbSymbolTableRecord
100
AcDbBlockTableRecord
  2
block 2
340
0
102
{BLKREFS
331
42
102
}
 70
     0
280
     1
281
     0
  0
BLOCK_RECORD
  5
52
330
1
100
AcDbSymbolTableRecord
100
AcDbBlockTableRecord
  2
block 3
340
0
102
{BLKREFS
331
53
102
}
 70
     0
280
     1
281
     0
  0
BLOCK_RECORD
  5
6E
330
1
100
AcDbSymbolTableRecord
100
AcDbBlockTableRecord
  2
block 4
340
0
102
{BLKREFS
331
6F
102
}
 70
     0
280
     1
281
     0
  0
BLOCK_RECORD
  5
8E
330
1
100
AcDbSymbolTableRecord
100
AcDbBlockTableRecord
  2
block 5
340
0
102
{BLKREFS
331
8F
102
}
 70
     0
280
     1
281
     0
  0
ENDTAB
  0
ENDSEC
  0
SECTION
  2
BLOCKS
  0
BLOCK
  5
20
330
1F
100
AcDbEntity
  8
0
100
AcDbBlockBegin
  2
*Model_Space
 70
     0
 10
0.0
 20
0.0
 30
0.0
  3
*Model_Space
  1

  0
ENDBLK
  5
21
330
1F
100
AcDbEntity
  8
0
100
AcDbBlockEnd
  0
BLOCK
  5
1C
330
1B
100
AcDbEntity
 67
     1
  8
0
100
AcDbBlockBegin
  2
*Paper_Space
 70
     0
 10
0.0
 20
0.0
 30
0.0
  3
*Paper_Space
  1

  0
ENDBLK
  5
1D
330
1B
100
AcDbEntity
 67
     1
  8
0
100
AcDbBlockEnd
  0
BLOCK
  5
24
330
23
100
AcDbEntity
  8
0
100
AcDbBlockBegin
  2
*Paper_Space0
 70
     0
 10
0.0
 20
0.0
 30
0.0
  3
*Paper_Space0
  1

  0
ENDBLK
  5
25
330
23
100
AcDbEntity
  8
0
100
AcDbBlockEnd
  0
BLOCK
  5
43
330
41
100
AcDbEntity
  8
0
100
AcDbBlockBegin
  2
block 2
 70
     0
 10
0.0
 20
0.0
 30
0.0
  3
block 2
  1

  0
SPLINE
  5
45
330
41
100
AcDbEntity
  8
_U+30EC_U+30A4_U+30E4_U+30FC 1
370
     0
100
AcDbSpline
210
0.0
220
0.0
230
1.0
 70
    11
 71
     3
 72
    32
 73
    28
 74
     0
 42
0.0000000001
 43
0.0000000001
 12
1.0
 22
0.0
 32
0.0
 13
1.0
 23
0.0
 33
0.0
 40
0.0
 40
0.0
 40
0.0
 40
0.0
 40
1.0
 40
1.0
 40
1.0
 40
2.0
 40
2.0
 40
2.0
 40
3.0
 40
3.0
 40
3.0
 40
4.0
 40
4.0
 40
4.0
 40
5.0
 40
5.0
 40
5.0
 40
6.0
 40
6.0
 40
6.0
 40
7.0
 40
7.0
 40
7.0
 40
8.0
 40
8.0
 40
8.0
 40
9.0
 40
9.0
 40
9.0
 40
9.0
 10
108.4864013400659
 20
-128.6918863610562
 30
0.0
 10
108.4864013400659
 20
-129.2079616647466
 30
0.0
 10
107.9324299860377
 20
-129.2165744034598
 30
0.0
 10
107.7184895564037
 20
-129.2165744034598
 30
0.0
 10
107.4880126684405
 20
-129.2165744034598
 30
0.0
 10
106.8406792267621
 20
-129.1972818687424
 30
0.0
 10
106.8406792267621
 20
-128.6536458011699
 30
0.0
 10
106.8406792267621
 20
-128.4803574982619
 30
0.0
 10
106.9106146651126
 20
-128.2347221901636
 30
0.0
 10
107.2427218698907
 20
-128.1968261398258
 30
0.0
 10
107.2427218698907
 20
-128.1968261398258
 30
0.0
 10
107.2427218698907
 20
-128.4104220599113
 30
0.0
 10
107.2427218698907
 20
-128.4104220599113
 30
0.0
 10
107.1855332848356
 20
-128.4211018559156
 30
0.0
 10
107.0373941789698
 20
-128.4527967343799
 30
0.0
 10
107.0373941789698
 20
-128.6557128584611
 30
0.0
 10
107.0373941789698
 20
-128.9478569556103
 30
0.0
 10
107.3653672691656
 20
-128.9878200632392
 30
0.0
 10
107.570350450538
 20
-129.0005669165346
 30
0.0
 10
107.4921467830228
 20
-128.9075493384328
 30
0.0
 10
107.4328911406765
 20
-128.8396809573734
 30
0.0
 10
107.4328911406765
 20
-128.6577799157522
 30
0.0
 10
107.4328911406765
 20
-128.4779459314222
 30
0.0
 10
107.5410671389133
 20
-128.1754665478173
 30
0.0
 10
107.9472438966243
 20
-128.1754665478173
 30
0.0
 10
108.266604248107
 20
-128.1754665478173
 30
0.0
 10
108.4864013400659
 20
-128.3745930668647
 30
0.0
 10
108.4864013400659
 20
-128.6918863610562
 30
0.0
  0
SPLINE
  5
46
330
41
100
AcDbEntity
  8
_U+30EC_U+30A4_U+30E4_U+30FC 1
370
     0
100
AcDbSpline
210
0.0
220
0.0
230
1.0
 70
    11
 71
     3
 72
    17
 73
    13
 74
     0
 42
0.0000000001
 43
0.0000000001
 12
1.0
 22
0.0
 32
0.0
 13
1.0
 23
0.0
 33
0.0
 40
0.0
 40
0.0
 40
0.0
 40
0.0
 40
1.0
 40
1.0
 40
1.0
 40
2.0
 40
2.0
 40
2.0
 40
3.0
 40
3.0
 40
3.0
 40
4.0
 40
4.0
 40
4.0
 40
4.0
 10
107.6275390355931
 20
-128.6750053931785
 30
0.0
 10
107.6275390355931
 20
-128.937177159606
 30
0.0
 10
107.8390678983875
 20
-128.9750732099437
 30
0.0
 10
107.9555121257889
 20
-128.9750732099437
 30
0.0
 10
108.1312119955366
 20
-128.9750732099437
 30
0.0
 10
108.294165011989
 20
-128.8799885745509
 30
0.0
 10
108.294165011989
 20
-128.6960204756385
 30
0.0
 10
108.294165011989
 20
-128.5754421336547
 30
0.0
 10
108.2349093696427
 20
-128.399742263907
 30
0.0
 10
107.9493109539155
 20
-128.399742263907
 30
0.0
 10
107.7250352378257
 20
-128.399742263907
 30
0.0
 10
107.6275390355931
 20
-128.5392686310596
 30
0.0
 10
107.6275390355931
 20
-128.6750053931785
 30
0.0
  0
HATCH
  5
47
330
41
100
AcDbEntity
  8
_U+30EC_U+30A4_U+30E4_U+30FC 1
 62
     7
420
 16777215
100
AcDbHatch
 10
0.0
 20
0.0
 30
0.0
210
0.0
220
0.0
230
1.0
  2
SOLID
 70
     1
 71
     0
 91
        2
 92
        1
 93
        1
 72
     4
 94
        3
 73
     0
 74
     1
 95
       32
 96
       28
 40
0.0
 40
0.0
 40
0.0
 40
0.0
 40
1.0
 40
1.0
 40
1.0
 40
2.0
 40
2.0
 40
2.0
 40
3.0
 40
3.0
 40
3.0
 40
4.0
 40
4.0
 40
4.0
 40
5.0
 40
5.0
 40
5.0
 40
6.0
 40
6.0
 40
6.0
 40
7.0
 40
7.0
 40
7.0
 40
8.0
 40
8.0
 40
8.0
 40
9.0
 40
9.0
 40
9.0
 40
9.0
 10
108.4864013400659
 20
-128.6918863610562
 10
108.4864013400659
 20
-129.2079616647466
 10
107.9324299860377
 20
-129.2165744034598
 10
107.7184895564037
 20
-129.2165744034598
 10
107.4880126684405
 20
-129.2165744034598
 10
106.8406792267621
 20
-129.1972818687424
 10
106.8406792267621
 20
-128.6536458011699
 10
106.8406792267621
 20
-128.4803574982619
 10
106.9106146651126
 20
-128.2347221901636
 10
107.2427218698907
 20
-128.1968261398258
 10
107.2427218698907
 20
-128.1968261398258
 10
107.2427218698907
 20
-128.4104220599113
 10
107.2427218698907
 20
-128.4104220599113
 10
107.1855332848356
 20
-128.4211018559156
 10
107.0373941789698
 20
-128.4527967343799
 10
107.0373941789698
 20
-128.6557128584611
 10
107.0373941789698
 20
-128.9478569556103
 10
107.3653672691656
 20
-128.9878200632392
 10
107.570350450538
 20
-129.0005669165346
 10
107.4921467830228
 20
-128.9075493384328
 10
107.4328911406765
 20
-128.8396809573734
 10
107.4328911406765
 20
-128.6577799157522
 10
107.4328911406765
 20
-128.4779459314222
 10
107.5410671389133
 20
-128.1754665478173
 10
107.9472438966243
 20
-128.1754665478173
 10
108.266604248107
 20
-128.1754665478173
 10
108.4864013400659
 20
-128.3745930668647
 10
108.4864013400659
 20
-128.6918863610562
 97
        0
 97
        0
 92
        1
 93
        1
 72
     4
 94
        3
 73
     0
 74
     1
 95
       17
 96
       13
 40
0.0
 40
0.0
 40
0.0
 40
0.0
 40
1.0
 40
1.0
 40
1.0
 40
2.0
 40
2.0
 40
2.0
 40
3.0
 40
3.0
 40
3.0
 40
4.0
 40
4.0
 40
4.0
 40
4.0
 10
107.6275390355931
 20
-128.6750053931785
 10
107.6275390355931
 20
-128.937177159606
 10
107.8390678983875
 20
-128.9750732099437
 10
107.9555121257889
 20
-128.9750732099437
 10
108.1312119955366
 20
-128.9750732099437
 10
108.294165011989
 20
-128.8799885745509
 10
108.294165011989
 20
-128.6960204756385
 10
108.294165011989
 20
-128.5754421336547
 10
108.2349093696427
 20
-128.399742263907
 10
107.9493109539155
 20
-128.399742263907
 10
107.7250352378257
 20
-128.399742263907
 10
107.6275390355931
 20
-128.5392686310596
 10
107.6275390355931
 20
-128.6750053931785
 97
        0
 97
        0
 75
     2
 76
     1
 98
        0
  0
POLYLINE
  5
48
330
41
100
AcDbEntity
  8
_U+30EC_U+30A4_U+30E4_U+30FC 1
370
     0
100
AcDb2dPolyline
 66
     1
 10
0.0
 20
0.0
 30
0.0
  0
VERTEX
  5
49
330
48
100
AcDbEntity
  8
_U+30EC_U+30A4_U+30E4_U+30FC 1
370
     0
100
AcDbVertex
100
AcDb2dVertex
 10
108.4357584364327
 20
-127.9591145513436
 30
0.0
  0
VERTEX
  5
4A
330
48
100
AcDbEntity
  8
_U+30EC_U+30A4_U+30E4_U+30FC 1
370
     0
100
AcDbVertex
100
AcDb2dVertex
 10
108.183921956461
 20
-127.9591145513436
 30
0.0
  0
VERTEX
  5
4B
330
48
100
AcDbEntity
  8
_U+30EC_U+30A4_U+30E4_U+30FC 1
370
     0
100
AcDbVertex
100
AcDb2dVertex
 10
108.183921956461
 20
-127.7072780713718
 30
0.0
  0
VERTEX
  5
4C
330
48
100
AcDbEntity
  8
_U+30EC_U+30A4_U+30E4_U+30FC 1
370
     0
100
AcDbVertex
100
AcDb2dVertex
 10
108.4357584364327
 20
-127.7072780713718
 30
0.0
  0
VERTEX
  5
4D
330
48
100
AcDbEntity
  8
_U+30EC_U+30A4_U+30E4_U+30FC 1
370
     0
100
AcDbVertex
100
AcDb2dVertex
 10
108.4357584364327
 20
-127.9591145513436
 30
0.0
  0
SEQEND
  5
4E
330
48
100
AcDbEntity
  8
_U+30EC_U+30A4_U+30E4_U+30FC 1
370
     0
  0
HATCH
  5
4F
330
41
100
AcDbEntity
  8
_U+30EC_U+30A4_U+30E4_U+30FC 1
 62
     7
420
 16777215
100
AcDbHatch
 10
0.0
 20
0.0
 30
0.0
210
0.0
220
0.0
230
1.0
  2
SOLID
 70
     1
 71
     0
 91
        1
 92
        1
 93
        4
 72
     1
 10
108.4357584364327
 20
-127.9591145513436
 11
108.183921956461
 21
-127.9591145513436
 72
     1
 10
108.183921956461
 20
-127.9591145513436
 11
108.183921956461
 21
-127.7072780713718
 72
     1
 10
108.183921956461
 20
-127.7072780713718
 11
108.4357584364327
 21
-127.7072780713718
 72
     1
 10
108.4357584364327
 20
-127.7072780713718
 11
108.4357584364327
 21
-127.9591145513436
 97
        0
 75
     2
 76
     1
 98
        0
  0
SPLINE
  5
50
330
41
100
AcDbEntity
  8
_U+30EC_U+30A4_U+30E4_U+30FC 1
370
     0
100
AcDbSpline
210
0.0
220
0.0
230
1.0
 70
    11
 71
     3
 72
    53
 73
    49
 74
     0
 42
0.0000000001
 43
0.0000000001
 12
1.0
 22
0.0
 32
0.0
 13
1.0
 23
0.0
 33
0.0
 40
0.0
 40
0.0
 40
0.0
 40
0.0
 40
1.0
 40
1.0
 40
1.0
 40
2.0
 40
2.0
 40
2.0
 40
3.0
 40
3.0
 40
3.0
 40
4.0
 40
4.0
 40
4.0
 40
5.0
 40
5.0
 40
5.0
 40
6.0
 40
6.0
 40
6.0
 40
7.0
 40
7.0
 40
7.0
 40
8.0
 40
8.0
 40
8.0
 40
9.0
 40
9.0
 40
9.0
 40
10.0
 40
10.0
 40
10.0
 40
11.0
 40
11.0
 40
11.0
 40
12.0
 40
12.0
 40
12.0
 40
13.0
 40
13.0
 40
13.0
 40
14.0
 40
14.0
 40
14.0
 40
15.0
 40
15.0
 40
15.0
 40
16.0
 40
16.0
 40
16.0
 40
16.0
 10
108.4864013400659
 20
-126.9900091913428
 30
0.0
 10
108.4864013400659
 20
-127.0682128588579
 30
0.0
 10
108.4695203721882
 20
-127.1698431756728
 30
0.0
 10
108.4061306152596
 20
-127.2714734924877
 30
0.0
 10
108.2962320692801
 20
-127.4447617953958
 30
0.0
 10
108.1649739312921
 20
-127.4661213874043
 30
0.0
 10
108.0571424426038
 20
-127.4850694125732
 30
0.0
 10
108.0571424426038
 20
-127.4850694125732
 30
0.0
 10
108.0571424426038
 20
-127.2628607537746
 30
0.0
 10
108.0571424426038
 20
-127.2628607537746
 30
0.0
 10
108.2559244521027
 20
-127.2080837355591
 30
0.0
 10
108.2855522732758
 20
-127.0809597121534
 30
0.0
 10
108.2855522732758
 20
-126.9879421340516
 30
0.0
 10
108.2855522732758
 20
-126.848415766899
 30
0.0
 10
108.1859890137521
 20
-126.696142546451
 30
0.0
 10
107.9534450684978
 20
-126.696142546451
 30
0.0
 10
107.6974744739437
 20
-126.696142546451
 30
0.0
 10
107.6275390355931
 20
-126.875976530781
 30
0.0
 10
107.6275390355931
 20
-126.9965548727648
 30
0.0
 10
107.6275390355931
 20
-127.0282497512291
 30
0.0
 10
107.6275390355931
 20
-127.1698431756728
 30
0.0
 10
107.75673011629
 20
-127.2587266391923
 30
0.0
 10
107.75673011629
 20
-127.2587266391923
 30
0.0
 10
107.7377820911211
 20
-127.43442650894
 30
0.0
 10
107.7377820911211
 20
-127.43442650894
 30
0.0
 10
107.7377820911211
 20
-127.43442650894
 30
0.0
 10
106.8913221303952
 20
-127.3138481669563
 30
0.0
 10
106.8913221303952
 20
-127.3138481669563
 30
0.0
 10
106.8913221303952
 20
-127.3138481669563
 30
0.0
 10
106.8913221303952
 20
-126.5352565872898
 30
0.0
 10
106.8913221303952
 20
-126.5352565872898
 30
0.0
 10
106.8913221303952
 20
-126.5352565872898
 30
0.0
 10
107.0859700253119
 20
-126.5352565872898
 30
0.0
 10
107.0859700253119
 20
-126.5352565872898
 30
0.0
 10
107.0859700253119
 20
-126.5352565872898
 30
0.0
 10
107.0859700253119
 20
-127.1508951505039
 30
0.0
 10
107.0859700253119
 20
-127.1508951505039
 30
0.0
 10
107.0859700253119
 20
-127.1508951505039
 30
0.0
 10
107.5090277509005
 20
-127.2163519647237
 30
0.0
 10
107.5090277509005
 20
-127.2163519647237
 30
0.0
 10
107.4752658151451
 20
-127.1550292650862
 30
0.0
 10
107.4349581979677
 20
-127.0726914829888
 30
0.0
 10
107.4349581979677
 20
-126.9541801982962
 30
0.0
 10
107.4349581979677
 20
-126.7002766610333
 30
0.0
 10
107.6213378637197
 20
-126.4632540916481
 30
0.0
 10
107.9344970433289
 20
-126.4632540916481
 30
0.0
 10
108.2517903375204
 20
-126.4632540916481
 30
0.0
 10
108.4864013400659
 20
-126.6875298077378
 30
0.0
 10
108.4864013400659
 20
-126.9900091913428
 30
0.0
  0
HATCH
  5
51
330
41
100
AcDbEntity
  8
_U+30EC_U+30A4_U+30E4_U+30FC 1
 62
     7
420
 16777215
100
AcDbHatch
 10
0.0
 20
0.0
 30
0.0
210
0.0
220
0.0
230
1.0
  2
SOLID
 70
     1
 71
     0
 91
        1
 92
        1
 93
        1
 72
     4
 94
        3
 73
     0
 74
     1
 95
       53
 96
       49
 40
0.0
 40
0.0
 40
0.0
 40
0.0
 40
1.0
 40
1.0
 40
1.0
 40
2.0
 40
2.0
 40
2.0
 40
3.0
 40
3.0
 40
3.0
 40
4.0
 40
4.0
 40
4.0
 40
5.0
 40
5.0
 40
5.0
 40
6.0
 40
6.0
 40
6.0
 40
7.0
 40
7.0
 40
7.0
 40
8.0
 40
8.0
 40
8.0
 40
9.0
 40
9.0
 40
9.0
 40
10.0
 40
10.0
 40
10.0
 40
11.0
 40
11.0
 40
11.0
 40
12.0
 40
12.0
 40
12.0
 40
13.0
 40
13.0
 40
13.0
 40
14.0
 40
14.0
 40
14.0
 40
15.0
 40
15.0
 40
15.0
 40
16.0
 40
16.0
 40
16.0
 40
16.0
 10
108.4864013400659
 20
-126.9900091913428
 10
108.4864013400659
 20
-127.0682128588579
 10
108.4695203721882
 20
-127.1698431756728
 10
108.4061306152596
 20
-127.2714734924877
 10
108.2962320692801
 20
-127.4447617953958
 10
108.1649739312921
 20
-127.4661213874043
 10
108.0571424426038
 20
-127.4850694125732
 10
108.0571424426038
 20
-127.4850694125732
 10
108.0571424426038
 20
-127.2628607537746
 10
108.0571424426038
 20
-127.2628607537746
 10
108.2559244521027
 20
-127.2080837355591
 10
108.2855522732758
 20
-127.0809597121534
 10
108.2855522732758
 20
-126.9879421340516
 10
108.2855522732758
 20
-126.848415766899
 10
108.1859890137521
 20
-126.696142546451
 10
107.9534450684978
 20
-126.696142546451
 10
107.6974744739437
 20
-126.696142546451
 10
107.6275390355931
 20
-126.875976530781
 10
107.6275390355931
 20
-126.9965548727648
 10
107.6275390355931
 20
-127.0282497512291
 10
107.6275390355931
 20
-127.1698431756728
 10
107.75673011629
 20
-127.2587266391923
 10
107.75673011629
 20
-127.2587266391923
 10
107.7377820911211
 20
-127.43442650894
 10
107.7377820911211
 20
-127.43442650894
 10
107.7377820911211
 20
-127.43442650894
 10
106.8913221303952
 20
-127.3138481669563
 10
106.8913221303952
 20
-127.3138481669563
 10
106.8913221303952
 20
-127.3138481669563
 10
106.8913221303952
 20
-126.5352565872898
 10
106.8913221303952
 20
-126.5352565872898
 10
106.8913221303952
 20
-126.5352565872898
 10
107.0859700253119
 20
-126.5352565872898
 10
107.0859700253119
 20
-126.5352565872898
 10
107.0859700253119
 20
-126.5352565872898
 10
107.0859700253119
 20
-127.1508951505039
 10
107.0859700253119
 20
-127.1508951505039
 10
107.0859700253119
 20
-127.1508951505039
 10
107.5090277509005
 20
-127.2163519647237
 10
107.5090277509005
 20
-127.2163519647237
 10
107.4752658151451
 20
-127.1550292650862
 10
107.4349581979677
 20
-127.0726914829888
 10
107.4349581979677
 20
-126.9541801982962
 10
107.4349581979677
 20
-126.7002766610333
 10
107.6213378637197
 20
-126.4632540916481
 10
107.9344970433289
 20
-126.4632540916481
 10
108.2517903375204
 20
-126.4632540916481
 10
108.4864013400659
 20
-126.6875298077378
 10
108.4864013400659
 20
-126.9900091913428
 97
        0
 97
        0
 75
     2
 76
     1
 98
        0
  0
ENDBLK
  5
44
330
41
100
AcDbEntity
  8
0
100
AcDbBlockEnd
  0
BLOCK
  5
54
330
52
100
AcDbEntity
  8
0
100
AcDbBlockBegin
  2
block 3
 70
     0
 10
0.0
 20
0.0
 30
0.0
  3
block 3
  1

  0
SPLINE
  5
56
330
52
100
AcDbEntity
  8
_U+30EC_U+30A4_U+30E4_U+30FC 1
370
     0
100
AcDbSpline
210
0.0
220
0.0
230
1.0
 70
    11
 71
     3
 72
    26
 73
    22
 74
     0
 42
0.0000000001
 43
0.0000000001
 12
1.0
 22
0.0
 32
0.0
 13
1.0
 23
0.0
 33
0.0
 40
0.0
 40
0.0
 40
0.0
 40
0.0
 40
1.0
 40
1.0
 40
1.0
 40
2.0
 40
2.0
 40
2.0
 40
3.0
 40
3.0
 40
3.0
 40
4.0
 40
4.0
 40
4.0
 40
5.0
 40
5.0
 40
5.0
 40
6.0
 40
6.0
 40
6.0
 40
7.0
 40
7.0
 40
7.0
 40
7.0
 10
108.4357584364327
 20
-131.6343424150081
 30
0.0
 10
108.4357584364327
 20
-131.6343424150081
 30
0.0
 10
107.3316053334102
 20
-131.6343424150081
 30
0.0
 10
107.3316053334102
 20
-131.6343424150081
 30
0.0
 10
107.3316053334102
 20
-131.6343424150081
 30
0.0
 10
107.3316053334102
 20
-131.964382562495
 30
0.0
 10
107.3316053334102
 20
-131.964382562495
 30
0.0
 10
107.3316053334102
 20
-131.964382562495
 30
0.0
 10
107.1834662275444
 20
-131.964382562495
 30
0.0
 10
107.1834662275444
 20
-131.964382562495
 30
0.0
 10
107.1686523169578
 20
-131.6322753577169
 30
0.0
 10
107.0056993005055
 20
-131.5857665686661
 30
0.0
 10
106.8913221303952
 20
-131.5561387474929
 30
0.0
 10
106.8913221303952
 20
-131.5561387474929
 30
0.0
 10
106.8913221303952
 20
-131.4100666989183
 30
0.0
 10
106.8913221303952
 20
-131.4100666989183
 30
0.0
 10
106.8913221303952
 20
-131.4100666989183
 30
0.0
 10
108.4357584364327
 20
-131.4100666989183
 30
0.0
 10
108.4357584364327
 20
-131.4100666989183
 30
0.0
 10
108.4357584364327
 20
-131.4100666989183
 30
0.0
 10
108.4357584364327
 20
-131.6343424150081
 30
0.0
 10
108.4357584364327
 20
-131.6343424150081
 30
0.0
  0
HATCH
  5
57
330
52
100
AcDbEntity
  8
_U+30EC_U+30A4_U+30E4_U+30FC 1
 62
     7
420
 16777215
100
AcDbHatch
 10
0.0
 20
0.0
 30
0.0
210
0.0
220
0.0
230
1.0
  2
SOLID
 70
     1
 71
     0
 91
        1
 92
        1
 93
        1
 72
     4
 94
        3
 73
     0
 74
     1
 95
       26
 96
       22
 40
0.0
 40
0.0
 40
0.0
 40
0.0
 40
1.0
 40
1.0
 40
1.0
 40
2.0
 40
2.0
 40
2.0
 40
3.0
 40
3.0
 40
3.0
 40
4.0
 40
4.0
 40
4.0
 40
5.0
 40
5.0
 40
5.0
 40
6.0
 40
6.0
 40
6.0
 40
7.0
 40
7.0
 40
7.0
 40
7.0
 10
108.4357584364327
 20
-131.6343424150081
 10
108.4357584364327
 20
-131.6343424150081
 10
107.3316053334102
 20
-131.6343424150081
 10
107.3316053334102
 20
-131.6343424150081
 10
107.3316053334102
 20
-131.6343424150081
 10
107.3316053334102
 20
-131.964382562495
 10
107.3316053334102
 20
-131.964382562495
 10
107.3316053334102
 20
-131.964382562495
 10
107.1834662275444
 20
-131.964382562495
 10
107.1834662275444
 20
-131.964382562495
 10
107.1686523169578
 20
-131.6322753577169
 10
107.0056993005055
 20
-131.5857665686661
 10
106.8913221303952
 20
-131.5561387474929
 10
106.8913221303952
 20
-131.5561387474929
 10
106.8913221303952
 20
-131.4100666989183
 10
106.8913221303952
 20
-131.4100666989183
 10
106.8913221303952
 20
-131.4100666989183
 10
108.4357584364327
 20
-131.4100666989183
 10
108.4357584364327
 20
-131.4100666989183
 10
108.4357584364327
 20
-131.4100666989183
 10
108.4357584364327
 20
-131.6343424150081
 10
108.4357584364327
 20
-131.6343424150081
 97
        0
 97
        0
 75
     2
 76
     1
 98
        0
  0
ENDBLK
  5
55
330
52
100
AcDbEntity
  8
0
100
AcDbBlockEnd
  0
BLOCK
  5
70
330
6E
100
AcDbEntity
  8
0
100
AcDbBlockBegin
  2
block 4
 70
     0
 10
0.0
 20
0.0
 30
0.0
  3
block 4
  1

  0
SPLINE
  5
72
330
6E
100
AcDbEntity
  8
_U+30EC_U+30A4_U+30E4_U+30FC 1
370
     0
100
AcDbSpline
210
0.0
220
0.0
230
1.0
 70
    11
 71
     3
 72
    26
 73
    22
 74
     0
 42
0.0000000001
 43
0.0000000001
 12
1.0
 22
0.0
 32
0.0
 13
1.0
 23
0.0
 33
0.0
 40
0.0
 40
0.0
 40
0.0
 40
0.0
 40
1.0
 40
1.0
 40
1.0
 40
2.0
 40
2.0
 40
2.0
 40
3.0
 40
3.0
 40
3.0
 40
4.0
 40
4.0
 40
4.0
 40
5.0
 40
5.0
 40
5.0
 40
6.0
 40
6.0
 40
6.0
 40
7.0
 40
7.0
 40
7.0
 40
7.0
 10
86.90839027775208
 20
-121.7717230598349
 30
0.0
 10
86.90839027775208
 20
-121.7717230598349
 30
0.0
 10
86.90839027775208
 20
-120.6675699568123
 30
0.0
 10
86.90839027775208
 20
-120.6675699568123
 30
0.0
 10
86.90839027775208
 20
-120.6675699568123
 30
0.0
 10
86.57835013026514
 20
-120.6675699568123
 30
0.0
 10
86.57835013026514
 20
-120.6675699568123
 30
0.0
 10
86.57835013026514
 20
-120.6675699568123
 30
0.0
 10
86.57835013026514
 20
-120.5194308509465
 30
0.0
 10
86.57835013026514
 20
-120.5194308509465
 30
0.0
 10
86.91045733504322
 20
-120.50461694036
 30
0.0
 10
86.9569661240941
 20
-120.3416639239076
 30
0.0
 10
86.98659394526724
 20
-120.2272867537973
 30
0.0
 10
86.98659394526724
 20
-120.2272867537973
 30
0.0
 10
87.13266599384184
 20
-120.2272867537973
 30
0.0
 10
87.13266599384184
 20
-120.2272867537973
 30
0.0
 10
87.13266599384184
 20
-120.2272867537973
 30
0.0
 10
87.13266599384184
 20
-121.7717230598349
 30
0.0
 10
87.13266599384184
 20
-121.7717230598349
 30
0.0
 10
87.13266599384184
 20
-121.7717230598349
 30
0.0
 10
86.90839027775208
 20
-121.7717230598349
 30
0.0
 10
86.90839027775208
 20
-121.7717230598349
 30
0.0
  0
HATCH
  5
73
330
6E
100
AcDbEntity
  8
_U+30EC_U+30A4_U+30E4_U+30FC 1
 62
     7
420
 16777215
100
AcDbHatch
 10
0.0
 20
0.0
 30
0.0
210
0.0
220
0.0
230
1.0
  2
SOLID
 70
     1
 71
     0
 91
        1
 92
        1
 93
        1
 72
     4
 94
        3
 73
     0
 74
     1
 95
       26
 96
       22
 40
0.0
 40
0.0
 40
0.0
 40
0.0
 40
1.0
 40
1.0
 40
1.0
 40
2.0
 40
2.0
 40
2.0
 40
3.0
 40
3.0
 40
3.0
 40
4.0
 40
4.0
 40
4.0
 40
5.0
 40
5.0
 40
5.0
 40
6.0
 40
6.0
 40
6.0
 40
7.0
 40
7.0
 40
7.0
 40
7.0
 10
86.90839027775208
 20
-121.7717230598349
 10
86.90839027775208
 20
-121.7717230598349
 10
86.90839027775208
 20
-120.6675699568123
 10
86.90839027775208
 20
-120.6675699568123
 10
86.90839027775208
 20
-120.6675699568123
 10
86.57835013026514
 20
-120.6675699568123
 10
86.57835013026514
 20
-120.6675699568123
 10
86.57835013026514
 20
-120.6675699568123
 10
86.57835013026514
 20
-120.5194308509465
 10
86.57835013026514
 20
-120.5194308509465
 10
86.91045733504322
 20
-120.50461694036
 10
86.9569661240941
 20
-120.3416639239076
 10
86.98659394526724
 20
-120.2272867537973
 10
86.98659394526724
 20
-120.2272867537973
 10
87.13266599384184
 20
-120.2272867537973
 10
87.13266599384184
 20
-120.2272867537973
 10
87.13266599384184
 20
-120.2272867537973
 10
87.13266599384184
 20
-121.7717230598349
 10
87.13266599384184
 20
-121.7717230598349
 10
87.13266599384184
 20
-121.7717230598349
 10
86.90839027775208
 20
-121.7717230598349
 10
86.90839027775208
 20
-121.7717230598349
 97
        0
 97
        0
 75
     2
 76
     1
 98
        0
  0
SPLINE
  5
74
330
6E
100
AcDbEntity
  8
_U+30EC_U+30A4_U+30E4_U+30FC 1
370
     0
100
AcDbSpline
210
0.0
220
0.0
230
1.0
 70
    11
 71
     3
 72
    29
 73
    25
 74
     0
 42
0.0000000001
 43
0.0000000001
 12
1.0
 22
0.0
 32
0.0
 13
1.0
 23
0.0
 33
0.0
 40
0.0
 40
0.0
 40
0.0
 40
0.0
 40
1.0
 40
1.0
 40
1.0
 40
2.0
 40
2.0
 40
2.0
 40
3.0
 40
3.0
 40
3.0
 40
4.0
 40
4.0
 40
4.0
 40
5.0
 40
5.0
 40
5.0
 40
6.0
 40
6.0
 40
6.0
 40
7.0
 40
7.0
 40
7.0
 40
8.0
 40
8.0
 40
8.0
 40
8.0
 10
88.5317192704018
 20
-121.593956132796
 30
0.0
 10
88.42354327216495
 20
-121.8034179382991
 30
0.0
 10
88.25025496925689
 20
-121.822365963468
 30
0.0
 10
88.13381074185544
 20
-121.822365963468
 30
0.0
 10
87.97292478269428
 20
-121.822365963468
 30
0.0
 10
87.83133135825051
 20
-121.7758571744172
 30
0.0
 10
87.73624672285762
 20
-121.593956132796
 30
0.0
 10
87.6325493487516
 20
-121.3993082378793
 30
0.0
 10
87.61325681403419
 20
-121.1626301780427
 30
0.0
 10
87.61325681403419
 20
-120.9996771615904
 30
0.0
 10
87.61325681403419
 20
-120.8556721703069
 30
0.0
 10
87.63048229146044
 20
-120.6038356903352
 30
0.0
 10
87.73624672285762
 20
-120.4050536808362
 30
0.0
 10
87.84407821154593
 20
-120.202137556755
 30
0.0
 10
88.0049641707071
 20
-120.1787109074553
 30
0.0
 10
88.13381074185544
 20
-120.1787109074553
 30
0.0
 10
88.29262964372546
 20
-120.1787109074553
 30
0.0
 10
88.43629012546037
 20
-120.223152639215
 30
0.0
 10
88.5317192704018
 20
-120.4050536808362
 30
0.0
 10
88.63093802037699
 20
-120.5976345184617
 30
0.0
 10
88.6543646696767
 20
-120.8260443491338
 30
0.0
 10
88.6543646696767
 20
-120.9996771615904
 30
0.0
 10
88.6543646696767
 20
-121.1708984072073
 30
0.0
 10
88.63300507766814
 20
-121.4013752951705
 30
0.0
 10
88.5317192704018
 20
-121.593956132796
 30
0.0
  0
SPLINE
  5
75
330
6E
100
AcDbEntity
  8
_U+30EC_U+30A4_U+30E4_U+30FC 1
370
     0
100
AcDbSpline
210
0.0
220
0.0
230
1.0
 70
    11
 71
     3
 72
    17
 73
    13
 74
     0
 42
0.0000000001
 43
0.0000000001
 12
1.0
 22
0.0
 32
0.0
 13
1.0
 23
0.0
 33
0.0
 40
0.0
 40
0.0
 40
0.0
 40
0.0
 40
1.0
 40
1.0
 40
1.0
 40
2.0
 40
2.0
 40
2.0
 40
3.0
 40
3.0
 40
3.0
 40
4.0
 40
4.0
 40
4.0
 40
4.0
 10
88.13381074185544
 20
-120.3712917450808
 30
0.0
 10
87.88404131917483
 20
-120.3712917450808
 30
0.0
 10
87.83753253012395
 20
-120.6548231035169
 30
0.0
 10
87.83753253012395
 20
-120.9996771615904
 30
0.0
 10
87.83753253012395
 20
-121.319037513073
 30
0.0
 10
87.87370603271907
 20
-121.6277180685514
 30
0.0
 10
88.13381074185544
 20
-121.6277180685514
 30
0.0
 10
88.3815131072449
 20
-121.6277180685514
 30
0.0
 10
88.43008895358693
 20
-121.346598276955
 30
0.0
 10
88.43008895358693
 20
-120.9996771615904
 30
0.0
 10
88.43008895358693
 20
-120.6799723005592
 30
0.0
 10
88.39184839370066
 20
-120.3712917450808
 30
0.0
 10
88.13381074185544
 20
-120.3712917450808
 30
0.0
  0
HATCH
  5
76
330
6E
100
AcDbEntity
  8
_U+30EC_U+30A4_U+30E4_U+30FC 1
 62
     7
420
 16777215
100
AcDbHatch
 10
0.0
 20
0.0
 30
0.0
210
0.0
220
0.0
230
1.0
  2
SOLID
 70
     1
 71
     0
 91
        2
 92
        1
 93
        1
 72
     4
 94
        3
 73
     0
 74
     1
 95
       29
 96
       25
 40
0.0
 40
0.0
 40
0.0
 40
0.0
 40
1.0
 40
1.0
 40
1.0
 40
2.0
 40
2.0
 40
2.0
 40
3.0
 40
3.0
 40
3.0
 40
4.0
 40
4.0
 40
4.0
 40
5.0
 40
5.0
 40
5.0
 40
6.0
 40
6.0
 40
6.0
 40
7.0
 40
7.0
 40
7.0
 40
8.0
 40
8.0
 40
8.0
 40
8.0
 10
88.5317192704018
 20
-121.593956132796
 10
88.42354327216495
 20
-121.8034179382991
 10
88.25025496925689
 20
-121.822365963468
 10
88.13381074185544
 20
-121.822365963468
 10
87.97292478269428
 20
-121.822365963468
 10
87.83133135825051
 20
-121.7758571744172
 10
87.73624672285762
 20
-121.593956132796
 10
87.6325493487516
 20
-121.3993082378793
 10
87.61325681403419
 20
-121.1626301780427
 10
87.61325681403419
 20
-120.9996771615904
 10
87.61325681403419
 20
-120.8556721703069
 10
87.63048229146044
 20
-120.6038356903352
 10
87.73624672285762
 20
-120.4050536808362
 10
87.84407821154593
 20
-120.202137556755
 10
88.0049641707071
 20
-120.1787109074553
 10
88.13381074185544
 20
-120.1787109074553
 10
88.29262964372546
 20
-120.1787109074553
 10
88.43629012546037
 20
-120.223152639215
 10
88.5317192704018
 20
-120.4050536808362
 10
88.63093802037699
 20
-120.5976345184617
 10
88.6543646696767
 20
-120.8260443491338
 10
88.6543646696767
 20
-120.9996771615904
 10
88.6543646696767
 20
-121.1708984072073
 10
88.63300507766814
 20
-121.4013752951705
 10
88.5317192704018
 20
-121.593956132796
 97
        0
 97
        0
 92
        1
 93
        1
 72
     4
 94
        3
 73
     0
 74
     1
 95
       17
 96
       13
 40
0.0
 40
0.0
 40
0.0
 40
0.0
 40
1.0
 40
1.0
 40
1.0
 40
2.0
 40
2.0
 40
2.0
 40
3.0
 40
3.0
 40
3.0
 40
4.0
 40
4.0
 40
4.0
 40
4.0
 10
88.13381074185544
 20
-120.3712917450808
 10
87.88404131917483
 20
-120.3712917450808
 10
87.83753253012395
 20
-120.6548231035169
 10
87.83753253012395
 20
-120.9996771615904
 10
87.83753253012395
 20
-121.319037513073
 10
87.87370603271907
 20
-121.6277180685514
 10
88.13381074185544
 20
-121.6277180685514
 10
88.3815131072449
 20
-121.6277180685514
 10
88.43008895358693
 20
-121.346598276955
 10
88.43008895358693
 20
-120.9996771615904
 10
88.43008895358693
 20
-120.6799723005592
 10
88.39184839370066
 20
-120.3712917450808
 10
88.13381074185544
 20
-120.3712917450808
 97
        0
 97
        0
 75
     2
 76
     1
 98
        0
  0
ENDBLK
  5
71
330
6E
100
AcDbEntity
  8
0
100
AcDbBlockEnd
  0
BLOCK
  5
90
330
8E
100
AcDbEntity
  8
0
100
AcDbBlockBegin
  2
block 5
 70
     0
 10
0.0
 20
0.0
 30
0.0
  3
block 5
  1

  0
SPLINE
  5
92
330
8E
100
AcDbEntity
  8
_U+30EC_U+30A4_U+30E4_U+30FC 1
370
     0
100
AcDbSpline
210
0.0
220
0.0
230
1.0
 70
    11
 71
     3
 72
    62
 73
    58
 74
     0
 42
0.0000000001
 43
0.0000000001
 12
1.0
 22
0.0
 32
0.0
 13
1.0
 23
0.0
 33
0.0
 40
0.0
 40
0.0
 40
0.0
 40
0.0
 40
1.0
 40
1.0
 40
1.0
 40
2.0
 40
2.0
 40
2.0
 40
3.0
 40
3.0
 40
3.0
 40
4.0
 40
4.0
 40
4.0
 40
5.0
 40
5.0
 40
5.0
 40
6.0
 40
6.0
 40
6.0
 40
7.0
 40
7.0
 40
7.0
 40
8.0
 40
8.0
 40
8.0
 40
9.0
 40
9.0
 40
9.0
 40
10.0
 40
10.0
 40
10.0
 40
11.0
 40
11.0
 40
11.0
 40
12.0
 40
12.0
 40
12.0
 40
13.0
 40
13.0
 40
13.0
 40
14.0
 40
14.0
 40
14.0
 40
15.0
 40
15.0
 40
15.0
 40
16.0
 40
16.0
 40
16.0
 40
17.0
 40
17.0
 40
17.0
 40
18.0
 40
18.0
 40
18.0
 40
19.0
 40
19.0
 40
19.0
 40
19.0
 10
86.94887014970377
 20
-135.5403916761844
 30
0.0
 10
86.85344100476233
 20
-135.5403916761844
 30
0.0
 10
86.63571097009455
 20
-135.5190320841758
 30
0.0
 10
86.51065400397998
 20
-135.3329969279723
 30
0.0
 10
86.43692896059564
 20
-135.2206868151532
 30
0.0
 10
86.43245033646481
 20
-135.121468065178
 30
0.0
 10
86.42831622188251
 20
-135.0367187162408
 30
0.0
 10
86.42831622188251
 20
-135.0367187162408
 30
0.0
 10
86.64845782338998
 20
-135.0367187162408
 30
0.0
 10
86.64845782338998
 20
-135.0367187162408
 30
0.0
 10
86.65052488068112
 20
-135.1107882691737
 30
0.0
 10
86.66086016713687
 20
-135.3457437812677
 30
0.0
 10
86.94439152557294
 20
-135.3457437812677
 30
0.0
 10
87.08185083543441
 20
-135.3457437812677
 30
0.0
 10
87.23446856543097
 20
-135.2758083429172
 30
0.0
 10
87.23446856543097
 20
-135.0473985122451
 30
0.0
 10
87.23446856543097
 20
-134.9309542848437
 30
0.0
 10
87.1962280055447
 20
-134.8823784385016
 30
0.0
 10
87.1645331270804
 20
-134.8506835600373
 30
0.0
 10
87.09046357414752
 20
-134.7766140071045
 30
0.0
 10
86.97401934674608
 20
-134.763867153809
 30
0.0
 10
86.91924232853061
 20
-134.763867153809
 30
0.0
 10
86.8999497938132
 20
-134.763867153809
 30
0.0
 10
86.86412080076661
 20
-134.7659342111002
 30
0.0
 10
86.83656003688462
 20
-134.7700683256825
 30
0.0
 10
86.83656003688462
 20
-134.7700683256825
 30
0.0
 10
86.83656003688462
 20
-134.5757649403144
 30
0.0
 10
86.83656003688462
 20
-134.5757649403144
 30
0.0
 10
86.87480059677088
 20
-134.5819661121878
 30
0.0
 10
86.91683076169093
 20
-134.584033169479
 30
0.0
 10
86.92337644311291
 20
-134.584033169479
 30
0.0
 10
86.98883325733266
 20
-134.584033169479
 30
0.0
 10
87.18761526683157
 20
-134.563018087019
 30
0.0
 10
87.18761526683157
 20
-134.3259955176338
 30
0.0
 10
87.18761526683157
 20
-134.1482285905949
 30
0.0
 10
87.05670163839208
 20
-134.0931070628309
 30
0.0
 10
86.94645858286408
 20
-134.0931070628309
 30
0.0
 10
86.68221975914543
 20
-134.0931070628309
 30
0.0
 10
86.6736070204323
 20
-134.3259955176338
 30
0.0
 10
86.66947290585
 20
-134.3979980132755
 30
0.0
 10
86.66947290585
 20
-134.3979980132755
 30
0.0
 10
86.46621227222026
 20
-134.3979980132755
 30
0.0
 10
86.46621227222026
 20
-134.3979980132755
 30
0.0
 10
86.47482501093339
 20
-134.2729410471609
 30
0.0
 10
86.50238577481538
 20
-133.8963921106231
 30
0.0
 10
86.95920543615951
 20
-133.8963921106231
 30
0.0
 10
87.18348115224927
 20
-133.8963921106231
 30
0.0
 10
87.42463783621676
 20
-134.0235161340289
 30
0.0
 10
87.42463783621676
 20
-134.3194498362118
 30
0.0
 10
87.42463783621676
 20
-134.5058295019638
 30
0.0
 10
87.32955320082387
 20
-134.5881672840613
 30
0.0
 10
87.22998994130015
 20
-134.6494899836987
 30
0.0
 10
87.29131264093759
 20
-134.6770507475808
 30
0.0
 10
87.47321368255878
 20
-134.7576659819356
 30
0.0
 10
87.47321368255878
 20
-135.0346516589497
 30
0.0
 10
87.47321368255878
 20
-135.3733045451497
 30
0.0
 10
87.22585582671785
 20
-135.5403916761844
 30
0.0
 10
86.94887014970377
 20
-135.5403916761844
 30
0.0
  0
HATCH
  5
93
330
8E
100
AcDbEntity
  8
_U+30EC_U+30A4_U+30E4_U+30FC 1
 62
     7
420
 16777215
100
AcDbHatch
 10
0.0
 20
0.0
 30
0.0
210
0.0
220
0.0
230
1.0
  2
SOLID
 70
     1
 71
     0
 91
        1
 92
        1
 93
        1
 72
     4
 94
        3
 73
     0
 74
     1
 95
       62
 96
       58
 40
0.0
 40
0.0
 40
0.0
 40
0.0
 40
1.0
 40
1.0
 40
1.0
 40
2.0
 40
2.0
 40
2.0
 40
3.0
 40
3.0
 40
3.0
 40
4.0
 40
4.0
 40
4.0
 40
5.0
 40
5.0
 40
5.0
 40
6.0
 40
6.0
 40
6.0
 40
7.0
 40
7.0
 40
7.0
 40
8.0
 40
8.0
 40
8.0
 40
9.0
 40
9.0
 40
9.0
 40
10.0
 40
10.0
 40
10.0
 40
11.0
 40
11.0
 40
11.0
 40
12.0
 40
12.0
 40
12.0
 40
13.0
 40
13.0
 40
13.0
 40
14.0
 40
14.0
 40
14.0
 40
15.0
 40
15.0
 40
15.0
 40
16.0
 40
16.0
 40
16.0
 40
17.0
 40
17.0
 40
17.0
 40
18.0
 40
18.0
 40
18.0
 40
19.0
 40
19.0
 40
19.0
 40
19.0
 10
86.94887014970377
 20
-135.5403916761844
 10
86.85344100476233
 20
-135.5403916761844
 10
86.63571097009455
 20
-135.5190320841758
 10
86.51065400397998
 20
-135.3329969279723
 10
86.43692896059564
 20
-135.2206868151532
 10
86.43245033646481
 20
-135.121468065178
 10
86.42831622188251
 20
-135.0367187162408
 10
86.42831622188251
 20
-135.0367187162408
 10
86.64845782338998
 20
-135.0367187162408
 10
86.64845782338998
 20
-135.0367187162408
 10
86.65052488068112
 20
-135.1107882691737
 10
86.66086016713687
 20
-135.3457437812677
 10
86.94439152557294
 20
-135.3457437812677
 10
87.08185083543441
 20
-135.3457437812677
 10
87.23446856543097
 20
-135.2758083429172
 10
87.23446856543097
 20
-135.0473985122451
 10
87.23446856543097
 20
-134.9309542848437
 10
87.1962280055447
 20
-134.8823784385016
 10
87.1645331270804
 20
-134.8506835600373
 10
87.09046357414752
 20
-134.7766140071045
 10
86.97401934674608
 20
-134.763867153809
 10
86.91924232853061
 20
-134.763867153809
 10
86.8999497938132
 20
-134.763867153809
 10
86.86412080076661
 20
-134.7659342111002
 10
86.83656003688462
 20
-134.7700683256825
 10
86.83656003688462
 20
-134.7700683256825
 10
86.83656003688462
 20
-134.5757649403144
 10
86.83656003688462
 20
-134.5757649403144
 10
86.87480059677088
 20
-134.5819661121878
 10
86.91683076169093
 20
-134.584033169479
 10
86.92337644311291
 20
-134.584033169479
 10
86.98883325733266
 20
-134.584033169479
 10
87.18761526683157
 20
-134.563018087019
 10
87.18761526683157
 20
-134.3259955176338
 10
87.18761526683157
 20
-134.1482285905949
 10
87.05670163839208
 20
-134.0931070628309
 10
86.94645858286408
 20
-134.0931070628309
 10
86.68221975914543
 20
-134.0931070628309
 10
86.6736070204323
 20
-134.3259955176338
 10
86.66947290585
 20
-134.3979980132755
 10
86.66947290585
 20
-134.3979980132755
 10
86.46621227222026
 20
-134.3979980132755
 10
86.46621227222026
 20
-134.3979980132755
 10
86.47482501093339
 20
-134.2729410471609
 10
86.50238577481538
 20
-133.8963921106231
 10
86.95920543615951
 20
-133.8963921106231
 10
87.18348115224927
 20
-133.8963921106231
 10
87.42463783621676
 20
-134.0235161340289
 10
87.42463783621676
 20
-134.3194498362118
 10
87.42463783621676
 20
-134.5058295019638
 10
87.32955320082387
 20
-134.5881672840613
 10
87.22998994130015
 20
-134.6494899836987
 10
87.29131264093759
 20
-134.6770507475808
 10
87.47321368255878
 20
-134.7576659819356
 10
87.47321368255878
 20
-135.0346516589497
 10
87.47321368255878
 20
-135.3733045451497
 10
87.22585582671785
 20
-135.5403916761844
 10
86.94887014970377
 20
-135.5403916761844
 97
        0
 97
        0
 75
     2
 76
     1
 98
        0
  0
SPLINE
  5
94
330
8E
100
AcDbEntity
  8
_U+30EC_U+30A4_U+30E4_U+30FC 1
370
     0
100
AcDbSpline
210
0.0
220
0.0
230
1.0
 70
    11
 71
     3
 72
    29
 73
    25
 74
     0
 42
0.0000000001
 43
0.0000000001
 12
1.0
 22
0.0
 32
0.0
 13
1.0
 23
0.0
 33
0.0
 40
0.0
 40
0.0
 40
0.0
 40
0.0
 40
1.0
 40
1.0
 40
1.0
 40
2.0
 40
2.0
 40
2.0
 40
3.0
 40
3.0
 40
3.0
 40
4.0
 40
4.0
 40
4.0
 40
5.0
 40
5.0
 40
5.0
 40
6.0
 40
6.0
 40
6.0
 40
7.0
 40
7.0
 40
7.0
 40
8.0
 40
8.0
 40
8.0
 40
8.0
 10
88.53189152517606
 20
-135.3116373359638
 30
0.0
 10
88.42371552693922
 20
-135.5210991414669
 30
0.0
 10
88.25042722403114
 20
-135.5403916761844
 30
0.0
 10
88.1339829966297
 20
-135.5403916761844
 30
0.0
 10
87.97309703746853
 20
-135.5403916761844
 30
0.0
 10
87.83150361302476
 20
-135.4938828871335
 30
0.0
 10
87.73641897763187
 20
-135.3116373359638
 30
0.0
 10
87.63272160352585
 20
-135.1173339505957
 30
0.0
 10
87.61377357835698
 20
-134.8803113812105
 30
0.0
 10
87.61377357835698
 20
-134.7173583647582
 30
0.0
 10
87.61377357835698
 20
-134.5733533734747
 30
0.0
 10
87.6306545462347
 20
-134.3218614030515
 30
0.0
 10
87.73641897763187
 20
-134.122734884004
 30
0.0
 10
87.84425046632019
 20
-133.9198187599228
 30
0.0
 10
88.00513642548135
 20
-133.8963921106231
 30
0.0
 10
88.1339829966297
 20
-133.8963921106231
 30
0.0
 10
88.29280189849972
 20
-133.8963921106231
 30
0.0
 10
88.43646238023464
 20
-133.9408338423829
 30
0.0
 10
88.53189152517606
 20
-134.122734884004
 30
0.0
 10
88.63111027515126
 20
-134.3153157216295
 30
0.0
 10
88.65453692445095
 20
-134.5437255523016
 30
0.0
 10
88.65453692445095
 20
-134.7173583647582
 30
0.0
 10
88.65453692445095
 20
-134.8885796103751
 30
0.0
 10
88.6331773324424
 20
-135.1194010078868
 30
0.0
 10
88.53189152517606
 20
-135.3116373359638
 30
0.0
  0
SPLINE
  5
95
330
8E
100
AcDbEntity
  8
_U+30EC_U+30A4_U+30E4_U+30FC 1
370
     0
100
AcDbSpline
210
0.0
220
0.0
230
1.0
 70
    11
 71
     3
 72
    17
 73
    13
 74
     0
 42
0.0000000001
 43
0.0000000001
 12
1.0
 22
0.0
 32
0.0
 13
1.0
 23
0.0
 33
0.0
 40
0.0
 40
0.0
 40
0.0
 40
0.0
 40
1.0
 40
1.0
 40
1.0
 40
2.0
 40
2.0
 40
2.0
 40
3.0
 40
3.0
 40
3.0
 40
4.0
 40
4.0
 40
4.0
 40
4.0
 10
88.1339829966297
 20
-134.0889729482486
 30
0.0
 10
87.88455808349761
 20
-134.0889729482486
 30
0.0
 10
87.83770478489822
 20
-134.3725043066846
 30
0.0
 10
87.83770478489822
 20
-134.7173583647582
 30
0.0
 10
87.83770478489822
 20
-135.0367187162408
 30
0.0
 10
87.87387828749334
 20
-135.3457437812677
 30
0.0
 10
88.1339829966297
 20
-135.3457437812677
 30
0.0
 10
88.38168536201917
 20
-135.3457437812677
 30
0.0
 10
88.43026120836119
 20
-135.0642794801228
 30
0.0
 10
88.43026120836119
 20
-134.7173583647582
 30
0.0
 10
88.43026120836119
 20
-134.3979980132755
 30
0.0
 10
88.39202064847491
 20
-134.0889729482486
 30
0.0
 10
88.1339829966297
 20
-134.0889729482486
 30
0.0
  0
HATCH
  5
96
330
8E
100
AcDbEntity
  8
_U+30EC_U+30A4_U+30E4_U+30FC 1
 62
     7
420
 16777215
100
AcDbHatch
 10
0.0
 20
0.0
 30
0.0
210
0.0
220
0.0
230
1.0
  2
SOLID
 70
     1
 71
     0
 91
        2
 92
        1
 93
        1
 72
     4
 94
        3
 73
     0
 74
     1
 95
       29
 96
       25
 40
0.0
 40
0.0
 40
0.0
 40
0.0
 40
1.0
 40
1.0
 40
1.0
 40
2.0
 40
2.0
 40
2.0
 40
3.0
 40
3.0
 40
3.0
 40
4.0
 40
4.0
 40
4.0
 40
5.0
 40
5.0
 40
5.0
 40
6.0
 40
6.0
 40
6.0
 40
7.0
 40
7.0
 40
7.0
 40
8.0
 40
8.0
 40
8.0
 40
8.0
 10
88.53189152517606
 20
-135.3116373359638
 10
88.42371552693922
 20
-135.5210991414669
 10
88.25042722403114
 20
-135.5403916761844
 10
88.1339829966297
 20
-135.5403916761844
 10
87.97309703746853
 20
-135.5403916761844
 10
87.83150361302476
 20
-135.4938828871335
 10
87.73641897763187
 20
-135.3116373359638
 10
87.63272160352585
 20
-135.1173339505957
 10
87.61377357835698
 20
-134.8803113812105
 10
87.61377357835698
 20
-134.7173583647582
 10
87.61377357835698
 20
-134.5733533734747
 10
87.6306545462347
 20
-134.3218614030515
 10
87.73641897763187
 20
-134.122734884004
 10
87.84425046632019
 20
-133.9198187599228
 10
88.00513642548135
 20
-133.8963921106231
 10
88.1339829966297
 20
-133.8963921106231
 10
88.29280189849972
 20
-133.8963921106231
 10
88.43646238023464
 20
-133.9408338423829
 10
88.53189152517606
 20
-134.122734884004
 10
88.63111027515126
 20
-134.3153157216295
 10
88.65453692445095
 20
-134.5437255523016
 10
88.65453692445095
 20
-134.7173583647582
 10
88.65453692445095
 20
-134.8885796103751
 10
88.6331773324424
 20
-135.1194010078868
 10
88.53189152517606
 20
-135.3116373359638
 97
        0
 97
        0
 92
        1
 93
        1
 72
     4
 94
        3
 73
     0
 74
     1
 95
       17
 96
       13
 40
0.0
 40
0.0
 40
0.0
 40
0.0
 40
1.0
 40
1.0
 40
1.0
 40
2.0
 40
2.0
 40
2.0
 40
3.0
 40
3.0
 40
3.0
 40
4.0
 40
4.0
 40
4.0
 40
4.0
 10
88.1339829966297
 20
-134.0889729482486
 10
87.88455808349761
 20
-134.0889729482486
 10
87.83770478489822
 20
-134.3725043066846
 10
87.83770478489822
 20
-134.7173583647582
 10
87.83770478489822
 20
-135.0367187162408
 10
87.87387828749334
 20
-135.3457437812677
 10
88.1339829966297
 20
-135.3457437812677
 10
88.38168536201917
 20
-135.3457437812677
 10
88.43026120836119
 20
-135.0642794801228
 10
88.43026120836119
 20
-134.7173583647582
 10
88.43026120836119
 20
-134.3979980132755
 10
88.39202064847491
 20
-134.0889729482486
 10
88.1339829966297
 20
-134.0889729482486
 97
        0
 97
        0
 75
     2
 76
     1
 98
        0
  0
ENDBLK
  5
91
330
8E
100
AcDbEntity
  8
0
100
AcDbBlockEnd
  0
ENDSEC
  0
SECTION
  2
ENTITIES
  0
INSERT
  5
42
330
1F
100
AcDbEntity
  8
_U+30EC_U+30A4_U+30E4_U+30FC 1
100
AcDbBlockReference
  2
block 2
 10
0.0
 20
0.0
 30
0.0
  0
INSERT
  5
53
330
1F
100
AcDbEntity
  8
_U+30EC_U+30A4_U+30E4_U+30FC 1
100
AcDbBlockReference
  2
block 3
 10
0.0
 20
0.0
 30
0.0
  0
POLYLINE
  5
58
330
1F
100
AcDbEntity
  8
_U+30EC_U+30A4_U+30E4_U+30FC 1
 62
     7
420
 16777215
370
     9
100
AcDb2dPolyline
 66
     1
 10
0.0
 20
0.0
 30
0.0
  0
VERTEX
  5
59
330
58
100
AcDbEntity
  8
_U+30EC_U+30A4_U+30E4_U+30FC 1
 62
     7
420
 16777215
370
     9
100
AcDbVertex
100
AcDb2dVertex
 10
72.54440898257127
 20
-133.6256252443716
 30
0.0
  0
VERTEX
  5
5A
330
58
100
AcDbEntity
  8
_U+30EC_U+30A4_U+30E4_U+30FC 1
 62
     7
420
 16777215
370
     9
100
AcDbVertex
100
AcDb2dVertex
 10
72.54440898257127
 20
-137.0858460768396
 30
0.0
  0
SEQEND
  5
5B
330
58
100
AcDbEntity
  8
_U+30EC_U+30A4_U+30E4_U+30FC 1
 62
     7
420
 16777215
370
     9
  0
POLYLINE
  5
5C
330
1F
100
AcDbEntity
  8
_U+30EC_U+30A4_U+30E4_U+30FC 1
 62
     7
420
 16777215
370
     9
100
AcDb2dPolyline
 66
     1
 10
0.0
 20
0.0
 30
0.0
  0
VERTEX
  5
5D
330
5C
100
AcDbEntity
  8
_U+30EC_U+30A4_U+30E4_U+30FC 1
 62
     7
420
 16777215
370
     9
100
AcDbVertex
100
AcDb2dVertex
 10
102.5480876615581
 20
-134.6260677441215
 30
0.0
  0
VERTEX
  5
5E
330
5C
100
AcDbEntity
  8
_U+30EC_U+30A4_U+30E4_U+30FC 1
 62
     7
420
 16777215
370
     9
100
AcDbVertex
100
AcDb2dVertex
 10
102.5480876615581
 20
-137.0858460768396
 30
0.0
  0
SEQEND
  5
5F
330
5C
100
AcDbEntity
  8
_U+30EC_U+30A4_U+30E4_U+30FC 1
 62
     7
420
 16777215
370
     9
  0
SPLINE
  5
60
330
1F
100
AcDbEntity
  8
_U+30EC_U+30A4_U+30E4_U+30FC 1
 62
     7
420
 16777215
370
     9
100
AcDbSpline
210
0.0
220
0.0
230
1.0
 70
    11
 71
     3
 72
    17
 73
    13
 74
     0
 42
0.0000000001
 43
0.0000000001
 12
1.0
 22
0.0
 32
0.0
 13
1.0
 23
0.0
 33
0.0
 40
0.0
 40
0.0
 40
0.0
 40
0.0
 40
1.0
 40
1.0
 40
1.0
 40
2.0
 40
2.0
 40
2.0
 40
3.0
 40
3.0
 40
3.0
 40
4.0
 40
4.0
 40
4.0
 40
4.0
 10
82.54343622747483
 20
-122.2505880249928
 30
0.0
 10
82.48833233999176
 20
-122.2505880249928
 30
0.0
 10
82.443529563357
 20
-122.2953908027595
 30
0.0
 10
82.443529563357
 20
-122.3504946916347
 30
0.0
 10
82.443529563357
 20
-122.4056338582875
 30
0.0
 10
82.48833233999176
 20
-122.4504013582764
 30
0.0
 10
82.54343622747483
 20
-122.4504013582764
 30
0.0
 10
82.59857539273479
 20
-122.4504013582764
 30
0.0
 10
82.64334289159267
 20
-122.4056338582875
 30
0.0
 10
82.64334289159267
 20
-122.3504946916347
 30
0.0
 10
82.64334289159267
 20
-122.2953908027595
 30
0.0
 10
82.59857539273479
 20
-122.2505880249928
 30
0.0
 10
82.54343622747483
 20
-122.2505880249928
 30
0.0
  0
POLYLINE
  5
61
330
1F
100
AcDbEntity
  8
_U+30EC_U+30A4_U+30E4_U+30FC 1
 62
     7
420
 16777215
370
     9
100
AcDb2dPolyline
 66
     1
 10
0.0
 20
0.0
 30
0.0
  0
VERTEX
  5
62
330
61
100
AcDbEntity
  8
_U+30EC_U+30A4_U+30E4_U+30FC 1
 62
     7
420
 16777215
370
     9
100
AcDbVertex
100
AcDb2dVertex
 10
92.54560553241942
 20
-122.3504946916347
 30
0.0
  0
VERTEX
  5
63
330
61
100
AcDbEntity
  8
_U+30EC_U+30A4_U+30E4_U+30FC 1
 62
     7
420
 16777215
370
     9
100
AcDbVertex
100
AcDb2dVertex
 10
82.54569400519502
 20
-122.3504946916347
 30
0.0
  0
SEQEND
  5
64
330
61
100
AcDbEntity
  8
_U+30EC_U+30A4_U+30E4_U+30FC 1
 62
     7
420
 16777215
370
     9
  0
POLYLINE
  5
65
330
1F
100
AcDbEntity
  8
_U+30EC_U+30A4_U+30E4_U+30FC 1
 62
     7
420
 16777215
370
     9
100
AcDb2dPolyline
 66
     1
 10
0.0
 20
0.0
 30
0.0
  0
VERTEX
  5
66
330
65
100
AcDbEntity
  8
_U+30EC_U+30A4_U+30E4_U+30FC 1
 62
     7
420
 16777215
370
     9
100
AcDbVertex
100
AcDb2dVertex
 10
82.54343622747483
 20
-120.8904533031107
 30
0.0
  0
VERTEX
  5
67
330
65
100
AcDbEntity
  8
_U+30EC_U+30A4_U+30E4_U+30FC 1
 62
     7
420
 16777215
370
     9
100
AcDbVertex
100
AcDb2dVertex
 10
82.54343622747483
 20
-123.3502669136069
 30
0.0
  0
SEQEND
  5
68
330
65
100
AcDbEntity
  8
_U+30EC_U+30A4_U+30E4_U+30FC 1
 62
     7
420
 16777215
370
     9
  0
SPLINE
  5
69
330
1F
100
AcDbEntity
  8
_U+30EC_U+30A4_U+30E4_U+30FC 1
 62
     7
420
 16777215
370
     9
100
AcDbSpline
210
0.0
220
0.0
230
1.0
 70
    11
 71
     3
 72
    17
 73
    13
 74
     0
 42
0.0000000001
 43
0.0000000001
 12
1.0
 22
0.0
 32
0.0
 13
1.0
 23
0.0
 33
0.0
 40
0.0
 40
0.0
 40
0.0
 40
0.0
 40
1.0
 40
1.0
 40
1.0
 40
2.0
 40
2.0
 40
2.0
 40
3.0
 40
3.0
 40
3.0
 40
4.0
 40
4.0
 40
4.0
 40
4.0
 10
92.54800208334821
 20
-122.2505880249928
 30
0.0
 10
92.49289819586514
 20
-122.2505880249928
 30
0.0
 10
92.44809541923037
 20
-122.2953908027595
 30
0.0
 10
92.44809541923037
 20
-122.3504946916347
 30
0.0
 10
92.44809541923037
 20
-122.4056338582875
 30
0.0
 10
92.49289819586514
 20
-122.4504013582764
 30
0.0
 10
92.54800208334821
 20
-122.4504013582764
 30
0.0
 10
92.60314124860815
 20
-122.4504013582764
 30
0.0
 10
92.64791108794907
 20
-122.4056338582875
 30
0.0
 10
92.64791108794907
 20
-122.3504946916347
 30
0.0
 10
92.64791108794907
 20
-122.2953908027595
 30
0.0
 10
92.60314124860815
 20
-122.2505880249928
 30
0.0
 10
92.54800208334821
 20
-122.2505880249928
 30
0.0
  0
POLYLINE
  5
6A
330
1F
100
AcDbEntity
  8
_U+30EC_U+30A4_U+30E4_U+30FC 1
 62
     7
420
 16777215
370
     9
100
AcDb2dPolyline
 66
     1
 10
0.0
 20
0.0
 30
0.0
  0
VERTEX
  5
6B
330
6A
100
AcDbEntity
  8
_U+30EC_U+30A4_U+30E4_U+30FC 1
 62
     7
420
 16777215
370
     9
100
AcDbVertex
100
AcDb2dVertex
 10
92.54800208334821
 20
-120.8904533031107
 30
0.0
  0
VERTEX
  5
6C
330
6A
100
AcDbEntity
  8
_U+30EC_U+30A4_U+30E4_U+30FC 1
 62
     7
420
 16777215
370
     9
100
AcDbVertex
100
AcDb2dVertex
 10
92.54800208334821
 20
-123.3502669136069
 30
0.0
  0
SEQEND
  5
6D
330
6A
100
AcDbEntity
  8
_U+30EC_U+30A4_U+30E4_U+30FC 1
 62
     7
420
 16777215
370
     9
  0
INSERT
  5
6F
330
1F
100
AcDbEntity
  8
_U+30EC_U+30A4_U+30E4_U+30FC 1
100
AcDbBlockReference
  2
block 4
 10
0.0
 20
0.0
 30
0.0
  0
SPLINE
  5
77
330
1F
100
AcDbEntity
  8
_U+30EC_U+30A4_U+30E4_U+30FC 1
 62
     7
420
 16777215
370
     9
100
AcDbSpline
210
0.0
220
0.0
230
1.0
 70
    11
 71
     3
 72
    17
 73
    13
 74
     0
 42
0.0000000001
 43
0.0000000001
 12
1.0
 22
0.0
 32
0.0
 13
1.0
 23
0.0
 33
0.0
 40
0.0
 40
0.0
 40
0.0
 40
0.0
 40
1.0
 40
1.0
 40
1.0
 40
2.0
 40
2.0
 40
2.0
 40
3.0
 40
3.0
 40
3.0
 40
4.0
 40
4.0
 40
4.0
 40
4.0
 10
105.9180678533605
 20
-131.0852019116729
 30
0.0
 10
105.9180678533605
 20
-131.1410113561039
 30
0.0
 10
105.9628706299953
 20
-131.1851085783152
 30
0.0
 10
106.0179745174784
 20
-131.1851085783152
 30
0.0
 10
106.0731136827383
 20
-131.1851085783152
 30
0.0
 10
106.1178811815962
 20
-131.1410113561039
 30
0.0
 10
106.1178811815962
 20
-131.0852019116729
 30
0.0
 10
106.1178811815962
 20
-131.0300627450204
 30
0.0
 10
106.0731136827383
 20
-130.9852952450312
 30
0.0
 10
106.0179745174784
 20
-130.9852952450312
 30
0.0
 10
105.9628706299953
 20
-130.9852952450312
 30
0.0
 10
105.9180678533605
 20
-131.0300627450204
 30
0.0
 10
105.9180678533605
 20
-131.0852019116729
 30
0.0
  0
SPLINE
  5
78
330
1F
100
AcDbEntity
  8
_U+30EC_U+30A4_U+30E4_U+30FC 1
 62
     7
420
 16777215
370
     9
100
AcDbSpline
210
0.0
220
0.0
230
1.0
 70
    11
 71
     3
 72
    17
 73
    13
 74
     0
 42
0.0000000001
 43
0.0000000001
 12
1.0
 22
0.0
 32
0.0
 13
1.0
 23
0.0
 33
0.0
 40
0.0
 40
0.0
 40
0.0
 40
0.0
 40
1.0
 40
1.0
 40
1.0
 40
2.0
 40
2.0
 40
2.0
 40
3.0
 40
3.0
 40
3.0
 40
4.0
 40
4.0
 40
4.0
 40
4.0
 10
105.9180678533605
 20
-132.0852916336457
 30
0.0
 10
105.9180678533605
 20
-132.1407835780759
 30
0.0
 10
105.9628706299953
 20
-132.1855510780644
 30
0.0
 10
106.0179745174784
 20
-132.1855510780644
 30
0.0
 10
106.0731136827383
 20
-132.1855510780644
 30
0.0
 10
106.1178811815962
 20
-132.1407835780759
 30
0.0
 10
106.1178811815962
 20
-132.0852916336457
 30
0.0
 10
106.1178811815962
 20
-132.0301877447701
 30
0.0
 10
106.0731136827383
 20
-131.9853849670034
 30
0.0
 10
106.0179745174784
 20
-131.9853849670034
 30
0.0
 10
105.9628706299953
 20
-131.9853849670034
 30
0.0
 10
105.9180678533605
 20
-132.0301877447701
 30
0.0
 10
105.9180678533605
 20
-132.0852916336457
 30
0.0
  0
POLYLINE
  5
79
330
1F
100
AcDbEntity
  8
_U+30EC_U+30A4_U+30E4_U+30FC 1
 62
     7
420
 16777215
370
     9
100
AcDb2dPolyline
 66
     1
 10
0.0
 20
0.0
 30
0.0
  0
VERTEX
  5
7A
330
79
100
AcDbEntity
  8
_U+30EC_U+30A4_U+30E4_U+30FC 1
 62
     7
420
 16777215
370
     9
100
AcDbVertex
100
AcDb2dVertex
 10
106.0179745174784
 20
-131.0831205227845
 30
0.0
  0
VERTEX
  5
7B
330
79
100
AcDbEntity
  8
_U+30EC_U+30A4_U+30E4_U+30FC 1
 62
     7
420
 16777215
370
     9
100
AcDbVertex
100
AcDb2dVertex
 10
106.0179745174784
 20
-124.5834369132987
 30
0.0
  0
SEQEND
  5
7C
330
79
100
AcDbEntity
  8
_U+30EC_U+30A4_U+30E4_U+30FC 1
 62
     7
420
 16777215
370
     9
  0
POLYLINE
  5
7D
330
1F
100
AcDbEntity
  8
_U+30EC_U+30A4_U+30E4_U+30FC 1
 62
     7
420
 16777215
370
     9
100
AcDb2dPolyline
 66
     1
 10
0.0
 20
0.0
 30
0.0
  0
VERTEX
  5
7E
330
7D
100
AcDbEntity
  8
_U+30EC_U+30A4_U+30E4_U+30FC 1
 62
     7
420
 16777215
370
     9
100
AcDbVertex
100
AcDb2dVertex
 10
106.0179745174784
 20
-132.0852916336457
 30
0.0
  0
VERTEX
  5
7F
330
7D
100
AcDbEntity
  8
_U+30EC_U+30A4_U+30E4_U+30FC 1
 62
     7
420
 16777215
370
     9
100
AcDbVertex
100
AcDb2dVertex
 10
106.0179745174784
 20
-131.0852019116729
 30
0.0
  0
SEQEND
  5
80
330
7D
100
AcDbEntity
  8
_U+30EC_U+30A4_U+30E4_U+30FC 1
 62
     7
420
 16777215
370
     9
  0
POLYLINE
  5
81
330
1F
100
AcDbEntity
  8
_U+30EC_U+30A4_U+30E4_U+30FC 1
 62
     7
420
 16777215
370
     9
100
AcDb2dPolyline
 66
     1
 10
0.0
 20
0.0
 30
0.0
  0
VERTEX
  5
82
330
81
100
AcDbEntity
  8
_U+30EC_U+30A4_U+30E4_U+30FC 1
 62
     7
420
 16777215
370
     9
100
AcDbVertex
100
AcDb2dVertex
 10
104.7322759391681
 20
-131.0855546894506
 30
0.0
  0
VERTEX
  5
83
330
81
100
AcDbEntity
  8
_U+30EC_U+30A4_U+30E4_U+30FC 1
 62
     7
420
 16777215
370
     9
100
AcDbVertex
100
AcDb2dVertex
 10
107.1920894875242
 20
-131.0855546894506
 30
0.0
  0
SEQEND
  5
84
330
81
100
AcDbEntity
  8
_U+30EC_U+30A4_U+30E4_U+30FC 1
 62
     7
420
 16777215
370
     9
  0
POLYLINE
  5
85
330
1F
100
AcDbEntity
  8
_U+30EC_U+30A4_U+30E4_U+30FC 1
 62
     7
420
 16777215
370
     9
100
AcDb2dPolyline
 66
     1
 10
0.0
 20
0.0
 30
0.0
  0
VERTEX
  5
86
330
85
100
AcDbEntity
  8
_U+30EC_U+30A4_U+30E4_U+30FC 1
 62
     7
420
 16777215
370
     9
100
AcDbVertex
100
AcDb2dVertex
 10
104.7322759391681
 20
-132.0852916336457
 30
0.0
  0
VERTEX
  5
87
330
85
100
AcDbEntity
  8
_U+30EC_U+30A4_U+30E4_U+30FC 1
 62
     7
420
 16777215
370
     9
100
AcDbVertex
100
AcDb2dVertex
 10
107.1920894875242
 20
-132.0852916336457
 30
0.0
  0
SEQEND
  5
88
330
85
100
AcDbEntity
  8
_U+30EC_U+30A4_U+30E4_U+30FC 1
 62
     7
420
 16777215
370
     9
  0
SPLINE
  5
89
330
1F
100
AcDbEntity
  8
_U+30EC_U+30A4_U+30E4_U+30FC 1
 62
     7
420
 16777215
370
     9
100
AcDbSpline
210
0.0
220
0.0
230
1.0
 70
    11
 71
     3
 72
    17
 73
    13
 74
     0
 42
0.0000000001
 43
0.0000000001
 12
1.0
 22
0.0
 32
0.0
 13
1.0
 23
0.0
 33
0.0
 40
0.0
 40
0.0
 40
0.0
 40
0.0
 40
1.0
 40
1.0
 40
1.0
 40
2.0
 40
2.0
 40
2.0
 40
3.0
 40
3.0
 40
3.0
 40
4.0
 40
4.0
 40
4.0
 40
4.0
 10
106.118233959365
 20
-124.5813555244103
 30
0.0
 10
106.118233959365
 20
-124.5258988577573
 30
0.0
 10
106.0734664605071
 20
-124.4814488577687
 30
0.0
 10
106.0183272952471
 20
-124.4814488577687
 30
0.0
 10
105.9632234077641
 20
-124.4814488577687
 30
0.0
 10
105.9184206311293
 20
-124.5258988577573
 30
0.0
 10
105.9184206311293
 20
-124.5813555244103
 30
0.0
 10
105.9184206311293
 20
-124.6364946910631
 30
0.0
 10
105.9632234077641
 20
-124.6812621910519
 30
0.0
 10
106.0183272952471
 20
-124.6812621910519
 30
0.0
 10
106.0734664605071
 20
-124.6812621910519
 30
0.0
 10
106.118233959365
 20
-124.6364946910631
 30
0.0
 10
106.118233959365
 20
-124.5813555244103
 30
0.0
  0
POLYLINE
  5
8A
330
1F
100
AcDbEntity
  8
_U+30EC_U+30A4_U+30E4_U+30FC 1
 62
     7
420
 16777215
370
     9
100
AcDb2dPolyline
 66
     1
 10
0.0
 20
0.0
 30
0.0
  0
VERTEX
  5
8B
330
8A
100
AcDbEntity
  8
_U+30EC_U+30A4_U+30E4_U+30FC 1
 62
     7
420
 16777215
370
     9
100
AcDbVertex
100
AcDb2dVertex
 10
94.86275341318287
 20
-124.5813555244103
 30
0.0
  0
VERTEX
  5
8C
330
8A
100
AcDbEntity
  8
_U+30EC_U+30A4_U+30E4_U+30FC 1
 62
     7
420
 16777215
370
     9
100
AcDbVertex
100
AcDb2dVertex
 10
107.1920894875242
 20
-124.5813555244103
 30
0.0
  0
SEQEND
  5
8D
330
8A
100
AcDbEntity
  8
_U+30EC_U+30A4_U+30E4_U+30FC 1
 62
     7
420
 16777215
370
     9
  0
INSERT
  5
8F
330
1F
100
AcDbEntity
  8
_U+30EC_U+30A4_U+30E4_U+30FC 1
100
AcDbBlockReference
  2
block 5
 10
0.0
 20
0.0
 30
0.0
  0
SPLINE
  5
97
330
1F
100
AcDbEntity
  8
_U+30EC_U+30A4_U+30E4_U+30FC 1
 62
     7
420
 16777215
370
     9
100
AcDbSpline
210
0.0
220
0.0
230
1.0
 70
    11
 71
     3
 72
    17
 73
    13
 74
     0
 42
0.0000000001
 43
0.0000000001
 12
1.0
 22
0.0
 32
0.0
 13
1.0
 23
0.0
 33
0.0
 40
0.0
 40
0.0
 40
0.0
 40
0.0
 40
1.0
 40
1.0
 40
1.0
 40
2.0
 40
2.0
 40
2.0
 40
3.0
 40
3.0
 40
3.0
 40
4.0
 40
4.0
 40
4.0
 40
4.0
 10
102.6473240479153
 20
-135.9862024660035
 30
0.0
 10
102.6473240479153
 20
-136.0413063548785
 30
0.0
 10
102.6025212712805
 20
-136.0861091326452
 30
0.0
 10
102.5473821060205
 20
-136.0861091326452
 30
0.0
 10
102.4922782185375
 20
-136.0861091326452
 30
0.0
 10
102.4474754419027
 20
-136.0413063548785
 30
0.0
 10
102.4474754419027
 20
-135.9862024660035
 30
0.0
 10
102.4474754419027
 20
-135.9310632993505
 30
0.0
 10
102.4922782185375
 20
-135.8862957993619
 30
0.0
 10
102.5473821060205
 20
-135.8862957993619
 30
0.0
 10
102.6025212712805
 20
-135.8862957993619
 30
0.0
 10
102.6473240479153
 20
-135.9310632993505
 30
0.0
 10
102.6473240479153
 20
-135.9862024660035
 30
0.0
  0
SPLINE
  5
98
330
1F
100
AcDbEntity
  8
_U+30EC_U+30A4_U+30E4_U+30FC 1
 62
     7
420
 16777215
370
     9
100
AcDbSpline
210
0.0
220
0.0
230
1.0
 70
    11
 71
     3
 72
    17
 73
    13
 74
     0
 42
0.0000000001
 43
0.0000000001
 12
1.0
 22
0.0
 32
0.0
 13
1.0
 23
0.0
 33
0.0
 40
0.0
 40
0.0
 40
0.0
 40
0.0
 40
1.0
 40
1.0
 40
1.0
 40
2.0
 40
2.0
 40
2.0
 40
3.0
 40
3.0
 40
3.0
 40
4.0
 40
4.0
 40
4.0
 40
4.0
 10
72.64431564668911
 20
-135.9862024660035
 30
0.0
 10
72.64431564668911
 20
-136.0413063548785
 30
0.0
 10
72.59951287005434
 20
-136.0861091326452
 30
0.0
 10
72.54440898257127
 20
-136.0861091326452
 30
0.0
 10
72.48926981731132
 20
-136.0861091326452
 30
0.0
 10
72.44450231845343
 20
-136.0413063548785
 30
0.0
 10
72.44450231845343
 20
-135.9862024660035
 30
0.0
 10
72.44450231845343
 20
-135.9310632993505
 30
0.0
 10
72.48926981731132
 20
-135.8862957993619
 30
0.0
 10
72.54440898257127
 20
-135.8862957993619
 30
0.0
 10
72.59951287005434
 20
-135.8862957993619
 30
0.0
 10
72.64431564668911
 20
-135.9310632993505
 30
0.0
 10
72.64431564668911
 20
-135.9862024660035
 30
0.0
  0
POLYLINE
  5
99
330
1F
100
AcDbEntity
  8
_U+30EC_U+30A4_U+30E4_U+30FC 1
 62
     7
420
 16777215
370
     9
100
AcDb2dPolyline
 66
     1
 10
0.0
 20
0.0
 30
0.0
  0
VERTEX
  5
9A
330
99
100
AcDbEntity
  8
_U+30EC_U+30A4_U+30E4_U+30FC 1
 62
     7
420
 16777215
370
     9
100
AcDbVertex
100
AcDb2dVertex
 10
102.5456887727304
 20
-135.9862024660035
 30
0.0
  0
VERTEX
  5
9B
330
99
100
AcDbEntity
  8
_U+30EC_U+30A4_U+30E4_U+30FC 1
 62
     7
420
 16777215
370
     9
100
AcDbVertex
100
AcDb2dVertex
 10
72.54578481586951
 20
-135.9862024660035
 30
0.0
  0
SEQEND
  5
9C
330
99
100
AcDbEntity
  8
_U+30EC_U+30A4_U+30E4_U+30FC 1
 62
     7
420
 16777215
370
     9
  0
POLYLINE
  5
9D
330
1F
100
AcDbEntity
  8
_U+30EC_U+30A4_U+30E4_U+30FC 1
 62
     7
420
 16777215
370
    25
100
AcDb2dPolyline
 66
     1
 10
0.0
 20
0.0
 30
0.0
  0
VERTEX
  5
9E
330
9D
100
AcDbEntity
  8
_U+30EC_U+30A4_U+30E4_U+30FC 1
 62
     7
420
 16777215
370
    25
100
AcDbVertex
100
AcDb2dVertex
 10
93.54812705783289
 20
-131.0852019116729
 30
0.0
  0
VERTEX
  5
9F
330
9D
100
AcDbEntity
  8
_U+30EC_U+30A4_U+30E4_U+30FC 1
 62
     7
420
 16777215
370
    25
100
AcDbVertex
100
AcDb2dVertex
 10
93.54812705783289
 20
-124.5813555244103
 30
0.0
  0
VERTEX
  5
A0
330
9D
100
AcDbEntity
  8
_U+30EC_U+30A4_U+30E4_U+30FC 1
 62
     7
420
 16777215
370
    25
100
AcDbVertex
100
AcDb2dVertex
 10
92.54800208334821
 20
-124.5813555244103
 30
0.0
  0
VERTEX
  5
A1
330
9D
100
AcDbEntity
  8
_U+30EC_U+30A4_U+30E4_U+30FC 1
 62
     7
420
 16777215
370
    25
100
AcDbVertex
100
AcDb2dVertex
 10
92.54800208334821
 20
-131.0852019116729
 30
0.0
  0
VERTEX
  5
A2
330
9D
100
AcDbEntity
  8
_U+30EC_U+30A4_U+30E4_U+30FC 1
 62
     7
420
 16777215
370
    25
100
AcDbVertex
100
AcDb2dVertex
 10
82.54191928306909
 20
-131.0852019116729
 30
0.0
  0
VERTEX
  5
A3
330
9D
100
AcDbEntity
  8
_U+30EC_U+30A4_U+30E4_U+30FC 1
 62
     7
420
 16777215
370
    25
100
AcDbVertex
100
AcDb2dVertex
 10
82.54191928306909
 20
-124.5813555244103
 30
0.0
  0
VERTEX
  5
A4
330
9D
100
AcDbEntity
  8
_U+30EC_U+30A4_U+30E4_U+30FC 1
 62
     7
420
 16777215
370
    25
100
AcDbVertex
100
AcDb2dVertex
 10
81.5417943085844
 20
-124.5813555244103
 30
0.0
  0
VERTEX
  5
A5
330
9D
100
AcDbEntity
  8
_U+30EC_U+30A4_U+30E4_U+30FC 1
 62
     7
420
 16777215
370
    25
100
AcDbVertex
100
AcDb2dVertex
 10
81.5417943085844
 20
-131.0852019116729
 30
0.0
  0
VERTEX
  5
A6
330
9D
100
AcDbEntity
  8
_U+30EC_U+30A4_U+30E4_U+30FC 1
 62
     7
420
 16777215
370
    25
100
AcDbVertex
100
AcDb2dVertex
 10
72.54786620470529
 20
-131.0852019116729
 30
0.0
  0
VERTEX
  5
A7
330
9D
100
AcDbEntity
  8
_U+30EC_U+30A4_U+30E4_U+30FC 1
 62
     7
420
 16777215
370
    25
100
AcDbVertex
100
AcDb2dVertex
 10
72.54786620470529
 20
-132.0856444114228
 30
0.0
  0
VERTEX
  5
A8
330
9D
100
AcDbEntity
  8
_U+30EC_U+30A4_U+30E4_U+30FC 1
 62
     7
420
 16777215
370
    25
100
AcDbVertex
100
AcDb2dVertex
 10
102.5477348837893
 20
-132.0856444114228
 30
0.0
  0
VERTEX
  5
A9
330
9D
100
AcDbEntity
  8
_U+30EC_U+30A4_U+30E4_U+30FC 1
 62
     7
420
 16777215
370
    25
100
AcDbVertex
100
AcDb2dVertex
 10
102.5477348837893
 20
-131.0852019116729
 30
0.0
  0
VERTEX
  5
AA
330
9D
100
AcDbEntity
  8
_U+30EC_U+30A4_U+30E4_U+30FC 1
 62
     7
420
 16777215
370
    25
100
AcDbVertex
100
AcDb2dVertex
 10
93.54812705783289
 20
-131.0852019116729
 30
0.0
  0
SEQEND
  5
AB
330
9D
100
AcDbEntity
  8
_U+30EC_U+30A4_U+30E4_U+30FC 1
 62
     7
420
 16777215
370
    25
  0
ENDSEC
  0
SECTION
  2
OBJECTS
  0
DICTIONARY
  5
C
330
0
100
AcDbDictionary
281
     1
  3
ACAD_GROUP
350
D
  3
ACAD_LAYOUT
350
1A
  3
ACAD_MATERIAL
350
3B
  3
ACAD_MLEADERSTYLE
350
AD
  3
ACAD_MLINESTYLE
350
17
  3
ACAD_PLOTSETTINGS
350
19
  3
ACAD_PLOTSTYLENAME
350
E
  3
ACAD_TABLESTYLE
350
AC
  3
ACAD_VISUALSTYLE
350
2A
  0
SUN
  5
3F
330
29
100
AcDbSun
 90
        1
290
     0
 63
     7
421
 16777215
 40
1.0
291
     1
 91
  2455826
 92
 54000000
292
     0
 70
     2
 71
   256
280
     1
  0
DICTIONARY
  5
D
102
{ACAD_REACTORS
330
C
102
}
330
C
100
AcDbDictionary
281
     1
  0
DICTIONARY
  5
1A
102
{ACAD_REACTORS
330
C
102
}
330
C
100
AcDbDictionary
281
     1
  3
Layout1
350
1E
  3
Layout2
350
26
  3
Model
350
22
  0
DICTIONARY
  5
3B
102
{ACAD_REACTORS
330
C
102
}
330
C
100
AcDbDictionary
281
     1
  3
ByBlock
350
3D
  3
ByLayer
350
3C
  3
Global
350
3E
  0
DICTIONARY
  5
AD
102
{ACAD_REACTORS
330
C
102
}
330
C
100
AcDbDictionary
281
     1
  0
DICTIONARY
  5
17
102
{ACAD_REACTORS
330
C
102
}
330
C
100
AcDbDictionary
281
     1
  3
Standard
350
18
  0
DICTIONARY
  5
19
102
{ACAD_REACTORS
330
C
102
}
330
C
100
AcDbDictionary
281
     1
  0
ACDBDICTIONARYWDFLT
  5
E
102
{ACAD_REACTORS
330
C
102
}
330
C
100
AcDbDictionary
281
     1
  3
Normal
350
F
100
AcDbDictionaryWithDefault
340
F
  0
DICTIONARY
  5
AC
102
{ACAD_REACTORS
330
C
102
}
330
C
100
AcDbDictionary
281
     1
  0
DICTIONARY
  5
2A
102
{ACAD_REACTORS
330
C
102
}
330
C
100
AcDbDictionary
281
     1
  3
2dWireframe
350
2F
  3
3D Hidden
350
31
  3
3dWireframe
350
30
  3
Basic
350
32
  3
Brighten
350
36
  3
ColorChange
350
3A
  3
Conceptual
350
34
  3
Dim
350
35
  3
Facepattern
350
39
  3
Flat
350
2B
  3
FlatWithEdges
350
2C
  3
Gouraud
350
2D
  3
GouraudWithEdges
350
2E
  3
Linepattern
350
38
  3
Realistic
350
33
  3
Thicken
350
37
  0
LAYOUT
  5
1E
102
{ACAD_REACTORS
330
1A
102
}
330
1A
100
AcDbPlotSettings
  1

  2
none_device
  4

  6

 40
0.0
 41
0.0
 42
0.0
 43
0.0
 44
0.0
 45
0.0
 46
0.0
 47
0.0
 48
0.0
 49
0.0
140
0.0
141
0.0
142
1.0
143
1.0
 70
   688
 72
     0
 73
     0
 74
     5
  7

 75
    16
 76
     0
 77
     2
 78
   300
147
1.0
148
0.0
149
0.0
100
AcDbLayout
  1
Layout1
 70
     1
 71
     1
 10
0.0
 20
0.0
 11
12.0
 21
9.0
 12
0.0
 22
0.0
 32
0.0
 14
1.000000000000000E+20
 24
1.000000000000000E+20
 34
1.000000000000000E+20
 15
-1.000000000000000E+20
 25
-1.000000000000000E+20
 35
-1.000000000000000E+20
146
0.0
 13
0.0
 23
0.0
 33
0.0
 16
1.0
 26
0.0
 36
0.0
 17
0.0
 27
1.0
 37
0.0
 76
     0
330
1B
  0
LAYOUT
  5
26
102
{ACAD_REACTORS
330
1A
102
}
330
1A
100
AcDbPlotSettings
  1

  2
none_device
  4

  6

 40
0.0
 41
0.0
 42
0.0
 43
0.0
 44
0.0
 45
0.0
 46
0.0
 47
0.0
 48
0.0
 49
0.0
140
0.0
141
0.0
142
1.0
143
1.0
 70
   688
 72
     0
 73
     0
 74
     5
  7

 75
    16
 76
     0
 77
     2
 78
   300
147
1.0
148
0.0
149
0.0
100
AcDbLayout
  1
Layout2
 70
     1
 71
     2
 10
0.0
 20
0.0
 11
0.0
 21
0.0
 12
0.0
 22
0.0
 32
0.0
 14
0.0
 24
0.0
 34
0.0
 15
0.0
 25
0.0
 35
0.0
146
0.0
 13
0.0
 23
0.0
 33
0.0
 16
1.0
 26
0.0
 36
0.0
 17
0.0
 27
1.0
 37
0.0
 76
     0
330
23
  0
LAYOUT
  5
22
102
{ACAD_REACTORS
330
1A
102
}
330
1A
100
AcDbPlotSettings
  1

  2
none_device
  4

  6

 40
0.0
 41
0.0
 42
0.0
 43
0.0
 44
0.0
 45
0.0
 46
0.0
 47
0.0
 48
0.0
 49
0.0
140
0.0
141
0.0
142
1.0
143
1.0
 70
  1712
 72
     0
 73
     0
 74
     0
  7

 75
     0
 76
     0
 77
     2
 78
   300
147
1.0
148
0.0
149
0.0
100
AcDbLayout
  1
Model
 70
     1
 71
     0
 10
0.0
 20
0.0
 11
12.0
 21
9.0
 12
0.0
 22
0.0
 32
0.0
 14
1.000000000000000E+20
 24
1.000000000000000E+20
 34
1.000000000000000E+20
 15
-1.000000000000000E+20
 25
-1.000000000000000E+20
 35
-1.000000000000000E+20
146
0.0
 13
0.0
 23
0.0
 33
0.0
 16
1.0
 26
0.0
 36
0.0
 17
0.0
 27
1.0
 37
0.0
 76
     0
330
1F
331
29
  0
MATERIAL
  5
3D
102
{ACAD_REACTORS
330
3B
102
}
330
3B
100
AcDbMaterial
  1
ByBlock
 72
     1
 94
      127
  0
MATERIAL
  5
3C
102
{ACAD_REACTORS
330
3B
102
}
330
3B
100
AcDbMaterial
  1
ByLayer
 72
     1
 94
      127
  0
MATERIAL
  5
3E
102
{ACAD_REACTORS
330
3B
102
}
330
3B
100
AcDbMaterial
  1
Global
 72
     1
 94
      127
  0
MLINESTYLE
  5
18
102
{ACAD_REACTORS
330
17
102
}
330
17
100
AcDbMlineStyle
  2
Standard
 70
     0
  3

 62
   256
 51
90.0
 52
90.0
 71
     2
 49
0.5
 62
   256
  6
BYLAYER
 49
-0.5
 62
   256
  6
BYLAYER
  0
ACDBPLACEHOLDER
  5
F
102
{ACAD_REACTORS
330
E
102
}
330
E
  0
VISUALSTYLE
  5
2F
102
{ACAD_REACTORS
330
2A
102
}
330
2A
100
AcDbVisualStyle
  2
2dWireframe
 70
     4
177
     2
291
     0
 71
     0
176
     1
 72
     2
176
     1
 73
     0
176
     1
 90
        0
176
     1
 40
-0.6
176
     1
 41
-30.0
176
     1
 62
     5
 63
     7
421
 16777215
176
     1
 74
     1
176
     1
 91
        4
176
     1
 64
     7
176
     1
 65
   257
176
     1
 75
     1
176
     1
175
     1
176
     1
 42
1.0
176
     1
 92
        0
176
     1
 66
   257
176
     1
 43
1.0
176
     1
 76
     1
176
     1
 77
     6
176
     1
 78
     2
176
     1
 67
     7
176
     1
 79
     5
176
     1
170
     0
176
     1
171
     0
176
     1
290
     0
176
     1
 93
        1
176
     1
 44
0.0
176
     1
173
     0
176
     1
  0
VISUALSTYLE
  5
31
102
{ACAD_REACTORS
330
2A
102
}
330
2A
100
AcDbVisualStyle
  2
3D Hidden
 70
     6
177
     2
291
     0
 71
     1
176
     1
 72
     2
176
     1
 73
     2
176
     1
 90
        0
176
     1
 40
-0.6
176
     1
 41
-30.0
176
     1
 62
     5
 63
     7
421
 16777215
176
     1
 74
     2
176
     1
 91
        2
176
     1
 64
     7
176
     1
 65
   257
176
     1
 75
     2
176
     1
175
     1
176
     1
 42
40.0
176
     1
 92
        0
176
     1
 66
   257
176
     1
 43
1.0
176
     1
 76
     1
176
     1
 77
     6
176
     1
 78
     2
176
     1
 67
     7
176
     1
 79
     3
176
     1
170
     0
176
     1
171
     0
176
     1
290
     0
176
     1
 93
        1
176
     1
 44
0.0
176
     1
173
     0
176
     1
  0
VISUALSTYLE
  5
30
102
{ACAD_REACTORS
330
2A
102
}
330
2A
100
AcDbVisualStyle
  2
3dWireframe
 70
     5
177
     2
291
     0
 71
     0
176
     1
 72
     2
176
     1
 73
     0
176
     1
 90
        0
176
     1
 40
-0.6
176
     1
 41
-30.0
176
     1
 62
     5
 63
     7
421
 16777215
176
     1
 74
     1
176
     1
 91
        4
176
     1
 64
     7
176
     1
 65
   257
176
     1
 75
     1
176
     1
175
     1
176
     1
 42
1.0
176
     1
 92
        0
176
     1
 66
   257
176
     1
 43
1.0
176
     1
 76
     1
176
     1
 77
     6
176
     1
 78
     2
176
     1
 67
     7
176
     1
 79
     5
176
     1
170
     0
176
     1
171
     0
176
     1
290
     0
176
     1
 93
        1
176
     1
 44
0.0
176
     1
173
     0
176
     1
  0
VISUALSTYLE
  5
32
102
{ACAD_REACTORS
330
2A
102
}
330
2A
100
AcDbVisualStyle
  2
Basic
 70
     7
177
     2
291
     1
 71
     1
176
     1
 72
     0
176
     1
 73
     1
176
     1
 90
        0
176
     1
 40
-0.6
176
     1
 41
-30.0
176
     1
 62
     5
 63
     7
421
 16777215
176
     1
 74
     0
176
     1
 91
        4
176
     1
 64
     7
176
     1
 65
   257
176
     1
 75
     1
176
     1
175
     1
176
     1
 42
1.0
176
     1
 92
        8
176
     1
 66
     7
176
     1
 43
1.0
176
     1
 76
     1
176
     1
 77
     6
176
     1
 78
     2
176
     1
 67
     7
176
     1
 79
     5
176
     1
170
     0
176
     1
171
     0
176
     1
290
     0
176
     1
 93
        1
176
     1
 44
0.0
176
     1
173
     0
176
     1
  0
VISUALSTYLE
  5
36
102
{ACAD_REACTORS
330
2A
102
}
330
2A
100
AcDbVisualStyle
  2
Brighten
 70
    12
177
     2
291
     1
 71
     2
176
     1
 72
     2
176
     1
 73
     0
176
     1
 90
        0
176
     1
 40
-0.6
176
     1
 41
-30.0
176
     1
 62
     5
 63
     7
421
 16777215
176
     1
 74
     1
176
     1
 91
        4
176
     1
 64
     7
176
     1
 65
   257
176
     1
 75
     1
176
     1
175
     1
176
     1
 42
1.0
176
     1
 92
        8
176
     1
 66
     7
176
     1
 43
1.0
176
     1
 76
     1
176
     1
 77
     6
176
     1
 78
     2
176
     1
 67
     7
176
     1
 79
     5
176
     1
170
     0
176
     1
171
     0
176
     1
290
     0
176
     1
 93
        1
176
     1
 44
50.0
176
     1
173
     0
176
     1
  0
VISUALSTYLE
  5
3A
102
{ACAD_REACTORS
330
2A
102
}
330
2A
100
AcDbVisualStyle
  2
ColorChange
 70
    16
177
     2
291
     1
 71
     2
176
     1
 72
     2
176
     1
 73
     3
176
     1
 90
        0
176
     1
 40
-0.6
176
     1
 41
-30.0
176
     1
 62
     5
 63
     8
421
  8421504
176
     1
 74
     1
176
     1
 91
        4
176
     1
 64
     7
176
     1
 65
   257
176
     1
 75
     1
176
     1
175
     1
176
     1
 42
1.0
176
     1
 92
        8
176
     1
 66
     8
424
  8421504
176
     1
 43
1.0
176
     1
 76
     1
176
     1
 77
     6
176
     1
 78
     2
176
     1
 67
     7
176
     1
 79
     5
176
     1
170
     0
176
     1
171
     0
176
     1
290
     0
176
     1
 93
        1
176
     1
 44
0.0
176
     1
173
     0
176
     1
  0
VISUALSTYLE
  5
34
102
{ACAD_REACTORS
330
2A
102
}
330
2A
100
AcDbVisualStyle
  2
Conceptual
 70
     9
177
     2
291
     0
 71
     3
176
     1
 72
     2
176
     1
 73
     0
176
     1
 90
        0
176
     1
 40
-0.6
176
     1
 41
-30.0
176
     1
 62
     5
 63
     7
421
 16777215
176
     1
 74
     2
176
     1
 91
        2
176
     1
 64
     7
176
     1
 65
   257
176
     1
 75
     1
176
     1
175
     1
176
     1
 42
40.0
176
     1
 92
        8
176
     1
 66
     7
176
     1
 43
1.0
176
     1
 76
     1
176
     1
 77
     6
176
     1
 78
     2
176
     1
 67
     7
176
     1
 79
     3
176
     1
170
     0
176
     1
171
     0
176
     1
290
     0
176
     1
 93
        1
176
     1
 44
0.0
176
     1
173
     0
176
     1
  0
VISUALSTYLE
  5
35
102
{ACAD_REACTORS
330
2A
102
}
330
2A
100
AcDbVisualStyle
  2
Dim
 70
    11
177
     2
291
     1
 71
     2
176
     1
 72
     2
176
     1
 73
     0
176
     1
 90
        0
176
     1
 40
-0.6
176
     1
 41
-30.0
176
     1
 62
     5
 63
     7
421
 16777215
176
     1
 74
     1
176
     1
 91
        4
176
     1
 64
     7
176
     1
 65
   257
176
     1
 75
     1
176
     1
175
     1
176
     1
 42
1.0
176
     1
 92
        8
176
     1
 66
     7
176
     1
 43
1.0
176
     1
 76
     1
176
     1
 77
     6
176
     1
 78
     2
176
     1
 67
     7
176
     1
 79
     5
176
     1
170
     0
176
     1
171
     0
176
     1
290
     0
176
     1
 93
        1
176
     1
 44
-50.0
176
     1
173
     0
176
     1
  0
VISUALSTYLE
  5
39
102
{ACAD_REACTORS
330
2A
102
}
330
2A
100
AcDbVisualStyle
  2
Facepattern
 70
    15
177
     2
291
     1
 71
     2
176
     1
 72
     2
176
     1
 73
     0
176
     1
 90
        0
176
     1
 40
-0.6
176
     1
 41
-30.0
176
     1
 62
     5
 63
     7
421
 16777215
176
     1
 74
     1
176
     1
 91
        4
176
     1
 64
     7
176
     1
 65
   257
176
     1
 75
     1
176
     1
175
     1
176
     1
 42
1.0
176
     1
 92
        8
176
     1
 66
     7
176
     1
 43
1.0
176
     1
 76
     1
176
     1
 77
     6
176
     1
 78
     2
176
     1
 67
     7
176
     1
 79
     5
176
     1
170
     0
176
     1
171
     0
176
     1
290
     0
176
     1
 93
        1
176
     1
 44
0.0
176
     1
173
     0
176
     1
  0
VISUALSTYLE
  5
2B
102
{ACAD_REACTORS
330
2A
102
}
330
2A
100
AcDbVisualStyle
  2
Flat
 70
     0
177
     2
291
     1
 71
     2
176
     1
 72
     1
176
     1
 73
     1
176
     1
 90
        2
176
     1
 40
-0.6
176
     1
 41
30.0
176
     1
 62
     5
 63
     7
421
 16777215
176
     1
 74
     0
176
     1
 91
        4
176
     1
 64
     7
176
     1
 65
   257
176
     1
 75
     1
176
     1
175
     1
176
     1
 42
1.0
176
     1
 92
        8
176
     1
 66
     7
176
     1
 43
1.0
176
     1
 76
     1
176
     1
 77
     6
176
     1
 78
     2
176
     1
 67
     7
176
     1
 79
     5
176
     1
170
     0
176
     1
171
     0
176
     1
290
     0
176
     1
 93
       13
176
     1
 44
0.0
176
     1
173
     0
176
     1
  0
VISUALSTYLE
  5
2C
102
{ACAD_REACTORS
330
2A
102
}
330
2A
100
AcDbVisualStyle
  2
FlatWithEdges
 70
     1
177
     2
291
     1
 71
     2
176
     1
 72
     1
176
     1
 73
     1
176
     1
 90
        2
176
     1
 40
-0.6
176
     1
 41
30.0
176
     1
 62
     5
 63
     7
421
 16777215
176
     1
 74
     1
176
     1
 91
        4
176
     1
 64
     7
176
     1
 65
   257
176
     1
 75
     1
176
     1
175
     1
176
     1
 42
1.0
176
     1
 92
        0
176
     1
 66
   257
176
     1
 43
1.0
176
     1
 76
     1
176
     1
 77
     6
176
     1
 78
     2
176
     1
 67
     7
176
     1
 79
     5
176
     1
170
     0
176
     1
171
     0
176
     1
290
     0
176
     1
 93
       13
176
     1
 44
0.0
176
     1
173
     0
176
     1
  0
VISUALSTYLE
  5
2D
102
{ACAD_REACTORS
330
2A
102
}
330
2A
100
AcDbVisualStyle
  2
Gouraud
 70
     2
177
     2
291
     1
 71
     2
176
     1
 72
     2
176
     1
 73
     1
176
     1
 90
        2
176
     1
 40
-0.6
176
     1
 41
30.0
176
     1
 62
     5
 63
     7
421
 16777215
176
     1
 74
     0
176
     1
 91
        4
176
     1
 64
     7
176
     1
 65
   257
176
     1
 75
     1
176
     1
175
     1
176
     1
 42
1.0
176
     1
 92
        0
176
     1
 66
     7
176
     1
 43
1.0
176
     1
 76
     1
176
     1
 77
     6
176
     1
 78
     2
176
     1
 67
     7
176
     1
 79
     5
176
     1
170
     0
176
     1
171
     0
176
     1
290
     0
176
     1
 93
       13
176
     1
 44
0.0
176
     1
173
     0
176
     1
  0
VISUALSTYLE
  5
2E
102
{ACAD_REACTORS
330
2A
102
}
330
2A
100
AcDbVisualStyle
  2
GouraudWithEdges
 70
     3
177
     2
291
     1
 71
     2
176
     1
 72
     2
176
     1
 73
     1
176
     1
 90
        2
176
     1
 40
-0.6
176
     1
 41
30.0
176
     1
 62
     5
 63
     7
421
 16777215
176
     1
 74
     1
176
     1
 91
        4
176
     1
 64
     7
176
     1
 65
   257
176
     1
 75
     1
176
     1
175
     1
176
     1
 42
1.0
176
     1
 92
        0
176
     1
 66
   257
176
     1
 43
1.0
176
     1
 76
     1
176
     1
 77
     6
176
     1
 78
     2
176
     1
 67
     7
176
     1
 79
     5
176
     1
170
     0
176
     1
171
     0
176
     1
290
     0
176
     1
 93
       13
176
     1
 44
0.0
176
     1
173
     0
176
     1
  0
VISUALSTYLE
  5
38
102
{ACAD_REACTORS
330
2A
102
}
330
2A
100
AcDbVisualStyle
  2
Linepattern
 70
    14
177
     2
291
     1
 71
     2
176
     1
 72
     2
176
     1
 73
     0
176
     1
 90
        0
176
     1
 40
-0.6
176
     1
 41
-30.0
176
     1
 62
     5
 63
     7
421
 16777215
176
     1
 74
     1
176
     1
 91
        4
176
     1
 64
     7
176
     1
 65
   257
176
     1
 75
     7
176
     1
175
     7
176
     1
 42
1.0
176
     1
 92
        8
176
     1
 66
     7
176
     1
 43
1.0
176
     1
 76
     1
176
     1
 77
     6
176
     1
 78
     2
176
     1
 67
     7
176
     1
 79
     5
176
     1
170
     0
176
     1
171
     0
176
     1
290
     0
176
     1
 93
        1
176
     1
 44
0.0
176
     1
173
     0
176
     1
  0
VISUALSTYLE
  5
33
102
{ACAD_REACTORS
330
2A
102
}
330
2A
100
AcDbVisualStyle
  2
Realistic
 70
     8
177
     2
291
     0
 71
     2
176
     1
 72
     2
176
     1
 73
     0
176
     1
 90
        0
176
     1
 40
-0.6
176
     1
 41
-30.0
176
     1
 62
     5
 63
     7
421
 16777215
176
     1
 74
     1
176
     1
 91
        0
176
     1
 64
     7
176
     1
 65
   257
176
     1
 75
     1
176
     1
175
     1
176
     1
 42
1.0
176
     1
 92
        8
176
     1
 66
     8
424
  7895160
176
     1
 43
1.0
176
     1
 76
     1
176
     1
 77
     6
176
     1
 78
     2
176
     1
 67
     7
176
     1
 79
     5
176
     1
170
     0
176
     1
171
     0
176
     1
290
     0
176
     1
 93
       13
176
     1
 44
0.0
176
     1
173
     0
176
     1
  0
VISUALSTYLE
  5
37
102
{ACAD_REACTORS
330
2A
102
}
330
2A
100
AcDbVisualStyle
  2
Thicken
 70
    13
177
     2
291
     1
 71
     2
176
     1
 72
     2
176
     1
 73
     0
176
     1
 90
        0
176
     1
 40
-0.6
176
     1
 41
-30.0
176
     1
 62
     5
 63
     7
421
 16777215
176
     1
 74
     1
176
     1
 91
        4
176
     1
 64
     7
176
     1
 65
   257
176
     1
 75
     1
176
     1
175
     1
176
     1
 42
1.0
176
     1
 92
       12
176
     1
 66
     7
176
     1
 43
1.0
176
     1
 76
     1
176
     1
 77
     6
176
     1
 78
     2
176
     1
 67
     7
176
     1
 79
     5
176
     1
170
     0
176
     1
171
     0
176
     1
290
     0
176
     1
 93
        1
176
     1
 44
0.0
176
     1
173
     0
176
     1
  0
ENDSEC
  0
EOF
