  0
SECTION
  2
HEADER
  9
$ACADVER
  1
AC1024
  9
$ACADMAINTVER
 70
     6
  9
$DWGCODEPAGE
  3
UNDEFINED
  9
$INSBASE
 10
0.0
 20
0.0
 30
0.0
  9
$EXTMIN
 10
1.000000000000000E+20
 20
1.000000000000000E+20
 30
1.000000000000000E+20
  9
$EXTMAX
 10
-1.000000000000000E+20
 20
-1.000000000000000E+20
 30
-1.000000000000000E+20
  9
$LIMMIN
 10
0.0
 20
0.0
  9
$LIMMAX
 10
12.0
 20
9.0
  9
$ORTHOMODE
 70
     0
  9
$REGENMODE
 70
     1
  9
$FILLMODE
 70
     1
  9
$QTEXTMODE
 70
     0
  9
$MIRRTEXT
 70
     1
  9
$LTSCALE
 40
1.0
  9
$ATTMODE
 70
     1
  9
$TEXTSIZE
 40
0.2
  9
$TRACEWID
 40
0.05
  9
$TEXTSTYLE
  7
Standard
  9
$CLAYER
  8
0
  9
$CELTYPE
  6
ByLayer
  9
$CECOLOR
 62
   256
  9
$CELTSCALE
 40
1.0
  9
$DISPSILH
 70
     0
  9
$DIMSCALE
 40
1.0
  9
$DIMASZ
 40
0.18
  9
$DIMEXO
 40
0.0625
  9
$DIMDLI
 40
0.38
  9
$DIMRND
 40
0.0
  9
$DIMDLE
 40
0.0
  9
$DIMEXE
 40
0.18
  9
$DIMTP
 40
0.0
  9
$DIMTM
 40
0.0
  9
$DIMTXT
 40
0.18
  9
$DIMCEN
 40
0.09
  9
$DIMTSZ
 40
0.0
  9
$DIMTOL
 70
     0
  9
$DIMLIM
 70
     0
  9
$DIMTIH
 70
     1
  9
$DIMTOH
 70
     1
  9
$DIMSE1
 70
     0
  9
$DIMSE2
 70
     0
  9
$DIMTAD
 70
     0
  9
$DIMZIN
 70
     0
  9
$DIMBLK
  1

  9
$DIMASO
 70
     1
  9
$DIMSHO
 70
     1
  9
$DIMPOST
  1

  9
$DIMAPOST
  1

  9
$DIMALT
 70
     0
  9
$DIMALTD
 70
     2
  9
$DIMALTF
 40
25.4
  9
$DIMLFAC
 40
1.0
  9
$DIMTOFL
 70
     0
  9
$DIMTVP
 40
0.0
  9
$DIMTIX
 70
     0
  9
$DIMSOXD
 70
     0
  9
$DIMSAH
 70
     0
  9
$DIMBLK1
  1

  9
$DIMBLK2
  1

  9
$DIMSTYLE
  2
Standard
  9
$DIMCLRD
 70
     0
  9
$DIMCLRE
 70
     0
  9
$DIMCLRT
 70
     0
  9
$DIMTFAC
 40
1.0
  9
$DIMGAP
 40
0.09
  9
$DIMJUST
 70
     0
  9
$DIMSD1
 70
     0
  9
$DIMSD2
 70
     0
  9
$DIMTOLJ
 70
     1
  9
$DIMTZIN
 70
     0
  9
$DIMALTZ
 70
     0
  9
$DIMALTTZ
 70
     0
  9
$DIMUPT
 70
     0
  9
$DIMDEC
 70
     4
  9
$DIMTDEC
 70
     4
  9
$DIMALTU
 70
     2
  9
$DIMALTTD
 70
     2
  9
$DIMTXSTY
  7
Standard
  9
$DIMAUNIT
 70
     0
  9
$DIMADEC
 70
     0
  9
$DIMALTRND
 40
0.0
  9
$DIMAZIN
 70
     0
  9
$DIMDSEP
 70
    46
  9
$DIMATFIT
 70
     3
  9
$DIMFRAC
 70
     0
  9
$DIMLDRBLK
  1

  9
$DIMLUNIT
 70
     2
  9
$DIMLWD
 70
    -2
  9
$DIMLWE
 70
    -2
  9
$DIMTMOVE
 70
     0
  9
$DIMFXL
 40
1.0
  9
$DIMFXLON
 70
     0
  9
$DIMJOGANG
 40
0.7853981633974483
  9
$DIMTFILL
 70
     0
  9
$DIMTFILLCLR
 70
     0
  9
$DIMARCSYM
 70
     0
  9
$DIMLTYPE
  6

  9
$DIMLTEX1
  6

  9
$DIMLTEX2
  6

  9
$DIMTXTDIRECTION
 70
     0
  9
$LUNITS
 70
     2
  9
$LUPREC
 70
     4
  9
$SKETCHINC
 40
0.1
  9
$FILLETRAD
 40
0.5
  9
$AUNITS
 70
     0
  9
$AUPREC
 70
     0
  9
$MENU
  1
.
  9
$ELEVATION
 40
0.0
  9
$PELEVATION
 40
0.0
  9
$THICKNESS
 40
0.0
  9
$LIMCHECK
 70
     0
  9
$CHAMFERA
 40
0.5
  9
$CHAMFERB
 40
0.5
  9
$CHAMFERC
 40
1.0
  9
$CHAMFERD
 40
0.0
  9
$SKPOLY
 70
     0
  9
$TDCREATE
 40
2457917.593159711
  9
$TDUCREATE
 40
2457917.218159722
  9
$TDUPDATE
 40
2457917.593159711
  9
$TDUUPDATE
 40
2457917.218159722
  9
$TDINDWG
 40
0.0000000116
  9
$TDUSRTIMER
 40
0.0000000116
  9
$USRTIMER
 70
     1
  9
$ANGBASE
 50
0.0
  9
$ANGDIR
 70
     0
  9
$PDMODE
 70
     0
  9
$PDSIZE
 40
0.0
  9
$PLINEWID
 40
0.0
  9
$SPLFRAME
 70
     0
  9
$SPLINETYPE
 70
     6
  9
$SPLINESEGS
 70
     8
  9
$HANDSEED
  5
C0
  9
$SURFTAB1
 70
     6
  9
$SURFTAB2
 70
     6
  9
$SURFTYPE
 70
     6
  9
$SURFU
 70
     6
  9
$SURFV
 70
     6
  9
$UCSBASE
  2

  9
$UCSNAME
  2

  9
$UCSORG
 10
0.0
 20
0.0
 30
0.0
  9
$UCSXDIR
 10
1.0
 20
0.0
 30
0.0
  9
$UCSYDIR
 10
0.0
 20
1.0
 30
0.0
  9
$UCSORTHOREF
  2

  9
$UCSORTHOVIEW
 70
     0
  9
$UCSORGTOP
 10
0.0
 20
0.0
 30
0.0
  9
$UCSORGBOTTOM
 10
0.0
 20
0.0
 30
0.0
  9
$UCSORGLEFT
 10
0.0
 20
0.0
 30
0.0
  9
$UCSORGRIGHT
 10
0.0
 20
0.0
 30
0.0
  9
$UCSORGFRONT
 10
0.0
 20
0.0
 30
0.0
  9
$UCSORGBACK
 10
0.0
 20
0.0
 30
0.0
  9
$PUCSBASE
  2

  9
$PUCSNAME
  2

  9
$PUCSORG
 10
0.0
 20
0.0
 30
0.0
  9
$PUCSXDIR
 10
1.0
 20
0.0
 30
0.0
  9
$PUCSYDIR
 10
0.0
 20
1.0
 30
0.0
  9
$PUCSORTHOREF
  2

  9
$PUCSORTHOVIEW
 70
     0
  9
$PUCSORGTOP
 10
0.0
 20
0.0
 30
0.0
  9
$PUCSORGBOTTOM
 10
0.0
 20
0.0
 30
0.0
  9
$PUCSORGLEFT
 10
0.0
 20
0.0
 30
0.0
  9
$PUCSORGRIGHT
 10
0.0
 20
0.0
 30
0.0
  9
$PUCSORGFRONT
 10
0.0
 20
0.0
 30
0.0
  9
$PUCSORGBACK
 10
0.0
 20
0.0
 30
0.0
  9
$USERI1
 70
     0
  9
$USERI2
 70
     0
  9
$USERI3
 70
     0
  9
$USERI4
 70
     0
  9
$USERI5
 70
     0
  9
$USERR1
 40
0.0
  9
$USERR2
 40
0.0
  9
$USERR3
 40
0.0
  9
$USERR4
 40
0.0
  9
$USERR5
 40
0.0
  9
$WORLDVIEW
 70
     1
  9
$SHADEDGE
 70
     3
  9
$SHADEDIF
 70
    70
  9
$TILEMODE
 70
     1
  9
$MAXACTVP
 70
    64
  9
$PINSBASE
 10
0.0
 20
0.0
 30
0.0
  9
$PLIMCHECK
 70
     0
  9
$PEXTMIN
 10
1.000000000000000E+20
 20
1.000000000000000E+20
 30
1.000000000000000E+20
  9
$PEXTMAX
 10
-1.000000000000000E+20
 20
-1.000000000000000E+20
 30
-1.000000000000000E+20
  9
$PLIMMIN
 10
0.0
 20
0.0
  9
$PLIMMAX
 10
12.0
 20
9.0
  9
$UNITMODE
 70
     0
  9
$VISRETAIN
 70
     1
  9
$PLINEGEN
 70
     0
  9
$PSLTSCALE
 70
     1
  9
$TREEDEPTH
 70
  3020
  9
$CMLSTYLE
  2
Standard
  9
$CMLJUST
 70
     0
  9
$CMLSCALE
 40
1.0
  9
$PROXYGRAPHICS
 70
     1
  9
$MEASUREMENT
 70
     0
  9
$CELWEIGHT
370
    -1
  9
$ENDCAPS
280
     0
  9
$JOINSTYLE
280
     0
  9
$LWDISPLAY
290
     1
  9
$INSUNITS
 70
     1
  9
$HYPERLINKBASE
  1

  9
$STYLESHEET
  1

  9
$XEDIT
290
     1
  9
$CEPSNTYPE
380
     0
  9
$PSTYLEMODE
290
     1
  9
$FINGERPRINTGUID
  2
{A04FD312-1CD0-1E63-B972-B8CC37ED7A9A}
  9
$VERSIONGUID
  2
{FAEB1C32-E019-11D5-929B-00C0DF256EC4}
  9
$EXTNAMES
290
     1
  9
$PSVPSCALE
 40
0.0
  9
$OLESTARTUP
290
     0
  9
$SORTENTS
280
   127
  9
$INDEXCTL
280
     0
  9
$HIDETEXT
280
     1
  9
$XCLIPFRAME
280
     2
  9
$HALOGAP
280
     0
  9
$OBSCOLOR
 70
   257
  9
$OBSLTYPE
280
     0
  9
$INTERSECTIONDISPLAY
280
     0
  9
$INTERSECTIONCOLOR
 70
   257
  9
$DIMASSOC
280
     2
  9
$PROJECTNAME
  1

  9
$CAMERADISPLAY
290
     0
  9
$LENSLENGTH
 40
50.0
  9
$CAMERAHEIGHT
 40
0.0
  9
$STEPSPERSEC
 40
2.0
  9
$STEPSIZE
 40
6.0
  9
$3DDWFPREC
 40
2.0
  9
$PSOLWIDTH
 40
0.25
  9
$PSOLHEIGHT
 40
4.0
  9
$LOFTANG1
 40
1.570796326794897
  9
$LOFTANG2
 40
1.570796326794897
  9
$LOFTMAG1
 40
0.0
  9
$LOFTMAG2
 40
0.0
  9
$LOFTPARAM
 70
     7
  9
$LOFTNORMALS
280
     1
  9
$LATITUDE
 40
37.795
  9
$LONGITUDE
 40
-122.394
  9
$NORTHDIRECTION
 40
0.0
  9
$TIMEZONE
 70
 -8000
  9
$LIGHTGLYPHDISPLAY
280
     1
  9
$TILEMODELIGHTSYNCH
280
     1
  9
$CMATERIAL
347
3C
  9
$SOLIDHIST
280
     1
  9
$SHOWHIST
280
     1
  9
$DWFFRAME
280
     2
  9
$DGNFRAME
280
     2
  9
$REALWORLDSCALE
290
     1
  9
$INTERFERECOLOR
 62
   256
  9
$CSHADOW
280
     0
  9
$SHADOWPLANELOCATION
 40
0.0
  0
ENDSEC
  0
SECTION
  2
CLASSES
  0
CLASS
  1
ACDBDICTIONARYWDFLT
  2
AcDbDictionaryWithDefault
  3
ObjectDBX Classes
 90
        0
 91
        4
280
     0
281
     0
  0
CLASS
  1
VISUALSTYLE
  2
AcDbVisualStyle
  3
ObjectDBX Classes
 90
     4095
 91
        4
280
     0
281
     0
  0
CLASS
  1
MATERIAL
  2
AcDbMaterial
  3
ObjectDBX Classes
 90
     1153
 91
        4
280
     0
281
     0
  0
CLASS
  1
SUN
  2
AcDbSun
  3
SCENEOE
 90
     1024
 91
        4
280
     0
281
     0
  0
ENDSEC
  0
SECTION
  2
TABLES
  0
TABLE
  2
VPORT
  5
8
330
0
100
AcDbSymbolTable
 70
     1
  0
VPORT
  5
29
330
8
100
AcDbSymbolTableRecord
100
AcDbViewportTableRecord
  2
*Active
 70
     0
 10
0.0
 20
0.0
 11
1.0
 21
1.0
 12
0.0
 22
0.0
 13
0.0
 23
0.0
 14
0.5
 24
0.5
 15
0.5
 25
0.5
 16
0.0
 26
0.0
 36
1.0
 17
91.00082462281999
 27
-128.4993055234307
 37
0.0
 40
256.9986110468615
 41
0.7081814508812795
 42
50.0
 43
0.0
 44
0.0
 50
0.0
 51
0.0
 71
     0
 72
   100
 73
     1
 74
     3
 75
     0
 76
     0
 77
     0
 78
     0
281
     0
 65
     1
110
0.0
120
0.0
130
0.0
111
1.0
121
0.0
131
0.0
112
0.0
122
1.0
132
0.0
 79
     0
146
0.0
 60
     3
 61
     5
292
     1
282
     1
141
0.0
142
0.0
 63
   250
361
3F
  0
ENDTAB
  0
TABLE
  2
LTYPE
  5
5
330
0
100
AcDbSymbolTable
 70
     1
  0
LTYPE
  5
14
330
5
100
AcDbSymbolTableRecord
100
AcDbLinetypeTableRecord
  2
ByBlock
 70
     0
  3

 72
    65
 73
     0
 40
0.0
  0
LTYPE
  5
15
330
5
100
AcDbSymbolTableRecord
100
AcDbLinetypeTableRecord
  2
ByLayer
 70
     0
  3

 72
    65
 73
     0
 40
0.0
  0
LTYPE
  5
16
330
5
100
AcDbSymbolTableRecord
100
AcDbLinetypeTableRecord
  2
Continuous
 70
     0
  3
Solid line
 72
    65
 73
     0
 40
0.0
  0
ENDTAB
  0
TABLE
  2
LAYER
  5
2
330
0
100
AcDbSymbolTable
 70
     2
  0
LAYER
  5
10
330
2
100
AcDbSymbolTableRecord
100
AcDbLayerTableRecord
  2
0
 70
     0
 62
     7
  6
Continuous
370
    -3
390
F
347
3E
  0
LAYER
  5
40
330
2
100
AcDbSymbolTableRecord
100
AcDbLayerTableRecord
  2
_U+30EC_U+30A4_U+30E4_U+30FC 1
 70
     0
 62
     7
  6
Continuous
370
    -3
390
F
347
3E
  0
ENDTAB
  0
TABLE
  2
STYLE
  5
3
330
0
100
AcDbSymbolTable
 70
     1
  0
STYLE
  5
11
330
3
100
AcDbSymbolTableRecord
100
AcDbTextStyleTableRecord
  2
Standard
 70
     0
 40
0.0
 41
1.0
 50
0.0
 71
     0
 42
0.2
  3
txt
  4

  0
ENDTAB
  0
TABLE
  2
VIEW
  5
6
330
0
100
AcDbSymbolTable
 70
     0
  0
ENDTAB
  0
TABLE
  2
UCS
  5
7
330
0
100
AcDbSymbolTable
 70
     0
  0
ENDTAB
  0
TABLE
  2
APPID
  5
9
330
0
100
AcDbSymbolTable
 70
     1
  0
APPID
  5
12
330
9
100
AcDbSymbolTableRecord
100
AcDbRegAppTableRecord
  2
ACAD
 70
     0
  0
ENDTAB
  0
TABLE
  2
DIMSTYLE
  5
A
330
0
100
AcDbSymbolTable
 70
     1
100
AcDbDimStyleTable
  0
DIMSTYLE
105
27
330
A
100
AcDbSymbolTableRecord
100
AcDbDimStyleTableRecord
  2
Standard
 70
     0
178
     0
340
11
  0
ENDTAB
  0
TABLE
  2
BLOCK_RECORD
  5
1
330
0
100
AcDbSymbolTable
 70
     7
  0
BLOCK_RECORD
  5
1F
330
1
100
AcDbSymbolTableRecord
100
AcDbBlockTableRecord
  2
*Model_Space
340
22
 70
     0
280
     1
281
     0
  0
BLOCK_RECORD
  5
1B
330
1
100
AcDbSymbolTableRecord
100
AcDbBlockTableRecord
  2
*Paper_Space
340
1E
 70
     0
280
     1
281
     0
  0
BLOCK_RECORD
  5
23
330
1
100
AcDbSymbolTableRecord
100
AcDbBlockTableRecord
  2
*Paper_Space0
340
26
 70
     0
280
     1
281
     0
  0
BLOCK_RECORD
  5
41
330
1
100
AcDbSymbolTableRecord
100
AcDbBlockTableRecord
  2
block 2
340
0
102
{BLKREFS
331
42
102
}
 70
     0
280
     1
281
     0
  0
BLOCK_RECORD
  5
64
330
1
100
AcDbSymbolTableRecord
100
AcDbBlockTableRecord
  2
block 3
340
0
102
{BLKREFS
331
65
102
}
 70
     0
280
     1
281
     0
  0
BLOCK_RECORD
  5
76
330
1
100
AcDbSymbolTableRecord
100
AcDbBlockTableRecord
  2
block 4
340
0
102
{BLKREFS
331
77
102
}
 70
     0
280
     1
281
     0
  0
BLOCK_RECORD
  5
7C
330
1
100
AcDbSymbolTableRecord
100
AcDbBlockTableRecord
  2
block 5
340
0
102
{BLKREFS
331
7D
102
}
 70
     0
280
     1
281
     0
  0
BLOCK_RECORD
  5
91
330
1
100
AcDbSymbolTableRecord
100
AcDbBlockTableRecord
  2
block 6
340
0
102
{BLKREFS
331
92
102
}
 70
     0
280
     1
281
     0
  0
BLOCK_RECORD
  5
A3
330
1
100
AcDbSymbolTableRecord
100
AcDbBlockTableRecord
  2
block 7
340
0
102
{BLKREFS
331
A4
102
}
 70
     0
280
     1
281
     0
  0
ENDTAB
  0
ENDSEC
  0
SECTION
  2
BLOCKS
  0
BLOCK
  5
20
330
1F
100
AcDbEntity
  8
0
100
AcDbBlockBegin
  2
*Model_Space
 70
     0
 10
0.0
 20
0.0
 30
0.0
  3
*Model_Space
  1

  0
ENDBLK
  5
21
330
1F
100
AcDbEntity
  8
0
100
AcDbBlockEnd
  0
BLOCK
  5
1C
330
1B
100
AcDbEntity
 67
     1
  8
0
100
AcDbBlockBegin
  2
*Paper_Space
 70
     0
 10
0.0
 20
0.0
 30
0.0
  3
*Paper_Space
  1

  0
ENDBLK
  5
1D
330
1B
100
AcDbEntity
 67
     1
  8
0
100
AcDbBlockEnd
  0
BLOCK
  5
24
330
23
100
AcDbEntity
  8
0
100
AcDbBlockBegin
  2
*Paper_Space0
 70
     0
 10
0.0
 20
0.0
 30
0.0
  3
*Paper_Space0
  1

  0
ENDBLK
  5
25
330
23
100
AcDbEntity
  8
0
100
AcDbBlockEnd
  0
BLOCK
  5
43
330
41
100
AcDbEntity
  8
0
100
AcDbBlockBegin
  2
block 2
 70
     0
 10
0.0
 20
0.0
 30
0.0
  3
block 2
  1

  0
SPLINE
  5
45
330
41
100
AcDbEntity
  8
_U+30EC_U+30A4_U+30E4_U+30FC 1
 62
   179
420
  2234388
370
     9
100
AcDbSpline
210
0.0
220
0.0
230
1.0
 70
    11
 71
     3
 72
    17
 73
    13
 74
     0
 42
0.0000000001
 43
0.0000000001
 12
1.0
 22
0.0
 32
0.0
 13
1.0
 23
0.0
 33
0.0
 40
0.0
 40
0.0
 40
0.0
 40
0.0
 40
1.0
 40
1.0
 40
1.0
 40
2.0
 40
2.0
 40
2.0
 40
3.0
 40
3.0
 40
3.0
 40
4.0
 40
4.0
 40
4.0
 40
4.0
 10
105.5766848065144
 20
-139.4898502429054
 30
0.0
 10
105.5766848065144
 20
-139.4347110762523
 30
0.0
 10
105.5318820298796
 20
-139.3899435762637
 30
0.0
 10
105.4767781423965
 20
-139.3899435762637
 30
0.0
 10
105.4216416403114
 20
-139.3899435762637
 30
0.0
 10
105.3768714782787
 20
-139.4347110762523
 30
0.0
 10
105.3768714782787
 20
-139.4898502429054
 30
0.0
 10
105.3768714782787
 20
-139.5449541317803
 30
0.0
 10
105.4216416403114
 20
-139.589756909547
 30
0.0
 10
105.4767781423965
 20
-139.589756909547
 30
0.0
 10
105.5318820298796
 20
-139.589756909547
 30
0.0
 10
105.5766848065144
 20
-139.5449541317803
 30
0.0
 10
105.5766848065144
 20
-139.4898502429054
 30
0.0
  0
SPLINE
  5
46
330
41
100
AcDbEntity
  8
_U+30EC_U+30A4_U+30E4_U+30FC 1
 62
   179
420
  2234388
370
     9
100
AcDbSpline
210
0.0
220
0.0
230
1.0
 70
    11
 71
     3
 72
    17
 73
    13
 74
     0
 42
0.0000000001
 43
0.0000000001
 12
1.0
 22
0.0
 32
0.0
 13
1.0
 23
0.0
 33
0.0
 40
0.0
 40
0.0
 40
0.0
 40
0.0
 40
1.0
 40
1.0
 40
1.0
 40
2.0
 40
2.0
 40
2.0
 40
3.0
 40
3.0
 40
3.0
 40
4.0
 40
4.0
 40
4.0
 40
4.0
 10
70.57724958831325
 20
-139.4898502429054
 30
0.0
 10
70.57724958831325
 20
-139.4347110762523
 30
0.0
 10
70.53248208945536
 20
-139.3899435762637
 30
0.0
 10
70.47667264643474
 20
-139.3899435762637
 30
0.0
 10
70.42153348117478
 20
-139.3899435762637
 30
0.0
 10
70.3767659823169
 20
-139.4347110762523
 30
0.0
 10
70.3767659823169
 20
-139.4898502429054
 30
0.0
 10
70.3767659823169
 20
-139.5449541317803
 30
0.0
 10
70.42153348117478
 20
-139.589756909547
 30
0.0
 10
70.47667264643474
 20
-139.589756909547
 30
0.0
 10
70.53248208945536
 20
-139.589756909547
 30
0.0
 10
70.57724958831325
 20
-139.5449541317803
 30
0.0
 10
70.57724958831325
 20
-139.4898502429054
 30
0.0
  0
SPLINE
  5
47
330
41
100
AcDbEntity
  8
_U+30EC_U+30A4_U+30E4_U+30FC 1
 62
   179
420
  2234388
370
     9
100
AcDbSpline
210
0.0
220
0.0
230
1.0
 70
    11
 71
     3
 72
    17
 73
    13
 74
     0
 42
0.0000000001
 43
0.0000000001
 12
1.0
 22
0.0
 32
0.0
 13
1.0
 23
0.0
 33
0.0
 40
0.0
 40
0.0
 40
0.0
 40
0.0
 40
1.0
 40
1.0
 40
1.0
 40
2.0
 40
2.0
 40
2.0
 40
3.0
 40
3.0
 40
3.0
 40
4.0
 40
4.0
 40
4.0
 40
4.0
 10
108.3768610840166
 20
-135.4894207994611
 30
0.0
 10
108.3768610840166
 20
-135.5445246883361
 30
0.0
 10
108.421625845045
 20
-135.5893274661028
 30
0.0
 10
108.4767650103049
 20
-135.5893274661028
 30
0.0
 10
108.531868897788
 20
-135.5893274661028
 30
0.0
 10
108.5766716744228
 20
-135.5445246883361
 30
0.0
 10
108.5766716744228
 20
-135.4894207994611
 30
0.0
 10
108.5766716744228
 20
-135.4342816328081
 30
0.0
 10
108.531868897788
 20
-135.3895141328195
 30
0.0
 10
108.4767650103049
 20
-135.3895141328195
 30
0.0
 10
108.421625845045
 20
-135.3895141328195
 30
0.0
 10
108.3768610840166
 20
-135.4342816328081
 30
0.0
 10
108.3768610840166
 20
-135.4894207994611
 30
0.0
  0
SPLINE
  5
48
330
41
100
AcDbEntity
  8
_U+30EC_U+30A4_U+30E4_U+30FC 1
 62
   179
420
  2234388
370
     9
100
AcDbSpline
210
0.0
220
0.0
230
1.0
 70
    11
 71
     3
 72
    17
 73
    13
 74
     0
 42
0.0000000001
 43
0.0000000001
 12
1.0
 22
0.0
 32
0.0
 13
1.0
 23
0.0
 33
0.0
 40
0.0
 40
0.0
 40
0.0
 40
0.0
 40
1.0
 40
1.0
 40
1.0
 40
2.0
 40
2.0
 40
2.0
 40
3.0
 40
3.0
 40
3.0
 40
4.0
 40
4.0
 40
4.0
 40
4.0
 10
108.3768610840166
 20
-121.9894619139472
 30
0.0
 10
108.3768610840166
 20
-122.0445658028221
 30
0.0
 10
108.421625845045
 20
-122.0893685805888
 30
0.0
 10
108.4767650103049
 20
-122.0893685805888
 30
0.0
 10
108.531868897788
 20
-122.0893685805888
 30
0.0
 10
108.5766716744228
 20
-122.0445658028221
 30
0.0
 10
108.5766716744228
 20
-121.9894619139472
 30
0.0
 10
108.5766716744228
 20
-121.9336524695167
 30
0.0
 10
108.531868897788
 20
-121.88884969175
 30
0.0
 10
108.4767650103049
 20
-121.88884969175
 30
0.0
 10
108.421625845045
 20
-121.88884969175
 30
0.0
 10
108.3768610840166
 20
-121.9336524695167
 30
0.0
 10
108.3768610840166
 20
-121.9894619139472
 30
0.0
  0
POLYLINE
  5
49
330
41
100
AcDbEntity
  8
_U+30EC_U+30A4_U+30E4_U+30FC 1
 62
   179
420
  2234388
370
     9
100
AcDb2dPolyline
 66
     1
 10
0.0
 20
0.0
 30
0.0
  0
VERTEX
  5
4A
330
49
100
AcDbEntity
  8
_U+30EC_U+30A4_U+30E4_U+30FC 1
 62
   179
420
  2234388
370
     9
100
AcDbVertex
100
AcDb2dVertex
 10
108.4767650103049
 20
-121.88884969175
 30
0.0
  0
VERTEX
  5
4B
330
49
100
AcDbEntity
  8
_U+30EC_U+30A4_U+30E4_U+30FC 1
 62
   179
420
  2234388
370
     9
100
AcDbVertex
100
AcDb2dVertex
 10
108.4767650103049
 20
-135.4894207994611
 30
0.0
  0
SEQEND
  5
4C
330
49
100
AcDbEntity
  8
_U+30EC_U+30A4_U+30E4_U+30FC 1
 62
   179
420
  2234388
370
     9
  0
POLYLINE
  5
4D
330
41
100
AcDbEntity
  8
_U+30EC_U+30A4_U+30E4_U+30FC 1
 62
   179
420
  2234388
370
     9
100
AcDb2dPolyline
 66
     1
 10
0.0
 20
0.0
 30
0.0
  0
VERTEX
  5
4E
330
4D
100
AcDbEntity
  8
_U+30EC_U+30A4_U+30E4_U+30FC 1
 62
   179
420
  2234388
370
     9
100
AcDbVertex
100
AcDb2dVertex
 10
91.89998459988051
 20
-121.9894619139472
 30
0.0
  0
VERTEX
  5
4F
330
4D
100
AcDbEntity
  8
_U+30EC_U+30A4_U+30E4_U+30FC 1
 62
   179
420
  2234388
370
     9
100
AcDbVertex
100
AcDb2dVertex
 10
109.476501929244
 20
-121.9894619139472
 30
0.0
  0
SEQEND
  5
50
330
4D
100
AcDbEntity
  8
_U+30EC_U+30A4_U+30E4_U+30FC 1
 62
   179
420
  2234388
370
     9
  0
POLYLINE
  5
51
330
41
100
AcDbEntity
  8
_U+30EC_U+30A4_U+30E4_U+30FC 1
 62
   179
420
  2234388
370
     9
100
AcDb2dPolyline
 66
     1
 10
0.0
 20
0.0
 30
0.0
  0
VERTEX
  5
52
330
51
100
AcDbEntity
  8
_U+30EC_U+30A4_U+30E4_U+30FC 1
 62
   179
420
  2234388
370
     9
100
AcDbVertex
100
AcDb2dVertex
 10
107.0167236586648
 20
-135.4894207994611
 30
0.0
  0
VERTEX
  5
53
330
51
100
AcDbEntity
  8
_U+30EC_U+30A4_U+30E4_U+30FC 1
 62
   179
420
  2234388
370
     9
100
AcDbVertex
100
AcDb2dVertex
 10
109.476501929244
 20
-135.4894207994611
 30
0.0
  0
SEQEND
  5
54
330
51
100
AcDbEntity
  8
_U+30EC_U+30A4_U+30E4_U+30FC 1
 62
   179
420
  2234388
370
     9
  0
SPLINE
  5
55
330
41
100
AcDbEntity
  8
_U+30EC_U+30A4_U+30E4_U+30FC 1
 62
   179
420
  2234388
370
     9
100
AcDbSpline
210
0.0
220
0.0
230
1.0
 70
    11
 71
     3
 72
    17
 73
    13
 74
     0
 42
0.0000000001
 43
0.0000000001
 12
1.0
 22
0.0
 32
0.0
 13
1.0
 23
0.0
 33
0.0
 40
0.0
 40
0.0
 40
0.0
 40
0.0
 40
1.0
 40
1.0
 40
1.0
 40
2.0
 40
2.0
 40
2.0
 40
3.0
 40
3.0
 40
3.0
 40
4.0
 40
4.0
 40
4.0
 40
4.0
 10
93.2601192874028
 20
-127.9894358013359
 30
0.0
 10
93.2601192874028
 20
-128.0445396902111
 30
0.0
 10
93.3048867862607
 20
-128.0893424679778
 30
0.0
 10
93.36002595152064
 20
-128.0893424679778
 30
0.0
 10
93.41512983900371
 20
-128.0893424679778
 30
0.0
 10
93.45993261563848
 20
-128.0445396902111
 30
0.0
 10
93.45993261563848
 20
-127.9894358013359
 30
0.0
 10
93.45993261563848
 20
-127.9342966346831
 30
0.0
 10
93.41512983900371
 20
-127.8895291346942
 30
0.0
 10
93.36002595152064
 20
-127.8895291346942
 30
0.0
 10
93.3048867862607
 20
-127.8895291346942
 30
0.0
 10
93.2601192874028
 20
-127.9342966346831
 30
0.0
 10
93.2601192874028
 20
-127.9894358013359
 30
0.0
  0
SPLINE
  5
56
330
41
100
AcDbEntity
  8
_U+30EC_U+30A4_U+30E4_U+30FC 1
 62
   179
420
  2234388
370
     9
100
AcDbSpline
210
0.0
220
0.0
230
1.0
 70
    11
 71
     3
 72
    17
 73
    13
 74
     0
 42
0.0000000001
 43
0.0000000001
 12
1.0
 22
0.0
 32
0.0
 13
1.0
 23
0.0
 33
0.0
 40
0.0
 40
0.0
 40
0.0
 40
0.0
 40
1.0
 40
1.0
 40
1.0
 40
2.0
 40
2.0
 40
2.0
 40
3.0
 40
3.0
 40
3.0
 40
4.0
 40
4.0
 40
4.0
 40
4.0
 10
93.2601192874028
 20
-121.9894619139472
 30
0.0
 10
93.2601192874028
 20
-122.0445658028221
 30
0.0
 10
93.3048867862607
 20
-122.0893685805888
 30
0.0
 10
93.36002595152064
 20
-122.0893685805888
 30
0.0
 10
93.41512983900371
 20
-122.0893685805888
 30
0.0
 10
93.45993261563848
 20
-122.0445658028221
 30
0.0
 10
93.45993261563848
 20
-121.9894619139472
 30
0.0
 10
93.45993261563848
 20
-121.9343227472941
 30
0.0
 10
93.41512983900371
 20
-121.8895552473056
 30
0.0
 10
93.36002595152064
 20
-121.8895552473056
 30
0.0
 10
93.3048867862607
 20
-121.8895552473056
 30
0.0
 10
93.2601192874028
 20
-121.9343227472941
 30
0.0
 10
93.2601192874028
 20
-121.9894619139472
 30
0.0
  0
POLYLINE
  5
57
330
41
100
AcDbEntity
  8
_U+30EC_U+30A4_U+30E4_U+30FC 1
 62
   179
420
  2234388
370
     9
100
AcDb2dPolyline
 66
     1
 10
0.0
 20
0.0
 30
0.0
  0
VERTEX
  5
58
330
57
100
AcDbEntity
  8
_U+30EC_U+30A4_U+30E4_U+30FC 1
 62
   179
420
  2234388
370
     9
100
AcDbVertex
100
AcDb2dVertex
 10
93.36002595152064
 20
-121.9894619139472
 30
0.0
  0
VERTEX
  5
59
330
57
100
AcDbEntity
  8
_U+30EC_U+30A4_U+30E4_U+30FC 1
 62
   179
420
  2234388
370
     9
100
AcDbVertex
100
AcDb2dVertex
 10
93.36002595152064
 20
-127.9894358013359
 30
0.0
  0
SEQEND
  5
5A
330
57
100
AcDbEntity
  8
_U+30EC_U+30A4_U+30E4_U+30FC 1
 62
   179
420
  2234388
370
     9
  0
POLYLINE
  5
5B
330
41
100
AcDbEntity
  8
_U+30EC_U+30A4_U+30E4_U+30FC 1
 62
   179
420
  2234388
370
     9
100
AcDb2dPolyline
 66
     1
 10
0.0
 20
0.0
 30
0.0
  0
VERTEX
  5
5C
330
5B
100
AcDbEntity
  8
_U+30EC_U+30A4_U+30E4_U+30FC 1
 62
   179
420
  2234388
370
     9
100
AcDbVertex
100
AcDb2dVertex
 10
91.89998459988051
 20
-127.9894358013359
 30
0.0
  0
VERTEX
  5
5D
330
5B
100
AcDbEntity
  8
_U+30EC_U+30A4_U+30E4_U+30FC 1
 62
   179
420
  2234388
370
     9
100
AcDbVertex
100
AcDb2dVertex
 10
94.35979814823655
 20
-127.9894358013359
 30
0.0
  0
SEQEND
  5
5E
330
5B
100
AcDbEntity
  8
_U+30EC_U+30A4_U+30E4_U+30FC 1
 62
   179
420
  2234388
370
     9
  0
SPLINE
  5
5F
330
41
100
AcDbEntity
  8
_U+30EC_U+30A4_U+30E4_U+30FC 1
 62
   179
420
  2234388
370
     9
100
AcDbSpline
210
0.0
220
0.0
230
1.0
 70
    11
 71
     3
 72
    17
 73
    13
 74
     0
 42
0.0000000001
 43
0.0000000001
 12
1.0
 22
0.0
 32
0.0
 13
1.0
 23
0.0
 33
0.0
 40
0.0
 40
0.0
 40
0.0
 40
0.0
 40
1.0
 40
1.0
 40
1.0
 40
2.0
 40
2.0
 40
2.0
 40
3.0
 40
3.0
 40
3.0
 40
4.0
 40
4.0
 40
4.0
 40
4.0
 10
108.3768610840166
 20
-134.4896485774886
 30
0.0
 10
108.3768610840166
 20
-134.5447524663635
 30
0.0
 10
108.421625845045
 20
-134.5895552441302
 30
0.0
 10
108.4767650103049
 20
-134.5895552441302
 30
0.0
 10
108.531868897788
 20
-134.5895552441302
 30
0.0
 10
108.5766716744228
 20
-134.5447524663635
 30
0.0
 10
108.5766716744228
 20
-134.4896485774886
 30
0.0
 10
108.5766716744228
 20
-134.4345094108355
 30
0.0
 10
108.531868897788
 20
-134.3897419108469
 30
0.0
 10
108.4767650103049
 20
-134.3897419108469
 30
0.0
 10
108.421625845045
 20
-134.3897419108469
 30
0.0
 10
108.3768610840166
 20
-134.4345094108355
 30
0.0
 10
108.3768610840166
 20
-134.4896485774886
 30
0.0
  0
POLYLINE
  5
60
330
41
100
AcDbEntity
  8
_U+30EC_U+30A4_U+30E4_U+30FC 1
 62
   179
420
  2234388
370
     9
100
AcDb2dPolyline
 66
     1
 10
0.0
 20
0.0
 30
0.0
  0
VERTEX
  5
61
330
60
100
AcDbEntity
  8
_U+30EC_U+30A4_U+30E4_U+30FC 1
 62
   179
420
  2234388
370
     9
100
AcDbVertex
100
AcDb2dVertex
 10
107.0167236586648
 20
-134.4896485774886
 30
0.0
  0
VERTEX
  5
62
330
60
100
AcDbEntity
  8
_U+30EC_U+30A4_U+30E4_U+30FC 1
 62
   179
420
  2234388
370
     9
100
AcDbVertex
100
AcDb2dVertex
 10
109.476501929244
 20
-134.4896485774886
 30
0.0
  0
SEQEND
  5
63
330
60
100
AcDbEntity
  8
_U+30EC_U+30A4_U+30E4_U+30FC 1
 62
   179
420
  2234388
370
     9
  0
INSERT
  5
65
330
41
100
AcDbEntity
  8
_U+30EC_U+30A4_U+30E4_U+30FC 1
100
AcDbBlockReference
  2
block 3
 10
0.0
 20
0.0
 30
0.0
  0
INSERT
  5
77
330
41
100
AcDbEntity
  8
_U+30EC_U+30A4_U+30E4_U+30FC 1
100
AcDbBlockReference
  2
block 4
 10
0.0
 20
0.0
 30
0.0
  0
INSERT
  5
7D
330
41
100
AcDbEntity
  8
_U+30EC_U+30A4_U+30E4_U+30FC 1
100
AcDbBlockReference
  2
block 5
 10
0.0
 20
0.0
 30
0.0
  0
SPLINE
  5
83
330
41
100
AcDbEntity
  8
_U+30EC_U+30A4_U+30E4_U+30FC 1
 62
   179
420
  2234388
370
     9
100
AcDbSpline
210
0.0
220
0.0
230
1.0
 70
    11
 71
     3
 72
    17
 73
    13
 74
     0
 42
0.0000000001
 43
0.0000000001
 12
1.0
 22
0.0
 32
0.0
 13
1.0
 23
0.0
 33
0.0
 40
0.0
 40
0.0
 40
0.0
 40
0.0
 40
1.0
 40
1.0
 40
1.0
 40
2.0
 40
2.0
 40
2.0
 40
3.0
 40
3.0
 40
3.0
 40
4.0
 40
4.0
 40
4.0
 40
4.0
 10
86.55769445839591
 20
-119.108819692445
 30
0.0
 10
86.50255529313596
 20
-119.108819692445
 30
0.0
 10
86.4577525165012
 20
-119.1536224702117
 30
0.0
 10
86.4577525165012
 20
-119.2087616368645
 30
0.0
 10
86.4577525165012
 20
-119.2638655257397
 30
0.0
 10
86.50255529313596
 20
-119.3086683035061
 30
0.0
 10
86.55769445839591
 20
-119.3086683035061
 30
0.0
 10
86.61279834587899
 20
-119.3086683035061
 30
0.0
 10
86.65760112251374
 20
-119.2638655257397
 30
0.0
 10
86.65760112251374
 20
-119.2087616368645
 30
0.0
 10
86.65760112251374
 20
-119.1536224702117
 30
0.0
 10
86.61279834587899
 20
-119.108819692445
 30
0.0
 10
86.55769445839591
 20
-119.108819692445
 30
0.0
  0
POLYLINE
  5
84
330
41
100
AcDbEntity
  8
_U+30EC_U+30A4_U+30E4_U+30FC 1
 62
   179
420
  2234388
370
     9
100
AcDb2dPolyline
 66
     1
 10
0.0
 20
0.0
 30
0.0
  0
VERTEX
  5
85
330
84
100
AcDbEntity
  8
_U+30EC_U+30A4_U+30E4_U+30FC 1
 62
   179
420
  2234388
370
     9
100
AcDbVertex
100
AcDb2dVertex
 10
89.5941938253728
 20
-119.2087616368645
 30
0.0
  0
VERTEX
  5
86
330
84
100
AcDbEntity
  8
_U+30EC_U+30A4_U+30E4_U+30FC 1
 62
   179
420
  2234388
370
     9
100
AcDbVertex
100
AcDb2dVertex
 10
86.55769445839591
 20
-119.2087616368645
 30
0.0
  0
SEQEND
  5
87
330
84
100
AcDbEntity
  8
_U+30EC_U+30A4_U+30E4_U+30FC 1
 62
   179
420
  2234388
370
     9
  0
POLYLINE
  5
88
330
41
100
AcDbEntity
  8
_U+30EC_U+30A4_U+30E4_U+30FC 1
 62
   179
420
  2234388
370
     9
100
AcDb2dPolyline
 66
     1
 10
0.0
 20
0.0
 30
0.0
  0
VERTEX
  5
89
330
88
100
AcDbEntity
  8
_U+30EC_U+30A4_U+30E4_U+30FC 1
 62
   179
420
  2234388
370
     9
100
AcDbVertex
100
AcDb2dVertex
 10
86.55769445839591
 20
-117.7487202483405
 30
0.0
  0
VERTEX
  5
8A
330
88
100
AcDbEntity
  8
_U+30EC_U+30A4_U+30E4_U+30FC 1
 62
   179
420
  2234388
370
     9
100
AcDbVertex
100
AcDb2dVertex
 10
86.55769445839591
 20
-120.2084985810589
 30
0.0
  0
SEQEND
  5
8B
330
88
100
AcDbEntity
  8
_U+30EC_U+30A4_U+30E4_U+30FC 1
 62
   179
420
  2234388
370
     9
  0
SPLINE
  5
8C
330
41
100
AcDbEntity
  8
_U+30EC_U+30A4_U+30E4_U+30FC 1
 62
   179
420
  2234388
370
     9
100
AcDbSpline
210
0.0
220
0.0
230
1.0
 70
    11
 71
     3
 72
    17
 73
    13
 74
     0
 42
0.0000000001
 43
0.0000000001
 12
1.0
 22
0.0
 32
0.0
 13
1.0
 23
0.0
 33
0.0
 40
0.0
 40
0.0
 40
0.0
 40
0.0
 40
1.0
 40
1.0
 40
1.0
 40
2.0
 40
2.0
 40
2.0
 40
3.0
 40
3.0
 40
3.0
 40
4.0
 40
4.0
 40
4.0
 40
4.0
 10
89.5941938253728
 20
-119.108819692445
 30
0.0
 10
89.53905466011285
 20
-119.108819692445
 30
0.0
 10
89.49428716125496
 20
-119.1536224702117
 30
0.0
 10
89.49428716125496
 20
-119.2087616368645
 30
0.0
 10
89.49428716125496
 20
-119.2638655257397
 30
0.0
 10
89.53905466011285
 20
-119.3086683035061
 30
0.0
 10
89.5941938253728
 20
-119.3086683035061
 30
0.0
 10
89.6492999775876
 20
-119.3086683035061
 30
0.0
 10
89.69410275535432
 20
-119.2638655257397
 30
0.0
 10
89.69410275535432
 20
-119.2087616368645
 30
0.0
 10
89.69410275535432
 20
-119.1536224702117
 30
0.0
 10
89.6492999775876
 20
-119.108819692445
 30
0.0
 10
89.5941938253728
 20
-119.108819692445
 30
0.0
  0
POLYLINE
  5
8D
330
41
100
AcDbEntity
  8
_U+30EC_U+30A4_U+30E4_U+30FC 1
 62
   179
420
  2234388
370
     9
100
AcDb2dPolyline
 66
     1
 10
0.0
 20
0.0
 30
0.0
  0
VERTEX
  5
8E
330
8D
100
AcDbEntity
  8
_U+30EC_U+30A4_U+30E4_U+30FC 1
 62
   179
420
  2234388
370
     9
100
AcDbVertex
100
AcDb2dVertex
 10
89.5941938253728
 20
-117.7487202483405
 30
0.0
  0
VERTEX
  5
8F
330
8D
100
AcDbEntity
  8
_U+30EC_U+30A4_U+30E4_U+30FC 1
 62
   179
420
  2234388
370
     9
100
AcDbVertex
100
AcDb2dVertex
 10
89.5941938253728
 20
-120.2084985810589
 30
0.0
  0
SEQEND
  5
90
330
8D
100
AcDbEntity
  8
_U+30EC_U+30A4_U+30E4_U+30FC 1
 62
   179
420
  2234388
370
     9
  0
INSERT
  5
92
330
41
100
AcDbEntity
  8
_U+30EC_U+30A4_U+30E4_U+30FC 1
100
AcDbBlockReference
  2
block 6
 10
0.0
 20
0.0
 30
0.0
  0
POLYLINE
  5
97
330
41
100
AcDbEntity
  8
_U+30EC_U+30A4_U+30E4_U+30FC 1
 62
   179
420
  2234388
370
     9
100
AcDb2dPolyline
 66
     1
 10
0.0
 20
0.0
 30
0.0
  0
VERTEX
  5
98
330
97
100
AcDbEntity
  8
_U+30EC_U+30A4_U+30E4_U+30FC 1
 62
   179
420
  2234388
370
     9
100
AcDbVertex
100
AcDb2dVertex
 10
70.47667264643474
 20
-139.4898502429054
 30
0.0
  0
VERTEX
  5
99
330
97
100
AcDbEntity
  8
_U+30EC_U+30A4_U+30E4_U+30FC 1
 62
   179
420
  2234388
370
     9
100
AcDbVertex
100
AcDb2dVertex
 10
105.4767781423965
 20
-139.4898502429054
 30
0.0
  0
SEQEND
  5
9A
330
97
100
AcDbEntity
  8
_U+30EC_U+30A4_U+30E4_U+30FC 1
 62
   179
420
  2234388
370
     9
  0
POLYLINE
  5
9B
330
41
100
AcDbEntity
  8
_U+30EC_U+30A4_U+30E4_U+30FC 1
 62
   179
420
  2234388
370
     9
100
AcDb2dPolyline
 66
     1
 10
0.0
 20
0.0
 30
0.0
  0
VERTEX
  5
9C
330
9B
100
AcDbEntity
  8
_U+30EC_U+30A4_U+30E4_U+30FC 1
 62
   179
420
  2234388
370
     9
100
AcDbVertex
100
AcDb2dVertex
 10
70.47667264643474
 20
-137.0293663546318
 30
0.0
  0
VERTEX
  5
9D
330
9B
100
AcDbEntity
  8
_U+30EC_U+30A4_U+30E4_U+30FC 1
 62
   179
420
  2234388
370
     9
100
AcDbVertex
100
AcDb2dVertex
 10
70.47667264643474
 20
-140.4896224648779
 30
0.0
  0
SEQEND
  5
9E
330
9B
100
AcDbEntity
  8
_U+30EC_U+30A4_U+30E4_U+30FC 1
 62
   179
420
  2234388
370
     9
  0
POLYLINE
  5
9F
330
41
100
AcDbEntity
  8
_U+30EC_U+30A4_U+30E4_U+30FC 1
 62
   179
420
  2234388
370
     9
100
AcDb2dPolyline
 66
     1
 10
0.0
 20
0.0
 30
0.0
  0
VERTEX
  5
A0
330
9F
100
AcDbEntity
  8
_U+30EC_U+30A4_U+30E4_U+30FC 1
 62
   179
420
  2234388
370
     9
100
AcDbVertex
100
AcDb2dVertex
 10
105.4767781423965
 20
-138.0298088543817
 30
0.0
  0
VERTEX
  5
A1
330
9F
100
AcDbEntity
  8
_U+30EC_U+30A4_U+30E4_U+30FC 1
 62
   179
420
  2234388
370
     9
100
AcDbVertex
100
AcDb2dVertex
 10
105.4767781423965
 20
-140.4896224648779
 30
0.0
  0
SEQEND
  5
A2
330
9F
100
AcDbEntity
  8
_U+30EC_U+30A4_U+30E4_U+30FC 1
 62
   179
420
  2234388
370
     9
  0
INSERT
  5
A4
330
41
100
AcDbEntity
  8
_U+30EC_U+30A4_U+30E4_U+30FC 1
100
AcDbBlockReference
  2
block 7
 10
0.0
 20
0.0
 30
0.0
  0
POLYLINE
  5
AB
330
41
100
AcDbEntity
  8
_U+30EC_U+30A4_U+30E4_U+30FC 1
 62
   179
420
  2234388
370
    25
100
AcDb2dPolyline
 66
     1
 10
0.0
 20
0.0
 30
0.0
  0
VERTEX
  5
AC
330
AB
100
AcDbEntity
  8
_U+30EC_U+30A4_U+30E4_U+30FC 1
 62
   179
420
  2234388
370
    25
100
AcDbVertex
100
AcDb2dVertex
 10
90.59396602208871
 20
-134.4896485774886
 30
0.0
  0
VERTEX
  5
AD
330
AB
100
AcDbEntity
  8
_U+30EC_U+30A4_U+30E4_U+30FC 1
 62
   179
420
  2234388
370
    25
100
AcDbVertex
100
AcDb2dVertex
 10
90.59396602208871
 20
-121.9894619139472
 30
0.0
  0
VERTEX
  5
AE
330
AB
100
AcDbEntity
  8
_U+30EC_U+30A4_U+30E4_U+30FC 1
 62
   179
420
  2234388
370
    25
100
AcDbVertex
100
AcDb2dVertex
 10
89.5941938253728
 20
-121.9894619139472
 30
0.0
  0
VERTEX
  5
AF
330
AB
100
AcDbEntity
  8
_U+30EC_U+30A4_U+30E4_U+30FC 1
 62
   179
420
  2234388
370
    25
100
AcDbVertex
100
AcDb2dVertex
 10
89.5941938253728
 20
-127.9894358013359
 30
0.0
  0
VERTEX
  5
B0
330
AB
100
AcDbEntity
  8
_U+30EC_U+30A4_U+30E4_U+30FC 1
 62
   179
420
  2234388
370
    25
100
AcDbVertex
100
AcDb2dVertex
 10
86.5942069574644
 20
-127.9894358013359
 30
0.0
  0
VERTEX
  5
B1
330
AB
100
AcDbEntity
  8
_U+30EC_U+30A4_U+30E4_U+30FC 1
 62
   179
420
  2234388
370
    25
100
AcDbVertex
100
AcDb2dVertex
 10
86.5942069574644
 20
-121.9894619139472
 30
0.0
  0
VERTEX
  5
B2
330
AB
100
AcDbEntity
  8
_U+30EC_U+30A4_U+30E4_U+30FC 1
 62
   179
420
  2234388
370
    25
100
AcDbVertex
100
AcDb2dVertex
 10
85.59443476074848
 20
-121.9894619139472
 30
0.0
  0
VERTEX
  5
B3
330
AB
100
AcDbEntity
  8
_U+30EC_U+30A4_U+30E4_U+30FC 1
 62
   179
420
  2234388
370
    25
100
AcDbVertex
100
AcDb2dVertex
 10
85.59443476074848
 20
-134.4896485774886
 30
0.0
  0
VERTEX
  5
B4
330
AB
100
AcDbEntity
  8
_U+30EC_U+30A4_U+30E4_U+30FC 1
 62
   179
420
  2234388
370
    25
100
AcDbVertex
100
AcDb2dVertex
 10
70.47667264643474
 20
-134.4896485774886
 30
0.0
  0
VERTEX
  5
B5
330
AB
100
AcDbEntity
  8
_U+30EC_U+30A4_U+30E4_U+30FC 1
 62
   179
420
  2234388
370
    25
100
AcDbVertex
100
AcDb2dVertex
 10
70.47667264643474
 20
-135.4894207994611
 30
0.0
  0
VERTEX
  5
B6
330
AB
100
AcDbEntity
  8
_U+30EC_U+30A4_U+30E4_U+30FC 1
 62
   179
420
  2234388
370
    25
100
AcDbVertex
100
AcDb2dVertex
 10
86.5942069574644
 20
-135.4894207994611
 30
0.0
  0
VERTEX
  5
B7
330
AB
100
AcDbEntity
  8
_U+30EC_U+30A4_U+30E4_U+30FC 1
 62
   179
420
  2234388
370
    25
100
AcDbVertex
100
AcDb2dVertex
 10
86.5942069574644
 20
-128.9892080233081
 30
0.0
  0
VERTEX
  5
B8
330
AB
100
AcDbEntity
  8
_U+30EC_U+30A4_U+30E4_U+30FC 1
 62
   179
420
  2234388
370
    25
100
AcDbVertex
100
AcDb2dVertex
 10
89.5941938253728
 20
-128.9892080233081
 30
0.0
  0
VERTEX
  5
B9
330
AB
100
AcDbEntity
  8
_U+30EC_U+30A4_U+30E4_U+30FC 1
 62
   179
420
  2234388
370
    25
100
AcDbVertex
100
AcDb2dVertex
 10
89.5941938253728
 20
-135.4894207994611
 30
0.0
  0
VERTEX
  5
BA
330
AB
100
AcDbEntity
  8
_U+30EC_U+30A4_U+30E4_U+30FC 1
 62
   179
420
  2234388
370
    25
100
AcDbVertex
100
AcDb2dVertex
 10
105.4767781423965
 20
-135.4894207994611
 30
0.0
  0
VERTEX
  5
BB
330
AB
100
AcDbEntity
  8
_U+30EC_U+30A4_U+30E4_U+30FC 1
 62
   179
420
  2234388
370
    25
100
AcDbVertex
100
AcDb2dVertex
 10
105.4767781423965
 20
-134.4896485774886
 30
0.0
  0
VERTEX
  5
BC
330
AB
100
AcDbEntity
  8
_U+30EC_U+30A4_U+30E4_U+30FC 1
 62
   179
420
  2234388
370
    25
100
AcDbVertex
100
AcDb2dVertex
 10
90.59396602208871
 20
-134.4896485774886
 30
0.0
  0
SEQEND
  5
BD
330
AB
100
AcDbEntity
  8
_U+30EC_U+30A4_U+30E4_U+30FC 1
 62
   179
420
  2234388
370
    25
  0
ENDBLK
  5
44
330
41
100
AcDbEntity
  8
0
100
AcDbBlockEnd
  0
BLOCK
  5
66
330
64
100
AcDbEntity
  8
0
100
AcDbBlockBegin
  2
block 3
 70
     0
 10
0.0
 20
0.0
 30
0.0
  3
block 3
  1

  0
SPLINE
  5
68
330
64
100
AcDbEntity
  8
_U+30EC_U+30A4_U+30E4_U+30FC 1
370
     0
100
AcDbSpline
210
0.0
220
0.0
230
1.0
 70
    11
 71
     3
 72
    26
 73
    22
 74
     0
 42
0.0000000001
 43
0.0000000001
 12
1.0
 22
0.0
 32
0.0
 13
1.0
 23
0.0
 33
0.0
 40
0.0
 40
0.0
 40
0.0
 40
0.0
 40
1.0
 40
1.0
 40
1.0
 40
2.0
 40
2.0
 40
2.0
 40
3.0
 40
3.0
 40
3.0
 40
4.0
 40
4.0
 40
4.0
 40
5.0
 40
5.0
 40
5.0
 40
6.0
 40
6.0
 40
6.0
 40
7.0
 40
7.0
 40
7.0
 40
7.0
 10
110.7202012527019
 20
-129.7519422418676
 30
0.0
 10
110.7202012527019
 20
-129.7519422418676
 30
0.0
 10
109.6160481496793
 20
-129.7519422418676
 30
0.0
 10
109.6160481496793
 20
-129.7519422418676
 30
0.0
 10
109.6160481496793
 20
-129.7519422418676
 30
0.0
 10
109.6160481496793
 20
-130.0819823893545
 30
0.0
 10
109.6160481496793
 20
-130.0819823893545
 30
0.0
 10
109.6160481496793
 20
-130.0819823893545
 30
0.0
 10
109.4679090438136
 20
-130.0819823893545
 30
0.0
 10
109.4679090438136
 20
-130.0819823893545
 30
0.0
 10
109.453095133227
 20
-129.7498751845764
 30
0.0
 10
109.2901421167747
 20
-129.7033663955256
 30
0.0
 10
109.1757649466644
 20
-129.6737385743524
 30
0.0
 10
109.1757649466644
 20
-129.6737385743524
 30
0.0
 10
109.1757649466644
 20
-129.5276665257778
 30
0.0
 10
109.1757649466644
 20
-129.5276665257778
 30
0.0
 10
109.1757649466644
 20
-129.5276665257778
 30
0.0
 10
110.7202012527019
 20
-129.5276665257778
 30
0.0
 10
110.7202012527019
 20
-129.5276665257778
 30
0.0
 10
110.7202012527019
 20
-129.5276665257778
 30
0.0
 10
110.7202012527019
 20
-129.7519422418676
 30
0.0
 10
110.7202012527019
 20
-129.7519422418676
 30
0.0
  0
HATCH
  5
69
330
64
100
AcDbEntity
  8
_U+30EC_U+30A4_U+30E4_U+30FC 1
 62
   179
420
  2234388
100
AcDbHatch
 10
0.0
 20
0.0
 30
0.0
210
0.0
220
0.0
230
1.0
  2
SOLID
 70
     1
 71
     0
 91
        1
 92
        1
 93
        1
 72
     4
 94
        3
 73
     0
 74
     1
 95
       26
 96
       22
 40
0.0
 40
0.0
 40
0.0
 40
0.0
 40
1.0
 40
1.0
 40
1.0
 40
2.0
 40
2.0
 40
2.0
 40
3.0
 40
3.0
 40
3.0
 40
4.0
 40
4.0
 40
4.0
 40
5.0
 40
5.0
 40
5.0
 40
6.0
 40
6.0
 40
6.0
 40
7.0
 40
7.0
 40
7.0
 40
7.0
 10
110.7202012527019
 20
-129.7519422418676
 10
110.7202012527019
 20
-129.7519422418676
 10
109.6160481496793
 20
-129.7519422418676
 10
109.6160481496793
 20
-129.7519422418676
 10
109.6160481496793
 20
-129.7519422418676
 10
109.6160481496793
 20
-130.0819823893545
 10
109.6160481496793
 20
-130.0819823893545
 10
109.6160481496793
 20
-130.0819823893545
 10
109.4679090438136
 20
-130.0819823893545
 10
109.4679090438136
 20
-130.0819823893545
 10
109.453095133227
 20
-129.7498751845764
 10
109.2901421167747
 20
-129.7033663955256
 10
109.1757649466644
 20
-129.6737385743524
 10
109.1757649466644
 20
-129.6737385743524
 10
109.1757649466644
 20
-129.5276665257778
 10
109.1757649466644
 20
-129.5276665257778
 10
109.1757649466644
 20
-129.5276665257778
 10
110.7202012527019
 20
-129.5276665257778
 10
110.7202012527019
 20
-129.5276665257778
 10
110.7202012527019
 20
-129.5276665257778
 10
110.7202012527019
 20
-129.7519422418676
 10
110.7202012527019
 20
-129.7519422418676
 97
        0
 97
        0
 75
     2
 76
     1
 98
        0
  0
SPLINE
  5
6A
330
64
100
AcDbEntity
  8
_U+30EC_U+30A4_U+30E4_U+30FC 1
370
     0
100
AcDbSpline
210
0.0
220
0.0
230
1.0
 70
    11
 71
     3
 72
    44
 73
    40
 74
     0
 42
0.0000000001
 43
0.0000000001
 12
1.0
 22
0.0
 32
0.0
 13
1.0
 23
0.0
 33
0.0
 40
0.0
 40
0.0
 40
0.0
 40
0.0
 40
1.0
 40
1.0
 40
1.0
 40
2.0
 40
2.0
 40
2.0
 40
3.0
 40
3.0
 40
3.0
 40
4.0
 40
4.0
 40
4.0
 40
5.0
 40
5.0
 40
5.0
 40
6.0
 40
6.0
 40
6.0
 40
7.0
 40
7.0
 40
7.0
 40
8.0
 40
8.0
 40
8.0
 40
9.0
 40
9.0
 40
9.0
 40
10.0
 40
10.0
 40
10.0
 40
11.0
 40
11.0
 40
11.0
 40
12.0
 40
12.0
 40
12.0
 40
13.0
 40
13.0
 40
13.0
 40
13.0
 10
110.1383246252432
 20
-128.4335041996625
 30
0.0
 10
110.2971435271132
 20
-128.6512342343302
 30
0.0
 10
110.3712130800461
 20
-128.744251812432
 30
0.0
 10
110.514873561781
 20
-128.7931721683225
 30
0.0
 10
110.514873561781
 20
-128.7931721683225
 30
0.0
 10
110.514873561781
 20
-128.0145805886561
 30
0.0
 10
110.514873561781
 20
-128.0145805886561
 30
0.0
 10
110.514873561781
 20
-128.0145805886561
 30
0.0
 10
110.7202012527019
 20
-128.0145805886561
 30
0.0
 10
110.7202012527019
 20
-128.0145805886561
 30
0.0
 10
110.7202012527019
 20
-128.0145805886561
 30
0.0
 10
110.7202012527019
 20
-129.0425970814546
 30
0.0
 10
110.7202012527019
 20
-129.0425970814546
 30
0.0
 10
110.362600341333
 20
-129.0109022029903
 30
0.0
 10
110.2843966738178
 20
-128.9454453887706
 30
0.0
 10
109.9860514047952
 20
-128.5602837135197
 30
0.0
 10
109.7872693952962
 20
-128.3043131189656
 30
0.0
 10
109.7194010142368
 20
-128.2388563047458
 30
0.0
 10
109.5819417043754
 20
-128.2388563047458
 30
0.0
 10
109.4634304196828
 20
-128.2388563047458
 30
0.0
 10
109.3325167912433
 20
-128.3108588003876
 30
0.0
 10
109.3325167912433
 20
-128.5075737525953
 30
0.0
 10
109.3325167912433
 20
-128.7676784617317
 30
0.0
 10
109.5629936792065
 20
-128.7762912004448
 30
0.0
 10
109.6794379066079
 20
-128.7804253150271
 30
0.0
 10
109.6794379066079
 20
-128.7804253150271
 30
0.0
 10
109.6794379066079
 20
-129.0047010311169
 30
0.0
 10
109.6794379066079
 20
-129.0047010311169
 30
0.0
 10
109.5523138832022
 20
-128.9960882924038
 30
0.0
 10
109.4403482799316
 20
-128.9854084963995
 30
0.0
 10
109.321836995239
 20
-128.9051377715932
 30
0.0
 10
109.1609510360778
 20
-128.7952392256137
 30
0.0
 10
109.1271891003224
 20
-128.6088595598617
 30
0.0
 10
109.1271891003224
 20
-128.4927598420088
 30
0.0
 10
109.1271891003224
 20
-128.2154296554461
 30
0.0
 10
109.3111571992347
 20
-128.0080349072341
 30
0.0
 10
109.5840087616665
 20
-128.0080349072341
 30
0.0
 10
109.8127631018871
 20
-128.0080349072341
 30
0.0
 10
109.9119818518623
 20
-128.1244791346355
 30
0.0
 10
110.1383246252432
 20
-128.4335041996625
 30
0.0
  0
HATCH
  5
6B
330
64
100
AcDbEntity
  8
_U+30EC_U+30A4_U+30E4_U+30FC 1
 62
   179
420
  2234388
100
AcDbHatch
 10
0.0
 20
0.0
 30
0.0
210
0.0
220
0.0
230
1.0
  2
SOLID
 70
     1
 71
     0
 91
        1
 92
        1
 93
        1
 72
     4
 94
        3
 73
     0
 74
     1
 95
       44
 96
       40
 40
0.0
 40
0.0
 40
0.0
 40
0.0
 40
1.0
 40
1.0
 40
1.0
 40
2.0
 40
2.0
 40
2.0
 40
3.0
 40
3.0
 40
3.0
 40
4.0
 40
4.0
 40
4.0
 40
5.0
 40
5.0
 40
5.0
 40
6.0
 40
6.0
 40
6.0
 40
7.0
 40
7.0
 40
7.0
 40
8.0
 40
8.0
 40
8.0
 40
9.0
 40
9.0
 40
9.0
 40
10.0
 40
10.0
 40
10.0
 40
11.0
 40
11.0
 40
11.0
 40
12.0
 40
12.0
 40
12.0
 40
13.0
 40
13.0
 40
13.0
 40
13.0
 10
110.1383246252432
 20
-128.4335041996625
 10
110.2971435271132
 20
-128.6512342343302
 10
110.3712130800461
 20
-128.744251812432
 10
110.514873561781
 20
-128.7931721683225
 10
110.514873561781
 20
-128.7931721683225
 10
110.514873561781
 20
-128.0145805886561
 10
110.514873561781
 20
-128.0145805886561
 10
110.514873561781
 20
-128.0145805886561
 10
110.7202012527019
 20
-128.0145805886561
 10
110.7202012527019
 20
-128.0145805886561
 10
110.7202012527019
 20
-128.0145805886561
 10
110.7202012527019
 20
-129.0425970814546
 10
110.7202012527019
 20
-129.0425970814546
 10
110.362600341333
 20
-129.0109022029903
 10
110.2843966738178
 20
-128.9454453887706
 10
109.9860514047952
 20
-128.5602837135197
 10
109.7872693952962
 20
-128.3043131189656
 10
109.7194010142368
 20
-128.2388563047458
 10
109.5819417043754
 20
-128.2388563047458
 10
109.4634304196828
 20
-128.2388563047458
 10
109.3325167912433
 20
-128.3108588003876
 10
109.3325167912433
 20
-128.5075737525953
 10
109.3325167912433
 20
-128.7676784617317
 10
109.5629936792065
 20
-128.7762912004448
 10
109.6794379066079
 20
-128.7804253150271
 10
109.6794379066079
 20
-128.7804253150271
 10
109.6794379066079
 20
-129.0047010311169
 10
109.6794379066079
 20
-129.0047010311169
 10
109.5523138832022
 20
-128.9960882924038
 10
109.4403482799316
 20
-128.9854084963995
 10
109.321836995239
 20
-128.9051377715932
 10
109.1609510360778
 20
-128.7952392256137
 10
109.1271891003224
 20
-128.6088595598617
 10
109.1271891003224
 20
-128.4927598420088
 10
109.1271891003224
 20
-128.2154296554461
 10
109.3111571992347
 20
-128.0080349072341
 10
109.5840087616665
 20
-128.0080349072341
 10
109.8127631018871
 20
-128.0080349072341
 10
109.9119818518623
 20
-128.1244791346355
 10
110.1383246252432
 20
-128.4335041996625
 97
        0
 97
        0
 75
     2
 76
     1
 98
        0
  0
POLYLINE
  5
6C
330
64
100
AcDbEntity
  8
_U+30EC_U+30A4_U+30E4_U+30FC 1
370
     0
100
AcDb2dPolyline
 66
     1
 10
0.0
 20
0.0
 30
0.0
  0
VERTEX
  5
6D
330
6C
100
AcDbEntity
  8
_U+30EC_U+30A4_U+30E4_U+30FC 1
370
     0
100
AcDbVertex
100
AcDb2dVertex
 10
110.7202012527019
 20
-127.7896158534693
 30
0.0
  0
VERTEX
  5
6E
330
6C
100
AcDbEntity
  8
_U+30EC_U+30A4_U+30E4_U+30FC 1
370
     0
100
AcDbVertex
100
AcDb2dVertex
 10
110.4683647727301
 20
-127.7896158534693
 30
0.0
  0
VERTEX
  5
6F
330
6C
100
AcDbEntity
  8
_U+30EC_U+30A4_U+30E4_U+30FC 1
370
     0
100
AcDbVertex
100
AcDb2dVertex
 10
110.4683647727301
 20
-127.5377793734975
 30
0.0
  0
VERTEX
  5
70
330
6C
100
AcDbEntity
  8
_U+30EC_U+30A4_U+30E4_U+30FC 1
370
     0
100
AcDbVertex
100
AcDb2dVertex
 10
110.7202012527019
 20
-127.5377793734975
 30
0.0
  0
VERTEX
  5
71
330
6C
100
AcDbEntity
  8
_U+30EC_U+30A4_U+30E4_U+30FC 1
370
     0
100
AcDbVertex
100
AcDb2dVertex
 10
110.7202012527019
 20
-127.7896158534693
 30
0.0
  0
SEQEND
  5
72
330
6C
100
AcDbEntity
  8
_U+30EC_U+30A4_U+30E4_U+30FC 1
370
     0
  0
HATCH
  5
73
330
64
100
AcDbEntity
  8
_U+30EC_U+30A4_U+30E4_U+30FC 1
 62
   179
420
  2234388
100
AcDbHatch
 10
0.0
 20
0.0
 30
0.0
210
0.0
220
0.0
230
1.0
  2
SOLID
 70
     1
 71
     0
 91
        1
 92
        1
 93
        4
 72
     1
 10
110.7202012527019
 20
-127.7896158534693
 11
110.4683647727301
 21
-127.7896158534693
 72
     1
 10
110.4683647727301
 20
-127.7896158534693
 11
110.4683647727301
 21
-127.5377793734975
 72
     1
 10
110.4683647727301
 20
-127.5377793734975
 11
110.7202012527019
 21
-127.5377793734975
 72
     1
 10
110.7202012527019
 20
-127.5377793734975
 11
110.7202012527019
 21
-127.7896158534693
 97
        0
 75
     2
 76
     1
 98
        0
  0
SPLINE
  5
74
330
64
100
AcDbEntity
  8
_U+30EC_U+30A4_U+30E4_U+30FC 1
370
     0
100
AcDbSpline
210
0.0
220
0.0
230
1.0
 70
    11
 71
     3
 72
    53
 73
    49
 74
     0
 42
0.0000000001
 43
0.0000000001
 12
1.0
 22
0.0
 32
0.0
 13
1.0
 23
0.0
 33
0.0
 40
0.0
 40
0.0
 40
0.0
 40
0.0
 40
1.0
 40
1.0
 40
1.0
 40
2.0
 40
2.0
 40
2.0
 40
3.0
 40
3.0
 40
3.0
 40
4.0
 40
4.0
 40
4.0
 40
5.0
 40
5.0
 40
5.0
 40
6.0
 40
6.0
 40
6.0
 40
7.0
 40
7.0
 40
7.0
 40
8.0
 40
8.0
 40
8.0
 40
9.0
 40
9.0
 40
9.0
 40
10.0
 40
10.0
 40
10.0
 40
11.0
 40
11.0
 40
11.0
 40
12.0
 40
12.0
 40
12.0
 40
13.0
 40
13.0
 40
13.0
 40
14.0
 40
14.0
 40
14.0
 40
15.0
 40
15.0
 40
15.0
 40
16.0
 40
16.0
 40
16.0
 40
16.0
 10
110.7708441563351
 20
-126.8205104934685
 30
0.0
 10
110.7708441563351
 20
-126.8987141609837
 30
0.0
 10
110.7539631884573
 20
-127.0003444777985
 30
0.0
 10
110.6905734315287
 20
-127.1019747946134
 30
0.0
 10
110.5806748855493
 20
-127.2752630975215
 30
0.0
 10
110.4494167475613
 20
-127.29662268953
 30
0.0
 10
110.3415852588729
 20
-127.3155707146989
 30
0.0
 10
110.3415852588729
 20
-127.3155707146989
 30
0.0
 10
110.3415852588729
 20
-127.0933620559003
 30
0.0
 10
110.3415852588729
 20
-127.0933620559003
 30
0.0
 10
110.5403672683719
 20
-127.0385850376848
 30
0.0
 10
110.569995089545
 20
-126.9114610142791
 30
0.0
 10
110.569995089545
 20
-126.8184434361773
 30
0.0
 10
110.569995089545
 20
-126.6789170690247
 30
0.0
 10
110.4704318300213
 20
-126.5266438485767
 30
0.0
 10
110.2378878847669
 20
-126.5266438485767
 30
0.0
 10
109.9819172902129
 20
-126.5266438485767
 30
0.0
 10
109.9119818518623
 20
-126.7064778329067
 30
0.0
 10
109.9119818518623
 20
-126.8270561748905
 30
0.0
 10
109.9119818518623
 20
-126.8587510533548
 30
0.0
 10
109.9119818518623
 20
-127.0003444777985
 30
0.0
 10
110.0411729325591
 20
-127.089227941318
 30
0.0
 10
110.0411729325591
 20
-127.089227941318
 30
0.0
 10
110.0222249073903
 20
-127.2649278110657
 30
0.0
 10
110.0222249073903
 20
-127.2649278110657
 30
0.0
 10
110.0222249073903
 20
-127.2649278110657
 30
0.0
 10
109.1757649466644
 20
-127.144349469082
 30
0.0
 10
109.1757649466644
 20
-127.144349469082
 30
0.0
 10
109.1757649466644
 20
-127.144349469082
 30
0.0
 10
109.1757649466644
 20
-126.3657578894155
 30
0.0
 10
109.1757649466644
 20
-126.3657578894155
 30
0.0
 10
109.1757649466644
 20
-126.3657578894155
 30
0.0
 10
109.370412841581
 20
-126.3657578894155
 30
0.0
 10
109.370412841581
 20
-126.3657578894155
 30
0.0
 10
109.370412841581
 20
-126.3657578894155
 30
0.0
 10
109.370412841581
 20
-126.9813964526297
 30
0.0
 10
109.370412841581
 20
-126.9813964526297
 30
0.0
 10
109.370412841581
 20
-126.9813964526297
 30
0.0
 10
109.7934705671697
 20
-127.0468532668494
 30
0.0
 10
109.7934705671697
 20
-127.0468532668494
 30
0.0
 10
109.7597086314142
 20
-126.985530567212
 30
0.0
 10
109.7194010142368
 20
-126.9031927851145
 30
0.0
 10
109.7194010142368
 20
-126.7846815004219
 30
0.0
 10
109.7194010142368
 20
-126.530777963159
 30
0.0
 10
109.9057806799888
 20
-126.2937553937738
 30
0.0
 10
110.2189398595981
 20
-126.2937553937738
 30
0.0
 10
110.5362331537896
 20
-126.2937553937738
 30
0.0
 10
110.7708441563351
 20
-126.5180311098636
 30
0.0
 10
110.7708441563351
 20
-126.8205104934685
 30
0.0
  0
HATCH
  5
75
330
64
100
AcDbEntity
  8
_U+30EC_U+30A4_U+30E4_U+30FC 1
 62
   179
420
  2234388
100
AcDbHatch
 10
0.0
 20
0.0
 30
0.0
210
0.0
220
0.0
230
1.0
  2
SOLID
 70
     1
 71
     0
 91
        1
 92
        1
 93
        1
 72
     4
 94
        3
 73
     0
 74
     1
 95
       53
 96
       49
 40
0.0
 40
0.0
 40
0.0
 40
0.0
 40
1.0
 40
1.0
 40
1.0
 40
2.0
 40
2.0
 40
2.0
 40
3.0
 40
3.0
 40
3.0
 40
4.0
 40
4.0
 40
4.0
 40
5.0
 40
5.0
 40
5.0
 40
6.0
 40
6.0
 40
6.0
 40
7.0
 40
7.0
 40
7.0
 40
8.0
 40
8.0
 40
8.0
 40
9.0
 40
9.0
 40
9.0
 40
10.0
 40
10.0
 40
10.0
 40
11.0
 40
11.0
 40
11.0
 40
12.0
 40
12.0
 40
12.0
 40
13.0
 40
13.0
 40
13.0
 40
14.0
 40
14.0
 40
14.0
 40
15.0
 40
15.0
 40
15.0
 40
16.0
 40
16.0
 40
16.0
 40
16.0
 10
110.7708441563351
 20
-126.8205104934685
 10
110.7708441563351
 20
-126.8987141609837
 10
110.7539631884573
 20
-127.0003444777985
 10
110.6905734315287
 20
-127.1019747946134
 10
110.5806748855493
 20
-127.2752630975215
 10
110.4494167475613
 20
-127.29662268953
 10
110.3415852588729
 20
-127.3155707146989
 10
110.3415852588729
 20
-127.3155707146989
 10
110.3415852588729
 20
-127.0933620559003
 10
110.3415852588729
 20
-127.0933620559003
 10
110.5403672683719
 20
-127.0385850376848
 10
110.569995089545
 20
-126.9114610142791
 10
110.569995089545
 20
-126.8184434361773
 10
110.569995089545
 20
-126.6789170690247
 10
110.4704318300213
 20
-126.5266438485767
 10
110.2378878847669
 20
-126.5266438485767
 10
109.9819172902129
 20
-126.5266438485767
 10
109.9119818518623
 20
-126.7064778329067
 10
109.9119818518623
 20
-126.8270561748905
 10
109.9119818518623
 20
-126.8587510533548
 10
109.9119818518623
 20
-127.0003444777985
 10
110.0411729325591
 20
-127.089227941318
 10
110.0411729325591
 20
-127.089227941318
 10
110.0222249073903
 20
-127.2649278110657
 10
110.0222249073903
 20
-127.2649278110657
 10
110.0222249073903
 20
-127.2649278110657
 10
109.1757649466644
 20
-127.144349469082
 10
109.1757649466644
 20
-127.144349469082
 10
109.1757649466644
 20
-127.144349469082
 10
109.1757649466644
 20
-126.3657578894155
 10
109.1757649466644
 20
-126.3657578894155
 10
109.1757649466644
 20
-126.3657578894155
 10
109.370412841581
 20
-126.3657578894155
 10
109.370412841581
 20
-126.3657578894155
 10
109.370412841581
 20
-126.3657578894155
 10
109.370412841581
 20
-126.9813964526297
 10
109.370412841581
 20
-126.9813964526297
 10
109.370412841581
 20
-126.9813964526297
 10
109.7934705671697
 20
-127.0468532668494
 10
109.7934705671697
 20
-127.0468532668494
 10
109.7597086314142
 20
-126.985530567212
 10
109.7194010142368
 20
-126.9031927851145
 10
109.7194010142368
 20
-126.7846815004219
 10
109.7194010142368
 20
-126.530777963159
 10
109.9057806799888
 20
-126.2937553937738
 10
110.2189398595981
 20
-126.2937553937738
 10
110.5362331537896
 20
-126.2937553937738
 10
110.7708441563351
 20
-126.5180311098636
 10
110.7708441563351
 20
-126.8205104934685
 97
        0
 97
        0
 75
     2
 76
     1
 98
        0
  0
ENDBLK
  5
67
330
64
100
AcDbEntity
  8
0
100
AcDbBlockEnd
  0
BLOCK
  5
78
330
76
100
AcDbEntity
  8
0
100
AcDbBlockBegin
  2
block 4
 70
     0
 10
0.0
 20
0.0
 30
0.0
  3
block 4
  1

  0
SPLINE
  5
7A
330
76
100
AcDbEntity
  8
_U+30EC_U+30A4_U+30E4_U+30FC 1
370
     0
100
AcDbSpline
210
0.0
220
0.0
230
1.0
 70
    11
 71
     3
 72
    26
 73
    22
 74
     0
 42
0.0000000001
 43
0.0000000001
 12
1.0
 22
0.0
 32
0.0
 13
1.0
 23
0.0
 33
0.0
 40
0.0
 40
0.0
 40
0.0
 40
0.0
 40
1.0
 40
1.0
 40
1.0
 40
2.0
 40
2.0
 40
2.0
 40
3.0
 40
3.0
 40
3.0
 40
4.0
 40
4.0
 40
4.0
 40
5.0
 40
5.0
 40
5.0
 40
6.0
 40
6.0
 40
6.0
 40
7.0
 40
7.0
 40
7.0
 40
7.0
 10
110.7202012527019
 20
-135.0188042197175
 30
0.0
 10
110.7202012527019
 20
-135.0188042197175
 30
0.0
 10
109.6160481496793
 20
-135.0188042197175
 30
0.0
 10
109.6160481496793
 20
-135.0188042197175
 30
0.0
 10
109.6160481496793
 20
-135.0188042197175
 30
0.0
 10
109.6160481496793
 20
-135.3488443672045
 30
0.0
 10
109.6160481496793
 20
-135.3488443672045
 30
0.0
 10
109.6160481496793
 20
-135.3488443672045
 30
0.0
 10
109.4679090438136
 20
-135.3488443672045
 30
0.0
 10
109.4679090438136
 20
-135.3488443672045
 30
0.0
 10
109.453095133227
 20
-135.0167371624264
 30
0.0
 10
109.2901421167747
 20
-134.9702283733755
 30
0.0
 10
109.1757649466644
 20
-134.9406005522024
 30
0.0
 10
109.1757649466644
 20
-134.9406005522024
 30
0.0
 10
109.1757649466644
 20
-134.7945285036278
 30
0.0
 10
109.1757649466644
 20
-134.7945285036278
 30
0.0
 10
109.1757649466644
 20
-134.7945285036278
 30
0.0
 10
110.7202012527019
 20
-134.7945285036278
 30
0.0
 10
110.7202012527019
 20
-134.7945285036278
 30
0.0
 10
110.7202012527019
 20
-134.7945285036278
 30
0.0
 10
110.7202012527019
 20
-135.0188042197175
 30
0.0
 10
110.7202012527019
 20
-135.0188042197175
 30
0.0
  0
HATCH
  5
7B
330
76
100
AcDbEntity
  8
_U+30EC_U+30A4_U+30E4_U+30FC 1
 62
   179
420
  2234388
100
AcDbHatch
 10
0.0
 20
0.0
 30
0.0
210
0.0
220
0.0
230
1.0
  2
SOLID
 70
     1
 71
     0
 91
        1
 92
        1
 93
        1
 72
     4
 94
        3
 73
     0
 74
     1
 95
       26
 96
       22
 40
0.0
 40
0.0
 40
0.0
 40
0.0
 40
1.0
 40
1.0
 40
1.0
 40
2.0
 40
2.0
 40
2.0
 40
3.0
 40
3.0
 40
3.0
 40
4.0
 40
4.0
 40
4.0
 40
5.0
 40
5.0
 40
5.0
 40
6.0
 40
6.0
 40
6.0
 40
7.0
 40
7.0
 40
7.0
 40
7.0
 10
110.7202012527019
 20
-135.0188042197175
 10
110.7202012527019
 20
-135.0188042197175
 10
109.6160481496793
 20
-135.0188042197175
 10
109.6160481496793
 20
-135.0188042197175
 10
109.6160481496793
 20
-135.0188042197175
 10
109.6160481496793
 20
-135.3488443672045
 10
109.6160481496793
 20
-135.3488443672045
 10
109.6160481496793
 20
-135.3488443672045
 10
109.4679090438136
 20
-135.3488443672045
 10
109.4679090438136
 20
-135.3488443672045
 10
109.453095133227
 20
-135.0167371624264
 10
109.2901421167747
 20
-134.9702283733755
 10
109.1757649466644
 20
-134.9406005522024
 10
109.1757649466644
 20
-134.9406005522024
 10
109.1757649466644
 20
-134.7945285036278
 10
109.1757649466644
 20
-134.7945285036278
 10
109.1757649466644
 20
-134.7945285036278
 10
110.7202012527019
 20
-134.7945285036278
 10
110.7202012527019
 20
-134.7945285036278
 10
110.7202012527019
 20
-134.7945285036278
 10
110.7202012527019
 20
-135.0188042197175
 10
110.7202012527019
 20
-135.0188042197175
 97
        0
 97
        0
 75
     2
 76
     1
 98
        0
  0
ENDBLK
  5
79
330
76
100
AcDbEntity
  8
0
100
AcDbBlockEnd
  0
BLOCK
  5
7E
330
7C
100
AcDbEntity
  8
0
100
AcDbBlockBegin
  2
block 5
 70
     0
 10
0.0
 20
0.0
 30
0.0
  3
block 5
  1

  0
SPLINE
  5
80
330
7C
100
AcDbEntity
  8
_U+30EC_U+30A4_U+30E4_U+30FC 1
370
     0
100
AcDbSpline
210
0.0
220
0.0
230
1.0
 70
    11
 71
     3
 72
    32
 73
    28
 74
     0
 42
0.0000000001
 43
0.0000000001
 12
1.0
 22
0.0
 32
0.0
 13
1.0
 23
0.0
 33
0.0
 40
0.0
 40
0.0
 40
0.0
 40
0.0
 40
1.0
 40
1.0
 40
1.0
 40
2.0
 40
2.0
 40
2.0
 40
3.0
 40
3.0
 40
3.0
 40
4.0
 40
4.0
 40
4.0
 40
5.0
 40
5.0
 40
5.0
 40
6.0
 40
6.0
 40
6.0
 40
7.0
 40
7.0
 40
7.0
 40
8.0
 40
8.0
 40
8.0
 40
9.0
 40
9.0
 40
9.0
 40
9.0
 10
95.76194116529562
 20
-124.980140485248
 30
0.0
 10
95.76194116529562
 20
-125.4962157889385
 30
0.0
 10
95.20796981126746
 20
-125.5048285276516
 30
0.0
 10
94.99402938163344
 20
-125.5048285276516
 30
0.0
 10
94.76355249367023
 20
-125.5048285276516
 30
0.0
 10
94.11621905199178
 20
-125.4855359929342
 30
0.0
 10
94.11621905199178
 20
-124.9418999253618
 30
0.0
 10
94.11621905199178
 20
-124.7686116224537
 30
0.0
 10
94.18615449034236
 20
-124.5229763143554
 30
0.0
 10
94.51826169512044
 20
-124.4850802640176
 30
0.0
 10
94.51826169512044
 20
-124.4850802640176
 30
0.0
 10
94.51826169512044
 20
-124.6986761841031
 30
0.0
 10
94.51826169512044
 20
-124.6986761841031
 30
0.0
 10
94.46107311006529
 20
-124.7093559801074
 30
0.0
 10
94.31293400419955
 20
-124.7410508585717
 30
0.0
 10
94.31293400419955
 20
-124.9439669826529
 30
0.0
 10
94.31293400419955
 20
-125.2361110798021
 30
0.0
 10
94.64090709439533
 20
-125.276074187431
 30
0.0
 10
94.8458902757677
 20
-125.2888210407264
 30
0.0
 10
94.76768660825253
 20
-125.1958034626247
 30
0.0
 10
94.70843096590623
 20
-125.1279350815652
 30
0.0
 10
94.70843096590623
 20
-124.9460340399441
 30
0.0
 10
94.70843096590623
 20
-124.766200055614
 30
0.0
 10
94.81660696414308
 20
-124.4637206720091
 30
0.0
 10
95.22278372185403
 20
-124.4637206720091
 30
0.0
 10
95.54214407333669
 20
-124.4637206720091
 30
0.0
 10
95.76194116529562
 20
-124.6628471910565
 30
0.0
 10
95.76194116529562
 20
-124.980140485248
 30
0.0
  0
SPLINE
  5
81
330
7C
100
AcDbEntity
  8
_U+30EC_U+30A4_U+30E4_U+30FC 1
370
     0
100
AcDbSpline
210
0.0
220
0.0
230
1.0
 70
    11
 71
     3
 72
    17
 73
    13
 74
     0
 42
0.0000000001
 43
0.0000000001
 12
1.0
 22
0.0
 32
0.0
 13
1.0
 23
0.0
 33
0.0
 40
0.0
 40
0.0
 40
0.0
 40
0.0
 40
1.0
 40
1.0
 40
1.0
 40
2.0
 40
2.0
 40
2.0
 40
3.0
 40
3.0
 40
3.0
 40
4.0
 40
4.0
 40
4.0
 40
4.0
 10
94.90307886082284
 20
-124.9632595173703
 30
0.0
 10
94.90307886082284
 20
-125.2254312837978
 30
0.0
 10
95.11460772361718
 20
-125.2633273341356
 30
0.0
 10
95.23105195101863
 20
-125.2633273341356
 30
0.0
 10
95.40675182076637
 20
-125.2633273341356
 30
0.0
 10
95.5697048372187
 20
-125.1682426987427
 30
0.0
 10
95.5697048372187
 20
-124.9842745998303
 30
0.0
 10
95.5697048372187
 20
-124.8636962578466
 30
0.0
 10
95.5104491948724
 20
-124.6879963880988
 30
0.0
 10
95.22485077914519
 20
-124.6879963880988
 30
0.0
 10
95.00057506305542
 20
-124.6879963880988
 30
0.0
 10
94.90307886082284
 20
-124.8275227552515
 30
0.0
 10
94.90307886082284
 20
-124.9632595173703
 30
0.0
  0
HATCH
  5
82
330
7C
100
AcDbEntity
  8
_U+30EC_U+30A4_U+30E4_U+30FC 1
 62
   179
420
  2234388
100
AcDbHatch
 10
0.0
 20
0.0
 30
0.0
210
0.0
220
0.0
230
1.0
  2
SOLID
 70
     1
 71
     0
 91
        2
 92
        1
 93
        1
 72
     4
 94
        3
 73
     0
 74
     1
 95
       32
 96
       28
 40
0.0
 40
0.0
 40
0.0
 40
0.0
 40
1.0
 40
1.0
 40
1.0
 40
2.0
 40
2.0
 40
2.0
 40
3.0
 40
3.0
 40
3.0
 40
4.0
 40
4.0
 40
4.0
 40
5.0
 40
5.0
 40
5.0
 40
6.0
 40
6.0
 40
6.0
 40
7.0
 40
7.0
 40
7.0
 40
8.0
 40
8.0
 40
8.0
 40
9.0
 40
9.0
 40
9.0
 40
9.0
 10
95.76194116529562
 20
-124.980140485248
 10
95.76194116529562
 20
-125.4962157889385
 10
95.20796981126746
 20
-125.5048285276516
 10
94.99402938163344
 20
-125.5048285276516
 10
94.76355249367023
 20
-125.5048285276516
 10
94.11621905199178
 20
-125.4855359929342
 10
94.11621905199178
 20
-124.9418999253618
 10
94.11621905199178
 20
-124.7686116224537
 10
94.18615449034236
 20
-124.5229763143554
 10
94.51826169512044
 20
-124.4850802640176
 10
94.51826169512044
 20
-124.4850802640176
 10
94.51826169512044
 20
-124.6986761841031
 10
94.51826169512044
 20
-124.6986761841031
 10
94.46107311006529
 20
-124.7093559801074
 10
94.31293400419955
 20
-124.7410508585717
 10
94.31293400419955
 20
-124.9439669826529
 10
94.31293400419955
 20
-125.2361110798021
 10
94.64090709439533
 20
-125.276074187431
 10
94.8458902757677
 20
-125.2888210407264
 10
94.76768660825253
 20
-125.1958034626247
 10
94.70843096590623
 20
-125.1279350815652
 10
94.70843096590623
 20
-124.9460340399441
 10
94.70843096590623
 20
-124.766200055614
 10
94.81660696414308
 20
-124.4637206720091
 10
95.22278372185403
 20
-124.4637206720091
 10
95.54214407333669
 20
-124.4637206720091
 10
95.76194116529562
 20
-124.6628471910565
 10
95.76194116529562
 20
-124.980140485248
 97
        0
 97
        0
 92
        1
 93
        1
 72
     4
 94
        3
 73
     0
 74
     1
 95
       17
 96
       13
 40
0.0
 40
0.0
 40
0.0
 40
0.0
 40
1.0
 40
1.0
 40
1.0
 40
2.0
 40
2.0
 40
2.0
 40
3.0
 40
3.0
 40
3.0
 40
4.0
 40
4.0
 40
4.0
 40
4.0
 10
94.90307886082284
 20
-124.9632595173703
 10
94.90307886082284
 20
-125.2254312837978
 10
95.11460772361718
 20
-125.2633273341356
 10
95.23105195101863
 20
-125.2633273341356
 10
95.40675182076637
 20
-125.2633273341356
 10
95.5697048372187
 20
-125.1682426987427
 10
95.5697048372187
 20
-124.9842745998303
 10
95.5697048372187
 20
-124.8636962578466
 10
95.5104491948724
 20
-124.6879963880988
 10
95.22485077914519
 20
-124.6879963880988
 10
95.00057506305542
 20
-124.6879963880988
 10
94.90307886082284
 20
-124.8275227552515
 10
94.90307886082284
 20
-124.9632595173703
 97
        0
 97
        0
 75
     2
 76
     1
 98
        0
  0
ENDBLK
  5
7F
330
7C
100
AcDbEntity
  8
0
100
AcDbBlockEnd
  0
BLOCK
  5
93
330
91
100
AcDbEntity
  8
0
100
AcDbBlockBegin
  2
block 6
 70
     0
 10
0.0
 20
0.0
 30
0.0
  3
block 6
  1

  0
SPLINE
  5
95
330
91
100
AcDbEntity
  8
_U+30EC_U+30A4_U+30E4_U+30FC 1
370
     0
100
AcDbSpline
210
0.0
220
0.0
230
1.0
 70
    11
 71
     3
 72
    62
 73
    58
 74
     0
 42
0.0000000001
 43
0.0000000001
 12
1.0
 22
0.0
 32
0.0
 13
1.0
 23
0.0
 33
0.0
 40
0.0
 40
0.0
 40
0.0
 40
0.0
 40
1.0
 40
1.0
 40
1.0
 40
2.0
 40
2.0
 40
2.0
 40
3.0
 40
3.0
 40
3.0
 40
4.0
 40
4.0
 40
4.0
 40
5.0
 40
5.0
 40
5.0
 40
6.0
 40
6.0
 40
6.0
 40
7.0
 40
7.0
 40
7.0
 40
8.0
 40
8.0
 40
8.0
 40
9.0
 40
9.0
 40
9.0
 40
10.0
 40
10.0
 40
10.0
 40
11.0
 40
11.0
 40
11.0
 40
12.0
 40
12.0
 40
12.0
 40
13.0
 40
13.0
 40
13.0
 40
14.0
 40
14.0
 40
14.0
 40
15.0
 40
15.0
 40
15.0
 40
16.0
 40
16.0
 40
16.0
 40
17.0
 40
17.0
 40
17.0
 40
18.0
 40
18.0
 40
18.0
 40
19.0
 40
19.0
 40
19.0
 40
19.0
 10
88.01529945716284
 20
-118.6797498618231
 30
0.0
 10
87.91987031222142
 20
-118.6797498618231
 30
0.0
 10
87.70214027755364
 20
-118.6587347793631
 30
0.0
 10
87.57708331143907
 20
-118.4726996231596
 30
0.0
 10
87.5030137585062
 20
-118.3603895103405
 30
0.0
 10
87.4988796439239
 20
-118.2611707603653
 30
0.0
 10
87.4947455293416
 20
-118.1764214114281
 30
0.0
 10
87.4947455293416
 20
-118.1764214114281
 30
0.0
 10
87.71488713084906
 20
-118.1764214114281
 30
0.0
 10
87.71488713084906
 20
-118.1764214114281
 30
0.0
 10
87.7169541881402
 20
-118.250490964361
 30
0.0
 10
87.72728947459596
 20
-118.4851019669065
 30
0.0
 10
88.01082083303203
 20
-118.4851019669065
 30
0.0
 10
88.14828014289348
 20
-118.4851019669065
 30
0.0
 10
88.30089787289006
 20
-118.4155110381045
 30
0.0
 10
88.30089787289006
 20
-118.1871012074324
 30
0.0
 10
88.30089787289006
 20
-118.0706569800309
 30
0.0
 10
88.26265731300379
 20
-118.0220811336889
 30
0.0
 10
88.23096243453949
 20
-117.9903862552246
 30
0.0
 10
88.15689288160661
 20
-117.9163167022918
 30
0.0
 10
88.04044865420516
 20
-117.9035698489963
 30
0.0
 10
87.9856716359897
 20
-117.9035698489963
 30
0.0
 10
87.9663791012723
 20
-117.9035698489963
 30
0.0
 10
87.9305501082257
 20
-117.9056369062875
 30
0.0
 10
87.9029893443437
 20
-117.9097710208698
 30
0.0
 10
87.9029893443437
 20
-117.9097710208698
 30
0.0
 10
87.9029893443437
 20
-117.7151231259532
 30
0.0
 10
87.9029893443437
 20
-117.7151231259532
 30
0.0
 10
87.94122990422997
 20
-117.7216688073751
 30
0.0
 10
87.98326006915002
 20
-117.7237358646663
 30
0.0
 10
87.989805750572
 20
-117.7237358646663
 30
0.0
 10
88.05526256479175
 20
-117.7237358646663
 30
0.0
 10
88.25404457429066
 20
-117.7023762726577
 30
0.0
 10
88.25404457429066
 20
-117.4656982128211
 30
0.0
 10
88.25404457429066
 20
-117.2879312857822
 30
0.0
 10
88.12313094585116
 20
-117.2328097580182
 30
0.0
 10
88.01288789032317
 20
-117.2328097580182
 30
0.0
 10
87.74864906660451
 20
-117.2328097580182
 30
0.0
 10
87.74003632789139
 20
-117.4656982128211
 30
0.0
 10
87.73590221330909
 20
-117.5373561989143
 30
0.0
 10
87.73590221330909
 20
-117.5373561989143
 30
0.0
 10
87.53264157967935
 20
-117.5373561989143
 30
0.0
 10
87.53264157967935
 20
-117.5373561989143
 30
0.0
 10
87.54125431839246
 20
-117.4126437423482
 30
0.0
 10
87.56881508227447
 20
-117.0360948058104
 30
0.0
 10
88.0256347436186
 20
-117.0360948058104
 30
0.0
 10
88.24991045970836
 20
-117.0360948058104
 30
0.0
 10
88.49106714367585
 20
-117.1632188292161
 30
0.0
 10
88.49106714367585
 20
-117.4591525313991
 30
0.0
 10
88.49106714367585
 20
-117.6455321971511
 30
0.0
 10
88.39598250828296
 20
-117.7278699792486
 30
0.0
 10
88.29641924875924
 20
-117.789192678886
 30
0.0
 10
88.35774194839668
 20
-117.816753442768
 30
0.0
 10
88.53964299001787
 20
-117.8970241675744
 30
0.0
 10
88.53964299001787
 20
-118.174354354137
 30
0.0
 10
88.53964299001787
 20
-118.5126627307885
 30
0.0
 10
88.29228513417694
 20
-118.6797498618231
 30
0.0
 10
88.01529945716284
 20
-118.6797498618231
 30
0.0
  0
HATCH
  5
96
330
91
100
AcDbEntity
  8
_U+30EC_U+30A4_U+30E4_U+30FC 1
 62
   179
420
  2234388
100
AcDbHatch
 10
0.0
 20
0.0
 30
0.0
210
0.0
220
0.0
230
1.0
  2
SOLID
 70
     1
 71
     0
 91
        1
 92
        1
 93
        1
 72
     4
 94
        3
 73
     0
 74
     1
 95
       62
 96
       58
 40
0.0
 40
0.0
 40
0.0
 40
0.0
 40
1.0
 40
1.0
 40
1.0
 40
2.0
 40
2.0
 40
2.0
 40
3.0
 40
3.0
 40
3.0
 40
4.0
 40
4.0
 40
4.0
 40
5.0
 40
5.0
 40
5.0
 40
6.0
 40
6.0
 40
6.0
 40
7.0
 40
7.0
 40
7.0
 40
8.0
 40
8.0
 40
8.0
 40
9.0
 40
9.0
 40
9.0
 40
10.0
 40
10.0
 40
10.0
 40
11.0
 40
11.0
 40
11.0
 40
12.0
 40
12.0
 40
12.0
 40
13.0
 40
13.0
 40
13.0
 40
14.0
 40
14.0
 40
14.0
 40
15.0
 40
15.0
 40
15.0
 40
16.0
 40
16.0
 40
16.0
 40
17.0
 40
17.0
 40
17.0
 40
18.0
 40
18.0
 40
18.0
 40
19.0
 40
19.0
 40
19.0
 40
19.0
 10
88.01529945716284
 20
-118.6797498618231
 10
87.91987031222142
 20
-118.6797498618231
 10
87.70214027755364
 20
-118.6587347793631
 10
87.57708331143907
 20
-118.4726996231596
 10
87.5030137585062
 20
-118.3603895103405
 10
87.4988796439239
 20
-118.2611707603653
 10
87.4947455293416
 20
-118.1764214114281
 10
87.4947455293416
 20
-118.1764214114281
 10
87.71488713084906
 20
-118.1764214114281
 10
87.71488713084906
 20
-118.1764214114281
 10
87.7169541881402
 20
-118.250490964361
 10
87.72728947459596
 20
-118.4851019669065
 10
88.01082083303203
 20
-118.4851019669065
 10
88.14828014289348
 20
-118.4851019669065
 10
88.30089787289006
 20
-118.4155110381045
 10
88.30089787289006
 20
-118.1871012074324
 10
88.30089787289006
 20
-118.0706569800309
 10
88.26265731300379
 20
-118.0220811336889
 10
88.23096243453949
 20
-117.9903862552246
 10
88.15689288160661
 20
-117.9163167022918
 10
88.04044865420516
 20
-117.9035698489963
 10
87.9856716359897
 20
-117.9035698489963
 10
87.9663791012723
 20
-117.9035698489963
 10
87.9305501082257
 20
-117.9056369062875
 10
87.9029893443437
 20
-117.9097710208698
 10
87.9029893443437
 20
-117.9097710208698
 10
87.9029893443437
 20
-117.7151231259532
 10
87.9029893443437
 20
-117.7151231259532
 10
87.94122990422997
 20
-117.7216688073751
 10
87.98326006915002
 20
-117.7237358646663
 10
87.989805750572
 20
-117.7237358646663
 10
88.05526256479175
 20
-117.7237358646663
 10
88.25404457429066
 20
-117.7023762726577
 10
88.25404457429066
 20
-117.4656982128211
 10
88.25404457429066
 20
-117.2879312857822
 10
88.12313094585116
 20
-117.2328097580182
 10
88.01288789032317
 20
-117.2328097580182
 10
87.74864906660451
 20
-117.2328097580182
 10
87.74003632789139
 20
-117.4656982128211
 10
87.73590221330909
 20
-117.5373561989143
 10
87.73590221330909
 20
-117.5373561989143
 10
87.53264157967935
 20
-117.5373561989143
 10
87.53264157967935
 20
-117.5373561989143
 10
87.54125431839246
 20
-117.4126437423482
 10
87.56881508227447
 20
-117.0360948058104
 10
88.0256347436186
 20
-117.0360948058104
 10
88.24991045970836
 20
-117.0360948058104
 10
88.49106714367585
 20
-117.1632188292161
 10
88.49106714367585
 20
-117.4591525313991
 10
88.49106714367585
 20
-117.6455321971511
 10
88.39598250828296
 20
-117.7278699792486
 10
88.29641924875924
 20
-117.789192678886
 10
88.35774194839668
 20
-117.816753442768
 10
88.53964299001787
 20
-117.8970241675744
 10
88.53964299001787
 20
-118.174354354137
 10
88.53964299001787
 20
-118.5126627307885
 10
88.29228513417694
 20
-118.6797498618231
 10
88.01529945716284
 20
-118.6797498618231
 97
        0
 97
        0
 75
     2
 76
     1
 98
        0
  0
ENDBLK
  5
94
330
91
100
AcDbEntity
  8
0
100
AcDbBlockEnd
  0
BLOCK
  5
A5
330
A3
100
AcDbEntity
  8
0
100
AcDbBlockBegin
  2
block 7
 70
     0
 10
0.0
 20
0.0
 30
0.0
  3
block 7
  1

  0
SPLINE
  5
A7
330
A3
100
AcDbEntity
  8
_U+30EC_U+30A4_U+30E4_U+30FC 1
370
     0
100
AcDbSpline
210
0.0
220
0.0
230
1.0
 70
    11
 71
     3
 72
    62
 73
    58
 74
     0
 42
0.0000000001
 43
0.0000000001
 12
1.0
 22
0.0
 32
0.0
 13
1.0
 23
0.0
 33
0.0
 40
0.0
 40
0.0
 40
0.0
 40
0.0
 40
1.0
 40
1.0
 40
1.0
 40
2.0
 40
2.0
 40
2.0
 40
3.0
 40
3.0
 40
3.0
 40
4.0
 40
4.0
 40
4.0
 40
5.0
 40
5.0
 40
5.0
 40
6.0
 40
6.0
 40
6.0
 40
7.0
 40
7.0
 40
7.0
 40
8.0
 40
8.0
 40
8.0
 40
9.0
 40
9.0
 40
9.0
 40
10.0
 40
10.0
 40
10.0
 40
11.0
 40
11.0
 40
11.0
 40
12.0
 40
12.0
 40
12.0
 40
13.0
 40
13.0
 40
13.0
 40
14.0
 40
14.0
 40
14.0
 40
15.0
 40
15.0
 40
15.0
 40
16.0
 40
16.0
 40
16.0
 40
17.0
 40
17.0
 40
17.0
 40
18.0
 40
18.0
 40
18.0
 40
19.0
 40
19.0
 40
19.0
 40
19.0
 10
87.44306909706285
 20
-138.9441460156112
 30
0.0
 10
87.34763995212143
 20
-138.9441460156112
 30
0.0
 10
87.12990991745363
 20
-138.9227864236026
 30
0.0
 10
87.00485295133907
 20
-138.7367512673991
 30
0.0
 10
86.93112790795472
 20
-138.62444115458
 30
0.0
 10
86.92664928382389
 20
-138.5252224046048
 30
0.0
 10
86.92251516924159
 20
-138.4404730556677
 30
0.0
 10
86.92251516924159
 20
-138.4404730556677
 30
0.0
 10
87.14265677074906
 20
-138.4404730556677
 30
0.0
 10
87.14265677074906
 20
-138.4404730556677
 30
0.0
 10
87.14472382804021
 20
-138.5148871181491
 30
0.0
 10
87.15505911449596
 20
-138.7491536111461
 30
0.0
 10
87.43859047293202
 20
-138.7491536111461
 30
0.0
 10
87.57604978279349
 20
-138.7491536111461
 30
0.0
 10
87.72866751279005
 20
-138.679562682344
 30
0.0
 10
87.72866751279005
 20
-138.4514973612205
 30
0.0
 10
87.72866751279005
 20
-138.335053133819
 30
0.0
 10
87.69042695290379
 20
-138.2861327779285
 30
0.0
 10
87.65873207443948
 20
-138.2544378994642
 30
0.0
 10
87.58466252150662
 20
-138.1807128560798
 30
0.0
 10
87.46821829410517
 20
-138.1676214932359
 30
0.0
 10
87.4134412758897
 20
-138.1676214932359
 30
0.0
 10
87.3941487411723
 20
-138.1676214932359
 30
0.0
 10
87.35831974812571
 20
-138.169688550527
 30
0.0
 10
87.3307589842437
 20
-138.1738226651093
 30
0.0
 10
87.3307589842437
 20
-138.1738226651093
 30
0.0
 10
87.3307589842437
 20
-137.9795192797412
 30
0.0
 10
87.3307589842437
 20
-137.9795192797412
 30
0.0
 10
87.36899954412998
 20
-137.9857204516147
 30
0.0
 10
87.41102970905003
 20
-137.9877875089058
 30
0.0
 10
87.417575390472
 20
-137.9877875089058
 30
0.0
 10
87.48303220469175
 20
-137.9877875089058
 30
0.0
 10
87.68181421419067
 20
-137.9664279168973
 30
0.0
 10
87.68181421419067
 20
-137.7300943666091
 30
0.0
 10
87.68181421419067
 20
-137.5523274395703
 30
0.0
 10
87.55090058575117
 20
-137.4972059118062
 30
0.0
 10
87.44065753022318
 20
-137.4972059118062
 30
0.0
 10
87.1764187065045
 20
-137.4972059118062
 30
0.0
 10
87.16780596779138
 20
-137.7300943666091
 30
0.0
 10
87.16367185320908
 20
-137.8017523527024
 30
0.0
 10
87.16367185320908
 20
-137.8017523527024
 30
0.0
 10
86.96041121957934
 20
-137.8017523527024
 30
0.0
 10
86.96041121957934
 20
-137.8017523527024
 30
0.0
 10
86.96902395829247
 20
-137.6770398961363
 30
0.0
 10
86.99658472217448
 20
-137.30014645005
 30
0.0
 10
87.4534043835186
 20
-137.30014645005
 30
0.0
 10
87.67768009960837
 20
-137.30014645005
 30
0.0
 10
87.91883678357586
 20
-137.4276149830042
 30
0.0
 10
87.91883678357586
 20
-137.7232041756386
 30
0.0
 10
87.91883678357586
 20
-137.9099283509392
 30
0.0
 10
87.82375214818296
 20
-137.9919216234881
 30
0.0
 10
87.72418888865923
 20
-138.0532443231256
 30
0.0
 10
87.78551158829669
 20
-138.0808050870076
 30
0.0
 10
87.96741262991787
 20
-138.1614203213624
 30
0.0
 10
87.96741262991787
 20
-138.4384059983765
 30
0.0
 10
87.96741262991787
 20
-138.7767143750281
 30
0.0
 10
87.72005477407693
 20
-138.9441460156112
 30
0.0
 10
87.44306909706285
 20
-138.9441460156112
 30
0.0
  0
HATCH
  5
A8
330
A3
100
AcDbEntity
  8
_U+30EC_U+30A4_U+30E4_U+30FC 1
 62
   179
420
  2234388
100
AcDbHatch
 10
0.0
 20
0.0
 30
0.0
210
0.0
220
0.0
230
1.0
  2
SOLID
 70
     1
 71
     0
 91
        1
 92
        1
 93
        1
 72
     4
 94
        3
 73
     0
 74
     1
 95
       62
 96
       58
 40
0.0
 40
0.0
 40
0.0
 40
0.0
 40
1.0
 40
1.0
 40
1.0
 40
2.0
 40
2.0
 40
2.0
 40
3.0
 40
3.0
 40
3.0
 40
4.0
 40
4.0
 40
4.0
 40
5.0
 40
5.0
 40
5.0
 40
6.0
 40
6.0
 40
6.0
 40
7.0
 40
7.0
 40
7.0
 40
8.0
 40
8.0
 40
8.0
 40
9.0
 40
9.0
 40
9.0
 40
10.0
 40
10.0
 40
10.0
 40
11.0
 40
11.0
 40
11.0
 40
12.0
 40
12.0
 40
12.0
 40
13.0
 40
13.0
 40
13.0
 40
14.0
 40
14.0
 40
14.0
 40
15.0
 40
15.0
 40
15.0
 40
16.0
 40
16.0
 40
16.0
 40
17.0
 40
17.0
 40
17.0
 40
18.0
 40
18.0
 40
18.0
 40
19.0
 40
19.0
 40
19.0
 40
19.0
 10
87.44306909706285
 20
-138.9441460156112
 10
87.34763995212143
 20
-138.9441460156112
 10
87.12990991745363
 20
-138.9227864236026
 10
87.00485295133907
 20
-138.7367512673991
 10
86.93112790795472
 20
-138.62444115458
 10
86.92664928382389
 20
-138.5252224046048
 10
86.92251516924159
 20
-138.4404730556677
 10
86.92251516924159
 20
-138.4404730556677
 10
87.14265677074906
 20
-138.4404730556677
 10
87.14265677074906
 20
-138.4404730556677
 10
87.14472382804021
 20
-138.5148871181491
 10
87.15505911449596
 20
-138.7491536111461
 10
87.43859047293202
 20
-138.7491536111461
 10
87.57604978279349
 20
-138.7491536111461
 10
87.72866751279005
 20
-138.679562682344
 10
87.72866751279005
 20
-138.4514973612205
 10
87.72866751279005
 20
-138.335053133819
 10
87.69042695290379
 20
-138.2861327779285
 10
87.65873207443948
 20
-138.2544378994642
 10
87.58466252150662
 20
-138.1807128560798
 10
87.46821829410517
 20
-138.1676214932359
 10
87.4134412758897
 20
-138.1676214932359
 10
87.3941487411723
 20
-138.1676214932359
 10
87.35831974812571
 20
-138.169688550527
 10
87.3307589842437
 20
-138.1738226651093
 10
87.3307589842437
 20
-138.1738226651093
 10
87.3307589842437
 20
-137.9795192797412
 10
87.3307589842437
 20
-137.9795192797412
 10
87.36899954412998
 20
-137.9857204516147
 10
87.41102970905003
 20
-137.9877875089058
 10
87.417575390472
 20
-137.9877875089058
 10
87.48303220469175
 20
-137.9877875089058
 10
87.68181421419067
 20
-137.9664279168973
 10
87.68181421419067
 20
-137.7300943666091
 10
87.68181421419067
 20
-137.5523274395703
 10
87.55090058575117
 20
-137.4972059118062
 10
87.44065753022318
 20
-137.4972059118062
 10
87.1764187065045
 20
-137.4972059118062
 10
87.16780596779138
 20
-137.7300943666091
 10
87.16367185320908
 20
-137.8017523527024
 10
87.16367185320908
 20
-137.8017523527024
 10
86.96041121957934
 20
-137.8017523527024
 10
86.96041121957934
 20
-137.8017523527024
 10
86.96902395829247
 20
-137.6770398961363
 10
86.99658472217448
 20
-137.30014645005
 10
87.4534043835186
 20
-137.30014645005
 10
87.67768009960837
 20
-137.30014645005
 10
87.91883678357586
 20
-137.4276149830042
 10
87.91883678357586
 20
-137.7232041756386
 10
87.91883678357586
 20
-137.9099283509392
 10
87.82375214818296
 20
-137.9919216234881
 10
87.72418888865923
 20
-138.0532443231256
 10
87.78551158829669
 20
-138.0808050870076
 10
87.96741262991787
 20
-138.1614203213624
 10
87.96741262991787
 20
-138.4384059983765
 10
87.96741262991787
 20
-138.7767143750281
 10
87.72005477407693
 20
-138.9441460156112
 10
87.44306909706285
 20
-138.9441460156112
 97
        0
 97
        0
 75
     2
 76
     1
 98
        0
  0
SPLINE
  5
A9
330
A3
100
AcDbEntity
  8
_U+30EC_U+30A4_U+30E4_U+30FC 1
370
     0
100
AcDbSpline
210
0.0
220
0.0
230
1.0
 70
    11
 71
     3
 72
    53
 73
    49
 74
     0
 42
0.0000000001
 43
0.0000000001
 12
1.0
 22
0.0
 32
0.0
 13
1.0
 23
0.0
 33
0.0
 40
0.0
 40
0.0
 40
0.0
 40
0.0
 40
1.0
 40
1.0
 40
1.0
 40
2.0
 40
2.0
 40
2.0
 40
3.0
 40
3.0
 40
3.0
 40
4.0
 40
4.0
 40
4.0
 40
5.0
 40
5.0
 40
5.0
 40
6.0
 40
6.0
 40
6.0
 40
7.0
 40
7.0
 40
7.0
 40
8.0
 40
8.0
 40
8.0
 40
9.0
 40
9.0
 40
9.0
 40
10.0
 40
10.0
 40
10.0
 40
11.0
 40
11.0
 40
11.0
 40
12.0
 40
12.0
 40
12.0
 40
13.0
 40
13.0
 40
13.0
 40
14.0
 40
14.0
 40
14.0
 40
15.0
 40
15.0
 40
15.0
 40
16.0
 40
16.0
 40
16.0
 40
16.0
 10
88.60923391881992
 20
-138.9441460156112
 30
0.0
 10
88.53103025130474
 20
-138.9441460156112
 30
0.0
 10
88.42939993448988
 20
-138.9269205381849
 30
0.0
 10
88.327769617675
 20
-138.8635307812563
 30
0.0
 10
88.15448131476694
 20
-138.7539767448254
 30
0.0
 10
88.13312172275839
 20
-138.6223740972889
 30
0.0
 10
88.11417369758952
 20
-138.5148871181491
 30
0.0
 10
88.11417369758952
 20
-138.5148871181491
 30
0.0
 10
88.33638235638813
 20
-138.5148871181491
 30
0.0
 10
88.33638235638813
 20
-138.5148871181491
 30
0.0
 10
88.3911593746036
 20
-138.7133246180994
 30
0.0
 10
88.51828339800932
 20
-138.7429524392726
 30
0.0
 10
88.61130097611107
 20
-138.7429524392726
 30
0.0
 10
88.75082734326368
 20
-138.7429524392726
 30
0.0
 10
88.90310056371173
 20
-138.6437336892974
 30
0.0
 10
88.90310056371173
 20
-138.4108452344945
 30
0.0
 10
88.90310056371173
 20
-138.155219149489
 30
0.0
 10
88.72326657938169
 20
-138.0849392015899
 30
0.0
 10
88.60268823739794
 20
-138.0849392015899
 30
0.0
 10
88.57099335893365
 20
-138.0849392015899
 30
0.0
 10
88.42939993448988
 20
-138.0849392015899
 30
0.0
 10
88.34051647097043
 20
-138.2144747918353
 30
0.0
 10
88.34051647097043
 20
-138.2144747918353
 30
0.0
 10
88.16481660122268
 20
-138.1951822571179
 30
0.0
 10
88.16481660122268
 20
-138.1951822571179
 30
0.0
 10
88.16481660122268
 20
-138.1951822571179
 30
0.0
 10
88.28539494320643
 20
-137.3490668059405
 30
0.0
 10
88.28539494320643
 20
-137.3490668059405
 30
0.0
 10
88.28539494320643
 20
-137.3490668059405
 30
0.0
 10
89.0639865228729
 20
-137.3490668059405
 30
0.0
 10
89.0639865228729
 20
-137.3490668059405
 30
0.0
 10
89.0639865228729
 20
-137.3490668059405
 30
0.0
 10
89.0639865228729
 20
-137.5433701913086
 30
0.0
 10
89.0639865228729
 20
-137.5433701913086
 30
0.0
 10
89.0639865228729
 20
-137.5433701913086
 30
0.0
 10
88.44834795965875
 20
-137.5433701913086
 30
0.0
 10
88.44834795965875
 20
-137.5433701913086
 30
0.0
 10
88.44834795965875
 20
-137.5433701913086
 30
0.0
 10
88.382891145439
 20
-137.9664279168973
 30
0.0
 10
88.382891145439
 20
-137.9664279168973
 30
0.0
 10
88.44421384507645
 20
-137.9326659811418
 30
0.0
 10
88.52655162717392
 20
-137.8927028735129
 30
0.0
 10
88.64506291186652
 20
-137.8927028735129
 30
0.0
 10
88.89896644912943
 20
-137.8927028735129
 30
0.0
 10
89.13598901851462
 20
-138.0787380297164
 30
0.0
 10
89.13598901851462
 20
-138.3922417188742
 30
0.0
 10
89.13598901851462
 20
-138.7091905035172
 30
0.0
 10
88.91171330242486
 20
-138.9441460156112
 30
0.0
 10
88.60923391881992
 20
-138.9441460156112
 30
0.0
  0
HATCH
  5
AA
330
A3
100
AcDbEntity
  8
_U+30EC_U+30A4_U+30E4_U+30FC 1
 62
   179
420
  2234388
100
AcDbHatch
 10
0.0
 20
0.0
 30
0.0
210
0.0
220
0.0
230
1.0
  2
SOLID
 70
     1
 71
     0
 91
        1
 92
        1
 93
        1
 72
     4
 94
        3
 73
     0
 74
     1
 95
       53
 96
       49
 40
0.0
 40
0.0
 40
0.0
 40
0.0
 40
1.0
 40
1.0
 40
1.0
 40
2.0
 40
2.0
 40
2.0
 40
3.0
 40
3.0
 40
3.0
 40
4.0
 40
4.0
 40
4.0
 40
5.0
 40
5.0
 40
5.0
 40
6.0
 40
6.0
 40
6.0
 40
7.0
 40
7.0
 40
7.0
 40
8.0
 40
8.0
 40
8.0
 40
9.0
 40
9.0
 40
9.0
 40
10.0
 40
10.0
 40
10.0
 40
11.0
 40
11.0
 40
11.0
 40
12.0
 40
12.0
 40
12.0
 40
13.0
 40
13.0
 40
13.0
 40
14.0
 40
14.0
 40
14.0
 40
15.0
 40
15.0
 40
15.0
 40
16.0
 40
16.0
 40
16.0
 40
16.0
 10
88.60923391881992
 20
-138.9441460156112
 10
88.53103025130474
 20
-138.9441460156112
 10
88.42939993448988
 20
-138.9269205381849
 10
88.327769617675
 20
-138.8635307812563
 10
88.15448131476694
 20
-138.7539767448254
 10
88.13312172275839
 20
-138.6223740972889
 10
88.11417369758952
 20
-138.5148871181491
 10
88.11417369758952
 20
-138.5148871181491
 10
88.33638235638813
 20
-138.5148871181491
 10
88.33638235638813
 20
-138.5148871181491
 10
88.3911593746036
 20
-138.7133246180994
 10
88.51828339800932
 20
-138.7429524392726
 10
88.61130097611107
 20
-138.7429524392726
 10
88.75082734326368
 20
-138.7429524392726
 10
88.90310056371173
 20
-138.6437336892974
 10
88.90310056371173
 20
-138.4108452344945
 10
88.90310056371173
 20
-138.155219149489
 10
88.72326657938169
 20
-138.0849392015899
 10
88.60268823739794
 20
-138.0849392015899
 10
88.57099335893365
 20
-138.0849392015899
 10
88.42939993448988
 20
-138.0849392015899
 10
88.34051647097043
 20
-138.2144747918353
 10
88.34051647097043
 20
-138.2144747918353
 10
88.16481660122268
 20
-138.1951822571179
 10
88.16481660122268
 20
-138.1951822571179
 10
88.16481660122268
 20
-138.1951822571179
 10
88.28539494320643
 20
-137.3490668059405
 10
88.28539494320643
 20
-137.3490668059405
 10
88.28539494320643
 20
-137.3490668059405
 10
89.0639865228729
 20
-137.3490668059405
 10
89.0639865228729
 20
-137.3490668059405
 10
89.0639865228729
 20
-137.3490668059405
 10
89.0639865228729
 20
-137.5433701913086
 10
89.0639865228729
 20
-137.5433701913086
 10
89.0639865228729
 20
-137.5433701913086
 10
88.44834795965875
 20
-137.5433701913086
 10
88.44834795965875
 20
-137.5433701913086
 10
88.44834795965875
 20
-137.5433701913086
 10
88.382891145439
 20
-137.9664279168973
 10
88.382891145439
 20
-137.9664279168973
 10
88.44421384507645
 20
-137.9326659811418
 10
88.52655162717392
 20
-137.8927028735129
 10
88.64506291186652
 20
-137.8927028735129
 10
88.89896644912943
 20
-137.8927028735129
 10
89.13598901851462
 20
-138.0787380297164
 10
89.13598901851462
 20
-138.3922417188742
 10
89.13598901851462
 20
-138.7091905035172
 10
88.91171330242486
 20
-138.9441460156112
 10
88.60923391881992
 20
-138.9441460156112
 97
        0
 97
        0
 75
     2
 76
     1
 98
        0
  0
ENDBLK
  5
A6
330
A3
100
AcDbEntity
  8
0
100
AcDbBlockEnd
  0
ENDSEC
  0
SECTION
  2
ENTITIES
  0
INSERT
  5
42
330
1F
100
AcDbEntity
  8
_U+30EC_U+30A4_U+30E4_U+30FC 1
100
AcDbBlockReference
  2
block 2
 10
0.0
 20
0.0
 30
0.0
  0
ENDSEC
  0
SECTION
  2
OBJECTS
  0
DICTIONARY
  5
C
330
0
100
AcDbDictionary
281
     1
  3
ACAD_GROUP
350
D
  3
ACAD_LAYOUT
350
1A
  3
ACAD_MATERIAL
350
3B
  3
ACAD_MLEADERSTYLE
350
BF
  3
ACAD_MLINESTYLE
350
17
  3
ACAD_PLOTSETTINGS
350
19
  3
ACAD_PLOTSTYLENAME
350
E
  3
ACAD_TABLESTYLE
350
BE
  3
ACAD_VISUALSTYLE
350
2A
  0
SUN
  5
3F
330
29
100
AcDbSun
 90
        1
290
     0
 63
     7
421
 16777215
 40
1.0
291
     1
 91
  2455826
 92
 54000000
292
     0
 70
     2
 71
   256
280
     1
  0
DICTIONARY
  5
D
102
{ACAD_REACTORS
330
C
102
}
330
C
100
AcDbDictionary
281
     1
  0
DICTIONARY
  5
1A
102
{ACAD_REACTORS
330
C
102
}
330
C
100
AcDbDictionary
281
     1
  3
Layout1
350
1E
  3
Layout2
350
26
  3
Model
350
22
  0
DICTIONARY
  5
3B
102
{ACAD_REACTORS
330
C
102
}
330
C
100
AcDbDictionary
281
     1
  3
ByBlock
350
3D
  3
ByLayer
350
3C
  3
Global
350
3E
  0
DICTIONARY
  5
BF
102
{ACAD_REACTORS
330
C
102
}
330
C
100
AcDbDictionary
281
     1
  0
DICTIONARY
  5
17
102
{ACAD_REACTORS
330
C
102
}
330
C
100
AcDbDictionary
281
     1
  3
Standard
350
18
  0
DICTIONARY
  5
19
102
{ACAD_REACTORS
330
C
102
}
330
C
100
AcDbDictionary
281
     1
  0
ACDBDICTIONARYWDFLT
  5
E
102
{ACAD_REACTORS
330
C
102
}
330
C
100
AcDbDictionary
281
     1
  3
Normal
350
F
100
AcDbDictionaryWithDefault
340
F
  0
DICTIONARY
  5
BE
102
{ACAD_REACTORS
330
C
102
}
330
C
100
AcDbDictionary
281
     1
  0
DICTIONARY
  5
2A
102
{ACAD_REACTORS
330
C
102
}
330
C
100
AcDbDictionary
281
     1
  3
2dWireframe
350
2F
  3
3D Hidden
350
31
  3
3dWireframe
350
30
  3
Basic
350
32
  3
Brighten
350
36
  3
ColorChange
350
3A
  3
Conceptual
350
34
  3
Dim
350
35
  3
Facepattern
350
39
  3
Flat
350
2B
  3
FlatWithEdges
350
2C
  3
Gouraud
350
2D
  3
GouraudWithEdges
350
2E
  3
Linepattern
350
38
  3
Realistic
350
33
  3
Thicken
350
37
  0
LAYOUT
  5
1E
102
{ACAD_REACTORS
330
1A
102
}
330
1A
100
AcDbPlotSettings
  1

  2
none_device
  4

  6

 40
0.0
 41
0.0
 42
0.0
 43
0.0
 44
0.0
 45
0.0
 46
0.0
 47
0.0
 48
0.0
 49
0.0
140
0.0
141
0.0
142
1.0
143
1.0
 70
   688
 72
     0
 73
     0
 74
     5
  7

 75
    16
 76
     0
 77
     2
 78
   300
147
1.0
148
0.0
149
0.0
100
AcDbLayout
  1
Layout1
 70
     1
 71
     1
 10
0.0
 20
0.0
 11
12.0
 21
9.0
 12
0.0
 22
0.0
 32
0.0
 14
1.000000000000000E+20
 24
1.000000000000000E+20
 34
1.000000000000000E+20
 15
-1.000000000000000E+20
 25
-1.000000000000000E+20
 35
-1.000000000000000E+20
146
0.0
 13
0.0
 23
0.0
 33
0.0
 16
1.0
 26
0.0
 36
0.0
 17
0.0
 27
1.0
 37
0.0
 76
     0
330
1B
  0
LAYOUT
  5
26
102
{ACAD_REACTORS
330
1A
102
}
330
1A
100
AcDbPlotSettings
  1

  2
none_device
  4

  6

 40
0.0
 41
0.0
 42
0.0
 43
0.0
 44
0.0
 45
0.0
 46
0.0
 47
0.0
 48
0.0
 49
0.0
140
0.0
141
0.0
142
1.0
143
1.0
 70
   688
 72
     0
 73
     0
 74
     5
  7

 75
    16
 76
     0
 77
     2
 78
   300
147
1.0
148
0.0
149
0.0
100
AcDbLayout
  1
Layout2
 70
     1
 71
     2
 10
0.0
 20
0.0
 11
0.0
 21
0.0
 12
0.0
 22
0.0
 32
0.0
 14
0.0
 24
0.0
 34
0.0
 15
0.0
 25
0.0
 35
0.0
146
0.0
 13
0.0
 23
0.0
 33
0.0
 16
1.0
 26
0.0
 36
0.0
 17
0.0
 27
1.0
 37
0.0
 76
     0
330
23
  0
LAYOUT
  5
22
102
{ACAD_REACTORS
330
1A
102
}
330
1A
100
AcDbPlotSettings
  1

  2
none_device
  4

  6

 40
0.0
 41
0.0
 42
0.0
 43
0.0
 44
0.0
 45
0.0
 46
0.0
 47
0.0
 48
0.0
 49
0.0
140
0.0
141
0.0
142
1.0
143
1.0
 70
  1712
 72
     0
 73
     0
 74
     0
  7

 75
     0
 76
     0
 77
     2
 78
   300
147
1.0
148
0.0
149
0.0
100
AcDbLayout
  1
Model
 70
     1
 71
     0
 10
0.0
 20
0.0
 11
12.0
 21
9.0
 12
0.0
 22
0.0
 32
0.0
 14
1.000000000000000E+20
 24
1.000000000000000E+20
 34
1.000000000000000E+20
 15
-1.000000000000000E+20
 25
-1.000000000000000E+20
 35
-1.000000000000000E+20
146
0.0
 13
0.0
 23
0.0
 33
0.0
 16
1.0
 26
0.0
 36
0.0
 17
0.0
 27
1.0
 37
0.0
 76
     0
330
1F
331
29
  0
MATERIAL
  5
3D
102
{ACAD_REACTORS
330
3B
102
}
330
3B
100
AcDbMaterial
  1
ByBlock
 72
     1
 94
      127
  0
MATERIAL
  5
3C
102
{ACAD_REACTORS
330
3B
102
}
330
3B
100
AcDbMaterial
  1
ByLayer
 72
     1
 94
      127
  0
MATERIAL
  5
3E
102
{ACAD_REACTORS
330
3B
102
}
330
3B
100
AcDbMaterial
  1
Global
 72
     1
 94
      127
  0
MLINESTYLE
  5
18
102
{ACAD_REACTORS
330
17
102
}
330
17
100
AcDbMlineStyle
  2
Standard
 70
     0
  3

 62
   256
 51
90.0
 52
90.0
 71
     2
 49
0.5
 62
   256
  6
BYLAYER
 49
-0.5
 62
   256
  6
BYLAYER
  0
ACDBPLACEHOLDER
  5
F
102
{ACAD_REACTORS
330
E
102
}
330
E
  0
VISUALSTYLE
  5
2F
102
{ACAD_REACTORS
330
2A
102
}
330
2A
100
AcDbVisualStyle
  2
2dWireframe
 70
     4
177
     2
291
     0
 71
     0
176
     1
 72
     2
176
     1
 73
     0
176
     1
 90
        0
176
     1
 40
-0.6
176
     1
 41
-30.0
176
     1
 62
     5
 63
     7
421
 16777215
176
     1
 74
     1
176
     1
 91
        4
176
     1
 64
     7
176
     1
 65
   257
176
     1
 75
     1
176
     1
175
     1
176
     1
 42
1.0
176
     1
 92
        0
176
     1
 66
   257
176
     1
 43
1.0
176
     1
 76
     1
176
     1
 77
     6
176
     1
 78
     2
176
     1
 67
     7
176
     1
 79
     5
176
     1
170
     0
176
     1
171
     0
176
     1
290
     0
176
     1
 93
        1
176
     1
 44
0.0
176
     1
173
     0
176
     1
  0
VISUALSTYLE
  5
31
102
{ACAD_REACTORS
330
2A
102
}
330
2A
100
AcDbVisualStyle
  2
3D Hidden
 70
     6
177
     2
291
     0
 71
     1
176
     1
 72
     2
176
     1
 73
     2
176
     1
 90
        0
176
     1
 40
-0.6
176
     1
 41
-30.0
176
     1
 62
     5
 63
     7
421
 16777215
176
     1
 74
     2
176
     1
 91
        2
176
     1
 64
     7
176
     1
 65
   257
176
     1
 75
     2
176
     1
175
     1
176
     1
 42
40.0
176
     1
 92
        0
176
     1
 66
   257
176
     1
 43
1.0
176
     1
 76
     1
176
     1
 77
     6
176
     1
 78
     2
176
     1
 67
     7
176
     1
 79
     3
176
     1
170
     0
176
     1
171
     0
176
     1
290
     0
176
     1
 93
        1
176
     1
 44
0.0
176
     1
173
     0
176
     1
  0
VISUALSTYLE
  5
30
102
{ACAD_REACTORS
330
2A
102
}
330
2A
100
AcDbVisualStyle
  2
3dWireframe
 70
     5
177
     2
291
     0
 71
     0
176
     1
 72
     2
176
     1
 73
     0
176
     1
 90
        0
176
     1
 40
-0.6
176
     1
 41
-30.0
176
     1
 62
     5
 63
     7
421
 16777215
176
     1
 74
     1
176
     1
 91
        4
176
     1
 64
     7
176
     1
 65
   257
176
     1
 75
     1
176
     1
175
     1
176
     1
 42
1.0
176
     1
 92
        0
176
     1
 66
   257
176
     1
 43
1.0
176
     1
 76
     1
176
     1
 77
     6
176
     1
 78
     2
176
     1
 67
     7
176
     1
 79
     5
176
     1
170
     0
176
     1
171
     0
176
     1
290
     0
176
     1
 93
        1
176
     1
 44
0.0
176
     1
173
     0
176
     1
  0
VISUALSTYLE
  5
32
102
{ACAD_REACTORS
330
2A
102
}
330
2A
100
AcDbVisualStyle
  2
Basic
 70
     7
177
     2
291
     1
 71
     1
176
     1
 72
     0
176
     1
 73
     1
176
     1
 90
        0
176
     1
 40
-0.6
176
     1
 41
-30.0
176
     1
 62
     5
 63
     7
421
 16777215
176
     1
 74
     0
176
     1
 91
        4
176
     1
 64
     7
176
     1
 65
   257
176
     1
 75
     1
176
     1
175
     1
176
     1
 42
1.0
176
     1
 92
        8
176
     1
 66
     7
176
     1
 43
1.0
176
     1
 76
     1
176
     1
 77
     6
176
     1
 78
     2
176
     1
 67
     7
176
     1
 79
     5
176
     1
170
     0
176
     1
171
     0
176
     1
290
     0
176
     1
 93
        1
176
     1
 44
0.0
176
     1
173
     0
176
     1
  0
VISUALSTYLE
  5
36
102
{ACAD_REACTORS
330
2A
102
}
330
2A
100
AcDbVisualStyle
  2
Brighten
 70
    12
177
     2
291
     1
 71
     2
176
     1
 72
     2
176
     1
 73
     0
176
     1
 90
        0
176
     1
 40
-0.6
176
     1
 41
-30.0
176
     1
 62
     5
 63
     7
421
 16777215
176
     1
 74
     1
176
     1
 91
        4
176
     1
 64
     7
176
     1
 65
   257
176
     1
 75
     1
176
     1
175
     1
176
     1
 42
1.0
176
     1
 92
        8
176
     1
 66
     7
176
     1
 43
1.0
176
     1
 76
     1
176
     1
 77
     6
176
     1
 78
     2
176
     1
 67
     7
176
     1
 79
     5
176
     1
170
     0
176
     1
171
     0
176
     1
290
     0
176
     1
 93
        1
176
     1
 44
50.0
176
     1
173
     0
176
     1
  0
VISUALSTYLE
  5
3A
102
{ACAD_REACTORS
330
2A
102
}
330
2A
100
AcDbVisualStyle
  2
ColorChange
 70
    16
177
     2
291
     1
 71
     2
176
     1
 72
     2
176
     1
 73
     3
176
     1
 90
        0
176
     1
 40
-0.6
176
     1
 41
-30.0
176
     1
 62
     5
 63
     8
421
  8421504
176
     1
 74
     1
176
     1
 91
        4
176
     1
 64
     7
176
     1
 65
   257
176
     1
 75
     1
176
     1
175
     1
176
     1
 42
1.0
176
     1
 92
        8
176
     1
 66
     8
424
  8421504
176
     1
 43
1.0
176
     1
 76
     1
176
     1
 77
     6
176
     1
 78
     2
176
     1
 67
     7
176
     1
 79
     5
176
     1
170
     0
176
     1
171
     0
176
     1
290
     0
176
     1
 93
        1
176
     1
 44
0.0
176
     1
173
     0
176
     1
  0
VISUALSTYLE
  5
34
102
{ACAD_REACTORS
330
2A
102
}
330
2A
100
AcDbVisualStyle
  2
Conceptual
 70
     9
177
     2
291
     0
 71
     3
176
     1
 72
     2
176
     1
 73
     0
176
     1
 90
        0
176
     1
 40
-0.6
176
     1
 41
-30.0
176
     1
 62
     5
 63
     7
421
 16777215
176
     1
 74
     2
176
     1
 91
        2
176
     1
 64
     7
176
     1
 65
   257
176
     1
 75
     1
176
     1
175
     1
176
     1
 42
40.0
176
     1
 92
        8
176
     1
 66
     7
176
     1
 43
1.0
176
     1
 76
     1
176
     1
 77
     6
176
     1
 78
     2
176
     1
 67
     7
176
     1
 79
     3
176
     1
170
     0
176
     1
171
     0
176
     1
290
     0
176
     1
 93
        1
176
     1
 44
0.0
176
     1
173
     0
176
     1
  0
VISUALSTYLE
  5
35
102
{ACAD_REACTORS
330
2A
102
}
330
2A
100
AcDbVisualStyle
  2
Dim
 70
    11
177
     2
291
     1
 71
     2
176
     1
 72
     2
176
     1
 73
     0
176
     1
 90
        0
176
     1
 40
-0.6
176
     1
 41
-30.0
176
     1
 62
     5
 63
     7
421
 16777215
176
     1
 74
     1
176
     1
 91
        4
176
     1
 64
     7
176
     1
 65
   257
176
     1
 75
     1
176
     1
175
     1
176
     1
 42
1.0
176
     1
 92
        8
176
     1
 66
     7
176
     1
 43
1.0
176
     1
 76
     1
176
     1
 77
     6
176
     1
 78
     2
176
     1
 67
     7
176
     1
 79
     5
176
     1
170
     0
176
     1
171
     0
176
     1
290
     0
176
     1
 93
        1
176
     1
 44
-50.0
176
     1
173
     0
176
     1
  0
VISUALSTYLE
  5
39
102
{ACAD_REACTORS
330
2A
102
}
330
2A
100
AcDbVisualStyle
  2
Facepattern
 70
    15
177
     2
291
     1
 71
     2
176
     1
 72
     2
176
     1
 73
     0
176
     1
 90
        0
176
     1
 40
-0.6
176
     1
 41
-30.0
176
     1
 62
     5
 63
     7
421
 16777215
176
     1
 74
     1
176
     1
 91
        4
176
     1
 64
     7
176
     1
 65
   257
176
     1
 75
     1
176
     1
175
     1
176
     1
 42
1.0
176
     1
 92
        8
176
     1
 66
     7
176
     1
 43
1.0
176
     1
 76
     1
176
     1
 77
     6
176
     1
 78
     2
176
     1
 67
     7
176
     1
 79
     5
176
     1
170
     0
176
     1
171
     0
176
     1
290
     0
176
     1
 93
        1
176
     1
 44
0.0
176
     1
173
     0
176
     1
  0
VISUALSTYLE
  5
2B
102
{ACAD_REACTORS
330
2A
102
}
330
2A
100
AcDbVisualStyle
  2
Flat
 70
     0
177
     2
291
     1
 71
     2
176
     1
 72
     1
176
     1
 73
     1
176
     1
 90
        2
176
     1
 40
-0.6
176
     1
 41
30.0
176
     1
 62
     5
 63
     7
421
 16777215
176
     1
 74
     0
176
     1
 91
        4
176
     1
 64
     7
176
     1
 65
   257
176
     1
 75
     1
176
     1
175
     1
176
     1
 42
1.0
176
     1
 92
        8
176
     1
 66
     7
176
     1
 43
1.0
176
     1
 76
     1
176
     1
 77
     6
176
     1
 78
     2
176
     1
 67
     7
176
     1
 79
     5
176
     1
170
     0
176
     1
171
     0
176
     1
290
     0
176
     1
 93
       13
176
     1
 44
0.0
176
     1
173
     0
176
     1
  0
VISUALSTYLE
  5
2C
102
{ACAD_REACTORS
330
2A
102
}
330
2A
100
AcDbVisualStyle
  2
FlatWithEdges
 70
     1
177
     2
291
     1
 71
     2
176
     1
 72
     1
176
     1
 73
     1
176
     1
 90
        2
176
     1
 40
-0.6
176
     1
 41
30.0
176
     1
 62
     5
 63
     7
421
 16777215
176
     1
 74
     1
176
     1
 91
        4
176
     1
 64
     7
176
     1
 65
   257
176
     1
 75
     1
176
     1
175
     1
176
     1
 42
1.0
176
     1
 92
        0
176
     1
 66
   257
176
     1
 43
1.0
176
     1
 76
     1
176
     1
 77
     6
176
     1
 78
     2
176
     1
 67
     7
176
     1
 79
     5
176
     1
170
     0
176
     1
171
     0
176
     1
290
     0
176
     1
 93
       13
176
     1
 44
0.0
176
     1
173
     0
176
     1
  0
VISUALSTYLE
  5
2D
102
{ACAD_REACTORS
330
2A
102
}
330
2A
100
AcDbVisualStyle
  2
Gouraud
 70
     2
177
     2
291
     1
 71
     2
176
     1
 72
     2
176
     1
 73
     1
176
     1
 90
        2
176
     1
 40
-0.6
176
     1
 41
30.0
176
     1
 62
     5
 63
     7
421
 16777215
176
     1
 74
     0
176
     1
 91
        4
176
     1
 64
     7
176
     1
 65
   257
176
     1
 75
     1
176
     1
175
     1
176
     1
 42
1.0
176
     1
 92
        0
176
     1
 66
     7
176
     1
 43
1.0
176
     1
 76
     1
176
     1
 77
     6
176
     1
 78
     2
176
     1
 67
     7
176
     1
 79
     5
176
     1
170
     0
176
     1
171
     0
176
     1
290
     0
176
     1
 93
       13
176
     1
 44
0.0
176
     1
173
     0
176
     1
  0
VISUALSTYLE
  5
2E
102
{ACAD_REACTORS
330
2A
102
}
330
2A
100
AcDbVisualStyle
  2
GouraudWithEdges
 70
     3
177
     2
291
     1
 71
     2
176
     1
 72
     2
176
     1
 73
     1
176
     1
 90
        2
176
     1
 40
-0.6
176
     1
 41
30.0
176
     1
 62
     5
 63
     7
421
 16777215
176
     1
 74
     1
176
     1
 91
        4
176
     1
 64
     7
176
     1
 65
   257
176
     1
 75
     1
176
     1
175
     1
176
     1
 42
1.0
176
     1
 92
        0
176
     1
 66
   257
176
     1
 43
1.0
176
     1
 76
     1
176
     1
 77
     6
176
     1
 78
     2
176
     1
 67
     7
176
     1
 79
     5
176
     1
170
     0
176
     1
171
     0
176
     1
290
     0
176
     1
 93
       13
176
     1
 44
0.0
176
     1
173
     0
176
     1
  0
VISUALSTYLE
  5
38
102
{ACAD_REACTORS
330
2A
102
}
330
2A
100
AcDbVisualStyle
  2
Linepattern
 70
    14
177
     2
291
     1
 71
     2
176
     1
 72
     2
176
     1
 73
     0
176
     1
 90
        0
176
     1
 40
-0.6
176
     1
 41
-30.0
176
     1
 62
     5
 63
     7
421
 16777215
176
     1
 74
     1
176
     1
 91
        4
176
     1
 64
     7
176
     1
 65
   257
176
     1
 75
     7
176
     1
175
     7
176
     1
 42
1.0
176
     1
 92
        8
176
     1
 66
     7
176
     1
 43
1.0
176
     1
 76
     1
176
     1
 77
     6
176
     1
 78
     2
176
     1
 67
     7
176
     1
 79
     5
176
     1
170
     0
176
     1
171
     0
176
     1
290
     0
176
     1
 93
        1
176
     1
 44
0.0
176
     1
173
     0
176
     1
  0
VISUALSTYLE
  5
33
102
{ACAD_REACTORS
330
2A
102
}
330
2A
100
AcDbVisualStyle
  2
Realistic
 70
     8
177
     2
291
     0
 71
     2
176
     1
 72
     2
176
     1
 73
     0
176
     1
 90
        0
176
     1
 40
-0.6
176
     1
 41
-30.0
176
     1
 62
     5
 63
     7
421
 16777215
176
     1
 74
     1
176
     1
 91
        0
176
     1
 64
     7
176
     1
 65
   257
176
     1
 75
     1
176
     1
175
     1
176
     1
 42
1.0
176
     1
 92
        8
176
     1
 66
     8
424
  7895160
176
     1
 43
1.0
176
     1
 76
     1
176
     1
 77
     6
176
     1
 78
     2
176
     1
 67
     7
176
     1
 79
     5
176
     1
170
     0
176
     1
171
     0
176
     1
290
     0
176
     1
 93
       13
176
     1
 44
0.0
176
     1
173
     0
176
     1
  0
VISUALSTYLE
  5
37
102
{ACAD_REACTORS
330
2A
102
}
330
2A
100
AcDbVisualStyle
  2
Thicken
 70
    13
177
     2
291
     1
 71
     2
176
     1
 72
     2
176
     1
 73
     0
176
     1
 90
        0
176
     1
 40
-0.6
176
     1
 41
-30.0
176
     1
 62
     5
 63
     7
421
 16777215
176
     1
 74
     1
176
     1
 91
        4
176
     1
 64
     7
176
     1
 65
   257
176
     1
 75
     1
176
     1
175
     1
176
     1
 42
1.0
176
     1
 92
       12
176
     1
 66
     7
176
     1
 43
1.0
176
     1
 76
     1
176
     1
 77
     6
176
     1
 78
     2
176
     1
 67
     7
176
     1
 79
     5
176
     1
170
     0
176
     1
171
     0
176
     1
290
     0
176
     1
 93
        1
176
     1
 44
0.0
176
     1
173
     0
176
     1
  0
ENDSEC
  0
EOF
