  0
SECTION
  2
HEADER
  9
$ACADVER
  1
AC1024
  9
$ACADMAINTVER
 70
     6
  9
$DWGCODEPAGE
  3
UNDEFINED
  9
$INSBASE
 10
0.0
 20
0.0
 30
0.0
  9
$EXTMIN
 10
1.000000000000000E+20
 20
1.000000000000000E+20
 30
1.000000000000000E+20
  9
$EXTMAX
 10
-1.000000000000000E+20
 20
-1.000000000000000E+20
 30
-1.000000000000000E+20
  9
$LIMMIN
 10
0.0
 20
0.0
  9
$LIMMAX
 10
12.0
 20
9.0
  9
$ORTHOMODE
 70
     0
  9
$REGENMODE
 70
     1
  9
$FILLMODE
 70
     1
  9
$QTEXTMODE
 70
     0
  9
$MIRRTEXT
 70
     1
  9
$LTSCALE
 40
1.0
  9
$ATTMODE
 70
     1
  9
$TEXTSIZE
 40
0.2
  9
$TRACEWID
 40
0.05
  9
$TEXTSTYLE
  7
Standard
  9
$CLAYER
  8
0
  9
$CELTYPE
  6
ByLayer
  9
$CECOLOR
 62
   256
  9
$CELTSCALE
 40
1.0
  9
$DISPSILH
 70
     0
  9
$DIMSCALE
 40
1.0
  9
$DIMASZ
 40
0.18
  9
$DIMEXO
 40
0.0625
  9
$DIMDLI
 40
0.38
  9
$DIMRND
 40
0.0
  9
$DIMDLE
 40
0.0
  9
$DIMEXE
 40
0.18
  9
$DIMTP
 40
0.0
  9
$DIMTM
 40
0.0
  9
$DIMTXT
 40
0.18
  9
$DIMCEN
 40
0.09
  9
$DIMTSZ
 40
0.0
  9
$DIMTOL
 70
     0
  9
$DIMLIM
 70
     0
  9
$DIMTIH
 70
     1
  9
$DIMTOH
 70
     1
  9
$DIMSE1
 70
     0
  9
$DIMSE2
 70
     0
  9
$DIMTAD
 70
     0
  9
$DIMZIN
 70
     0
  9
$DIMBLK
  1

  9
$DIMASO
 70
     1
  9
$DIMSHO
 70
     1
  9
$DIMPOST
  1

  9
$DIMAPOST
  1

  9
$DIMALT
 70
     0
  9
$DIMALTD
 70
     2
  9
$DIMALTF
 40
25.4
  9
$DIMLFAC
 40
1.0
  9
$DIMTOFL
 70
     0
  9
$DIMTVP
 40
0.0
  9
$DIMTIX
 70
     0
  9
$DIMSOXD
 70
     0
  9
$DIMSAH
 70
     0
  9
$DIMBLK1
  1

  9
$DIMBLK2
  1

  9
$DIMSTYLE
  2
Standard
  9
$DIMCLRD
 70
     0
  9
$DIMCLRE
 70
     0
  9
$DIMCLRT
 70
     0
  9
$DIMTFAC
 40
1.0
  9
$DIMGAP
 40
0.09
  9
$DIMJUST
 70
     0
  9
$DIMSD1
 70
     0
  9
$DIMSD2
 70
     0
  9
$DIMTOLJ
 70
     1
  9
$DIMTZIN
 70
     0
  9
$DIMALTZ
 70
     0
  9
$DIMALTTZ
 70
     0
  9
$DIMUPT
 70
     0
  9
$DIMDEC
 70
     4
  9
$DIMTDEC
 70
     4
  9
$DIMALTU
 70
     2
  9
$DIMALTTD
 70
     2
  9
$DIMTXSTY
  7
Standard
  9
$DIMAUNIT
 70
     0
  9
$DIMADEC
 70
     0
  9
$DIMALTRND
 40
0.0
  9
$DIMAZIN
 70
     0
  9
$DIMDSEP
 70
    46
  9
$DIMATFIT
 70
     3
  9
$DIMFRAC
 70
     0
  9
$DIMLDRBLK
  1

  9
$DIMLUNIT
 70
     2
  9
$DIMLWD
 70
    -2
  9
$DIMLWE
 70
    -2
  9
$DIMTMOVE
 70
     0
  9
$DIMFXL
 40
1.0
  9
$DIMFXLON
 70
     0
  9
$DIMJOGANG
 40
0.7853981633974483
  9
$DIMTFILL
 70
     0
  9
$DIMTFILLCLR
 70
     0
  9
$DIMARCSYM
 70
     0
  9
$DIMLTYPE
  6

  9
$DIMLTEX1
  6

  9
$DIMLTEX2
  6

  9
$DIMTXTDIRECTION
 70
     0
  9
$LUNITS
 70
     2
  9
$LUPREC
 70
     4
  9
$SKETCHINC
 40
0.1
  9
$FILLETRAD
 40
0.5
  9
$AUNITS
 70
     0
  9
$AUPREC
 70
     0
  9
$MENU
  1
.
  9
$ELEVATION
 40
0.0
  9
$PELEVATION
 40
0.0
  9
$THICKNESS
 40
0.0
  9
$LIMCHECK
 70
     0
  9
$CHAMFERA
 40
0.5
  9
$CHAMFERB
 40
0.5
  9
$CHAMFERC
 40
1.0
  9
$CHAMFERD
 40
0.0
  9
$SKPOLY
 70
     0
  9
$TDCREATE
 40
2457917.593113426
  9
$TDUCREATE
 40
2457917.218113426
  9
$TDUPDATE
 40
2457917.593113426
  9
$TDUUPDATE
 40
2457917.218113426
  9
$TDINDWG
 40
0.0000000116
  9
$TDUSRTIMER
 40
0.0000000116
  9
$USRTIMER
 70
     1
  9
$ANGBASE
 50
0.0
  9
$ANGDIR
 70
     0
  9
$PDMODE
 70
     0
  9
$PDSIZE
 40
0.0
  9
$PLINEWID
 40
0.0
  9
$SPLFRAME
 70
     0
  9
$SPLINETYPE
 70
     6
  9
$SPLINESEGS
 70
     8
  9
$HANDSEED
  5
AC
  9
$SURFTAB1
 70
     6
  9
$SURFTAB2
 70
     6
  9
$SURFTYPE
 70
     6
  9
$SURFU
 70
     6
  9
$SURFV
 70
     6
  9
$UCSBASE
  2

  9
$UCSNAME
  2

  9
$UCSORG
 10
0.0
 20
0.0
 30
0.0
  9
$UCSXDIR
 10
1.0
 20
0.0
 30
0.0
  9
$UCSYDIR
 10
0.0
 20
1.0
 30
0.0
  9
$UCSORTHOREF
  2

  9
$UCSORTHOVIEW
 70
     0
  9
$UCSORGTOP
 10
0.0
 20
0.0
 30
0.0
  9
$UCSORGBOTTOM
 10
0.0
 20
0.0
 30
0.0
  9
$UCSORGLEFT
 10
0.0
 20
0.0
 30
0.0
  9
$UCSORGRIGHT
 10
0.0
 20
0.0
 30
0.0
  9
$UCSORGFRONT
 10
0.0
 20
0.0
 30
0.0
  9
$UCSORGBACK
 10
0.0
 20
0.0
 30
0.0
  9
$PUCSBASE
  2

  9
$PUCSNAME
  2

  9
$PUCSORG
 10
0.0
 20
0.0
 30
0.0
  9
$PUCSXDIR
 10
1.0
 20
0.0
 30
0.0
  9
$PUCSYDIR
 10
0.0
 20
1.0
 30
0.0
  9
$PUCSORTHOREF
  2

  9
$PUCSORTHOVIEW
 70
     0
  9
$PUCSORGTOP
 10
0.0
 20
0.0
 30
0.0
  9
$PUCSORGBOTTOM
 10
0.0
 20
0.0
 30
0.0
  9
$PUCSORGLEFT
 10
0.0
 20
0.0
 30
0.0
  9
$PUCSORGRIGHT
 10
0.0
 20
0.0
 30
0.0
  9
$PUCSORGFRONT
 10
0.0
 20
0.0
 30
0.0
  9
$PUCSORGBACK
 10
0.0
 20
0.0
 30
0.0
  9
$USERI1
 70
     0
  9
$USERI2
 70
     0
  9
$USERI3
 70
     0
  9
$USERI4
 70
     0
  9
$USERI5
 70
     0
  9
$USERR1
 40
0.0
  9
$USERR2
 40
0.0
  9
$USERR3
 40
0.0
  9
$USERR4
 40
0.0
  9
$USERR5
 40
0.0
  9
$WORLDVIEW
 70
     1
  9
$SHADEDGE
 70
     3
  9
$SHADEDIF
 70
    70
  9
$TILEMODE
 70
     1
  9
$MAXACTVP
 70
    64
  9
$PINSBASE
 10
0.0
 20
0.0
 30
0.0
  9
$PLIMCHECK
 70
     0
  9
$PEXTMIN
 10
1.000000000000000E+20
 20
1.000000000000000E+20
 30
1.000000000000000E+20
  9
$PEXTMAX
 10
-1.000000000000000E+20
 20
-1.000000000000000E+20
 30
-1.000000000000000E+20
  9
$PLIMMIN
 10
0.0
 20
0.0
  9
$PLIMMAX
 10
12.0
 20
9.0
  9
$UNITMODE
 70
     0
  9
$VISRETAIN
 70
     1
  9
$PLINEGEN
 70
     0
  9
$PSLTSCALE
 70
     1
  9
$TREEDEPTH
 70
  3020
  9
$CMLSTYLE
  2
Standard
  9
$CMLJUST
 70
     0
  9
$CMLSCALE
 40
1.0
  9
$PROXYGRAPHICS
 70
     1
  9
$MEASUREMENT
 70
     0
  9
$CELWEIGHT
370
    -1
  9
$ENDCAPS
280
     0
  9
$JOINSTYLE
280
     0
  9
$LWDISPLAY
290
     1
  9
$INSUNITS
 70
     1
  9
$HYPERLINKBASE
  1

  9
$STYLESHEET
  1

  9
$XEDIT
290
     1
  9
$CEPSNTYPE
380
     0
  9
$PSTYLEMODE
290
     1
  9
$FINGERPRINTGUID
  2
{4C1921BA-B981-98E3-306E-C2C08E80E4D4}
  9
$VERSIONGUID
  2
{FAEB1C32-E019-11D5-929B-00C0DF256EC4}
  9
$EXTNAMES
290
     1
  9
$PSVPSCALE
 40
0.0
  9
$OLESTARTUP
290
     0
  9
$SORTENTS
280
   127
  9
$INDEXCTL
280
     0
  9
$HIDETEXT
280
     1
  9
$XCLIPFRAME
280
     2
  9
$HALOGAP
280
     0
  9
$OBSCOLOR
 70
   257
  9
$OBSLTYPE
280
     0
  9
$INTERSECTIONDISPLAY
280
     0
  9
$INTERSECTIONCOLOR
 70
   257
  9
$DIMASSOC
280
     2
  9
$PROJECTNAME
  1

  9
$CAMERADISPLAY
290
     0
  9
$LENSLENGTH
 40
50.0
  9
$CAMERAHEIGHT
 40
0.0
  9
$STEPSPERSEC
 40
2.0
  9
$STEPSIZE
 40
6.0
  9
$3DDWFPREC
 40
2.0
  9
$PSOLWIDTH
 40
0.25
  9
$PSOLHEIGHT
 40
4.0
  9
$LOFTANG1
 40
1.570796326794897
  9
$LOFTANG2
 40
1.570796326794897
  9
$LOFTMAG1
 40
0.0
  9
$LOFTMAG2
 40
0.0
  9
$LOFTPARAM
 70
     7
  9
$LOFTNORMALS
280
     1
  9
$LATITUDE
 40
37.795
  9
$LONGITUDE
 40
-122.394
  9
$NORTHDIRECTION
 40
0.0
  9
$TIMEZONE
 70
 -8000
  9
$LIGHTGLYPHDISPLAY
280
     1
  9
$TILEMODELIGHTSYNCH
280
     1
  9
$CMATERIAL
347
3C
  9
$SOLIDHIST
280
     1
  9
$SHOWHIST
280
     1
  9
$DWFFRAME
280
     2
  9
$DGNFRAME
280
     2
  9
$REALWORLDSCALE
290
     1
  9
$INTERFERECOLOR
 62
   256
  9
$CSHADOW
280
     0
  9
$SHADOWPLANELOCATION
 40
0.0
  0
ENDSEC
  0
SECTION
  2
CLASSES
  0
CLASS
  1
ACDBDICTIONARYWDFLT
  2
AcDbDictionaryWithDefault
  3
ObjectDBX Classes
 90
        0
 91
        4
280
     0
281
     0
  0
CLASS
  1
VISUALSTYLE
  2
AcDbVisualStyle
  3
ObjectDBX Classes
 90
     4095
 91
        4
280
     0
281
     0
  0
CLASS
  1
MATERIAL
  2
AcDbMaterial
  3
ObjectDBX Classes
 90
     1153
 91
        4
280
     0
281
     0
  0
CLASS
  1
SUN
  2
AcDbSun
  3
SCENEOE
 90
     1024
 91
        4
280
     0
281
     0
  0
ENDSEC
  0
SECTION
  2
TABLES
  0
TABLE
  2
VPORT
  5
8
330
0
100
AcDbSymbolTable
 70
     1
  0
VPORT
  5
29
330
8
100
AcDbSymbolTableRecord
100
AcDbViewportTableRecord
  2
*Active
 70
     0
 10
0.0
 20
0.0
 11
1.0
 21
1.0
 12
0.0
 22
0.0
 13
0.0
 23
0.0
 14
0.5
 24
0.5
 15
0.5
 25
0.5
 16
0.0
 26
0.0
 36
1.0
 17
91.00082462281999
 27
-128.4993055234307
 37
0.0
 40
256.9986110468615
 41
0.7081814508812795
 42
50.0
 43
0.0
 44
0.0
 50
0.0
 51
0.0
 71
     0
 72
   100
 73
     1
 74
     3
 75
     0
 76
     0
 77
     0
 78
     0
281
     0
 65
     1
110
0.0
120
0.0
130
0.0
111
1.0
121
0.0
131
0.0
112
0.0
122
1.0
132
0.0
 79
     0
146
0.0
 60
     3
 61
     5
292
     1
282
     1
141
0.0
142
0.0
 63
   250
361
3F
  0
ENDTAB
  0
TABLE
  2
LTYPE
  5
5
330
0
100
AcDbSymbolTable
 70
     1
  0
LTYPE
  5
14
330
5
100
AcDbSymbolTableRecord
100
AcDbLinetypeTableRecord
  2
ByBlock
 70
     0
  3

 72
    65
 73
     0
 40
0.0
  0
LTYPE
  5
15
330
5
100
AcDbSymbolTableRecord
100
AcDbLinetypeTableRecord
  2
ByLayer
 70
     0
  3

 72
    65
 73
     0
 40
0.0
  0
LTYPE
  5
16
330
5
100
AcDbSymbolTableRecord
100
AcDbLinetypeTableRecord
  2
Continuous
 70
     0
  3
Solid line
 72
    65
 73
     0
 40
0.0
  0
ENDTAB
  0
TABLE
  2
LAYER
  5
2
330
0
100
AcDbSymbolTable
 70
     2
  0
LAYER
  5
10
330
2
100
AcDbSymbolTableRecord
100
AcDbLayerTableRecord
  2
0
 70
     0
 62
     7
  6
Continuous
370
    -3
390
F
347
3E
  0
LAYER
  5
40
330
2
100
AcDbSymbolTableRecord
100
AcDbLayerTableRecord
  2
_U+30EC_U+30A4_U+30E4_U+30FC 1
 70
     0
 62
     7
  6
Continuous
370
    -3
390
F
347
3E
  0
ENDTAB
  0
TABLE
  2
STYLE
  5
3
330
0
100
AcDbSymbolTable
 70
     1
  0
STYLE
  5
11
330
3
100
AcDbSymbolTableRecord
100
AcDbTextStyleTableRecord
  2
Standard
 70
     0
 40
0.0
 41
1.0
 50
0.0
 71
     0
 42
0.2
  3
txt
  4

  0
ENDTAB
  0
TABLE
  2
VIEW
  5
6
330
0
100
AcDbSymbolTable
 70
     0
  0
ENDTAB
  0
TABLE
  2
UCS
  5
7
330
0
100
AcDbSymbolTable
 70
     0
  0
ENDTAB
  0
TABLE
  2
APPID
  5
9
330
0
100
AcDbSymbolTable
 70
     1
  0
APPID
  5
12
330
9
100
AcDbSymbolTableRecord
100
AcDbRegAppTableRecord
  2
ACAD
 70
     0
  0
ENDTAB
  0
TABLE
  2
DIMSTYLE
  5
A
330
0
100
AcDbSymbolTable
 70
     1
100
AcDbDimStyleTable
  0
DIMSTYLE
105
27
330
A
100
AcDbSymbolTableRecord
100
AcDbDimStyleTableRecord
  2
Standard
 70
     0
178
     0
340
11
  0
ENDTAB
  0
TABLE
  2
BLOCK_RECORD
  5
1
330
0
100
AcDbSymbolTable
 70
     9
  0
BLOCK_RECORD
  5
1F
330
1
100
AcDbSymbolTableRecord
100
AcDbBlockTableRecord
  2
*Model_Space
340
22
 70
     0
280
     1
281
     0
  0
BLOCK_RECORD
  5
1B
330
1
100
AcDbSymbolTableRecord
100
AcDbBlockTableRecord
  2
*Paper_Space
340
1E
 70
     0
280
     1
281
     0
  0
BLOCK_RECORD
  5
23
330
1
100
AcDbSymbolTableRecord
100
AcDbBlockTableRecord
  2
*Paper_Space0
340
26
 70
     0
280
     1
281
     0
  0
BLOCK_RECORD
  5
41
330
1
100
AcDbSymbolTableRecord
100
AcDbBlockTableRecord
  2
block 2
340
0
102
{BLKREFS
331
42
102
}
 70
     0
280
     1
281
     0
  0
BLOCK_RECORD
  5
45
330
1
100
AcDbSymbolTableRecord
100
AcDbBlockTableRecord
  2
block 3
340
0
102
{BLKREFS
331
46
102
}
 70
     0
280
     1
281
     0
  0
BLOCK_RECORD
  5
4C
330
1
100
AcDbSymbolTableRecord
100
AcDbBlockTableRecord
  2
block 4
340
0
102
{BLKREFS
331
4D
102
}
 70
     0
280
     1
281
     0
  0
BLOCK_RECORD
  5
68
330
1
100
AcDbSymbolTableRecord
100
AcDbBlockTableRecord
  2
block 5
340
0
102
{BLKREFS
331
69
102
}
 70
     0
280
     1
281
     0
  0
BLOCK_RECORD
  5
6E
330
1
100
AcDbSymbolTableRecord
100
AcDbBlockTableRecord
  2
block 6
340
0
102
{BLKREFS
331
6F
102
}
 70
     0
280
     1
281
     0
  0
BLOCK_RECORD
  5
85
330
1
100
AcDbSymbolTableRecord
100
AcDbBlockTableRecord
  2
block 7
340
0
102
{BLKREFS
331
86
102
}
 70
     0
280
     1
281
     0
  0
BLOCK_RECORD
  5
93
330
1
100
AcDbSymbolTableRecord
100
AcDbBlockTableRecord
  2
block 8
340
0
102
{BLKREFS
331
94
102
}
 70
     0
280
     1
281
     0
  0
BLOCK_RECORD
  5
97
330
1
100
AcDbSymbolTableRecord
100
AcDbBlockTableRecord
  2
block 9
340
0
102
{BLKREFS
331
98
102
}
 70
     0
280
     1
281
     0
  0
ENDTAB
  0
ENDSEC
  0
SECTION
  2
BLOCKS
  0
BLOCK
  5
20
330
1F
100
AcDbEntity
  8
0
100
AcDbBlockBegin
  2
*Model_Space
 70
     0
 10
0.0
 20
0.0
 30
0.0
  3
*Model_Space
  1

  0
ENDBLK
  5
21
330
1F
100
AcDbEntity
  8
0
100
AcDbBlockEnd
  0
BLOCK
  5
1C
330
1B
100
AcDbEntity
 67
     1
  8
0
100
AcDbBlockBegin
  2
*Paper_Space
 70
     0
 10
0.0
 20
0.0
 30
0.0
  3
*Paper_Space
  1

  0
ENDBLK
  5
1D
330
1B
100
AcDbEntity
 67
     1
  8
0
100
AcDbBlockEnd
  0
BLOCK
  5
24
330
23
100
AcDbEntity
  8
0
100
AcDbBlockBegin
  2
*Paper_Space0
 70
     0
 10
0.0
 20
0.0
 30
0.0
  3
*Paper_Space0
  1

  0
ENDBLK
  5
25
330
23
100
AcDbEntity
  8
0
100
AcDbBlockEnd
  0
BLOCK
  5
43
330
41
100
AcDbEntity
  8
0
100
AcDbBlockBegin
  2
block 2
 70
     0
 10
0.0
 20
0.0
 30
0.0
  3
block 2
  1

  0
INSERT
  5
46
330
41
100
AcDbEntity
  8
_U+30EC_U+30A4_U+30E4_U+30FC 1
100
AcDbBlockReference
  2
block 3
 10
0.0
 20
0.0
 30
0.0
  0
INSERT
  5
4D
330
41
100
AcDbEntity
  8
_U+30EC_U+30A4_U+30E4_U+30FC 1
100
AcDbBlockReference
  2
block 4
 10
0.0
 20
0.0
 30
0.0
  0
POLYLINE
  5
52
330
41
100
AcDbEntity
  8
_U+30EC_U+30A4_U+30E4_U+30FC 1
 62
   179
420
  2234388
370
     9
100
AcDb2dPolyline
 66
     1
 10
0.0
 20
0.0
 30
0.0
  0
VERTEX
  5
53
330
52
100
AcDbEntity
  8
_U+30EC_U+30A4_U+30E4_U+30FC 1
 62
   179
420
  2234388
370
     9
100
AcDbVertex
100
AcDb2dVertex
 10
70.12354209988828
 20
-133.6683113554717
 30
0.0
  0
VERTEX
  5
54
330
52
100
AcDbEntity
  8
_U+30EC_U+30A4_U+30E4_U+30FC 1
 62
   179
420
  2234388
370
     9
100
AcDbVertex
100
AcDb2dVertex
 10
70.12354209988828
 20
-137.1285674657179
 30
0.0
  0
SEQEND
  5
55
330
52
100
AcDbEntity
  8
_U+30EC_U+30A4_U+30E4_U+30FC 1
 62
   179
420
  2234388
370
     9
  0
POLYLINE
  5
56
330
41
100
AcDbEntity
  8
_U+30EC_U+30A4_U+30E4_U+30FC 1
 62
   179
420
  2234388
370
     9
100
AcDb2dPolyline
 66
     1
 10
0.0
 20
0.0
 30
0.0
  0
VERTEX
  5
57
330
56
100
AcDbEntity
  8
_U+30EC_U+30A4_U+30E4_U+30FC 1
 62
   179
420
  2234388
370
     9
100
AcDbVertex
100
AcDb2dVertex
 10
105.1236475958501
 20
-134.6687891329998
 30
0.0
  0
VERTEX
  5
58
330
56
100
AcDbEntity
  8
_U+30EC_U+30A4_U+30E4_U+30FC 1
 62
   179
420
  2234388
370
     9
100
AcDbVertex
100
AcDb2dVertex
 10
105.1236475958501
 20
-137.1285674657179
 30
0.0
  0
SEQEND
  5
59
330
56
100
AcDbEntity
  8
_U+30EC_U+30A4_U+30E4_U+30FC 1
 62
   179
420
  2234388
370
     9
  0
SPLINE
  5
5A
330
41
100
AcDbEntity
  8
_U+30EC_U+30A4_U+30E4_U+30FC 1
 62
   179
420
  2234388
370
     9
100
AcDbSpline
210
0.0
220
0.0
230
1.0
 70
    11
 71
     3
 72
    17
 73
    13
 74
     0
 42
0.0000000001
 43
0.0000000001
 12
1.0
 22
0.0
 32
0.0
 13
1.0
 23
0.0
 33
0.0
 40
0.0
 40
0.0
 40
0.0
 40
0.0
 40
1.0
 40
1.0
 40
1.0
 40
2.0
 40
2.0
 40
2.0
 40
3.0
 40
3.0
 40
3.0
 40
4.0
 40
4.0
 40
4.0
 40
4.0
 10
85.33295587853048
 20
-122.2933094138711
 30
0.0
 10
85.27781671327054
 20
-122.2933094138711
 30
0.0
 10
85.23304921441265
 20
-122.3381121916378
 30
0.0
 10
85.23304921441265
 20
-122.3932160805127
 30
0.0
 10
85.23304921441265
 20
-122.4483552471658
 30
0.0
 10
85.27781671327054
 20
-122.4931227471543
 30
0.0
 10
85.33295587853048
 20
-122.4931227471543
 30
0.0
 10
85.38805976601355
 20
-122.4931227471543
 30
0.0
 10
85.43286254264832
 20
-122.4483552471658
 30
0.0
 10
85.43286254264832
 20
-122.3932160805127
 30
0.0
 10
85.43286254264832
 20
-122.3381121916378
 30
0.0
 10
85.38805976601355
 20
-122.2933094138711
 30
0.0
 10
85.33295587853048
 20
-122.2933094138711
 30
0.0
  0
POLYLINE
  5
5B
330
41
100
AcDbEntity
  8
_U+30EC_U+30A4_U+30E4_U+30FC 1
 62
   179
420
  2234388
370
     9
100
AcDb2dPolyline
 66
     1
 10
0.0
 20
0.0
 30
0.0
  0
VERTEX
  5
5C
330
5B
100
AcDbEntity
  8
_U+30EC_U+30A4_U+30E4_U+30FC 1
 62
   179
420
  2234388
370
     9
100
AcDbVertex
100
AcDb2dVertex
 10
88.30228635833211
 20
-122.3932160805127
 30
0.0
  0
VERTEX
  5
5D
330
5B
100
AcDbEntity
  8
_U+30EC_U+30A4_U+30E4_U+30FC 1
 62
   179
420
  2234388
370
     9
100
AcDbVertex
100
AcDb2dVertex
 10
85.33295587853048
 20
-122.3932160805127
 30
0.0
  0
SEQEND
  5
5E
330
5B
100
AcDbEntity
  8
_U+30EC_U+30A4_U+30E4_U+30FC 1
 62
   179
420
  2234388
370
     9
  0
POLYLINE
  5
5F
330
41
100
AcDbEntity
  8
_U+30EC_U+30A4_U+30E4_U+30FC 1
 62
   179
420
  2234388
370
     9
100
AcDb2dPolyline
 66
     1
 10
0.0
 20
0.0
 30
0.0
  0
VERTEX
  5
60
330
5F
100
AcDbEntity
  8
_U+30EC_U+30A4_U+30E4_U+30FC 1
 62
   179
420
  2234388
370
     9
100
AcDbVertex
100
AcDb2dVertex
 10
85.33295587853048
 20
-120.933174691989
 30
0.0
  0
VERTEX
  5
61
330
5F
100
AcDbEntity
  8
_U+30EC_U+30A4_U+30E4_U+30FC 1
 62
   179
420
  2234388
370
     9
100
AcDbVertex
100
AcDb2dVertex
 10
85.33295587853048
 20
-123.3929883024853
 30
0.0
  0
SEQEND
  5
62
330
5F
100
AcDbEntity
  8
_U+30EC_U+30A4_U+30E4_U+30FC 1
 62
   179
420
  2234388
370
     9
  0
SPLINE
  5
63
330
41
100
AcDbEntity
  8
_U+30EC_U+30A4_U+30E4_U+30FC 1
 62
   179
420
  2234388
370
     9
100
AcDbSpline
210
0.0
220
0.0
230
1.0
 70
    11
 71
     3
 72
    17
 73
    13
 74
     0
 42
0.0000000001
 43
0.0000000001
 12
1.0
 22
0.0
 32
0.0
 13
1.0
 23
0.0
 33
0.0
 40
0.0
 40
0.0
 40
0.0
 40
0.0
 40
1.0
 40
1.0
 40
1.0
 40
2.0
 40
2.0
 40
2.0
 40
3.0
 40
3.0
 40
3.0
 40
4.0
 40
4.0
 40
4.0
 40
4.0
 10
88.30228635833211
 20
-122.2933094138711
 30
0.0
 10
88.24714719307215
 20
-122.2933094138711
 30
0.0
 10
88.20237969421427
 20
-122.3381121916378
 30
0.0
 10
88.20237969421427
 20
-122.3932160805127
 30
0.0
 10
88.20237969421427
 20
-122.4483552471658
 30
0.0
 10
88.24714719307215
 20
-122.4931227471543
 30
0.0
 10
88.30228635833211
 20
-122.4931227471543
 30
0.0
 10
88.35739024581518
 20
-122.4931227471543
 30
0.0
 10
88.40219302244994
 20
-122.4483552471658
 30
0.0
 10
88.40219302244994
 20
-122.3932160805127
 30
0.0
 10
88.40219302244994
 20
-122.3381121916378
 30
0.0
 10
88.35739024581518
 20
-122.2933094138711
 30
0.0
 10
88.30228635833211
 20
-122.2933094138711
 30
0.0
  0
POLYLINE
  5
64
330
41
100
AcDbEntity
  8
_U+30EC_U+30A4_U+30E4_U+30FC 1
 62
   179
420
  2234388
370
     9
100
AcDb2dPolyline
 66
     1
 10
0.0
 20
0.0
 30
0.0
  0
VERTEX
  5
65
330
64
100
AcDbEntity
  8
_U+30EC_U+30A4_U+30E4_U+30FC 1
 62
   179
420
  2234388
370
     9
100
AcDbVertex
100
AcDb2dVertex
 10
88.30228635833211
 20
-120.933174691989
 30
0.0
  0
VERTEX
  5
66
330
64
100
AcDbEntity
  8
_U+30EC_U+30A4_U+30E4_U+30FC 1
 62
   179
420
  2234388
370
     9
100
AcDbVertex
100
AcDb2dVertex
 10
88.30228635833211
 20
-123.3929883024853
 30
0.0
  0
SEQEND
  5
67
330
64
100
AcDbEntity
  8
_U+30EC_U+30A4_U+30E4_U+30FC 1
 62
   179
420
  2234388
370
     9
  0
INSERT
  5
69
330
41
100
AcDbEntity
  8
_U+30EC_U+30A4_U+30E4_U+30FC 1
100
AcDbBlockReference
  2
block 5
 10
0.0
 20
0.0
 30
0.0
  0
INSERT
  5
6F
330
41
100
AcDbEntity
  8
_U+30EC_U+30A4_U+30E4_U+30FC 1
100
AcDbBlockReference
  2
block 6
 10
0.0
 20
0.0
 30
0.0
  0
POLYLINE
  5
78
330
41
100
AcDbEntity
  8
_U+30EC_U+30A4_U+30E4_U+30FC 1
 62
   179
420
  2234388
370
     9
100
AcDb2dPolyline
 66
     1
 10
0.0
 20
0.0
 30
0.0
  0
VERTEX
  5
79
330
78
100
AcDbEntity
  8
_U+30EC_U+30A4_U+30E4_U+30FC 1
 62
   179
420
  2234388
370
     9
100
AcDbVertex
100
AcDb2dVertex
 10
107.290267540575
 20
-131.1720205227624
 30
0.0
  0
VERTEX
  5
7A
330
78
100
AcDbEntity
  8
_U+30EC_U+30A4_U+30E4_U+30FC 1
 62
   179
420
  2234388
370
     9
100
AcDbVertex
100
AcDb2dVertex
 10
109.7500458111542
 20
-131.1720205227624
 30
0.0
  0
SEQEND
  5
7B
330
78
100
AcDbEntity
  8
_U+30EC_U+30A4_U+30E4_U+30FC 1
 62
   179
420
  2234388
370
     9
  0
POLYLINE
  5
7C
330
41
100
AcDbEntity
  8
_U+30EC_U+30A4_U+30E4_U+30FC 1
 62
   179
420
  2234388
370
     9
100
AcDb2dPolyline
 66
     1
 10
0.0
 20
0.0
 30
0.0
  0
VERTEX
  5
7D
330
7C
100
AcDbEntity
  8
_U+30EC_U+30A4_U+30E4_U+30FC 1
 62
   179
420
  2234388
370
     9
100
AcDbVertex
100
AcDb2dVertex
 10
107.290267540575
 20
-132.1717927447349
 30
0.0
  0
VERTEX
  5
7E
330
7C
100
AcDbEntity
  8
_U+30EC_U+30A4_U+30E4_U+30FC 1
 62
   179
420
  2234388
370
     9
100
AcDbVertex
100
AcDb2dVertex
 10
109.7500458111542
 20
-132.1717927447349
 30
0.0
  0
SEQEND
  5
7F
330
7C
100
AcDbEntity
  8
_U+30EC_U+30A4_U+30E4_U+30FC 1
 62
   179
420
  2234388
370
     9
  0
SPLINE
  5
80
330
41
100
AcDbEntity
  8
_U+30EC_U+30A4_U+30E4_U+30FC 1
 62
   179
420
  2234388
370
     9
100
AcDbSpline
210
0.0
220
0.0
230
1.0
 70
    11
 71
     3
 72
    17
 73
    13
 74
     0
 42
0.0000000001
 43
0.0000000001
 12
1.0
 22
0.0
 32
0.0
 13
1.0
 23
0.0
 33
0.0
 40
0.0
 40
0.0
 40
0.0
 40
0.0
 40
1.0
 40
1.0
 40
1.0
 40
2.0
 40
2.0
 40
2.0
 40
3.0
 40
3.0
 40
3.0
 40
4.0
 40
4.0
 40
4.0
 40
4.0
 10
108.6762255607718
 20
-125.0884735798391
 30
0.0
 10
108.6762255607718
 20
-125.0330169131861
 30
0.0
 10
108.6314227841371
 20
-124.9885669131974
 30
0.0
 10
108.576318896654
 20
-124.9885669131974
 30
0.0
 10
108.5211797313941
 20
-124.9885669131974
 30
0.0
 10
108.4764122325362
 20
-125.0330169131861
 30
0.0
 10
108.4764122325362
 20
-125.0884735798391
 30
0.0
 10
108.4764122325362
 20
-125.1436127464918
 30
0.0
 10
108.5211797313941
 20
-125.1883802464807
 30
0.0
 10
108.576318896654
 20
-125.1883802464807
 30
0.0
 10
108.6314227841371
 20
-125.1883802464807
 30
0.0
 10
108.6762255607718
 20
-125.1436127464918
 30
0.0
 10
108.6762255607718
 20
-125.0884735798391
 30
0.0
  0
POLYLINE
  5
81
330
41
100
AcDbEntity
  8
_U+30EC_U+30A4_U+30E4_U+30FC 1
 62
   179
420
  2234388
370
     9
100
AcDb2dPolyline
 66
     1
 10
0.0
 20
0.0
 30
0.0
  0
VERTEX
  5
82
330
81
100
AcDbEntity
  8
_U+30EC_U+30A4_U+30E4_U+30FC 1
 62
   179
420
  2234388
370
     9
100
AcDbVertex
100
AcDb2dVertex
 10
90.66974268682215
 20
-125.0884735798391
 30
0.0
  0
VERTEX
  5
83
330
81
100
AcDbEntity
  8
_U+30EC_U+30A4_U+30E4_U+30FC 1
 62
   179
420
  2234388
370
     9
100
AcDbVertex
100
AcDb2dVertex
 10
109.7500458111542
 20
-125.0884735798391
 30
0.0
  0
SEQEND
  5
84
330
81
100
AcDbEntity
  8
_U+30EC_U+30A4_U+30E4_U+30FC 1
 62
   179
420
  2234388
370
     9
  0
INSERT
  5
86
330
41
100
AcDbEntity
  8
_U+30EC_U+30A4_U+30E4_U+30FC 1
100
AcDbBlockReference
  2
block 7
 10
0.0
 20
0.0
 30
0.0
  0
SPLINE
  5
8D
330
41
100
AcDbEntity
  8
_U+30EC_U+30A4_U+30E4_U+30FC 1
 62
   179
420
  2234388
370
     9
100
AcDbSpline
210
0.0
220
0.0
230
1.0
 70
    11
 71
     3
 72
    17
 73
    13
 74
     0
 42
0.0000000001
 43
0.0000000001
 12
1.0
 22
0.0
 32
0.0
 13
1.0
 23
0.0
 33
0.0
 40
0.0
 40
0.0
 40
0.0
 40
0.0
 40
1.0
 40
1.0
 40
1.0
 40
2.0
 40
2.0
 40
2.0
 40
3.0
 40
3.0
 40
3.0
 40
4.0
 40
4.0
 40
4.0
 40
4.0
 10
105.2228487044304
 20
-136.0289238548819
 30
0.0
 10
105.2228487044304
 20
-136.0840277437568
 30
0.0
 10
105.1780812055725
 20
-136.1288305215235
 30
0.0
 10
105.1229420403125
 20
-136.1288305215235
 30
0.0
 10
105.0678381528295
 20
-136.1288305215235
 30
0.0
 10
105.0230353761947
 20
-136.0840277437568
 30
0.0
 10
105.0230353761947
 20
-136.0289238548819
 30
0.0
 10
105.0230353761947
 20
-135.9737846882288
 30
0.0
 10
105.0678381528295
 20
-135.9289819104621
 30
0.0
 10
105.1229420403125
 20
-135.9289819104621
 30
0.0
 10
105.1780812055725
 20
-135.9289819104621
 30
0.0
 10
105.2228487044304
 20
-135.9737846882288
 30
0.0
 10
105.2228487044304
 20
-136.0289238548819
 30
0.0
  0
SPLINE
  5
8E
330
41
100
AcDbEntity
  8
_U+30EC_U+30A4_U+30E4_U+30FC 1
 62
   179
420
  2234388
370
     9
100
AcDbSpline
210
0.0
220
0.0
230
1.0
 70
    11
 71
     3
 72
    17
 73
    13
 74
     0
 42
0.0000000001
 43
0.0000000001
 12
1.0
 22
0.0
 32
0.0
 13
1.0
 23
0.0
 33
0.0
 40
0.0
 40
0.0
 40
0.0
 40
0.0
 40
1.0
 40
1.0
 40
1.0
 40
2.0
 40
2.0
 40
2.0
 40
3.0
 40
3.0
 40
3.0
 40
4.0
 40
4.0
 40
4.0
 40
4.0
 10
70.22344876400612
 20
-136.0289238548819
 30
0.0
 10
70.22344876400612
 20
-136.0840277437568
 30
0.0
 10
70.17864598737135
 20
-136.1288305215235
 30
0.0
 10
70.12354209988828
 20
-136.1288305215235
 30
0.0
 10
70.06840293462834
 20
-136.1288305215235
 30
0.0
 10
70.02363543577046
 20
-136.0840277437568
 30
0.0
 10
70.02363543577046
 20
-136.0289238548819
 30
0.0
 10
70.02363543577046
 20
-135.9737846882288
 30
0.0
 10
70.06840293462834
 20
-135.9289819104621
 30
0.0
 10
70.12354209988828
 20
-135.9289819104621
 30
0.0
 10
70.17864598737135
 20
-135.9289819104621
 30
0.0
 10
70.22344876400612
 20
-135.9737846882288
 30
0.0
 10
70.22344876400612
 20
-136.0289238548819
 30
0.0
  0
POLYLINE
  5
8F
330
41
100
AcDbEntity
  8
_U+30EC_U+30A4_U+30E4_U+30FC 1
 62
   179
420
  2234388
370
     9
100
AcDb2dPolyline
 66
     1
 10
0.0
 20
0.0
 30
0.0
  0
VERTEX
  5
90
330
8F
100
AcDbEntity
  8
_U+30EC_U+30A4_U+30E4_U+30FC 1
 62
   179
420
  2234388
370
     9
100
AcDbVertex
100
AcDb2dVertex
 10
105.1226245403206
 20
-136.0289238548819
 30
0.0
  0
VERTEX
  5
91
330
8F
100
AcDbEntity
  8
_U+30EC_U+30A4_U+30E4_U+30FC 1
 62
   179
420
  2234388
370
     9
100
AcDbVertex
100
AcDb2dVertex
 10
70.12354209988828
 20
-136.0289238548819
 30
0.0
  0
SEQEND
  5
92
330
8F
100
AcDbEntity
  8
_U+30EC_U+30A4_U+30E4_U+30FC 1
 62
   179
420
  2234388
370
     9
  0
INSERT
  5
94
330
41
100
AcDbEntity
  8
_U+30EC_U+30A4_U+30E4_U+30FC 1
100
AcDbBlockReference
  2
block 8
 10
0.0
 20
0.0
 30
0.0
  0
ENDBLK
  5
44
330
41
100
AcDbEntity
  8
0
100
AcDbBlockEnd
  0
BLOCK
  5
47
330
45
100
AcDbEntity
  8
0
100
AcDbBlockBegin
  2
block 3
 70
     0
 10
0.0
 20
0.0
 30
0.0
  3
block 3
  1

  0
SPLINE
  5
49
330
45
100
AcDbEntity
  8
_U+30EC_U+30A4_U+30E4_U+30FC 1
370
     0
100
AcDbSpline
210
0.0
220
0.0
230
1.0
 70
    11
 71
     3
 72
    32
 73
    28
 74
     0
 42
0.0000000001
 43
0.0000000001
 12
1.0
 22
0.0
 32
0.0
 13
1.0
 23
0.0
 33
0.0
 40
0.0
 40
0.0
 40
0.0
 40
0.0
 40
1.0
 40
1.0
 40
1.0
 40
2.0
 40
2.0
 40
2.0
 40
3.0
 40
3.0
 40
3.0
 40
4.0
 40
4.0
 40
4.0
 40
5.0
 40
5.0
 40
5.0
 40
6.0
 40
6.0
 40
6.0
 40
7.0
 40
7.0
 40
7.0
 40
8.0
 40
8.0
 40
8.0
 40
9.0
 40
9.0
 40
9.0
 40
9.0
 10
111.0443847378639
 20
-128.1262016823782
 30
0.0
 10
111.0443847378639
 20
-128.6422769860686
 30
0.0
 10
110.4904133838357
 20
-128.6508897247817
 30
0.0
 10
110.2764729542017
 20
-128.6508897247817
 30
0.0
 10
110.0459960662385
 20
-128.6508897247817
 30
0.0
 10
109.3986626245601
 20
-128.6315971900643
 30
0.0
 10
109.3986626245601
 20
-128.0879611224919
 30
0.0
 10
109.3986626245601
 20
-127.9146728195838
 30
0.0
 10
109.4685980629106
 20
-127.6690375114855
 30
0.0
 10
109.8007052676887
 20
-127.6311414611478
 30
0.0
 10
109.8007052676887
 20
-127.6311414611478
 30
0.0
 10
109.8007052676887
 20
-127.8447373812333
 30
0.0
 10
109.8007052676887
 20
-127.8447373812333
 30
0.0
 10
109.7435166826336
 20
-127.8554171772375
 30
0.0
 10
109.5953775767678
 20
-127.8871120557018
 30
0.0
 10
109.5953775767678
 20
-128.090028179783
 30
0.0
 10
109.5953775767678
 20
-128.3821722769322
 30
0.0
 10
109.9233506669636
 20
-128.4221353845611
 30
0.0
 10
110.128333848336
 20
-128.4348822378566
 30
0.0
 10
110.0501301808208
 20
-128.3418646597548
 30
0.0
 10
109.9908745384745
 20
-128.2739962786954
 30
0.0
 10
109.9908745384745
 20
-128.0920952370742
 30
0.0
 10
109.9908745384745
 20
-127.9122612527442
 30
0.0
 10
110.0990505367114
 20
-127.6097818691392
 30
0.0
 10
110.5052272944223
 20
-127.6097818691392
 30
0.0
 10
110.824587645905
 20
-127.6097818691392
 30
0.0
 10
111.0443847378639
 20
-127.8089083881867
 30
0.0
 10
111.0443847378639
 20
-128.1262016823782
 30
0.0
  0
SPLINE
  5
4A
330
45
100
AcDbEntity
  8
_U+30EC_U+30A4_U+30E4_U+30FC 1
370
     0
100
AcDbSpline
210
0.0
220
0.0
230
1.0
 70
    11
 71
     3
 72
    17
 73
    13
 74
     0
 42
0.0000000001
 43
0.0000000001
 12
1.0
 22
0.0
 32
0.0
 13
1.0
 23
0.0
 33
0.0
 40
0.0
 40
0.0
 40
0.0
 40
0.0
 40
1.0
 40
1.0
 40
1.0
 40
2.0
 40
2.0
 40
2.0
 40
3.0
 40
3.0
 40
3.0
 40
4.0
 40
4.0
 40
4.0
 40
4.0
 10
110.1855224333911
 20
-128.1093207145005
 30
0.0
 10
110.1855224333911
 20
-128.371492480928
 30
0.0
 10
110.3970512961855
 20
-128.4093885312657
 30
0.0
 10
110.5134955235869
 20
-128.4093885312657
 30
0.0
 10
110.6891953933347
 20
-128.4093885312657
 30
0.0
 10
110.852148409787
 20
-128.3143038958728
 30
0.0
 10
110.852148409787
 20
-128.1303357969605
 30
0.0
 10
110.852148409787
 20
-128.0097574549767
 30
0.0
 10
110.7928927674407
 20
-127.834057585229
 30
0.0
 10
110.5072943517135
 20
-127.834057585229
 30
0.0
 10
110.2830186356237
 20
-127.834057585229
 30
0.0
 10
110.1855224333911
 20
-127.9735839523816
 30
0.0
 10
110.1855224333911
 20
-128.1093207145005
 30
0.0
  0
HATCH
  5
4B
330
45
100
AcDbEntity
  8
_U+30EC_U+30A4_U+30E4_U+30FC 1
 62
   179
420
  2234388
100
AcDbHatch
 10
0.0
 20
0.0
 30
0.0
210
0.0
220
0.0
230
1.0
  2
SOLID
 70
     1
 71
     0
 91
        2
 92
        1
 93
        1
 72
     4
 94
        3
 73
     0
 74
     1
 95
       32
 96
       28
 40
0.0
 40
0.0
 40
0.0
 40
0.0
 40
1.0
 40
1.0
 40
1.0
 40
2.0
 40
2.0
 40
2.0
 40
3.0
 40
3.0
 40
3.0
 40
4.0
 40
4.0
 40
4.0
 40
5.0
 40
5.0
 40
5.0
 40
6.0
 40
6.0
 40
6.0
 40
7.0
 40
7.0
 40
7.0
 40
8.0
 40
8.0
 40
8.0
 40
9.0
 40
9.0
 40
9.0
 40
9.0
 10
111.0443847378639
 20
-128.1262016823782
 10
111.0443847378639
 20
-128.6422769860686
 10
110.4904133838357
 20
-128.6508897247817
 10
110.2764729542017
 20
-128.6508897247817
 10
110.0459960662385
 20
-128.6508897247817
 10
109.3986626245601
 20
-128.6315971900643
 10
109.3986626245601
 20
-128.0879611224919
 10
109.3986626245601
 20
-127.9146728195838
 10
109.4685980629106
 20
-127.6690375114855
 10
109.8007052676887
 20
-127.6311414611478
 10
109.8007052676887
 20
-127.6311414611478
 10
109.8007052676887
 20
-127.8447373812333
 10
109.8007052676887
 20
-127.8447373812333
 10
109.7435166826336
 20
-127.8554171772375
 10
109.5953775767678
 20
-127.8871120557018
 10
109.5953775767678
 20
-128.090028179783
 10
109.5953775767678
 20
-128.3821722769322
 10
109.9233506669636
 20
-128.4221353845611
 10
110.128333848336
 20
-128.4348822378566
 10
110.0501301808208
 20
-128.3418646597548
 10
109.9908745384745
 20
-128.2739962786954
 10
109.9908745384745
 20
-128.0920952370742
 10
109.9908745384745
 20
-127.9122612527442
 10
110.0990505367114
 20
-127.6097818691392
 10
110.5052272944223
 20
-127.6097818691392
 10
110.824587645905
 20
-127.6097818691392
 10
111.0443847378639
 20
-127.8089083881867
 10
111.0443847378639
 20
-128.1262016823782
 97
        0
 97
        0
 92
        1
 93
        1
 72
     4
 94
        3
 73
     0
 74
     1
 95
       17
 96
       13
 40
0.0
 40
0.0
 40
0.0
 40
0.0
 40
1.0
 40
1.0
 40
1.0
 40
2.0
 40
2.0
 40
2.0
 40
3.0
 40
3.0
 40
3.0
 40
4.0
 40
4.0
 40
4.0
 40
4.0
 10
110.1855224333911
 20
-128.1093207145005
 10
110.1855224333911
 20
-128.371492480928
 10
110.3970512961855
 20
-128.4093885312657
 10
110.5134955235869
 20
-128.4093885312657
 10
110.6891953933347
 20
-128.4093885312657
 10
110.852148409787
 20
-128.3143038958728
 10
110.852148409787
 20
-128.1303357969605
 10
110.852148409787
 20
-128.0097574549767
 10
110.7928927674407
 20
-127.834057585229
 10
110.5072943517135
 20
-127.834057585229
 10
110.2830186356237
 20
-127.834057585229
 10
110.1855224333911
 20
-127.9735839523816
 10
110.1855224333911
 20
-128.1093207145005
 97
        0
 97
        0
 75
     2
 76
     1
 98
        0
  0
ENDBLK
  5
48
330
45
100
AcDbEntity
  8
0
100
AcDbBlockEnd
  0
BLOCK
  5
4E
330
4C
100
AcDbEntity
  8
0
100
AcDbBlockBegin
  2
block 4
 70
     0
 10
0.0
 20
0.0
 30
0.0
  3
block 4
  1

  0
SPLINE
  5
50
330
4C
100
AcDbEntity
  8
_U+30EC_U+30A4_U+30E4_U+30FC 1
370
     0
100
AcDbSpline
210
0.0
220
0.0
230
1.0
 70
    11
 71
     3
 72
    26
 73
    22
 74
     0
 42
0.0000000001
 43
0.0000000001
 12
1.0
 22
0.0
 32
0.0
 13
1.0
 23
0.0
 33
0.0
 40
0.0
 40
0.0
 40
0.0
 40
0.0
 40
1.0
 40
1.0
 40
1.0
 40
2.0
 40
2.0
 40
2.0
 40
3.0
 40
3.0
 40
3.0
 40
4.0
 40
4.0
 40
4.0
 40
5.0
 40
5.0
 40
5.0
 40
6.0
 40
6.0
 40
6.0
 40
7.0
 40
7.0
 40
7.0
 40
7.0
 10
110.9937418342307
 20
-131.701866286519
 30
0.0
 10
110.9937418342307
 20
-131.701866286519
 30
0.0
 10
109.8895887312082
 20
-131.701866286519
 30
0.0
 10
109.8895887312082
 20
-131.701866286519
 30
0.0
 10
109.8895887312082
 20
-131.701866286519
 30
0.0
 10
109.8895887312082
 20
-132.0319064340059
 30
0.0
 10
109.8895887312082
 20
-132.0319064340059
 30
0.0
 10
109.8895887312082
 20
-132.0319064340059
 30
0.0
 10
109.7414496253424
 20
-132.0319064340059
 30
0.0
 10
109.7414496253424
 20
-132.0319064340059
 30
0.0
 10
109.7266357147558
 20
-131.6997992292278
 30
0.0
 10
109.5636826983035
 20
-131.653290440177
 30
0.0
 10
109.4493055281932
 20
-131.6236626190038
 30
0.0
 10
109.4493055281932
 20
-131.6236626190038
 30
0.0
 10
109.4493055281932
 20
-131.4775905704292
 30
0.0
 10
109.4493055281932
 20
-131.4775905704292
 30
0.0
 10
109.4493055281932
 20
-131.4775905704292
 30
0.0
 10
110.9937418342307
 20
-131.4775905704292
 30
0.0
 10
110.9937418342307
 20
-131.4775905704292
 30
0.0
 10
110.9937418342307
 20
-131.4775905704292
 30
0.0
 10
110.9937418342307
 20
-131.701866286519
 30
0.0
 10
110.9937418342307
 20
-131.701866286519
 30
0.0
  0
HATCH
  5
51
330
4C
100
AcDbEntity
  8
_U+30EC_U+30A4_U+30E4_U+30FC 1
 62
   179
420
  2234388
100
AcDbHatch
 10
0.0
 20
0.0
 30
0.0
210
0.0
220
0.0
230
1.0
  2
SOLID
 70
     1
 71
     0
 91
        1
 92
        1
 93
        1
 72
     4
 94
        3
 73
     0
 74
     1
 95
       26
 96
       22
 40
0.0
 40
0.0
 40
0.0
 40
0.0
 40
1.0
 40
1.0
 40
1.0
 40
2.0
 40
2.0
 40
2.0
 40
3.0
 40
3.0
 40
3.0
 40
4.0
 40
4.0
 40
4.0
 40
5.0
 40
5.0
 40
5.0
 40
6.0
 40
6.0
 40
6.0
 40
7.0
 40
7.0
 40
7.0
 40
7.0
 10
110.9937418342307
 20
-131.701866286519
 10
110.9937418342307
 20
-131.701866286519
 10
109.8895887312082
 20
-131.701866286519
 10
109.8895887312082
 20
-131.701866286519
 10
109.8895887312082
 20
-131.701866286519
 10
109.8895887312082
 20
-132.0319064340059
 10
109.8895887312082
 20
-132.0319064340059
 10
109.8895887312082
 20
-132.0319064340059
 10
109.7414496253424
 20
-132.0319064340059
 10
109.7414496253424
 20
-132.0319064340059
 10
109.7266357147558
 20
-131.6997992292278
 10
109.5636826983035
 20
-131.653290440177
 10
109.4493055281932
 20
-131.6236626190038
 10
109.4493055281932
 20
-131.6236626190038
 10
109.4493055281932
 20
-131.4775905704292
 10
109.4493055281932
 20
-131.4775905704292
 10
109.4493055281932
 20
-131.4775905704292
 10
110.9937418342307
 20
-131.4775905704292
 10
110.9937418342307
 20
-131.4775905704292
 10
110.9937418342307
 20
-131.4775905704292
 10
110.9937418342307
 20
-131.701866286519
 10
110.9937418342307
 20
-131.701866286519
 97
        0
 97
        0
 75
     2
 76
     1
 98
        0
  0
ENDBLK
  5
4F
330
4C
100
AcDbEntity
  8
0
100
AcDbBlockEnd
  0
BLOCK
  5
6A
330
68
100
AcDbEntity
  8
0
100
AcDbBlockBegin
  2
block 5
 70
     0
 10
0.0
 20
0.0
 30
0.0
  3
block 5
  1

  0
SPLINE
  5
6C
330
68
100
AcDbEntity
  8
_U+30EC_U+30A4_U+30E4_U+30FC 1
370
     0
100
AcDbSpline
210
0.0
220
0.0
230
1.0
 70
    11
 71
     3
 72
    62
 73
    58
 74
     0
 42
0.0000000001
 43
0.0000000001
 12
1.0
 22
0.0
 32
0.0
 13
1.0
 23
0.0
 33
0.0
 40
0.0
 40
0.0
 40
0.0
 40
0.0
 40
1.0
 40
1.0
 40
1.0
 40
2.0
 40
2.0
 40
2.0
 40
3.0
 40
3.0
 40
3.0
 40
4.0
 40
4.0
 40
4.0
 40
5.0
 40
5.0
 40
5.0
 40
6.0
 40
6.0
 40
6.0
 40
7.0
 40
7.0
 40
7.0
 40
8.0
 40
8.0
 40
8.0
 40
9.0
 40
9.0
 40
9.0
 40
10.0
 40
10.0
 40
10.0
 40
11.0
 40
11.0
 40
11.0
 40
12.0
 40
12.0
 40
12.0
 40
13.0
 40
13.0
 40
13.0
 40
14.0
 40
14.0
 40
14.0
 40
15.0
 40
15.0
 40
15.0
 40
16.0
 40
16.0
 40
16.0
 40
17.0
 40
17.0
 40
17.0
 40
18.0
 40
18.0
 40
18.0
 40
19.0
 40
19.0
 40
19.0
 40
19.0
 10
86.79091252170505
 20
-121.8650851474851
 30
0.0
 10
86.69548337676363
 20
-121.8650851474851
 30
0.0
 10
86.47775334209584
 20
-121.8440700650251
 30
0.0
 10
86.35269637598127
 20
-121.6580349088216
 30
0.0
 10
86.2786268230484
 20
-121.5457247960025
 30
0.0
 10
86.2744927084661
 20
-121.4465060460273
 30
0.0
 10
86.2703585938838
 20
-121.3617566970901
 30
0.0
 10
86.2703585938838
 20
-121.3617566970901
 30
0.0
 10
86.49050019539126
 20
-121.3617566970901
 30
0.0
 10
86.49050019539126
 20
-121.3617566970901
 30
0.0
 10
86.49256725268242
 20
-121.435826250023
 30
0.0
 10
86.50290253913816
 20
-121.6704372525685
 30
0.0
 10
86.78643389757423
 20
-121.6704372525685
 30
0.0
 10
86.9238932074357
 20
-121.6704372525685
 30
0.0
 10
87.07651093743226
 20
-121.6008463237665
 30
0.0
 10
87.07651093743226
 20
-121.3724364930944
 30
0.0
 10
87.07651093743226
 20
-121.255992265693
 30
0.0
 10
87.038270377546
 20
-121.2074164193509
 30
0.0
 10
87.00657549908169
 20
-121.1757215408866
 30
0.0
 10
86.93250594614882
 20
-121.1016519879538
 30
0.0
 10
86.81606171874738
 20
-121.0889051346583
 30
0.0
 10
86.7612847005319
 20
-121.0889051346583
 30
0.0
 10
86.74199216581451
 20
-121.0889051346583
 30
0.0
 10
86.7061631727679
 20
-121.0909721919495
 30
0.0
 10
86.67860240888591
 20
-121.0951063065318
 30
0.0
 10
86.67860240888591
 20
-121.0951063065318
 30
0.0
 10
86.67860240888591
 20
-120.9004584116152
 30
0.0
 10
86.67860240888591
 20
-120.9004584116152
 30
0.0
 10
86.71684296877218
 20
-120.9070040930371
 30
0.0
 10
86.75887313369223
 20
-120.9090711503283
 30
0.0
 10
86.7654188151142
 20
-120.9090711503283
 30
0.0
 10
86.83087562933395
 20
-120.9090711503283
 30
0.0
 10
87.02965763883287
 20
-120.8877115583198
 30
0.0
 10
87.02965763883287
 20
-120.6510334984831
 30
0.0
 10
87.02965763883287
 20
-120.4732665714442
 30
0.0
 10
86.89874401039337
 20
-120.4181450436802
 30
0.0
 10
86.78850095486538
 20
-120.4181450436802
 30
0.0
 10
86.52426213114671
 20
-120.4181450436802
 30
0.0
 10
86.51564939243359
 20
-120.6510334984831
 30
0.0
 10
86.51151527785129
 20
-120.7226914845763
 30
0.0
 10
86.51151527785129
 20
-120.7226914845763
 30
0.0
 10
86.30825464422155
 20
-120.7226914845763
 30
0.0
 10
86.30825464422155
 20
-120.7226914845763
 30
0.0
 10
86.31686738293467
 20
-120.5979790280102
 30
0.0
 10
86.34442814681667
 20
-120.2214300914724
 30
0.0
 10
86.80124780816081
 20
-120.2214300914724
 30
0.0
 10
87.02552352425057
 20
-120.2214300914724
 30
0.0
 10
87.26668020821806
 20
-120.3485541148781
 30
0.0
 10
87.26668020821806
 20
-120.6444878170611
 30
0.0
 10
87.26668020821806
 20
-120.8308674828131
 30
0.0
 10
87.17159557282515
 20
-120.9132052649106
 30
0.0
 10
87.07203231330143
 20
-120.974527964548
 30
0.0
 10
87.13335501293889
 20
-121.00208872843
 30
0.0
 10
87.31525605456008
 20
-121.0823594532364
 30
0.0
 10
87.31525605456008
 20
-121.359689639799
 30
0.0
 10
87.31525605456008
 20
-121.6979980164505
 30
0.0
 10
87.06789819871913
 20
-121.8650851474851
 30
0.0
 10
86.79091252170505
 20
-121.8650851474851
 30
0.0
  0
HATCH
  5
6D
330
68
100
AcDbEntity
  8
_U+30EC_U+30A4_U+30E4_U+30FC 1
 62
   179
420
  2234388
100
AcDbHatch
 10
0.0
 20
0.0
 30
0.0
210
0.0
220
0.0
230
1.0
  2
SOLID
 70
     1
 71
     0
 91
        1
 92
        1
 93
        1
 72
     4
 94
        3
 73
     0
 74
     1
 95
       62
 96
       58
 40
0.0
 40
0.0
 40
0.0
 40
0.0
 40
1.0
 40
1.0
 40
1.0
 40
2.0
 40
2.0
 40
2.0
 40
3.0
 40
3.0
 40
3.0
 40
4.0
 40
4.0
 40
4.0
 40
5.0
 40
5.0
 40
5.0
 40
6.0
 40
6.0
 40
6.0
 40
7.0
 40
7.0
 40
7.0
 40
8.0
 40
8.0
 40
8.0
 40
9.0
 40
9.0
 40
9.0
 40
10.0
 40
10.0
 40
10.0
 40
11.0
 40
11.0
 40
11.0
 40
12.0
 40
12.0
 40
12.0
 40
13.0
 40
13.0
 40
13.0
 40
14.0
 40
14.0
 40
14.0
 40
15.0
 40
15.0
 40
15.0
 40
16.0
 40
16.0
 40
16.0
 40
17.0
 40
17.0
 40
17.0
 40
18.0
 40
18.0
 40
18.0
 40
19.0
 40
19.0
 40
19.0
 40
19.0
 10
86.79091252170505
 20
-121.8650851474851
 10
86.69548337676363
 20
-121.8650851474851
 10
86.47775334209584
 20
-121.8440700650251
 10
86.35269637598127
 20
-121.6580349088216
 10
86.2786268230484
 20
-121.5457247960025
 10
86.2744927084661
 20
-121.4465060460273
 10
86.2703585938838
 20
-121.3617566970901
 10
86.2703585938838
 20
-121.3617566970901
 10
86.49050019539126
 20
-121.3617566970901
 10
86.49050019539126
 20
-121.3617566970901
 10
86.49256725268242
 20
-121.435826250023
 10
86.50290253913816
 20
-121.6704372525685
 10
86.78643389757423
 20
-121.6704372525685
 10
86.9238932074357
 20
-121.6704372525685
 10
87.07651093743226
 20
-121.6008463237665
 10
87.07651093743226
 20
-121.3724364930944
 10
87.07651093743226
 20
-121.255992265693
 10
87.038270377546
 20
-121.2074164193509
 10
87.00657549908169
 20
-121.1757215408866
 10
86.93250594614882
 20
-121.1016519879538
 10
86.81606171874738
 20
-121.0889051346583
 10
86.7612847005319
 20
-121.0889051346583
 10
86.74199216581451
 20
-121.0889051346583
 10
86.7061631727679
 20
-121.0909721919495
 10
86.67860240888591
 20
-121.0951063065318
 10
86.67860240888591
 20
-121.0951063065318
 10
86.67860240888591
 20
-120.9004584116152
 10
86.67860240888591
 20
-120.9004584116152
 10
86.71684296877218
 20
-120.9070040930371
 10
86.75887313369223
 20
-120.9090711503283
 10
86.7654188151142
 20
-120.9090711503283
 10
86.83087562933395
 20
-120.9090711503283
 10
87.02965763883287
 20
-120.8877115583198
 10
87.02965763883287
 20
-120.6510334984831
 10
87.02965763883287
 20
-120.4732665714442
 10
86.89874401039337
 20
-120.4181450436802
 10
86.78850095486538
 20
-120.4181450436802
 10
86.52426213114671
 20
-120.4181450436802
 10
86.51564939243359
 20
-120.6510334984831
 10
86.51151527785129
 20
-120.7226914845763
 10
86.51151527785129
 20
-120.7226914845763
 10
86.30825464422155
 20
-120.7226914845763
 10
86.30825464422155
 20
-120.7226914845763
 10
86.31686738293467
 20
-120.5979790280102
 10
86.34442814681667
 20
-120.2214300914724
 10
86.80124780816081
 20
-120.2214300914724
 10
87.02552352425057
 20
-120.2214300914724
 10
87.26668020821806
 20
-120.3485541148781
 10
87.26668020821806
 20
-120.6444878170611
 10
87.26668020821806
 20
-120.8308674828131
 10
87.17159557282515
 20
-120.9132052649106
 10
87.07203231330143
 20
-120.974527964548
 10
87.13335501293889
 20
-121.00208872843
 10
87.31525605456008
 20
-121.0823594532364
 10
87.31525605456008
 20
-121.359689639799
 10
87.31525605456008
 20
-121.6979980164505
 10
87.06789819871913
 20
-121.8650851474851
 10
86.79091252170505
 20
-121.8650851474851
 97
        0
 97
        0
 75
     2
 76
     1
 98
        0
  0
ENDBLK
  5
6B
330
68
100
AcDbEntity
  8
0
100
AcDbBlockEnd
  0
BLOCK
  5
70
330
6E
100
AcDbEntity
  8
0
100
AcDbBlockBegin
  2
block 6
 70
     0
 10
0.0
 20
0.0
 30
0.0
  3
block 6
  1

  0
SPLINE
  5
72
330
6E
100
AcDbEntity
  8
_U+30EC_U+30A4_U+30E4_U+30FC 1
 62
   179
420
  2234388
370
     9
100
AcDbSpline
210
0.0
220
0.0
230
1.0
 70
    11
 71
     3
 72
    17
 73
    13
 74
     0
 42
0.0000000001
 43
0.0000000001
 12
1.0
 22
0.0
 32
0.0
 13
1.0
 23
0.0
 33
0.0
 40
0.0
 40
0.0
 40
0.0
 40
0.0
 40
1.0
 40
1.0
 40
1.0
 40
2.0
 40
2.0
 40
2.0
 40
3.0
 40
3.0
 40
3.0
 40
4.0
 40
4.0
 40
4.0
 40
4.0
 10
108.4760594547674
 20
-131.1499719116568
 30
0.0
 10
108.4760594547674
 20
-131.2057813560872
 30
0.0
 10
108.5208622314021
 20
-131.2498785782984
 30
0.0
 10
108.5759661188852
 20
-131.2498785782984
 30
0.0
 10
108.6311052841452
 20
-131.2498785782984
 30
0.0
 10
108.6758727830031
 20
-131.2057813560872
 30
0.0
 10
108.6758727830031
 20
-131.1499719116568
 30
0.0
 10
108.6758727830031
 20
-131.0948327450043
 30
0.0
 10
108.6311052841452
 20
-131.0500652450152
 30
0.0
 10
108.5759661188852
 20
-131.0500652450152
 30
0.0
 10
108.5208622314021
 20
-131.0500652450152
 30
0.0
 10
108.4760594547674
 20
-131.0948327450043
 30
0.0
 10
108.4760594547674
 20
-131.1499719116568
 30
0.0
  0
SPLINE
  5
73
330
6E
100
AcDbEntity
  8
_U+30EC_U+30A4_U+30E4_U+30FC 1
 62
   179
420
  2234388
370
     9
100
AcDbSpline
210
0.0
220
0.0
230
1.0
 70
    11
 71
     3
 72
    17
 73
    13
 74
     0
 42
0.0000000001
 43
0.0000000001
 12
1.0
 22
0.0
 32
0.0
 13
1.0
 23
0.0
 33
0.0
 40
0.0
 40
0.0
 40
0.0
 40
0.0
 40
1.0
 40
1.0
 40
1.0
 40
2.0
 40
2.0
 40
2.0
 40
3.0
 40
3.0
 40
3.0
 40
4.0
 40
4.0
 40
4.0
 40
4.0
 10
108.4760594547674
 20
-132.1504144114067
 30
0.0
 10
108.4760594547674
 20
-132.2055535780598
 30
0.0
 10
108.5208622314021
 20
-132.2503210780483
 30
0.0
 10
108.5759661188852
 20
-132.2503210780483
 30
0.0
 10
108.6311052841452
 20
-132.2503210780483
 30
0.0
 10
108.6758727830031
 20
-132.2055535780598
 30
0.0
 10
108.6758727830031
 20
-132.1504144114067
 30
0.0
 10
108.6758727830031
 20
-132.0953105225318
 30
0.0
 10
108.6311052841452
 20
-132.050507744765
 30
0.0
 10
108.5759661188852
 20
-132.050507744765
 30
0.0
 10
108.5208622314021
 20
-132.050507744765
 30
0.0
 10
108.4760594547674
 20
-132.0953105225318
 30
0.0
 10
108.4760594547674
 20
-132.1504144114067
 30
0.0
  0
POLYLINE
  5
74
330
6E
100
AcDbEntity
  8
_U+30EC_U+30A4_U+30E4_U+30FC 1
 62
   179
420
  2234388
370
     9
100
AcDb2dPolyline
 66
     1
 10
0.0
 20
0.0
 30
0.0
  0
VERTEX
  5
75
330
74
100
AcDbEntity
  8
_U+30EC_U+30A4_U+30E4_U+30FC 1
 62
   179
420
  2234388
370
     9
100
AcDbVertex
100
AcDb2dVertex
 10
108.5759661188852
 20
-132.1504144114067
 30
0.0
  0
VERTEX
  5
76
330
74
100
AcDbEntity
  8
_U+30EC_U+30A4_U+30E4_U+30FC 1
 62
   179
420
  2234388
370
     9
100
AcDbVertex
100
AcDb2dVertex
 10
108.5759661188852
 20
-125.0502324687375
 30
0.0
  0
SEQEND
  5
77
330
74
100
AcDbEntity
  8
_U+30EC_U+30A4_U+30E4_U+30FC 1
 62
   179
420
  2234388
370
     9
  0
ENDBLK
  5
71
330
6E
100
AcDbEntity
  8
0
100
AcDbBlockEnd
  0
BLOCK
  5
87
330
85
100
AcDbEntity
  8
0
100
AcDbBlockBegin
  2
block 7
 70
     0
 10
0.0
 20
0.0
 30
0.0
  3
block 7
  1

  0
SPLINE
  5
89
330
85
100
AcDbEntity
  8
_U+30EC_U+30A4_U+30E4_U+30FC 1
370
     0
100
AcDbSpline
210
0.0
220
0.0
230
1.0
 70
    11
 71
     3
 72
    62
 73
    58
 74
     0
 42
0.0000000001
 43
0.0000000001
 12
1.0
 22
0.0
 32
0.0
 13
1.0
 23
0.0
 33
0.0
 40
0.0
 40
0.0
 40
0.0
 40
0.0
 40
1.0
 40
1.0
 40
1.0
 40
2.0
 40
2.0
 40
2.0
 40
3.0
 40
3.0
 40
3.0
 40
4.0
 40
4.0
 40
4.0
 40
5.0
 40
5.0
 40
5.0
 40
6.0
 40
6.0
 40
6.0
 40
7.0
 40
7.0
 40
7.0
 40
8.0
 40
8.0
 40
8.0
 40
9.0
 40
9.0
 40
9.0
 40
10.0
 40
10.0
 40
10.0
 40
11.0
 40
11.0
 40
11.0
 40
12.0
 40
12.0
 40
12.0
 40
13.0
 40
13.0
 40
13.0
 40
14.0
 40
14.0
 40
14.0
 40
15.0
 40
15.0
 40
15.0
 40
16.0
 40
16.0
 40
16.0
 40
17.0
 40
17.0
 40
17.0
 40
18.0
 40
18.0
 40
18.0
 40
19.0
 40
19.0
 40
19.0
 40
19.0
 10
86.35648598101506
 20
-135.5827663506529
 30
0.0
 10
86.25485566420018
 20
-135.5827663506529
 30
0.0
 10
86.02196720939729
 20
-135.5617512681929
 30
0.0
 10
85.88864201411812
 20
-135.3753716024409
 30
0.0
 10
85.80940481795737
 20
-135.2634059991703
 30
0.0
 10
85.80492619382655
 20
-135.1638427396466
 30
0.0
 10
85.80044756969572
 20
-135.0794379002579
 30
0.0
 10
85.80044756969572
 20
-135.0794379002579
 30
0.0
 10
86.03540308178977
 20
-135.0794379002579
 30
0.0
 10
86.03540308178977
 20
-135.0794379002579
 30
0.0
 10
86.03781464862944
 20
-135.1535074531908
 30
0.0
 10
86.04918346373077
 20
-135.3881184557363
 30
0.0
 10
86.35200735688423
 20
-135.3881184557363
 30
0.0
 10
86.49911293410439
 20
-135.3881184557363
 30
0.0
 10
86.66172144100818
 20
-135.3185275269343
 30
0.0
 10
86.66172144100818
 20
-135.0897731867137
 30
0.0
 10
86.66172144100818
 20
-134.9736734688608
 30
0.0
 10
86.62106931428224
 20
-134.9247531129702
 30
0.0
 10
86.58730737852679
 20
-134.8930582345059
 30
0.0
 10
86.50807018236604
 20
-134.818988681573
 30
0.0
 10
86.38370223534852
 20
-134.8065863378261
 30
0.0
 10
86.32479110255075
 20
-134.8065863378261
 30
0.0
 10
86.30446503918778
 20
-134.8065863378261
 30
0.0
 10
86.2662244793015
 20
-134.8086533951173
 30
0.0
 10
86.23659665812835
 20
-134.8127875096996
 30
0.0
 10
86.23659665812835
 20
-134.8127875096996
 30
0.0
 10
86.23659665812835
 20
-134.618139614783
 30
0.0
 10
86.23659665812835
 20
-134.618139614783
 30
0.0
 10
86.27724878485431
 20
-134.6243407866564
 30
0.0
 10
86.3227240452596
 20
-134.6267523534961
 30
0.0
 10
86.32926972668157
 20
-134.6267523534961
 30
0.0
 10
86.39954967458067
 20
-134.6267523534961
 30
0.0
 10
86.61211206602059
 20
-134.6053927614875
 30
0.0
 10
86.61211206602059
 20
-134.3683701921024
 30
0.0
 10
86.61211206602059
 20
-134.190947774612
 30
0.0
 10
86.47189667977092
 20
-134.135826246848
 30
0.0
 10
86.3544189237239
 20
-134.135826246848
 30
0.0
 10
86.07157658438489
 20
-134.135826246848
 30
0.0
 10
86.06261933612323
 20
-134.3683701921024
 30
0.0
 10
86.05814071199241
 20
-134.4403726877441
 30
0.0
 10
86.05814071199241
 20
-134.4403726877441
 30
0.0
 10
85.84109969642168
 20
-134.4403726877441
 30
0.0
 10
85.84109969642168
 20
-134.4403726877441
 30
0.0
 10
85.85005694468332
 20
-134.315660231178
 30
0.0
 10
85.87934025630794
 20
-133.9391112946402
 30
0.0
 10
86.36785479611638
 20
-133.9391112946402
 30
0.0
 10
86.60763344188976
 20
-133.9391112946402
 30
0.0
 10
86.86532658418645
 20
-134.0658908084974
 30
0.0
 10
86.86532658418645
 20
-134.3621690202289
 30
0.0
 10
86.86532658418645
 20
-134.5482041764324
 30
0.0
 10
86.76335175782306
 20
-134.6308864680784
 30
0.0
 10
86.65724281687736
 20
-134.6922091677158
 30
0.0
 10
86.7226996310971
 20
-134.7197699315979
 30
0.0
 10
86.91734752601373
 20
-134.8000406564041
 30
0.0
 10
86.91734752601373
 20
-135.0773708429668
 30
0.0
 10
86.91734752601373
 20
-135.4156792196183
 30
0.0
 10
86.65276419274653
 20
-135.5827663506529
 30
0.0
 10
86.35648598101506
 20
-135.5827663506529
 30
0.0
  0
HATCH
  5
8A
330
85
100
AcDbEntity
  8
_U+30EC_U+30A4_U+30E4_U+30FC 1
 62
   179
420
  2234388
100
AcDbHatch
 10
0.0
 20
0.0
 30
0.0
210
0.0
220
0.0
230
1.0
  2
SOLID
 70
     1
 71
     0
 91
        1
 92
        1
 93
        1
 72
     4
 94
        3
 73
     0
 74
     1
 95
       62
 96
       58
 40
0.0
 40
0.0
 40
0.0
 40
0.0
 40
1.0
 40
1.0
 40
1.0
 40
2.0
 40
2.0
 40
2.0
 40
3.0
 40
3.0
 40
3.0
 40
4.0
 40
4.0
 40
4.0
 40
5.0
 40
5.0
 40
5.0
 40
6.0
 40
6.0
 40
6.0
 40
7.0
 40
7.0
 40
7.0
 40
8.0
 40
8.0
 40
8.0
 40
9.0
 40
9.0
 40
9.0
 40
10.0
 40
10.0
 40
10.0
 40
11.0
 40
11.0
 40
11.0
 40
12.0
 40
12.0
 40
12.0
 40
13.0
 40
13.0
 40
13.0
 40
14.0
 40
14.0
 40
14.0
 40
15.0
 40
15.0
 40
15.0
 40
16.0
 40
16.0
 40
16.0
 40
17.0
 40
17.0
 40
17.0
 40
18.0
 40
18.0
 40
18.0
 40
19.0
 40
19.0
 40
19.0
 40
19.0
 10
86.35648598101506
 20
-135.5827663506529
 10
86.25485566420018
 20
-135.5827663506529
 10
86.02196720939729
 20
-135.5617512681929
 10
85.88864201411812
 20
-135.3753716024409
 10
85.80940481795737
 20
-135.2634059991703
 10
85.80492619382655
 20
-135.1638427396466
 10
85.80044756969572
 20
-135.0794379002579
 10
85.80044756969572
 20
-135.0794379002579
 10
86.03540308178977
 20
-135.0794379002579
 10
86.03540308178977
 20
-135.0794379002579
 10
86.03781464862944
 20
-135.1535074531908
 10
86.04918346373077
 20
-135.3881184557363
 10
86.35200735688423
 20
-135.3881184557363
 10
86.49911293410439
 20
-135.3881184557363
 10
86.66172144100818
 20
-135.3185275269343
 10
86.66172144100818
 20
-135.0897731867137
 10
86.66172144100818
 20
-134.9736734688608
 10
86.62106931428224
 20
-134.9247531129702
 10
86.58730737852679
 20
-134.8930582345059
 10
86.50807018236604
 20
-134.818988681573
 10
86.38370223534852
 20
-134.8065863378261
 10
86.32479110255075
 20
-134.8065863378261
 10
86.30446503918778
 20
-134.8065863378261
 10
86.2662244793015
 20
-134.8086533951173
 10
86.23659665812835
 20
-134.8127875096996
 10
86.23659665812835
 20
-134.8127875096996
 10
86.23659665812835
 20
-134.618139614783
 10
86.23659665812835
 20
-134.618139614783
 10
86.27724878485431
 20
-134.6243407866564
 10
86.3227240452596
 20
-134.6267523534961
 10
86.32926972668157
 20
-134.6267523534961
 10
86.39954967458067
 20
-134.6267523534961
 10
86.61211206602059
 20
-134.6053927614875
 10
86.61211206602059
 20
-134.3683701921024
 10
86.61211206602059
 20
-134.190947774612
 10
86.47189667977092
 20
-134.135826246848
 10
86.3544189237239
 20
-134.135826246848
 10
86.07157658438489
 20
-134.135826246848
 10
86.06261933612323
 20
-134.3683701921024
 10
86.05814071199241
 20
-134.4403726877441
 10
86.05814071199241
 20
-134.4403726877441
 10
85.84109969642168
 20
-134.4403726877441
 10
85.84109969642168
 20
-134.4403726877441
 10
85.85005694468332
 20
-134.315660231178
 10
85.87934025630794
 20
-133.9391112946402
 10
86.36785479611638
 20
-133.9391112946402
 10
86.60763344188976
 20
-133.9391112946402
 10
86.86532658418645
 20
-134.0658908084974
 10
86.86532658418645
 20
-134.3621690202289
 10
86.86532658418645
 20
-134.5482041764324
 10
86.76335175782306
 20
-134.6308864680784
 10
86.65724281687736
 20
-134.6922091677158
 10
86.7226996310971
 20
-134.7197699315979
 10
86.91734752601373
 20
-134.8000406564041
 10
86.91734752601373
 20
-135.0773708429668
 10
86.91734752601373
 20
-135.4156792196183
 10
86.65276419274653
 20
-135.5827663506529
 10
86.35648598101506
 20
-135.5827663506529
 97
        0
 97
        0
 75
     2
 76
     1
 98
        0
  0
SPLINE
  5
8B
330
85
100
AcDbEntity
  8
_U+30EC_U+30A4_U+30E4_U+30FC 1
370
     0
100
AcDbSpline
210
0.0
220
0.0
230
1.0
 70
    11
 71
     3
 72
    53
 73
    49
 74
     0
 42
0.0000000001
 43
0.0000000001
 12
1.0
 22
0.0
 32
0.0
 13
1.0
 23
0.0
 33
0.0
 40
0.0
 40
0.0
 40
0.0
 40
0.0
 40
1.0
 40
1.0
 40
1.0
 40
2.0
 40
2.0
 40
2.0
 40
3.0
 40
3.0
 40
3.0
 40
4.0
 40
4.0
 40
4.0
 40
5.0
 40
5.0
 40
5.0
 40
6.0
 40
6.0
 40
6.0
 40
7.0
 40
7.0
 40
7.0
 40
8.0
 40
8.0
 40
8.0
 40
9.0
 40
9.0
 40
9.0
 40
10.0
 40
10.0
 40
10.0
 40
11.0
 40
11.0
 40
11.0
 40
12.0
 40
12.0
 40
12.0
 40
13.0
 40
13.0
 40
13.0
 40
14.0
 40
14.0
 40
14.0
 40
15.0
 40
15.0
 40
15.0
 40
16.0
 40
16.0
 40
16.0
 40
16.0
 10
87.60292152757845
 20
-135.5827663506529
 30
0.0
 10
87.5195502168354
 20
-135.5827663506529
 30
0.0
 10
87.4106851995015
 20
-135.5658853827752
 30
0.0
 10
87.30250920126466
 20
-135.5024956258466
 30
0.0
 10
87.1168185546097
 20
-135.3922525703186
 30
0.0
 10
87.09442543395556
 20
-135.2613389418791
 30
0.0
 10
87.07409937059259
 20
-135.1535074531908
 30
0.0
 10
87.07409937059259
 20
-135.1535074531908
 30
0.0
 10
87.3114664495263
 20
-135.1535074531908
 30
0.0
 10
87.3114664495263
 20
-135.1535074531908
 30
0.0
 10
87.37003307277556
 20
-135.3522894626897
 30
0.0
 10
87.5057698348944
 20
-135.3819172838629
 30
0.0
 10
87.60533309441811
 20
-135.3819172838629
 30
0.0
 10
87.75450572892943
 20
-135.3819172838629
 30
0.0
 10
87.91711423583322
 20
-135.2823540243391
 30
0.0
 10
87.91711423583322
 20
-135.0498100790848
 30
0.0
 10
87.91711423583322
 20
-134.7938394845307
 30
0.0
 10
87.7252224173048
 20
-134.7239040461801
 30
0.0
 10
87.59637584615646
 20
-134.7239040461801
 30
0.0
 10
87.56226940085249
 20
-134.7239040461801
 30
0.0
 10
87.4106851995015
 20
-134.7239040461801
 30
0.0
 10
87.31594507365713
 20
-134.853095126877
 30
0.0
 10
87.31594507365713
 20
-134.853095126877
 30
0.0
 10
87.12818736971101
 20
-134.8338025921596
 30
0.0
 10
87.12818736971101
 20
-134.8338025921596
 30
0.0
 10
87.12818736971101
 20
-134.8338025921596
 30
0.0
 10
87.25703394085936
 20
-133.9876871409822
 30
0.0
 10
87.25703394085936
 20
-133.9876871409822
 30
0.0
 10
87.25703394085936
 20
-133.9876871409822
 30
0.0
 10
88.0890245005472
 20
-133.9876871409822
 30
0.0
 10
88.0890245005472
 20
-133.9876871409822
 30
0.0
 10
88.0890245005472
 20
-133.9876871409822
 30
0.0
 10
88.0890245005472
 20
-134.1823350358989
 30
0.0
 10
88.0890245005472
 20
-134.1823350358989
 30
0.0
 10
88.0890245005472
 20
-134.1823350358989
 30
0.0
 10
87.431355772413
 20
-134.1823350358989
 30
0.0
 10
87.431355772413
 20
-134.1823350358989
 30
0.0
 10
87.431355772413
 20
-134.1823350358989
 30
0.0
 10
87.3610758245139
 20
-134.6053927614875
 30
0.0
 10
87.3610758245139
 20
-134.6053927614875
 30
0.0
 10
87.42653263873365
 20
-134.5716308257321
 30
0.0
 10
87.51472708315605
 20
-134.5313232085547
 30
0.0
 10
87.64150659701323
 20
-134.5313232085547
 30
0.0
 10
87.9126356117024
 20
-134.5313232085547
 30
0.0
 10
88.16585012986826
 20
-134.7177028743067
 30
0.0
 10
88.16585012986826
 20
-135.0305175443674
 30
0.0
 10
88.16585012986826
 20
-135.3481553481074
 30
0.0
 10
87.9264159936434
 20
-135.5827663506529
 30
0.0
 10
87.60292152757845
 20
-135.5827663506529
 30
0.0
  0
HATCH
  5
8C
330
85
100
AcDbEntity
  8
_U+30EC_U+30A4_U+30E4_U+30FC 1
 62
   179
420
  2234388
100
AcDbHatch
 10
0.0
 20
0.0
 30
0.0
210
0.0
220
0.0
230
1.0
  2
SOLID
 70
     1
 71
     0
 91
        1
 92
        1
 93
        1
 72
     4
 94
        3
 73
     0
 74
     1
 95
       53
 96
       49
 40
0.0
 40
0.0
 40
0.0
 40
0.0
 40
1.0
 40
1.0
 40
1.0
 40
2.0
 40
2.0
 40
2.0
 40
3.0
 40
3.0
 40
3.0
 40
4.0
 40
4.0
 40
4.0
 40
5.0
 40
5.0
 40
5.0
 40
6.0
 40
6.0
 40
6.0
 40
7.0
 40
7.0
 40
7.0
 40
8.0
 40
8.0
 40
8.0
 40
9.0
 40
9.0
 40
9.0
 40
10.0
 40
10.0
 40
10.0
 40
11.0
 40
11.0
 40
11.0
 40
12.0
 40
12.0
 40
12.0
 40
13.0
 40
13.0
 40
13.0
 40
14.0
 40
14.0
 40
14.0
 40
15.0
 40
15.0
 40
15.0
 40
16.0
 40
16.0
 40
16.0
 40
16.0
 10
87.60292152757845
 20
-135.5827663506529
 10
87.5195502168354
 20
-135.5827663506529
 10
87.4106851995015
 20
-135.5658853827752
 10
87.30250920126466
 20
-135.5024956258466
 10
87.1168185546097
 20
-135.3922525703186
 10
87.09442543395556
 20
-135.2613389418791
 10
87.07409937059259
 20
-135.1535074531908
 10
87.07409937059259
 20
-135.1535074531908
 10
87.3114664495263
 20
-135.1535074531908
 10
87.3114664495263
 20
-135.1535074531908
 10
87.37003307277556
 20
-135.3522894626897
 10
87.5057698348944
 20
-135.3819172838629
 10
87.60533309441811
 20
-135.3819172838629
 10
87.75450572892943
 20
-135.3819172838629
 10
87.91711423583322
 20
-135.2823540243391
 10
87.91711423583322
 20
-135.0498100790848
 10
87.91711423583322
 20
-134.7938394845307
 10
87.7252224173048
 20
-134.7239040461801
 10
87.59637584615646
 20
-134.7239040461801
 10
87.56226940085249
 20
-134.7239040461801
 10
87.4106851995015
 20
-134.7239040461801
 10
87.31594507365713
 20
-134.853095126877
 10
87.31594507365713
 20
-134.853095126877
 10
87.12818736971101
 20
-134.8338025921596
 10
87.12818736971101
 20
-134.8338025921596
 10
87.12818736971101
 20
-134.8338025921596
 10
87.25703394085936
 20
-133.9876871409822
 10
87.25703394085936
 20
-133.9876871409822
 10
87.25703394085936
 20
-133.9876871409822
 10
88.0890245005472
 20
-133.9876871409822
 10
88.0890245005472
 20
-133.9876871409822
 10
88.0890245005472
 20
-133.9876871409822
 10
88.0890245005472
 20
-134.1823350358989
 10
88.0890245005472
 20
-134.1823350358989
 10
88.0890245005472
 20
-134.1823350358989
 10
87.431355772413
 20
-134.1823350358989
 10
87.431355772413
 20
-134.1823350358989
 10
87.431355772413
 20
-134.1823350358989
 10
87.3610758245139
 20
-134.6053927614875
 10
87.3610758245139
 20
-134.6053927614875
 10
87.42653263873365
 20
-134.5716308257321
 10
87.51472708315605
 20
-134.5313232085547
 10
87.64150659701323
 20
-134.5313232085547
 10
87.9126356117024
 20
-134.5313232085547
 10
88.16585012986826
 20
-134.7177028743067
 10
88.16585012986826
 20
-135.0305175443674
 10
88.16585012986826
 20
-135.3481553481074
 10
87.9264159936434
 20
-135.5827663506529
 10
87.60292152757845
 20
-135.5827663506529
 97
        0
 97
        0
 75
     2
 76
     1
 98
        0
  0
ENDBLK
  5
88
330
85
100
AcDbEntity
  8
0
100
AcDbBlockEnd
  0
BLOCK
  5
95
330
93
100
AcDbEntity
  8
0
100
AcDbBlockBegin
  2
block 8
 70
     0
 10
0.0
 20
0.0
 30
0.0
  3
block 8
  1

  0
INSERT
  5
98
330
93
100
AcDbEntity
  8
_U+30EC_U+30A4_U+30E4_U+30FC 1
100
AcDbBlockReference
  2
block 9
 10
0.0
 20
0.0
 30
0.0
  0
ENDBLK
  5
96
330
93
100
AcDbEntity
  8
0
100
AcDbBlockEnd
  0
BLOCK
  5
99
330
97
100
AcDbEntity
  8
0
100
AcDbBlockBegin
  2
block 9
 70
     0
 10
0.0
 20
0.0
 30
0.0
  3
block 9
  1

  0
POLYLINE
  5
9B
330
97
100
AcDbEntity
  8
_U+30EC_U+30A4_U+30E4_U+30FC 1
 62
   179
420
  2234388
370
    25
100
AcDb2dPolyline
 66
     1
 10
0.0
 20
0.0
 30
0.0
  0
VERTEX
  5
9C
330
9B
100
AcDbEntity
  8
_U+30EC_U+30A4_U+30E4_U+30FC 1
 62
   179
420
  2234388
370
    25
100
AcDbVertex
100
AcDb2dVertex
 10
89.36972133109957
 20
-131.1279233005512
 30
0.0
  0
VERTEX
  5
9D
330
9B
100
AcDbEntity
  8
_U+30EC_U+30A4_U+30E4_U+30FC 1
 62
   179
420
  2234388
370
    25
100
AcDbVertex
100
AcDb2dVertex
 10
89.36972133109957
 20
-125.1739163575954
 30
0.0
  0
VERTEX
  5
9E
330
9B
100
AcDbEntity
  8
_U+30EC_U+30A4_U+30E4_U+30FC 1
 62
   179
420
  2234388
370
    25
100
AcDbVertex
100
AcDb2dVertex
 10
88.36963163439177
 20
-125.1739163575954
 30
0.0
  0
VERTEX
  5
9F
330
9B
100
AcDbEntity
  8
_U+30EC_U+30A4_U+30E4_U+30FC 1
 62
   179
420
  2234388
370
    25
100
AcDbVertex
100
AcDb2dVertex
 10
88.36963163439177
 20
-131.1279233005512
 30
0.0
  0
VERTEX
  5
A0
330
9B
100
AcDbEntity
  8
_U+30EC_U+30A4_U+30E4_U+30FC 1
 62
   179
420
  2234388
370
    25
100
AcDbVertex
100
AcDb2dVertex
 10
85.10470866213133
 20
-131.1279233005512
 30
0.0
  0
VERTEX
  5
A1
330
9B
100
AcDbEntity
  8
_U+30EC_U+30A4_U+30E4_U+30FC 1
 62
   179
420
  2234388
370
    25
100
AcDbVertex
100
AcDb2dVertex
 10
85.10470866213133
 20
-125.1739163575954
 30
0.0
  0
VERTEX
  5
A2
330
9B
100
AcDbEntity
  8
_U+30EC_U+30A4_U+30E4_U+30FC 1
 62
   179
420
  2234388
370
    25
100
AcDbVertex
100
AcDb2dVertex
 10
84.10458368764664
 20
-125.1739163575954
 30
0.0
  0
VERTEX
  5
A3
330
9B
100
AcDbEntity
  8
_U+30EC_U+30A4_U+30E4_U+30FC 1
 62
   179
420
  2234388
370
    25
100
AcDbVertex
100
AcDb2dVertex
 10
84.10458368764664
 20
-131.1279233005512
 30
0.0
  0
VERTEX
  5
A4
330
9B
100
AcDbEntity
  8
_U+30EC_U+30A4_U+30E4_U+30FC 1
 62
   179
420
  2234388
370
    25
100
AcDbVertex
100
AcDb2dVertex
 10
70.1049507114737
 20
-131.1279233005512
 30
0.0
  0
VERTEX
  5
A5
330
9B
100
AcDbEntity
  8
_U+30EC_U+30A4_U+30E4_U+30FC 1
 62
   179
420
  2234388
370
    25
100
AcDbVertex
100
AcDb2dVertex
 10
70.1049507114737
 20
-132.1283658003011
 30
0.0
  0
VERTEX
  5
A6
330
9B
100
AcDbEntity
  8
_U+30EC_U+30A4_U+30E4_U+30FC 1
 62
   179
420
  2234388
370
    25
100
AcDbVertex
100
AcDb2dVertex
 10
105.1050209296586
 20
-132.1283658003011
 30
0.0
  0
VERTEX
  5
A7
330
9B
100
AcDbEntity
  8
_U+30EC_U+30A4_U+30E4_U+30FC 1
 62
   179
420
  2234388
370
    25
100
AcDbVertex
100
AcDb2dVertex
 10
105.1050209296586
 20
-131.1279233005512
 30
0.0
  0
VERTEX
  5
A8
330
9B
100
AcDbEntity
  8
_U+30EC_U+30A4_U+30E4_U+30FC 1
 62
   179
420
  2234388
370
    25
100
AcDbVertex
100
AcDb2dVertex
 10
89.36972133109957
 20
-131.1279233005512
 30
0.0
  0
SEQEND
  5
A9
330
9B
100
AcDbEntity
  8
_U+30EC_U+30A4_U+30E4_U+30FC 1
 62
   179
420
  2234388
370
    25
  0
ENDBLK
  5
9A
330
97
100
AcDbEntity
  8
0
100
AcDbBlockEnd
  0
ENDSEC
  0
SECTION
  2
ENTITIES
  0
INSERT
  5
42
330
1F
100
AcDbEntity
  8
_U+30EC_U+30A4_U+30E4_U+30FC 1
100
AcDbBlockReference
  2
block 2
 10
0.0
 20
0.0
 30
0.0
  0
ENDSEC
  0
SECTION
  2
OBJECTS
  0
DICTIONARY
  5
C
330
0
100
AcDbDictionary
281
     1
  3
ACAD_GROUP
350
D
  3
ACAD_LAYOUT
350
1A
  3
ACAD_MATERIAL
350
3B
  3
ACAD_MLEADERSTYLE
350
AB
  3
ACAD_MLINESTYLE
350
17
  3
ACAD_PLOTSETTINGS
350
19
  3
ACAD_PLOTSTYLENAME
350
E
  3
ACAD_TABLESTYLE
350
AA
  3
ACAD_VISUALSTYLE
350
2A
  0
SUN
  5
3F
330
29
100
AcDbSun
 90
        1
290
     0
 63
     7
421
 16777215
 40
1.0
291
     1
 91
  2455826
 92
 54000000
292
     0
 70
     2
 71
   256
280
     1
  0
DICTIONARY
  5
D
102
{ACAD_REACTORS
330
C
102
}
330
C
100
AcDbDictionary
281
     1
  0
DICTIONARY
  5
1A
102
{ACAD_REACTORS
330
C
102
}
330
C
100
AcDbDictionary
281
     1
  3
Layout1
350
1E
  3
Layout2
350
26
  3
Model
350
22
  0
DICTIONARY
  5
3B
102
{ACAD_REACTORS
330
C
102
}
330
C
100
AcDbDictionary
281
     1
  3
ByBlock
350
3D
  3
ByLayer
350
3C
  3
Global
350
3E
  0
DICTIONARY
  5
AB
102
{ACAD_REACTORS
330
C
102
}
330
C
100
AcDbDictionary
281
     1
  0
DICTIONARY
  5
17
102
{ACAD_REACTORS
330
C
102
}
330
C
100
AcDbDictionary
281
     1
  3
Standard
350
18
  0
DICTIONARY
  5
19
102
{ACAD_REACTORS
330
C
102
}
330
C
100
AcDbDictionary
281
     1
  0
ACDBDICTIONARYWDFLT
  5
E
102
{ACAD_REACTORS
330
C
102
}
330
C
100
AcDbDictionary
281
     1
  3
Normal
350
F
100
AcDbDictionaryWithDefault
340
F
  0
DICTIONARY
  5
AA
102
{ACAD_REACTORS
330
C
102
}
330
C
100
AcDbDictionary
281
     1
  0
DICTIONARY
  5
2A
102
{ACAD_REACTORS
330
C
102
}
330
C
100
AcDbDictionary
281
     1
  3
2dWireframe
350
2F
  3
3D Hidden
350
31
  3
3dWireframe
350
30
  3
Basic
350
32
  3
Brighten
350
36
  3
ColorChange
350
3A
  3
Conceptual
350
34
  3
Dim
350
35
  3
Facepattern
350
39
  3
Flat
350
2B
  3
FlatWithEdges
350
2C
  3
Gouraud
350
2D
  3
GouraudWithEdges
350
2E
  3
Linepattern
350
38
  3
Realistic
350
33
  3
Thicken
350
37
  0
LAYOUT
  5
1E
102
{ACAD_REACTORS
330
1A
102
}
330
1A
100
AcDbPlotSettings
  1

  2
none_device
  4

  6

 40
0.0
 41
0.0
 42
0.0
 43
0.0
 44
0.0
 45
0.0
 46
0.0
 47
0.0
 48
0.0
 49
0.0
140
0.0
141
0.0
142
1.0
143
1.0
 70
   688
 72
     0
 73
     0
 74
     5
  7

 75
    16
 76
     0
 77
     2
 78
   300
147
1.0
148
0.0
149
0.0
100
AcDbLayout
  1
Layout1
 70
     1
 71
     1
 10
0.0
 20
0.0
 11
12.0
 21
9.0
 12
0.0
 22
0.0
 32
0.0
 14
1.000000000000000E+20
 24
1.000000000000000E+20
 34
1.000000000000000E+20
 15
-1.000000000000000E+20
 25
-1.000000000000000E+20
 35
-1.000000000000000E+20
146
0.0
 13
0.0
 23
0.0
 33
0.0
 16
1.0
 26
0.0
 36
0.0
 17
0.0
 27
1.0
 37
0.0
 76
     0
330
1B
  0
LAYOUT
  5
26
102
{ACAD_REACTORS
330
1A
102
}
330
1A
100
AcDbPlotSettings
  1

  2
none_device
  4

  6

 40
0.0
 41
0.0
 42
0.0
 43
0.0
 44
0.0
 45
0.0
 46
0.0
 47
0.0
 48
0.0
 49
0.0
140
0.0
141
0.0
142
1.0
143
1.0
 70
   688
 72
     0
 73
     0
 74
     5
  7

 75
    16
 76
     0
 77
     2
 78
   300
147
1.0
148
0.0
149
0.0
100
AcDbLayout
  1
Layout2
 70
     1
 71
     2
 10
0.0
 20
0.0
 11
0.0
 21
0.0
 12
0.0
 22
0.0
 32
0.0
 14
0.0
 24
0.0
 34
0.0
 15
0.0
 25
0.0
 35
0.0
146
0.0
 13
0.0
 23
0.0
 33
0.0
 16
1.0
 26
0.0
 36
0.0
 17
0.0
 27
1.0
 37
0.0
 76
     0
330
23
  0
LAYOUT
  5
22
102
{ACAD_REACTORS
330
1A
102
}
330
1A
100
AcDbPlotSettings
  1

  2
none_device
  4

  6

 40
0.0
 41
0.0
 42
0.0
 43
0.0
 44
0.0
 45
0.0
 46
0.0
 47
0.0
 48
0.0
 49
0.0
140
0.0
141
0.0
142
1.0
143
1.0
 70
  1712
 72
     0
 73
     0
 74
     0
  7

 75
     0
 76
     0
 77
     2
 78
   300
147
1.0
148
0.0
149
0.0
100
AcDbLayout
  1
Model
 70
     1
 71
     0
 10
0.0
 20
0.0
 11
12.0
 21
9.0
 12
0.0
 22
0.0
 32
0.0
 14
1.000000000000000E+20
 24
1.000000000000000E+20
 34
1.000000000000000E+20
 15
-1.000000000000000E+20
 25
-1.000000000000000E+20
 35
-1.000000000000000E+20
146
0.0
 13
0.0
 23
0.0
 33
0.0
 16
1.0
 26
0.0
 36
0.0
 17
0.0
 27
1.0
 37
0.0
 76
     0
330
1F
331
29
  0
MATERIAL
  5
3D
102
{ACAD_REACTORS
330
3B
102
}
330
3B
100
AcDbMaterial
  1
ByBlock
 72
     1
 94
      127
  0
MATERIAL
  5
3C
102
{ACAD_REACTORS
330
3B
102
}
330
3B
100
AcDbMaterial
  1
ByLayer
 72
     1
 94
      127
  0
MATERIAL
  5
3E
102
{ACAD_REACTORS
330
3B
102
}
330
3B
100
AcDbMaterial
  1
Global
 72
     1
 94
      127
  0
MLINESTYLE
  5
18
102
{ACAD_REACTORS
330
17
102
}
330
17
100
AcDbMlineStyle
  2
Standard
 70
     0
  3

 62
   256
 51
90.0
 52
90.0
 71
     2
 49
0.5
 62
   256
  6
BYLAYER
 49
-0.5
 62
   256
  6
BYLAYER
  0
ACDBPLACEHOLDER
  5
F
102
{ACAD_REACTORS
330
E
102
}
330
E
  0
VISUALSTYLE
  5
2F
102
{ACAD_REACTORS
330
2A
102
}
330
2A
100
AcDbVisualStyle
  2
2dWireframe
 70
     4
177
     2
291
     0
 71
     0
176
     1
 72
     2
176
     1
 73
     0
176
     1
 90
        0
176
     1
 40
-0.6
176
     1
 41
-30.0
176
     1
 62
     5
 63
     7
421
 16777215
176
     1
 74
     1
176
     1
 91
        4
176
     1
 64
     7
176
     1
 65
   257
176
     1
 75
     1
176
     1
175
     1
176
     1
 42
1.0
176
     1
 92
        0
176
     1
 66
   257
176
     1
 43
1.0
176
     1
 76
     1
176
     1
 77
     6
176
     1
 78
     2
176
     1
 67
     7
176
     1
 79
     5
176
     1
170
     0
176
     1
171
     0
176
     1
290
     0
176
     1
 93
        1
176
     1
 44
0.0
176
     1
173
     0
176
     1
  0
VISUALSTYLE
  5
31
102
{ACAD_REACTORS
330
2A
102
}
330
2A
100
AcDbVisualStyle
  2
3D Hidden
 70
     6
177
     2
291
     0
 71
     1
176
     1
 72
     2
176
     1
 73
     2
176
     1
 90
        0
176
     1
 40
-0.6
176
     1
 41
-30.0
176
     1
 62
     5
 63
     7
421
 16777215
176
     1
 74
     2
176
     1
 91
        2
176
     1
 64
     7
176
     1
 65
   257
176
     1
 75
     2
176
     1
175
     1
176
     1
 42
40.0
176
     1
 92
        0
176
     1
 66
   257
176
     1
 43
1.0
176
     1
 76
     1
176
     1
 77
     6
176
     1
 78
     2
176
     1
 67
     7
176
     1
 79
     3
176
     1
170
     0
176
     1
171
     0
176
     1
290
     0
176
     1
 93
        1
176
     1
 44
0.0
176
     1
173
     0
176
     1
  0
VISUALSTYLE
  5
30
102
{ACAD_REACTORS
330
2A
102
}
330
2A
100
AcDbVisualStyle
  2
3dWireframe
 70
     5
177
     2
291
     0
 71
     0
176
     1
 72
     2
176
     1
 73
     0
176
     1
 90
        0
176
     1
 40
-0.6
176
     1
 41
-30.0
176
     1
 62
     5
 63
     7
421
 16777215
176
     1
 74
     1
176
     1
 91
        4
176
     1
 64
     7
176
     1
 65
   257
176
     1
 75
     1
176
     1
175
     1
176
     1
 42
1.0
176
     1
 92
        0
176
     1
 66
   257
176
     1
 43
1.0
176
     1
 76
     1
176
     1
 77
     6
176
     1
 78
     2
176
     1
 67
     7
176
     1
 79
     5
176
     1
170
     0
176
     1
171
     0
176
     1
290
     0
176
     1
 93
        1
176
     1
 44
0.0
176
     1
173
     0
176
     1
  0
VISUALSTYLE
  5
32
102
{ACAD_REACTORS
330
2A
102
}
330
2A
100
AcDbVisualStyle
  2
Basic
 70
     7
177
     2
291
     1
 71
     1
176
     1
 72
     0
176
     1
 73
     1
176
     1
 90
        0
176
     1
 40
-0.6
176
     1
 41
-30.0
176
     1
 62
     5
 63
     7
421
 16777215
176
     1
 74
     0
176
     1
 91
        4
176
     1
 64
     7
176
     1
 65
   257
176
     1
 75
     1
176
     1
175
     1
176
     1
 42
1.0
176
     1
 92
        8
176
     1
 66
     7
176
     1
 43
1.0
176
     1
 76
     1
176
     1
 77
     6
176
     1
 78
     2
176
     1
 67
     7
176
     1
 79
     5
176
     1
170
     0
176
     1
171
     0
176
     1
290
     0
176
     1
 93
        1
176
     1
 44
0.0
176
     1
173
     0
176
     1
  0
VISUALSTYLE
  5
36
102
{ACAD_REACTORS
330
2A
102
}
330
2A
100
AcDbVisualStyle
  2
Brighten
 70
    12
177
     2
291
     1
 71
     2
176
     1
 72
     2
176
     1
 73
     0
176
     1
 90
        0
176
     1
 40
-0.6
176
     1
 41
-30.0
176
     1
 62
     5
 63
     7
421
 16777215
176
     1
 74
     1
176
     1
 91
        4
176
     1
 64
     7
176
     1
 65
   257
176
     1
 75
     1
176
     1
175
     1
176
     1
 42
1.0
176
     1
 92
        8
176
     1
 66
     7
176
     1
 43
1.0
176
     1
 76
     1
176
     1
 77
     6
176
     1
 78
     2
176
     1
 67
     7
176
     1
 79
     5
176
     1
170
     0
176
     1
171
     0
176
     1
290
     0
176
     1
 93
        1
176
     1
 44
50.0
176
     1
173
     0
176
     1
  0
VISUALSTYLE
  5
3A
102
{ACAD_REACTORS
330
2A
102
}
330
2A
100
AcDbVisualStyle
  2
ColorChange
 70
    16
177
     2
291
     1
 71
     2
176
     1
 72
     2
176
     1
 73
     3
176
     1
 90
        0
176
     1
 40
-0.6
176
     1
 41
-30.0
176
     1
 62
     5
 63
     8
421
  8421504
176
     1
 74
     1
176
     1
 91
        4
176
     1
 64
     7
176
     1
 65
   257
176
     1
 75
     1
176
     1
175
     1
176
     1
 42
1.0
176
     1
 92
        8
176
     1
 66
     8
424
  8421504
176
     1
 43
1.0
176
     1
 76
     1
176
     1
 77
     6
176
     1
 78
     2
176
     1
 67
     7
176
     1
 79
     5
176
     1
170
     0
176
     1
171
     0
176
     1
290
     0
176
     1
 93
        1
176
     1
 44
0.0
176
     1
173
     0
176
     1
  0
VISUALSTYLE
  5
34
102
{ACAD_REACTORS
330
2A
102
}
330
2A
100
AcDbVisualStyle
  2
Conceptual
 70
     9
177
     2
291
     0
 71
     3
176
     1
 72
     2
176
     1
 73
     0
176
     1
 90
        0
176
     1
 40
-0.6
176
     1
 41
-30.0
176
     1
 62
     5
 63
     7
421
 16777215
176
     1
 74
     2
176
     1
 91
        2
176
     1
 64
     7
176
     1
 65
   257
176
     1
 75
     1
176
     1
175
     1
176
     1
 42
40.0
176
     1
 92
        8
176
     1
 66
     7
176
     1
 43
1.0
176
     1
 76
     1
176
     1
 77
     6
176
     1
 78
     2
176
     1
 67
     7
176
     1
 79
     3
176
     1
170
     0
176
     1
171
     0
176
     1
290
     0
176
     1
 93
        1
176
     1
 44
0.0
176
     1
173
     0
176
     1
  0
VISUALSTYLE
  5
35
102
{ACAD_REACTORS
330
2A
102
}
330
2A
100
AcDbVisualStyle
  2
Dim
 70
    11
177
     2
291
     1
 71
     2
176
     1
 72
     2
176
     1
 73
     0
176
     1
 90
        0
176
     1
 40
-0.6
176
     1
 41
-30.0
176
     1
 62
     5
 63
     7
421
 16777215
176
     1
 74
     1
176
     1
 91
        4
176
     1
 64
     7
176
     1
 65
   257
176
     1
 75
     1
176
     1
175
     1
176
     1
 42
1.0
176
     1
 92
        8
176
     1
 66
     7
176
     1
 43
1.0
176
     1
 76
     1
176
     1
 77
     6
176
     1
 78
     2
176
     1
 67
     7
176
     1
 79
     5
176
     1
170
     0
176
     1
171
     0
176
     1
290
     0
176
     1
 93
        1
176
     1
 44
-50.0
176
     1
173
     0
176
     1
  0
VISUALSTYLE
  5
39
102
{ACAD_REACTORS
330
2A
102
}
330
2A
100
AcDbVisualStyle
  2
Facepattern
 70
    15
177
     2
291
     1
 71
     2
176
     1
 72
     2
176
     1
 73
     0
176
     1
 90
        0
176
     1
 40
-0.6
176
     1
 41
-30.0
176
     1
 62
     5
 63
     7
421
 16777215
176
     1
 74
     1
176
     1
 91
        4
176
     1
 64
     7
176
     1
 65
   257
176
     1
 75
     1
176
     1
175
     1
176
     1
 42
1.0
176
     1
 92
        8
176
     1
 66
     7
176
     1
 43
1.0
176
     1
 76
     1
176
     1
 77
     6
176
     1
 78
     2
176
     1
 67
     7
176
     1
 79
     5
176
     1
170
     0
176
     1
171
     0
176
     1
290
     0
176
     1
 93
        1
176
     1
 44
0.0
176
     1
173
     0
176
     1
  0
VISUALSTYLE
  5
2B
102
{ACAD_REACTORS
330
2A
102
}
330
2A
100
AcDbVisualStyle
  2
Flat
 70
     0
177
     2
291
     1
 71
     2
176
     1
 72
     1
176
     1
 73
     1
176
     1
 90
        2
176
     1
 40
-0.6
176
     1
 41
30.0
176
     1
 62
     5
 63
     7
421
 16777215
176
     1
 74
     0
176
     1
 91
        4
176
     1
 64
     7
176
     1
 65
   257
176
     1
 75
     1
176
     1
175
     1
176
     1
 42
1.0
176
     1
 92
        8
176
     1
 66
     7
176
     1
 43
1.0
176
     1
 76
     1
176
     1
 77
     6
176
     1
 78
     2
176
     1
 67
     7
176
     1
 79
     5
176
     1
170
     0
176
     1
171
     0
176
     1
290
     0
176
     1
 93
       13
176
     1
 44
0.0
176
     1
173
     0
176
     1
  0
VISUALSTYLE
  5
2C
102
{ACAD_REACTORS
330
2A
102
}
330
2A
100
AcDbVisualStyle
  2
FlatWithEdges
 70
     1
177
     2
291
     1
 71
     2
176
     1
 72
     1
176
     1
 73
     1
176
     1
 90
        2
176
     1
 40
-0.6
176
     1
 41
30.0
176
     1
 62
     5
 63
     7
421
 16777215
176
     1
 74
     1
176
     1
 91
        4
176
     1
 64
     7
176
     1
 65
   257
176
     1
 75
     1
176
     1
175
     1
176
     1
 42
1.0
176
     1
 92
        0
176
     1
 66
   257
176
     1
 43
1.0
176
     1
 76
     1
176
     1
 77
     6
176
     1
 78
     2
176
     1
 67
     7
176
     1
 79
     5
176
     1
170
     0
176
     1
171
     0
176
     1
290
     0
176
     1
 93
       13
176
     1
 44
0.0
176
     1
173
     0
176
     1
  0
VISUALSTYLE
  5
2D
102
{ACAD_REACTORS
330
2A
102
}
330
2A
100
AcDbVisualStyle
  2
Gouraud
 70
     2
177
     2
291
     1
 71
     2
176
     1
 72
     2
176
     1
 73
     1
176
     1
 90
        2
176
     1
 40
-0.6
176
     1
 41
30.0
176
     1
 62
     5
 63
     7
421
 16777215
176
     1
 74
     0
176
     1
 91
        4
176
     1
 64
     7
176
     1
 65
   257
176
     1
 75
     1
176
     1
175
     1
176
     1
 42
1.0
176
     1
 92
        0
176
     1
 66
     7
176
     1
 43
1.0
176
     1
 76
     1
176
     1
 77
     6
176
     1
 78
     2
176
     1
 67
     7
176
     1
 79
     5
176
     1
170
     0
176
     1
171
     0
176
     1
290
     0
176
     1
 93
       13
176
     1
 44
0.0
176
     1
173
     0
176
     1
  0
VISUALSTYLE
  5
2E
102
{ACAD_REACTORS
330
2A
102
}
330
2A
100
AcDbVisualStyle
  2
GouraudWithEdges
 70
     3
177
     2
291
     1
 71
     2
176
     1
 72
     2
176
     1
 73
     1
176
     1
 90
        2
176
     1
 40
-0.6
176
     1
 41
30.0
176
     1
 62
     5
 63
     7
421
 16777215
176
     1
 74
     1
176
     1
 91
        4
176
     1
 64
     7
176
     1
 65
   257
176
     1
 75
     1
176
     1
175
     1
176
     1
 42
1.0
176
     1
 92
        0
176
     1
 66
   257
176
     1
 43
1.0
176
     1
 76
     1
176
     1
 77
     6
176
     1
 78
     2
176
     1
 67
     7
176
     1
 79
     5
176
     1
170
     0
176
     1
171
     0
176
     1
290
     0
176
     1
 93
       13
176
     1
 44
0.0
176
     1
173
     0
176
     1
  0
VISUALSTYLE
  5
38
102
{ACAD_REACTORS
330
2A
102
}
330
2A
100
AcDbVisualStyle
  2
Linepattern
 70
    14
177
     2
291
     1
 71
     2
176
     1
 72
     2
176
     1
 73
     0
176
     1
 90
        0
176
     1
 40
-0.6
176
     1
 41
-30.0
176
     1
 62
     5
 63
     7
421
 16777215
176
     1
 74
     1
176
     1
 91
        4
176
     1
 64
     7
176
     1
 65
   257
176
     1
 75
     7
176
     1
175
     7
176
     1
 42
1.0
176
     1
 92
        8
176
     1
 66
     7
176
     1
 43
1.0
176
     1
 76
     1
176
     1
 77
     6
176
     1
 78
     2
176
     1
 67
     7
176
     1
 79
     5
176
     1
170
     0
176
     1
171
     0
176
     1
290
     0
176
     1
 93
        1
176
     1
 44
0.0
176
     1
173
     0
176
     1
  0
VISUALSTYLE
  5
33
102
{ACAD_REACTORS
330
2A
102
}
330
2A
100
AcDbVisualStyle
  2
Realistic
 70
     8
177
     2
291
     0
 71
     2
176
     1
 72
     2
176
     1
 73
     0
176
     1
 90
        0
176
     1
 40
-0.6
176
     1
 41
-30.0
176
     1
 62
     5
 63
     7
421
 16777215
176
     1
 74
     1
176
     1
 91
        0
176
     1
 64
     7
176
     1
 65
   257
176
     1
 75
     1
176
     1
175
     1
176
     1
 42
1.0
176
     1
 92
        8
176
     1
 66
     8
424
  7895160
176
     1
 43
1.0
176
     1
 76
     1
176
     1
 77
     6
176
     1
 78
     2
176
     1
 67
     7
176
     1
 79
     5
176
     1
170
     0
176
     1
171
     0
176
     1
290
     0
176
     1
 93
       13
176
     1
 44
0.0
176
     1
173
     0
176
     1
  0
VISUALSTYLE
  5
37
102
{ACAD_REACTORS
330
2A
102
}
330
2A
100
AcDbVisualStyle
  2
Thicken
 70
    13
177
     2
291
     1
 71
     2
176
     1
 72
     2
176
     1
 73
     0
176
     1
 90
        0
176
     1
 40
-0.6
176
     1
 41
-30.0
176
     1
 62
     5
 63
     7
421
 16777215
176
     1
 74
     1
176
     1
 91
        4
176
     1
 64
     7
176
     1
 65
   257
176
     1
 75
     1
176
     1
175
     1
176
     1
 42
1.0
176
     1
 92
       12
176
     1
 66
     7
176
     1
 43
1.0
176
     1
 76
     1
176
     1
 77
     6
176
     1
 78
     2
176
     1
 67
     7
176
     1
 79
     5
176
     1
170
     0
176
     1
171
     0
176
     1
290
     0
176
     1
 93
        1
176
     1
 44
0.0
176
     1
173
     0
176
     1
  0
ENDSEC
  0
EOF
