  0
SECTION
  2
HEADER
  9
$ACADVER
  1
AC1024
  9
$ACADMAINTVER
 70
     6
  9
$DWGCODEPAGE
  3
UNDEFINED
  9
$INSBASE
 10
0.0
 20
0.0
 30
0.0
  9
$EXTMIN
 10
1.000000000000000E+20
 20
1.000000000000000E+20
 30
1.000000000000000E+20
  9
$EXTMAX
 10
-1.000000000000000E+20
 20
-1.000000000000000E+20
 30
-1.000000000000000E+20
  9
$LIMMIN
 10
0.0
 20
0.0
  9
$LIMMAX
 10
12.0
 20
9.0
  9
$ORTHOMODE
 70
     0
  9
$REGENMODE
 70
     1
  9
$FILLMODE
 70
     1
  9
$QTEXTMODE
 70
     0
  9
$MIRRTEXT
 70
     1
  9
$LTSCALE
 40
1.0
  9
$ATTMODE
 70
     1
  9
$TEXTSIZE
 40
0.2
  9
$TRACEWID
 40
0.05
  9
$TEXTSTYLE
  7
Standard
  9
$CLAYER
  8
0
  9
$CELTYPE
  6
ByLayer
  9
$CECOLOR
 62
   256
  9
$CELTSCALE
 40
1.0
  9
$DISPSILH
 70
     0
  9
$DIMSCALE
 40
1.0
  9
$DIMASZ
 40
0.18
  9
$DIMEXO
 40
0.0625
  9
$DIMDLI
 40
0.38
  9
$DIMRND
 40
0.0
  9
$DIMDLE
 40
0.0
  9
$DIMEXE
 40
0.18
  9
$DIMTP
 40
0.0
  9
$DIMTM
 40
0.0
  9
$DIMTXT
 40
0.18
  9
$DIMCEN
 40
0.09
  9
$DIMTSZ
 40
0.0
  9
$DIMTOL
 70
     0
  9
$DIMLIM
 70
     0
  9
$DIMTIH
 70
     1
  9
$DIMTOH
 70
     1
  9
$DIMSE1
 70
     0
  9
$DIMSE2
 70
     0
  9
$DIMTAD
 70
     0
  9
$DIMZIN
 70
     0
  9
$DIMBLK
  1

  9
$DIMASO
 70
     1
  9
$DIMSHO
 70
     1
  9
$DIMPOST
  1

  9
$DIMAPOST
  1

  9
$DIMALT
 70
     0
  9
$DIMALTD
 70
     2
  9
$DIMALTF
 40
25.4
  9
$DIMLFAC
 40
1.0
  9
$DIMTOFL
 70
     0
  9
$DIMTVP
 40
0.0
  9
$DIMTIX
 70
     0
  9
$DIMSOXD
 70
     0
  9
$DIMSAH
 70
     0
  9
$DIMBLK1
  1

  9
$DIMBLK2
  1

  9
$DIMSTYLE
  2
Standard
  9
$DIMCLRD
 70
     0
  9
$DIMCLRE
 70
     0
  9
$DIMCLRT
 70
     0
  9
$DIMTFAC
 40
1.0
  9
$DIMGAP
 40
0.09
  9
$DIMJUST
 70
     0
  9
$DIMSD1
 70
     0
  9
$DIMSD2
 70
     0
  9
$DIMTOLJ
 70
     1
  9
$DIMTZIN
 70
     0
  9
$DIMALTZ
 70
     0
  9
$DIMALTTZ
 70
     0
  9
$DIMUPT
 70
     0
  9
$DIMDEC
 70
     4
  9
$DIMTDEC
 70
     4
  9
$DIMALTU
 70
     2
  9
$DIMALTTD
 70
     2
  9
$DIMTXSTY
  7
Standard
  9
$DIMAUNIT
 70
     0
  9
$DIMADEC
 70
     0
  9
$DIMALTRND
 40
0.0
  9
$DIMAZIN
 70
     0
  9
$DIMDSEP
 70
    46
  9
$DIMATFIT
 70
     3
  9
$DIMFRAC
 70
     0
  9
$DIMLDRBLK
  1

  9
$DIMLUNIT
 70
     2
  9
$DIMLWD
 70
    -2
  9
$DIMLWE
 70
    -2
  9
$DIMTMOVE
 70
     0
  9
$DIMFXL
 40
1.0
  9
$DIMFXLON
 70
     0
  9
$DIMJOGANG
 40
0.7853981633974483
  9
$DIMTFILL
 70
     0
  9
$DIMTFILLCLR
 70
     0
  9
$DIMARCSYM
 70
     0
  9
$DIMLTYPE
  6

  9
$DIMLTEX1
  6

  9
$DIMLTEX2
  6

  9
$DIMTXTDIRECTION
 70
     0
  9
$LUNITS
 70
     2
  9
$LUPREC
 70
     4
  9
$SKETCHINC
 40
0.1
  9
$FILLETRAD
 40
0.5
  9
$AUNITS
 70
     0
  9
$AUPREC
 70
     0
  9
$MENU
  1
.
  9
$ELEVATION
 40
0.0
  9
$PELEVATION
 40
0.0
  9
$THICKNESS
 40
0.0
  9
$LIMCHECK
 70
     0
  9
$CHAMFERA
 40
0.5
  9
$CHAMFERB
 40
0.5
  9
$CHAMFERC
 40
1.0
  9
$CHAMFERD
 40
0.0
  9
$SKPOLY
 70
     0
  9
$TDCREATE
 40
2457917.592986099
  9
$TDUCREATE
 40
2457917.217986111
  9
$TDUPDATE
 40
2457917.592986099
  9
$TDUUPDATE
 40
2457917.217986111
  9
$TDINDWG
 40
0.0000000116
  9
$TDUSRTIMER
 40
0.0000000116
  9
$USRTIMER
 70
     1
  9
$ANGBASE
 50
0.0
  9
$ANGDIR
 70
     0
  9
$PDMODE
 70
     0
  9
$PDSIZE
 40
0.0
  9
$PLINEWID
 40
0.0
  9
$SPLFRAME
 70
     0
  9
$SPLINETYPE
 70
     6
  9
$SPLINESEGS
 70
     8
  9
$HANDSEED
  5
134
  9
$SURFTAB1
 70
     6
  9
$SURFTAB2
 70
     6
  9
$SURFTYPE
 70
     6
  9
$SURFU
 70
     6
  9
$SURFV
 70
     6
  9
$UCSBASE
  2

  9
$UCSNAME
  2

  9
$UCSORG
 10
0.0
 20
0.0
 30
0.0
  9
$UCSXDIR
 10
1.0
 20
0.0
 30
0.0
  9
$UCSYDIR
 10
0.0
 20
1.0
 30
0.0
  9
$UCSORTHOREF
  2

  9
$UCSORTHOVIEW
 70
     0
  9
$UCSORGTOP
 10
0.0
 20
0.0
 30
0.0
  9
$UCSORGBOTTOM
 10
0.0
 20
0.0
 30
0.0
  9
$UCSORGLEFT
 10
0.0
 20
0.0
 30
0.0
  9
$UCSORGRIGHT
 10
0.0
 20
0.0
 30
0.0
  9
$UCSORGFRONT
 10
0.0
 20
0.0
 30
0.0
  9
$UCSORGBACK
 10
0.0
 20
0.0
 30
0.0
  9
$PUCSBASE
  2

  9
$PUCSNAME
  2

  9
$PUCSORG
 10
0.0
 20
0.0
 30
0.0
  9
$PUCSXDIR
 10
1.0
 20
0.0
 30
0.0
  9
$PUCSYDIR
 10
0.0
 20
1.0
 30
0.0
  9
$PUCSORTHOREF
  2

  9
$PUCSORTHOVIEW
 70
     0
  9
$PUCSORGTOP
 10
0.0
 20
0.0
 30
0.0
  9
$PUCSORGBOTTOM
 10
0.0
 20
0.0
 30
0.0
  9
$PUCSORGLEFT
 10
0.0
 20
0.0
 30
0.0
  9
$PUCSORGRIGHT
 10
0.0
 20
0.0
 30
0.0
  9
$PUCSORGFRONT
 10
0.0
 20
0.0
 30
0.0
  9
$PUCSORGBACK
 10
0.0
 20
0.0
 30
0.0
  9
$USERI1
 70
     0
  9
$USERI2
 70
     0
  9
$USERI3
 70
     0
  9
$USERI4
 70
     0
  9
$USERI5
 70
     0
  9
$USERR1
 40
0.0
  9
$USERR2
 40
0.0
  9
$USERR3
 40
0.0
  9
$USERR4
 40
0.0
  9
$USERR5
 40
0.0
  9
$WORLDVIEW
 70
     1
  9
$SHADEDGE
 70
     3
  9
$SHADEDIF
 70
    70
  9
$TILEMODE
 70
     1
  9
$MAXACTVP
 70
    64
  9
$PINSBASE
 10
0.0
 20
0.0
 30
0.0
  9
$PLIMCHECK
 70
     0
  9
$PEXTMIN
 10
1.000000000000000E+20
 20
1.000000000000000E+20
 30
1.000000000000000E+20
  9
$PEXTMAX
 10
-1.000000000000000E+20
 20
-1.000000000000000E+20
 30
-1.000000000000000E+20
  9
$PLIMMIN
 10
0.0
 20
0.0
  9
$PLIMMAX
 10
12.0
 20
9.0
  9
$UNITMODE
 70
     0
  9
$VISRETAIN
 70
     1
  9
$PLINEGEN
 70
     0
  9
$PSLTSCALE
 70
     1
  9
$TREEDEPTH
 70
  3020
  9
$CMLSTYLE
  2
Standard
  9
$CMLJUST
 70
     0
  9
$CMLSCALE
 40
1.0
  9
$PROXYGRAPHICS
 70
     1
  9
$MEASUREMENT
 70
     0
  9
$CELWEIGHT
370
    -1
  9
$ENDCAPS
280
     0
  9
$JOINSTYLE
280
     0
  9
$LWDISPLAY
290
     1
  9
$INSUNITS
 70
     1
  9
$HYPERLINKBASE
  1

  9
$STYLESHEET
  1

  9
$XEDIT
290
     1
  9
$CEPSNTYPE
380
     0
  9
$PSTYLEMODE
290
     1
  9
$FINGERPRINTGUID
  2
{4EA792BE-03D4-8B3B-D6B6-DD0D466969E8}
  9
$VERSIONGUID
  2
{FAEB1C32-E019-11D5-929B-00C0DF256EC4}
  9
$EXTNAMES
290
     1
  9
$PSVPSCALE
 40
0.0
  9
$OLESTARTUP
290
     0
  9
$SORTENTS
280
   127
  9
$INDEXCTL
280
     0
  9
$HIDETEXT
280
     1
  9
$XCLIPFRAME
280
     2
  9
$HALOGAP
280
     0
  9
$OBSCOLOR
 70
   257
  9
$OBSLTYPE
280
     0
  9
$INTERSECTIONDISPLAY
280
     0
  9
$INTERSECTIONCOLOR
 70
   257
  9
$DIMASSOC
280
     2
  9
$PROJECTNAME
  1

  9
$CAMERADISPLAY
290
     0
  9
$LENSLENGTH
 40
50.0
  9
$CAMERAHEIGHT
 40
0.0
  9
$STEPSPERSEC
 40
2.0
  9
$STEPSIZE
 40
6.0
  9
$3DDWFPREC
 40
2.0
  9
$PSOLWIDTH
 40
0.25
  9
$PSOLHEIGHT
 40
4.0
  9
$LOFTANG1
 40
1.570796326794897
  9
$LOFTANG2
 40
1.570796326794897
  9
$LOFTMAG1
 40
0.0
  9
$LOFTMAG2
 40
0.0
  9
$LOFTPARAM
 70
     7
  9
$LOFTNORMALS
280
     1
  9
$LATITUDE
 40
37.795
  9
$LONGITUDE
 40
-122.394
  9
$NORTHDIRECTION
 40
0.0
  9
$TIMEZONE
 70
 -8000
  9
$LIGHTGLYPHDISPLAY
280
     1
  9
$TILEMODELIGHTSYNCH
280
     1
  9
$CMATERIAL
347
3C
  9
$SOLIDHIST
280
     1
  9
$SHOWHIST
280
     1
  9
$DWFFRAME
280
     2
  9
$DGNFRAME
280
     2
  9
$REALWORLDSCALE
290
     1
  9
$INTERFERECOLOR
 62
   256
  9
$CSHADOW
280
     0
  9
$SHADOWPLANELOCATION
 40
0.0
  0
ENDSEC
  0
SECTION
  2
CLASSES
  0
CLASS
  1
ACDBDICTIONARYWDFLT
  2
AcDbDictionaryWithDefault
  3
ObjectDBX Classes
 90
        0
 91
        4
280
     0
281
     0
  0
CLASS
  1
VISUALSTYLE
  2
AcDbVisualStyle
  3
ObjectDBX Classes
 90
     4095
 91
        4
280
     0
281
     0
  0
CLASS
  1
MATERIAL
  2
AcDbMaterial
  3
ObjectDBX Classes
 90
     1153
 91
        4
280
     0
281
     0
  0
CLASS
  1
SUN
  2
AcDbSun
  3
SCENEOE
 90
     1024
 91
        4
280
     0
281
     0
  0
ENDSEC
  0
SECTION
  2
TABLES
  0
TABLE
  2
VPORT
  5
8
330
0
100
AcDbSymbolTable
 70
     1
  0
VPORT
  5
29
330
8
100
AcDbSymbolTableRecord
100
AcDbViewportTableRecord
  2
*Active
 70
     0
 10
0.0
 20
0.0
 11
1.0
 21
1.0
 12
0.0
 22
0.0
 13
0.0
 23
0.0
 14
0.5
 24
0.5
 15
0.5
 25
0.5
 16
0.0
 26
0.0
 36
1.0
 17
91.00082462281999
 27
-128.4993055234307
 37
0.0
 40
256.9986110468615
 41
0.7081814508812795
 42
50.0
 43
0.0
 44
0.0
 50
0.0
 51
0.0
 71
     0
 72
   100
 73
     1
 74
     3
 75
     0
 76
     0
 77
     0
 78
     0
281
     0
 65
     1
110
0.0
120
0.0
130
0.0
111
1.0
121
0.0
131
0.0
112
0.0
122
1.0
132
0.0
 79
     0
146
0.0
 60
     3
 61
     5
292
     1
282
     1
141
0.0
142
0.0
 63
   250
361
3F
  0
ENDTAB
  0
TABLE
  2
LTYPE
  5
5
330
0
100
AcDbSymbolTable
 70
     1
  0
LTYPE
  5
14
330
5
100
AcDbSymbolTableRecord
100
AcDbLinetypeTableRecord
  2
ByBlock
 70
     0
  3

 72
    65
 73
     0
 40
0.0
  0
LTYPE
  5
15
330
5
100
AcDbSymbolTableRecord
100
AcDbLinetypeTableRecord
  2
ByLayer
 70
     0
  3

 72
    65
 73
     0
 40
0.0
  0
LTYPE
  5
16
330
5
100
AcDbSymbolTableRecord
100
AcDbLinetypeTableRecord
  2
Continuous
 70
     0
  3
Solid line
 72
    65
 73
     0
 40
0.0
  0
ENDTAB
  0
TABLE
  2
LAYER
  5
2
330
0
100
AcDbSymbolTable
 70
     2
  0
LAYER
  5
10
330
2
100
AcDbSymbolTableRecord
100
AcDbLayerTableRecord
  2
0
 70
     0
 62
     7
  6
Continuous
370
    -3
390
F
347
3E
  0
LAYER
  5
40
330
2
100
AcDbSymbolTableRecord
100
AcDbLayerTableRecord
  2
_U+30EC_U+30A4_U+30E4_U+30FC 1
 70
     0
 62
     7
  6
Continuous
370
    -3
390
F
347
3E
  0
ENDTAB
  0
TABLE
  2
STYLE
  5
3
330
0
100
AcDbSymbolTable
 70
     1
  0
STYLE
  5
11
330
3
100
AcDbSymbolTableRecord
100
AcDbTextStyleTableRecord
  2
Standard
 70
     0
 40
0.0
 41
1.0
 50
0.0
 71
     0
 42
0.2
  3
txt
  4

  0
ENDTAB
  0
TABLE
  2
VIEW
  5
6
330
0
100
AcDbSymbolTable
 70
     0
  0
ENDTAB
  0
TABLE
  2
UCS
  5
7
330
0
100
AcDbSymbolTable
 70
     0
  0
ENDTAB
  0
TABLE
  2
APPID
  5
9
330
0
100
AcDbSymbolTable
 70
     1
  0
APPID
  5
12
330
9
100
AcDbSymbolTableRecord
100
AcDbRegAppTableRecord
  2
ACAD
 70
     0
  0
ENDTAB
  0
TABLE
  2
DIMSTYLE
  5
A
330
0
100
AcDbSymbolTable
 70
     1
100
AcDbDimStyleTable
  0
DIMSTYLE
105
27
330
A
100
AcDbSymbolTableRecord
100
AcDbDimStyleTableRecord
  2
Standard
 70
     0
178
     0
340
11
  0
ENDTAB
  0
TABLE
  2
BLOCK_RECORD
  5
1
330
0
100
AcDbSymbolTable
 70
     8
  0
BLOCK_RECORD
  5
1F
330
1
100
AcDbSymbolTableRecord
100
AcDbBlockTableRecord
  2
*Model_Space
340
22
 70
     0
280
     1
281
     0
  0
BLOCK_RECORD
  5
1B
330
1
100
AcDbSymbolTableRecord
100
AcDbBlockTableRecord
  2
*Paper_Space
340
1E
 70
     0
280
     1
281
     0
  0
BLOCK_RECORD
  5
23
330
1
100
AcDbSymbolTableRecord
100
AcDbBlockTableRecord
  2
*Paper_Space0
340
26
 70
     0
280
     1
281
     0
  0
BLOCK_RECORD
  5
E1
330
1
100
AcDbSymbolTableRecord
100
AcDbBlockTableRecord
  2
block 2
340
0
102
{BLKREFS
331
E2
102
}
 70
     0
280
     1
281
     0
  0
BLOCK_RECORD
  5
E7
330
1
100
AcDbSymbolTableRecord
100
AcDbBlockTableRecord
  2
block 3
340
0
102
{BLKREFS
331
E8
102
}
 70
     0
280
     1
281
     0
  0
BLOCK_RECORD
  5
ED
330
1
100
AcDbSymbolTableRecord
100
AcDbBlockTableRecord
  2
block 4
340
0
102
{BLKREFS
331
EE
102
}
 70
     0
280
     1
281
     0
  0
BLOCK_RECORD
  5
F3
330
1
100
AcDbSymbolTableRecord
100
AcDbBlockTableRecord
  2
block 5
340
0
102
{BLKREFS
331
F4
102
}
 70
     0
280
     1
281
     0
  0
BLOCK_RECORD
  5
FC
330
1
100
AcDbSymbolTableRecord
100
AcDbBlockTableRecord
  2
block 6
340
0
102
{BLKREFS
331
FD
102
}
 70
     0
280
     1
281
     0
  0
BLOCK_RECORD
  5
118
330
1
100
AcDbSymbolTableRecord
100
AcDbBlockTableRecord
  2
block 7
340
0
102
{BLKREFS
331
119
102
}
 70
     0
280
     1
281
     0
  0
BLOCK_RECORD
  5
12A
330
1
100
AcDbSymbolTableRecord
100
AcDbBlockTableRecord
  2
block 8
340
0
102
{BLKREFS
331
12B
102
}
 70
     0
280
     1
281
     0
  0
ENDTAB
  0
ENDSEC
  0
SECTION
  2
BLOCKS
  0
BLOCK
  5
20
330
1F
100
AcDbEntity
  8
0
100
AcDbBlockBegin
  2
*Model_Space
 70
     0
 10
0.0
 20
0.0
 30
0.0
  3
*Model_Space
  1

  0
ENDBLK
  5
21
330
1F
100
AcDbEntity
  8
0
100
AcDbBlockEnd
  0
BLOCK
  5
1C
330
1B
100
AcDbEntity
 67
     1
  8
0
100
AcDbBlockBegin
  2
*Paper_Space
 70
     0
 10
0.0
 20
0.0
 30
0.0
  3
*Paper_Space
  1

  0
ENDBLK
  5
1D
330
1B
100
AcDbEntity
 67
     1
  8
0
100
AcDbBlockEnd
  0
BLOCK
  5
24
330
23
100
AcDbEntity
  8
0
100
AcDbBlockBegin
  2
*Paper_Space0
 70
     0
 10
0.0
 20
0.0
 30
0.0
  3
*Paper_Space0
  1

  0
ENDBLK
  5
25
330
23
100
AcDbEntity
  8
0
100
AcDbBlockEnd
  0
BLOCK
  5
E3
330
E1
100
AcDbEntity
  8
0
100
AcDbBlockBegin
  2
block 2
 70
     0
 10
0.0
 20
0.0
 30
0.0
  3
block 2
  1

  0
SPLINE
  5
E5
330
E1
100
AcDbEntity
  8
_U+30EC_U+30A4_U+30E4_U+30FC 1
370
     0
100
AcDbSpline
210
0.0
220
0.0
230
1.0
 70
    11
 71
     3
 72
    62
 73
    58
 74
     0
 42
0.0000000001
 43
0.0000000001
 12
1.0
 22
0.0
 32
0.0
 13
1.0
 23
0.0
 33
0.0
 40
0.0
 40
0.0
 40
0.0
 40
0.0
 40
1.0
 40
1.0
 40
1.0
 40
2.0
 40
2.0
 40
2.0
 40
3.0
 40
3.0
 40
3.0
 40
4.0
 40
4.0
 40
4.0
 40
5.0
 40
5.0
 40
5.0
 40
6.0
 40
6.0
 40
6.0
 40
7.0
 40
7.0
 40
7.0
 40
8.0
 40
8.0
 40
8.0
 40
9.0
 40
9.0
 40
9.0
 40
10.0
 40
10.0
 40
10.0
 40
11.0
 40
11.0
 40
11.0
 40
12.0
 40
12.0
 40
12.0
 40
13.0
 40
13.0
 40
13.0
 40
14.0
 40
14.0
 40
14.0
 40
15.0
 40
15.0
 40
15.0
 40
16.0
 40
16.0
 40
16.0
 40
17.0
 40
17.0
 40
17.0
 40
18.0
 40
18.0
 40
18.0
 40
19.0
 40
19.0
 40
19.0
 40
19.0
 10
72.64035507081562
 20
-109.8115573184673
 30
0.0
 10
72.53872475400074
 20
-109.8115573184673
 30
0.0
 10
72.30583629919785
 20
-109.790369981233
 30
0.0
 10
72.17233884914442
 20
-109.6041625702552
 30
0.0
 10
72.09327390775793
 20
-109.4920247122103
 30
0.0
 10
72.0887952836271
 20
-109.3926337074609
 30
0.0
 10
72.08414440472203
 20
-109.308056613298
 30
0.0
 10
72.08414440472203
 20
-109.308056613298
 30
0.0
 10
72.31944442636458
 20
-109.308056613298
 30
0.0
 10
72.31944442636458
 20
-109.308056613298
 30
0.0
 10
72.32168373843
 20
-109.3821261662309
 30
0.0
 10
72.33288029875706
 20
-109.6169094235506
 30
0.0
 10
72.63587644668479
 20
-109.6169094235506
 30
0.0
 10
72.7828097691307
 20
-109.6169094235506
 30
0.0
 10
72.94559053080874
 20
-109.5471462399743
 30
0.0
 10
72.94559053080874
 20
-109.318564154528
 30
0.0
 10
72.94559053080874
 20
-109.2022921819008
 30
0.0
 10
72.9049384040828
 20
-109.1535440807845
 30
0.0
 10
72.87100421355309
 20
-109.1218492023202
 30
0.0
 10
72.7919392721666
 20
-109.0477796493874
 30
0.0
 10
72.66757132514908
 20
-109.0352050508662
 30
0.0
 10
72.60883244712558
 20
-109.0352050508662
 30
0.0
 10
72.58833412898834
 20
-109.0352050508662
 30
0.0
 10
72.5499213143278
 20
-109.0372721081574
 30
0.0
 10
72.52063800270318
 20
-109.0414062227397
 30
0.0
 10
72.52063800270318
 20
-109.0414062227397
 30
0.0
 10
72.52063800270318
 20
-108.846758327823
 30
0.0
 10
72.52063800270318
 20
-108.846758327823
 30
0.0
 10
72.56129012942912
 20
-108.8531317544708
 30
0.0
 10
72.6064208802859
 20
-108.8553710665362
 30
0.0
 10
72.6133110712564
 20
-108.8553710665362
 30
0.0
 10
72.68341876438123
 20
-108.8553710665362
 30
0.0
 10
72.89580890104689
 20
-108.8341837293019
 30
0.0
 10
72.89580890104689
 20
-108.5971611599167
 30
0.0
 10
72.89580890104689
 20
-108.4195664876521
 30
0.0
 10
72.75576576957148
 20
-108.3644449598881
 30
0.0
 10
72.6381157587502
 20
-108.3644449598881
 30
0.0
 10
72.35561792895972
 20
-108.3644449598881
 30
0.0
 10
72.3464884259238
 20
-108.5971611599167
 30
0.0
 10
72.34200980179297
 20
-108.6691636555584
 30
0.0
 10
72.34200980179297
 20
-108.6691636555584
 30
0.0
 10
72.12496878622224
 20
-108.6691636555584
 30
0.0
 10
72.12496878622224
 20
-108.6691636555584
 30
0.0
 10
72.13392603448388
 20
-108.5442789442181
 30
0.0
 10
72.16338160088277
 20
-108.1677300076803
 30
0.0
 10
72.65172388591694
 20
-108.1677300076803
 30
0.0
 10
72.89133027691607
 20
-108.1677300076803
 30
0.0
 10
73.14902341921275
 20
-108.2946817763117
 30
0.0
 10
73.14902341921275
 20
-108.590787733269
 30
0.0
 10
73.14902341921275
 20
-108.7769951442467
 30
0.0
 10
73.04739310239788
 20
-108.8595051811185
 30
0.0
 10
72.94111190667792
 20
-108.9208278807559
 30
0.0
 10
73.00674097567193
 20
-108.9483886446379
 30
0.0
 10
73.20104436104002
 20
-109.0288316242185
 30
0.0
 10
73.20104436104002
 20
-109.3059895560068
 30
0.0
 10
73.20104436104002
 20
-109.6444701874326
 30
0.0
 10
72.93663328254709
 20
-109.8115573184673
 30
0.0
 10
72.64035507081562
 20
-109.8115573184673
 30
0.0
  0
HATCH
  5
E6
330
E1
100
AcDbEntity
  8
_U+30EC_U+30A4_U+30E4_U+30FC 1
 62
   179
420
  2234388
100
AcDbHatch
 10
0.0
 20
0.0
 30
0.0
210
0.0
220
0.0
230
1.0
  2
SOLID
 70
     1
 71
     0
 91
        1
 92
        1
 93
        1
 72
     4
 94
        3
 73
     0
 74
     1
 95
       62
 96
       58
 40
0.0
 40
0.0
 40
0.0
 40
0.0
 40
1.0
 40
1.0
 40
1.0
 40
2.0
 40
2.0
 40
2.0
 40
3.0
 40
3.0
 40
3.0
 40
4.0
 40
4.0
 40
4.0
 40
5.0
 40
5.0
 40
5.0
 40
6.0
 40
6.0
 40
6.0
 40
7.0
 40
7.0
 40
7.0
 40
8.0
 40
8.0
 40
8.0
 40
9.0
 40
9.0
 40
9.0
 40
10.0
 40
10.0
 40
10.0
 40
11.0
 40
11.0
 40
11.0
 40
12.0
 40
12.0
 40
12.0
 40
13.0
 40
13.0
 40
13.0
 40
14.0
 40
14.0
 40
14.0
 40
15.0
 40
15.0
 40
15.0
 40
16.0
 40
16.0
 40
16.0
 40
17.0
 40
17.0
 40
17.0
 40
18.0
 40
18.0
 40
18.0
 40
19.0
 40
19.0
 40
19.0
 40
19.0
 10
72.64035507081562
 20
-109.8115573184673
 10
72.53872475400074
 20
-109.8115573184673
 10
72.30583629919785
 20
-109.790369981233
 10
72.17233884914442
 20
-109.6041625702552
 10
72.09327390775793
 20
-109.4920247122103
 10
72.0887952836271
 20
-109.3926337074609
 10
72.08414440472203
 20
-109.308056613298
 10
72.08414440472203
 20
-109.308056613298
 10
72.31944442636458
 20
-109.308056613298
 10
72.31944442636458
 20
-109.308056613298
 10
72.32168373843
 20
-109.3821261662309
 10
72.33288029875706
 20
-109.6169094235506
 10
72.63587644668479
 20
-109.6169094235506
 10
72.7828097691307
 20
-109.6169094235506
 10
72.94559053080874
 20
-109.5471462399743
 10
72.94559053080874
 20
-109.318564154528
 10
72.94559053080874
 20
-109.2022921819008
 10
72.9049384040828
 20
-109.1535440807845
 10
72.87100421355309
 20
-109.1218492023202
 10
72.7919392721666
 20
-109.0477796493874
 10
72.66757132514908
 20
-109.0352050508662
 10
72.60883244712558
 20
-109.0352050508662
 10
72.58833412898834
 20
-109.0352050508662
 10
72.5499213143278
 20
-109.0372721081574
 10
72.52063800270318
 20
-109.0414062227397
 10
72.52063800270318
 20
-109.0414062227397
 10
72.52063800270318
 20
-108.846758327823
 10
72.52063800270318
 20
-108.846758327823
 10
72.56129012942912
 20
-108.8531317544708
 10
72.6064208802859
 20
-108.8553710665362
 10
72.6133110712564
 20
-108.8553710665362
 10
72.68341876438123
 20
-108.8553710665362
 10
72.89580890104689
 20
-108.8341837293019
 10
72.89580890104689
 20
-108.5971611599167
 10
72.89580890104689
 20
-108.4195664876521
 10
72.75576576957148
 20
-108.3644449598881
 10
72.6381157587502
 20
-108.3644449598881
 10
72.35561792895972
 20
-108.3644449598881
 10
72.3464884259238
 20
-108.5971611599167
 10
72.34200980179297
 20
-108.6691636555584
 10
72.34200980179297
 20
-108.6691636555584
 10
72.12496878622224
 20
-108.6691636555584
 10
72.12496878622224
 20
-108.6691636555584
 10
72.13392603448388
 20
-108.5442789442181
 10
72.16338160088277
 20
-108.1677300076803
 10
72.65172388591694
 20
-108.1677300076803
 10
72.89133027691607
 20
-108.1677300076803
 10
73.14902341921275
 20
-108.2946817763117
 10
73.14902341921275
 20
-108.590787733269
 10
73.14902341921275
 20
-108.7769951442467
 10
73.04739310239788
 20
-108.8595051811185
 10
72.94111190667792
 20
-108.9208278807559
 10
73.00674097567193
 20
-108.9483886446379
 10
73.20104436104002
 20
-109.0288316242185
 10
73.20104436104002
 20
-109.3059895560068
 10
73.20104436104002
 20
-109.6444701874326
 10
72.93663328254709
 20
-109.8115573184673
 10
72.64035507081562
 20
-109.8115573184673
 97
        0
 97
        0
 75
     2
 76
     1
 98
        0
  0
ENDBLK
  5
E4
330
E1
100
AcDbEntity
  8
0
100
AcDbBlockEnd
  0
BLOCK
  5
E9
330
E7
100
AcDbEntity
  8
0
100
AcDbBlockBegin
  2
block 3
 70
     0
 10
0.0
 20
0.0
 30
0.0
  3
block 3
  1

  0
SPLINE
  5
EB
330
E7
100
AcDbEntity
  8
_U+30EC_U+30A4_U+30E4_U+30FC 1
370
     0
100
AcDbSpline
210
0.0
220
0.0
230
1.0
 70
    11
 71
     3
 72
    26
 73
    22
 74
     0
 42
0.0000000001
 43
0.0000000001
 12
1.0
 22
0.0
 32
0.0
 13
1.0
 23
0.0
 33
0.0
 40
0.0
 40
0.0
 40
0.0
 40
0.0
 40
1.0
 40
1.0
 40
1.0
 40
2.0
 40
2.0
 40
2.0
 40
3.0
 40
3.0
 40
3.0
 40
4.0
 40
4.0
 40
4.0
 40
5.0
 40
5.0
 40
5.0
 40
6.0
 40
6.0
 40
6.0
 40
7.0
 40
7.0
 40
7.0
 40
7.0
 10
117.6148708473324
 20
-121.798078040297
 30
0.0
 10
117.6148708473324
 20
-121.798078040297
 30
0.0
 10
116.5107177443098
 20
-121.798078040297
 30
0.0
 10
116.5107177443098
 20
-121.798078040297
 30
0.0
 10
116.5107177443098
 20
-121.798078040297
 30
0.0
 10
116.5107177443098
 20
-122.1508558179866
 30
0.0
 10
116.5107177443098
 20
-122.1508558179866
 30
0.0
 10
116.5107177443098
 20
-122.1508558179866
 30
0.0
 10
116.3625786384441
 20
-122.1508558179866
 30
0.0
 10
116.3625786384441
 20
-122.1508558179866
 30
0.0
 10
116.3477647278575
 20
-121.7958387282316
 30
0.0
 10
116.1848117114052
 20
-121.7460570984697
 30
0.0
 10
116.0704345412949
 20
-121.7145344747797
 30
0.0
 10
116.0704345412949
 20
-121.7145344747797
 30
0.0
 10
116.0704345412949
 20
-121.5584716492979
 30
0.0
 10
116.0704345412949
 20
-121.5584716492979
 30
0.0
 10
116.0704345412949
 20
-121.5584716492979
 30
0.0
 10
117.6148708473324
 20
-121.5584716492979
 30
0.0
 10
117.6148708473324
 20
-121.5584716492979
 30
0.0
 10
117.6148708473324
 20
-121.5584716492979
 30
0.0
 10
117.6148708473324
 20
-121.798078040297
 30
0.0
 10
117.6148708473324
 20
-121.798078040297
 30
0.0
  0
HATCH
  5
EC
330
E7
100
AcDbEntity
  8
_U+30EC_U+30A4_U+30E4_U+30FC 1
 62
   179
420
  2234388
100
AcDbHatch
 10
0.0
 20
0.0
 30
0.0
210
0.0
220
0.0
230
1.0
  2
SOLID
 70
     1
 71
     0
 91
        1
 92
        1
 93
        1
 72
     4
 94
        3
 73
     0
 74
     1
 95
       26
 96
       22
 40
0.0
 40
0.0
 40
0.0
 40
0.0
 40
1.0
 40
1.0
 40
1.0
 40
2.0
 40
2.0
 40
2.0
 40
3.0
 40
3.0
 40
3.0
 40
4.0
 40
4.0
 40
4.0
 40
5.0
 40
5.0
 40
5.0
 40
6.0
 40
6.0
 40
6.0
 40
7.0
 40
7.0
 40
7.0
 40
7.0
 10
117.6148708473324
 20
-121.798078040297
 10
117.6148708473324
 20
-121.798078040297
 10
116.5107177443098
 20
-121.798078040297
 10
116.5107177443098
 20
-121.798078040297
 10
116.5107177443098
 20
-121.798078040297
 10
116.5107177443098
 20
-122.1508558179866
 10
116.5107177443098
 20
-122.1508558179866
 10
116.5107177443098
 20
-122.1508558179866
 10
116.3625786384441
 20
-122.1508558179866
 10
116.3625786384441
 20
-122.1508558179866
 10
116.3477647278575
 20
-121.7958387282316
 10
116.1848117114052
 20
-121.7460570984697
 10
116.0704345412949
 20
-121.7145344747797
 10
116.0704345412949
 20
-121.7145344747797
 10
116.0704345412949
 20
-121.5584716492979
 10
116.0704345412949
 20
-121.5584716492979
 10
116.0704345412949
 20
-121.5584716492979
 10
117.6148708473324
 20
-121.5584716492979
 10
117.6148708473324
 20
-121.5584716492979
 10
117.6148708473324
 20
-121.5584716492979
 10
117.6148708473324
 20
-121.798078040297
 10
117.6148708473324
 20
-121.798078040297
 97
        0
 97
        0
 75
     2
 76
     1
 98
        0
  0
ENDBLK
  5
EA
330
E7
100
AcDbEntity
  8
0
100
AcDbBlockEnd
  0
BLOCK
  5
EF
330
ED
100
AcDbEntity
  8
0
100
AcDbBlockBegin
  2
block 4
 70
     0
 10
0.0
 20
0.0
 30
0.0
  3
block 4
  1

  0
SPLINE
  5
F1
330
ED
100
AcDbEntity
  8
_U+30EC_U+30A4_U+30E4_U+30FC 1
370
     0
100
AcDbSpline
210
0.0
220
0.0
230
1.0
 70
    11
 71
     3
 72
    62
 73
    58
 74
     0
 42
0.0000000001
 43
0.0000000001
 12
1.0
 22
0.0
 32
0.0
 13
1.0
 23
0.0
 33
0.0
 40
0.0
 40
0.0
 40
0.0
 40
0.0
 40
1.0
 40
1.0
 40
1.0
 40
2.0
 40
2.0
 40
2.0
 40
3.0
 40
3.0
 40
3.0
 40
4.0
 40
4.0
 40
4.0
 40
5.0
 40
5.0
 40
5.0
 40
6.0
 40
6.0
 40
6.0
 40
7.0
 40
7.0
 40
7.0
 40
8.0
 40
8.0
 40
8.0
 40
9.0
 40
9.0
 40
9.0
 40
10.0
 40
10.0
 40
10.0
 40
11.0
 40
11.0
 40
11.0
 40
12.0
 40
12.0
 40
12.0
 40
13.0
 40
13.0
 40
13.0
 40
14.0
 40
14.0
 40
14.0
 40
15.0
 40
15.0
 40
15.0
 40
16.0
 40
16.0
 40
16.0
 40
17.0
 40
17.0
 40
17.0
 40
18.0
 40
18.0
 40
18.0
 40
19.0
 40
19.0
 40
19.0
 40
19.0
 10
117.6655137509656
 20
-140.6384439752571
 30
0.0
 10
117.6655137509656
 20
-140.7400742920719
 30
0.0
 10
117.6444986685055
 20
-140.9729627468748
 30
0.0
 10
117.4584635123021
 20
-141.106287942154
 30
0.0
 10
117.3461533994829
 20
-141.1855251383147
 30
0.0
 10
117.2469346495077
 20
-141.1900037624456
 30
0.0
 10
117.1621853005706
 20
-141.1944823865764
 30
0.0
 10
117.1621853005706
 20
-141.1944823865764
 30
0.0
 10
117.1621853005706
 20
-140.9595268744823
 30
0.0
 10
117.1621853005706
 20
-140.9595268744823
 30
0.0
 10
117.2362548535034
 20
-140.9571153076427
 30
0.0
 10
117.470865856049
 20
-140.9457464925414
 30
0.0
 10
117.470865856049
 20
-140.6429225993879
 30
0.0
 10
117.470865856049
 20
-140.4958170221677
 30
0.0
 10
117.4012749272469
 20
-140.3332085152639
 30
0.0
 10
117.1728650965748
 20
-140.3332085152639
 30
0.0
 10
117.0564208691734
 20
-140.3332085152639
 30
0.0
 10
117.0078450228314
 20
-140.3738606419899
 30
0.0
 10
116.9761501443671
 20
-140.4076225777453
 30
0.0
 10
116.9020805914342
 20
-140.4868597739061
 30
0.0
 10
116.8893337381388
 20
-140.6112277209236
 30
0.0
 10
116.8893337381388
 20
-140.6701388537214
 30
0.0
 10
116.8893337381388
 20
-140.6904649170843
 30
0.0
 10
116.8914007954299
 20
-140.7287054769706
 30
0.0
 10
116.8955349100122
 20
-140.7583332981438
 30
0.0
 10
116.8955349100122
 20
-140.7583332981438
 30
0.0
 10
116.7008870150956
 20
-140.7583332981438
 30
0.0
 10
116.7008870150956
 20
-140.7583332981438
 30
0.0
 10
116.7074326965176
 20
-140.7176811714178
 30
0.0
 10
116.7094997538087
 20
-140.6722059110125
 30
0.0
 10
116.7094997538087
 20
-140.6656602295905
 30
0.0
 10
116.7094997538087
 20
-140.5953802816914
 30
0.0
 10
116.6881401618002
 20
-140.3828178902515
 30
0.0
 10
116.4514621019635
 20
-140.3828178902515
 30
0.0
 10
116.2736951749246
 20
-140.3828178902515
 30
0.0
 10
116.2185736471606
 20
-140.5230332765012
 30
0.0
 10
116.2185736471606
 20
-140.6405110325482
 30
0.0
 10
116.2185736471606
 20
-140.9233533718872
 30
0.0
 10
116.4514621019635
 20
-140.9323106201489
 30
0.0
 10
116.5231200880567
 20
-140.9367892442797
 30
0.0
 10
116.5231200880567
 20
-140.9367892442797
 30
0.0
 10
116.5231200880567
 20
-141.1538302598505
 30
0.0
 10
116.5231200880567
 20
-141.1538302598505
 30
0.0
 10
116.3984076314907
 20
-141.1448730115888
 30
0.0
 10
116.0218586949529
 20
-141.1155896999642
 30
0.0
 10
116.0218586949529
 20
-140.6270751601557
 30
0.0
 10
116.0218586949529
 20
-140.3872965143823
 30
0.0
 10
116.1489827183586
 20
-140.1296033720857
 30
0.0
 10
116.4449164205416
 20
-140.1296033720857
 30
0.0
 10
116.6312960862936
 20
-140.1296033720857
 30
0.0
 10
116.713633868391
 20
-140.2315781984491
 30
0.0
 10
116.7749565680285
 20
-140.3376871393947
 30
0.0
 10
116.8025173319105
 20
-140.272230325175
 30
0.0
 10
116.8827880567168
 20
-140.0775824302584
 30
0.0
 10
117.1601182432794
 20
-140.0775824302584
 30
0.0
 10
117.498426619931
 20
-140.0775824302584
 30
0.0
 10
117.6655137509656
 20
-140.3421657635256
 30
0.0
 10
117.6655137509656
 20
-140.6384439752571
 30
0.0
  0
HATCH
  5
F2
330
ED
100
AcDbEntity
  8
_U+30EC_U+30A4_U+30E4_U+30FC 1
 62
   179
420
  2234388
100
AcDbHatch
 10
0.0
 20
0.0
 30
0.0
210
0.0
220
0.0
230
1.0
  2
SOLID
 70
     1
 71
     0
 91
        1
 92
        1
 93
        1
 72
     4
 94
        3
 73
     0
 74
     1
 95
       62
 96
       58
 40
0.0
 40
0.0
 40
0.0
 40
0.0
 40
1.0
 40
1.0
 40
1.0
 40
2.0
 40
2.0
 40
2.0
 40
3.0
 40
3.0
 40
3.0
 40
4.0
 40
4.0
 40
4.0
 40
5.0
 40
5.0
 40
5.0
 40
6.0
 40
6.0
 40
6.0
 40
7.0
 40
7.0
 40
7.0
 40
8.0
 40
8.0
 40
8.0
 40
9.0
 40
9.0
 40
9.0
 40
10.0
 40
10.0
 40
10.0
 40
11.0
 40
11.0
 40
11.0
 40
12.0
 40
12.0
 40
12.0
 40
13.0
 40
13.0
 40
13.0
 40
14.0
 40
14.0
 40
14.0
 40
15.0
 40
15.0
 40
15.0
 40
16.0
 40
16.0
 40
16.0
 40
17.0
 40
17.0
 40
17.0
 40
18.0
 40
18.0
 40
18.0
 40
19.0
 40
19.0
 40
19.0
 40
19.0
 10
117.6655137509656
 20
-140.6384439752571
 10
117.6655137509656
 20
-140.7400742920719
 10
117.6444986685055
 20
-140.9729627468748
 10
117.4584635123021
 20
-141.106287942154
 10
117.3461533994829
 20
-141.1855251383147
 10
117.2469346495077
 20
-141.1900037624456
 10
117.1621853005706
 20
-141.1944823865764
 10
117.1621853005706
 20
-141.1944823865764
 10
117.1621853005706
 20
-140.9595268744823
 10
117.1621853005706
 20
-140.9595268744823
 10
117.2362548535034
 20
-140.9571153076427
 10
117.470865856049
 20
-140.9457464925414
 10
117.470865856049
 20
-140.6429225993879
 10
117.470865856049
 20
-140.4958170221677
 10
117.4012749272469
 20
-140.3332085152639
 10
117.1728650965748
 20
-140.3332085152639
 10
117.0564208691734
 20
-140.3332085152639
 10
117.0078450228314
 20
-140.3738606419899
 10
116.9761501443671
 20
-140.4076225777453
 10
116.9020805914342
 20
-140.4868597739061
 10
116.8893337381388
 20
-140.6112277209236
 10
116.8893337381388
 20
-140.6701388537214
 10
116.8893337381388
 20
-140.6904649170843
 10
116.8914007954299
 20
-140.7287054769706
 10
116.8955349100122
 20
-140.7583332981438
 10
116.8955349100122
 20
-140.7583332981438
 10
116.7008870150956
 20
-140.7583332981438
 10
116.7008870150956
 20
-140.7583332981438
 10
116.7074326965176
 20
-140.7176811714178
 10
116.7094997538087
 20
-140.6722059110125
 10
116.7094997538087
 20
-140.6656602295905
 10
116.7094997538087
 20
-140.5953802816914
 10
116.6881401618002
 20
-140.3828178902515
 10
116.4514621019635
 20
-140.3828178902515
 10
116.2736951749246
 20
-140.3828178902515
 10
116.2185736471606
 20
-140.5230332765012
 10
116.2185736471606
 20
-140.6405110325482
 10
116.2185736471606
 20
-140.9233533718872
 10
116.4514621019635
 20
-140.9323106201489
 10
116.5231200880567
 20
-140.9367892442797
 10
116.5231200880567
 20
-140.9367892442797
 10
116.5231200880567
 20
-141.1538302598505
 10
116.5231200880567
 20
-141.1538302598505
 10
116.3984076314907
 20
-141.1448730115888
 10
116.0218586949529
 20
-141.1155896999642
 10
116.0218586949529
 20
-140.6270751601557
 10
116.0218586949529
 20
-140.3872965143823
 10
116.1489827183586
 20
-140.1296033720857
 10
116.4449164205416
 20
-140.1296033720857
 10
116.6312960862936
 20
-140.1296033720857
 10
116.713633868391
 20
-140.2315781984491
 10
116.7749565680285
 20
-140.3376871393947
 10
116.8025173319105
 20
-140.272230325175
 10
116.8827880567168
 20
-140.0775824302584
 10
117.1601182432794
 20
-140.0775824302584
 10
117.498426619931
 20
-140.0775824302584
 10
117.6655137509656
 20
-140.3421657635256
 10
117.6655137509656
 20
-140.6384439752571
 97
        0
 97
        0
 75
     2
 76
     1
 98
        0
  0
ENDBLK
  5
F0
330
ED
100
AcDbEntity
  8
0
100
AcDbBlockEnd
  0
BLOCK
  5
F5
330
F3
100
AcDbEntity
  8
0
100
AcDbBlockBegin
  2
block 5
 70
     0
 10
0.0
 20
0.0
 30
0.0
  3
block 5
  1

  0
SPLINE
  5
F7
330
F3
100
AcDbEntity
  8
_U+30EC_U+30A4_U+30E4_U+30FC 1
370
     0
100
AcDbSpline
210
0.0
220
0.0
230
1.0
 70
    11
 71
     3
 72
    26
 73
    22
 74
     0
 42
0.0000000001
 43
0.0000000001
 12
1.0
 22
0.0
 32
0.0
 13
1.0
 23
0.0
 33
0.0
 40
0.0
 40
0.0
 40
0.0
 40
0.0
 40
1.0
 40
1.0
 40
1.0
 40
2.0
 40
2.0
 40
2.0
 40
3.0
 40
3.0
 40
3.0
 40
4.0
 40
4.0
 40
4.0
 40
5.0
 40
5.0
 40
5.0
 40
6.0
 40
6.0
 40
6.0
 40
7.0
 40
7.0
 40
7.0
 40
7.0
 10
75.46929522852851
 20
-148.5811116165006
 30
0.0
 10
75.46929522852851
 20
-148.5811116165006
 30
0.0
 10
75.46929522852851
 20
-147.4766140039295
 30
0.0
 10
75.46929522852851
 20
-147.4766140039295
 30
0.0
 10
75.46929522852851
 20
-147.4766140039295
 30
0.0
 10
75.11686196038745
 20
-147.4766140039295
 30
0.0
 10
75.11686196038745
 20
-147.4766140039295
 30
0.0
 10
75.11686196038745
 20
-147.4766140039295
 30
0.0
 10
75.11686196038745
 20
-147.3288194076123
 30
0.0
 10
75.11686196038745
 20
-147.3288194076123
 30
0.0
 10
75.47170679536819
 20
-147.3140054970257
 30
0.0
 10
75.52131617035579
 20
-147.1510524805734
 30
0.0
 10
75.55301104882008
 20
-147.0366753104631
 30
0.0
 10
75.55301104882008
 20
-147.0366753104631
 30
0.0
 10
75.70907387430191
 20
-147.0366753104631
 30
0.0
 10
75.70907387430191
 20
-147.0366753104631
 30
0.0
 10
75.70907387430191
 20
-147.0366753104631
 30
0.0
 10
75.70907387430191
 20
-148.5811116165006
 30
0.0
 10
75.70907387430191
 20
-148.5811116165006
 30
0.0
 10
75.70907387430191
 20
-148.5811116165006
 30
0.0
 10
75.46929522852851
 20
-148.5811116165006
 30
0.0
 10
75.46929522852851
 20
-148.5811116165006
 30
0.0
  0
HATCH
  5
F8
330
F3
100
AcDbEntity
  8
_U+30EC_U+30A4_U+30E4_U+30FC 1
 62
   179
420
  2234388
100
AcDbHatch
 10
0.0
 20
0.0
 30
0.0
210
0.0
220
0.0
230
1.0
  2
SOLID
 70
     1
 71
     0
 91
        1
 92
        1
 93
        1
 72
     4
 94
        3
 73
     0
 74
     1
 95
       26
 96
       22
 40
0.0
 40
0.0
 40
0.0
 40
0.0
 40
1.0
 40
1.0
 40
1.0
 40
2.0
 40
2.0
 40
2.0
 40
3.0
 40
3.0
 40
3.0
 40
4.0
 40
4.0
 40
4.0
 40
5.0
 40
5.0
 40
5.0
 40
6.0
 40
6.0
 40
6.0
 40
7.0
 40
7.0
 40
7.0
 40
7.0
 10
75.46929522852851
 20
-148.5811116165006
 10
75.46929522852851
 20
-148.5811116165006
 10
75.46929522852851
 20
-147.4766140039295
 10
75.46929522852851
 20
-147.4766140039295
 10
75.46929522852851
 20
-147.4766140039295
 10
75.11686196038745
 20
-147.4766140039295
 10
75.11686196038745
 20
-147.4766140039295
 10
75.11686196038745
 20
-147.4766140039295
 10
75.11686196038745
 20
-147.3288194076123
 10
75.11686196038745
 20
-147.3288194076123
 10
75.47170679536819
 20
-147.3140054970257
 10
75.52131617035579
 20
-147.1510524805734
 10
75.55301104882008
 20
-147.0366753104631
 10
75.55301104882008
 20
-147.0366753104631
 10
75.70907387430191
 20
-147.0366753104631
 10
75.70907387430191
 20
-147.0366753104631
 10
75.70907387430191
 20
-147.0366753104631
 10
75.70907387430191
 20
-148.5811116165006
 10
75.70907387430191
 20
-148.5811116165006
 10
75.70907387430191
 20
-148.5811116165006
 10
75.46929522852851
 20
-148.5811116165006
 10
75.46929522852851
 20
-148.5811116165006
 97
        0
 97
        0
 75
     2
 76
     1
 98
        0
  0
SPLINE
  5
F9
330
F3
100
AcDbEntity
  8
_U+30EC_U+30A4_U+30E4_U+30FC 1
370
     0
100
AcDbSpline
210
0.0
220
0.0
230
1.0
 70
    11
 71
     3
 72
    29
 73
    25
 74
     0
 42
0.0000000001
 43
0.0000000001
 12
1.0
 22
0.0
 32
0.0
 13
1.0
 23
0.0
 33
0.0
 40
0.0
 40
0.0
 40
0.0
 40
0.0
 40
1.0
 40
1.0
 40
1.0
 40
2.0
 40
2.0
 40
2.0
 40
3.0
 40
3.0
 40
3.0
 40
4.0
 40
4.0
 40
4.0
 40
5.0
 40
5.0
 40
5.0
 40
6.0
 40
6.0
 40
6.0
 40
7.0
 40
7.0
 40
7.0
 40
8.0
 40
8.0
 40
8.0
 40
8.0
 10
77.20424531490033
 20
-148.4033446894617
 30
0.0
 10
77.08883461614447
 20
-148.6128064949649
 30
0.0
 10
76.90348847903802
 20
-148.6317545201337
 30
0.0
 10
76.7791205320205
 20
-148.6317545201337
 30
0.0
 10
76.60755477685505
 20
-148.6317545201337
 30
0.0
 10
76.45597057550407
 20
-148.5852457310829
 30
0.0
 10
76.35434025868919
 20
-148.4033446894617
 30
0.0
 10
76.24340818406415
 20
-148.2086967945451
 30
0.0
 10
76.22308212070118
 20
-147.9716742251599
 30
0.0
 10
76.22308212070118
 20
-147.8087212087075
 30
0.0
 10
76.22308212070118
 20
-147.6650607269726
 30
0.0
 10
76.24134112677301
 20
-147.4132242470009
 30
0.0
 10
76.35434025868919
 20
-147.2144422375019
 30
0.0
 10
76.46940644789655
 20
-147.0111816038722
 30
0.0
 10
76.6413167126105
 20
-146.988099464121
 30
0.0
 10
76.7791205320205
 20
-146.988099464121
 30
0.0
 10
76.94896373944331
 20
-146.988099464121
 30
0.0
 10
77.10261499808546
 20
-147.0325411958808
 30
0.0
 10
77.20424531490033
 20
-147.2144422375019
 30
0.0
 10
77.31069876539455
 20
-147.4070230751274
 30
0.0
 10
77.33550345288835
 20
-147.6354329057995
 30
0.0
 10
77.33550345288835
 20
-147.8087212087075
 30
0.0
 10
77.33550345288835
 20
-147.980286963873
 30
0.0
 10
77.3127658226857
 20
-148.2107638518362
 30
0.0
 10
77.20424531490033
 20
-148.4033446894617
 30
0.0
  0
SPLINE
  5
FA
330
F3
100
AcDbEntity
  8
_U+30EC_U+30A4_U+30E4_U+30FC 1
370
     0
100
AcDbSpline
210
0.0
220
0.0
230
1.0
 70
    11
 71
     3
 72
    17
 73
    13
 74
     0
 42
0.0000000001
 43
0.0000000001
 12
1.0
 22
0.0
 32
0.0
 13
1.0
 23
0.0
 33
0.0
 40
0.0
 40
0.0
 40
0.0
 40
0.0
 40
1.0
 40
1.0
 40
1.0
 40
2.0
 40
2.0
 40
2.0
 40
3.0
 40
3.0
 40
3.0
 40
4.0
 40
4.0
 40
4.0
 40
4.0
 10
76.7791205320205
 20
-147.1806803017465
 30
0.0
 10
76.51247014146216
 20
-147.1806803017465
 30
0.0
 10
76.46286076647456
 20
-147.4642116601826
 30
0.0
 10
76.46286076647456
 20
-147.8087212087075
 30
0.0
 10
76.46286076647456
 20
-148.1284260697387
 30
0.0
 10
76.50110132636084
 20
-148.4371066252171
 30
0.0
 10
76.7791205320205
 20
-148.4371066252171
 30
0.0
 10
77.04370386528768
 20
-148.4371066252171
 30
0.0
 10
77.09572480711496
 20
-148.1556423240722
 30
0.0
 10
77.09572480711496
 20
-147.8087212087075
 30
0.0
 10
77.09572480711496
 20
-147.4893608572249
 30
0.0
 10
77.05507268038902
 20
-147.1806803017465
 30
0.0
 10
76.7791205320205
 20
-147.1806803017465
 30
0.0
  0
HATCH
  5
FB
330
F3
100
AcDbEntity
  8
_U+30EC_U+30A4_U+30E4_U+30FC 1
 62
   179
420
  2234388
100
AcDbHatch
 10
0.0
 20
0.0
 30
0.0
210
0.0
220
0.0
230
1.0
  2
SOLID
 70
     1
 71
     0
 91
        2
 92
        1
 93
        1
 72
     4
 94
        3
 73
     0
 74
     1
 95
       29
 96
       25
 40
0.0
 40
0.0
 40
0.0
 40
0.0
 40
1.0
 40
1.0
 40
1.0
 40
2.0
 40
2.0
 40
2.0
 40
3.0
 40
3.0
 40
3.0
 40
4.0
 40
4.0
 40
4.0
 40
5.0
 40
5.0
 40
5.0
 40
6.0
 40
6.0
 40
6.0
 40
7.0
 40
7.0
 40
7.0
 40
8.0
 40
8.0
 40
8.0
 40
8.0
 10
77.20424531490033
 20
-148.4033446894617
 10
77.08883461614447
 20
-148.6128064949649
 10
76.90348847903802
 20
-148.6317545201337
 10
76.7791205320205
 20
-148.6317545201337
 10
76.60755477685505
 20
-148.6317545201337
 10
76.45597057550407
 20
-148.5852457310829
 10
76.35434025868919
 20
-148.4033446894617
 10
76.24340818406415
 20
-148.2086967945451
 10
76.22308212070118
 20
-147.9716742251599
 10
76.22308212070118
 20
-147.8087212087075
 10
76.22308212070118
 20
-147.6650607269726
 10
76.24134112677301
 20
-147.4132242470009
 10
76.35434025868919
 20
-147.2144422375019
 10
76.46940644789655
 20
-147.0111816038722
 10
76.6413167126105
 20
-146.988099464121
 10
76.7791205320205
 20
-146.988099464121
 10
76.94896373944331
 20
-146.988099464121
 10
77.10261499808546
 20
-147.0325411958808
 10
77.20424531490033
 20
-147.2144422375019
 10
77.31069876539455
 20
-147.4070230751274
 10
77.33550345288835
 20
-147.6354329057995
 10
77.33550345288835
 20
-147.8087212087075
 10
77.33550345288835
 20
-147.980286963873
 10
77.3127658226857
 20
-148.2107638518362
 10
77.20424531490033
 20
-148.4033446894617
 97
        0
 97
        0
 92
        1
 93
        1
 72
     4
 94
        3
 73
     0
 74
     1
 95
       17
 96
       13
 40
0.0
 40
0.0
 40
0.0
 40
0.0
 40
1.0
 40
1.0
 40
1.0
 40
2.0
 40
2.0
 40
2.0
 40
3.0
 40
3.0
 40
3.0
 40
4.0
 40
4.0
 40
4.0
 40
4.0
 10
76.7791205320205
 20
-147.1806803017465
 10
76.51247014146216
 20
-147.1806803017465
 10
76.46286076647456
 20
-147.4642116601826
 10
76.46286076647456
 20
-147.8087212087075
 10
76.46286076647456
 20
-148.1284260697387
 10
76.50110132636084
 20
-148.4371066252171
 10
76.7791205320205
 20
-148.4371066252171
 10
77.04370386528768
 20
-148.4371066252171
 10
77.09572480711496
 20
-148.1556423240722
 10
77.09572480711496
 20
-147.8087212087075
 10
77.09572480711496
 20
-147.4893608572249
 10
77.05507268038902
 20
-147.1806803017465
 10
76.7791205320205
 20
-147.1806803017465
 97
        0
 97
        0
 75
     2
 76
     1
 98
        0
  0
ENDBLK
  5
F6
330
F3
100
AcDbEntity
  8
0
100
AcDbBlockEnd
  0
BLOCK
  5
FE
330
FC
100
AcDbEntity
  8
0
100
AcDbBlockBegin
  2
block 6
 70
     0
 10
0.0
 20
0.0
 30
0.0
  3
block 6
  1

  0
POLYLINE
  5
100
330
FC
100
AcDbEntity
  8
_U+30EC_U+30A4_U+30E4_U+30FC 1
370
     0
100
AcDb2dPolyline
 66
     1
 10
0.0
 20
0.0
 30
0.0
  0
VERTEX
  5
101
330
100
100
AcDbEntity
  8
_U+30EC_U+30A4_U+30E4_U+30FC 1
370
     0
100
AcDbVertex
100
AcDb2dVertex
 10
90.87679576721136
 20
-111.7365044208506
 30
0.0
  0
VERTEX
  5
102
330
100
100
AcDbEntity
  8
_U+30EC_U+30A4_U+30E4_U+30FC 1
370
     0
100
AcDbVertex
100
AcDb2dVertex
 10
90.87679576721136
 20
-112.0834255362153
 30
0.0
  0
VERTEX
  5
103
330
100
100
AcDbEntity
  8
_U+30EC_U+30A4_U+30E4_U+30FC 1
370
     0
100
AcDbVertex
100
AcDb2dVertex
 10
90.64390731240847
 20
-112.0834255362153
 30
0.0
  0
VERTEX
  5
104
330
100
100
AcDbEntity
  8
_U+30EC_U+30A4_U+30E4_U+30FC 1
370
     0
100
AcDbVertex
100
AcDb2dVertex
 10
90.64390731240847
 20
-111.7365044208506
 30
0.0
  0
VERTEX
  5
105
330
100
100
AcDbEntity
  8
_U+30EC_U+30A4_U+30E4_U+30FC 1
370
     0
100
AcDbVertex
100
AcDb2dVertex
 10
89.94283038116014
 20
-111.7365044208506
 30
0.0
  0
VERTEX
  5
106
330
100
100
AcDbEntity
  8
_U+30EC_U+30A4_U+30E4_U+30FC 1
370
     0
100
AcDbVertex
100
AcDb2dVertex
 10
89.94283038116014
 20
-111.5122287047608
 30
0.0
  0
VERTEX
  5
107
330
100
100
AcDbEntity
  8
_U+30EC_U+30A4_U+30E4_U+30FC 1
370
     0
100
AcDbVertex
100
AcDb2dVertex
 10
90.66871199990227
 20
-110.5389892301778
 30
0.0
  0
VERTEX
  5
108
330
100
100
AcDbEntity
  8
_U+30EC_U+30A4_U+30E4_U+30FC 1
370
     0
100
AcDbVertex
100
AcDb2dVertex
 10
90.87679576721136
 20
-110.5389892301778
 30
0.0
  0
VERTEX
  5
109
330
100
100
AcDbEntity
  8
_U+30EC_U+30A4_U+30E4_U+30FC 1
370
     0
100
AcDbVertex
100
AcDb2dVertex
 10
90.87679576721136
 20
-111.5377224113517
 30
0.0
  0
VERTEX
  5
10A
330
100
100
AcDbEntity
  8
_U+30EC_U+30A4_U+30E4_U+30FC 1
370
     0
100
AcDbVertex
100
AcDb2dVertex
 10
91.09831540691293
 20
-111.5377224113517
 30
0.0
  0
VERTEX
  5
10B
330
100
100
AcDbEntity
  8
_U+30EC_U+30A4_U+30E4_U+30FC 1
370
     0
100
AcDbVertex
100
AcDb2dVertex
 10
91.09831540691293
 20
-111.7365044208506
 30
0.0
  0
VERTEX
  5
10C
330
100
100
AcDbEntity
  8
_U+30EC_U+30A4_U+30E4_U+30FC 1
370
     0
100
AcDbVertex
100
AcDb2dVertex
 10
90.87679576721136
 20
-111.7365044208506
 30
0.0
  0
SEQEND
  5
10D
330
100
100
AcDbEntity
  8
_U+30EC_U+30A4_U+30E4_U+30FC 1
370
     0
  0
POLYLINE
  5
10E
330
FC
100
AcDbEntity
  8
_U+30EC_U+30A4_U+30E4_U+30FC 1
370
     0
100
AcDb2dPolyline
 66
     1
 10
0.0
 20
0.0
 30
0.0
  0
VERTEX
  5
10F
330
10E
100
AcDbEntity
  8
_U+30EC_U+30A4_U+30E4_U+30FC 1
370
     0
100
AcDbVertex
100
AcDb2dVertex
 10
90.64390731240847
 20
-110.8817762309601
 30
0.0
  0
VERTEX
  5
110
330
10E
100
AcDbEntity
  8
_U+30EC_U+30A4_U+30E4_U+30FC 1
370
     0
100
AcDbVertex
100
AcDb2dVertex
 10
90.15539277260004
 20
-111.5377224113517
 30
0.0
  0
VERTEX
  5
111
330
10E
100
AcDbEntity
  8
_U+30EC_U+30A4_U+30E4_U+30FC 1
370
     0
100
AcDbVertex
100
AcDb2dVertex
 10
90.64390731240847
 20
-111.5377224113517
 30
0.0
  0
VERTEX
  5
112
330
10E
100
AcDbEntity
  8
_U+30EC_U+30A4_U+30E4_U+30FC 1
370
     0
100
AcDbVertex
100
AcDb2dVertex
 10
90.64390731240847
 20
-110.8817762309601
 30
0.0
  0
SEQEND
  5
113
330
10E
100
AcDbEntity
  8
_U+30EC_U+30A4_U+30E4_U+30FC 1
370
     0
  0
HATCH
  5
114
330
FC
100
AcDbEntity
  8
_U+30EC_U+30A4_U+30E4_U+30FC 1
 62
   179
420
  2234388
100
AcDbHatch
 10
0.0
 20
0.0
 30
0.0
210
0.0
220
0.0
230
1.0
  2
SOLID
 70
     1
 71
     0
 91
        2
 92
        1
 93
       11
 72
     1
 10
90.87679576721136
 20
-111.7365044208506
 11
90.87679576721136
 21
-112.0834255362153
 72
     1
 10
90.87679576721136
 20
-112.0834255362153
 11
90.64390731240847
 21
-112.0834255362153
 72
     1
 10
90.64390731240847
 20
-112.0834255362153
 11
90.64390731240847
 21
-111.7365044208506
 72
     1
 10
90.64390731240847
 20
-111.7365044208506
 11
89.94283038116014
 21
-111.7365044208506
 72
     1
 10
89.94283038116014
 20
-111.7365044208506
 11
89.94283038116014
 21
-111.5122287047608
 72
     1
 10
89.94283038116014
 20
-111.5122287047608
 11
90.66871199990227
 21
-110.5389892301778
 72
     1
 10
90.66871199990227
 20
-110.5389892301778
 11
90.87679576721136
 21
-110.5389892301778
 72
     1
 10
90.87679576721136
 20
-110.5389892301778
 11
90.87679576721136
 21
-111.5377224113517
 72
     1
 10
90.87679576721136
 20
-111.5377224113517
 11
91.09831540691293
 21
-111.5377224113517
 72
     1
 10
91.09831540691293
 20
-111.5377224113517
 11
91.09831540691293
 21
-111.7365044208506
 72
     1
 10
91.09831540691293
 20
-111.7365044208506
 11
90.87679576721136
 21
-111.7365044208506
 97
        0
 92
        1
 93
        3
 72
     1
 10
90.64390731240847
 20
-110.8817762309601
 11
90.15539277260004
 21
-111.5377224113517
 72
     1
 10
90.15539277260004
 20
-111.5377224113517
 11
90.64390731240847
 21
-111.5377224113517
 72
     1
 10
90.64390731240847
 20
-111.5377224113517
 11
90.64390731240847
 21
-110.8817762309601
 97
        0
 75
     2
 76
     1
 98
        0
  0
SPLINE
  5
115
330
FC
100
AcDbEntity
  8
_U+30EC_U+30A4_U+30E4_U+30FC 1
370
     0
100
AcDbSpline
210
0.0
220
0.0
230
1.0
 70
    11
 71
     3
 72
    29
 73
    25
 74
     0
 42
0.0000000001
 43
0.0000000001
 12
1.0
 22
0.0
 32
0.0
 13
1.0
 23
0.0
 33
0.0
 40
0.0
 40
0.0
 40
0.0
 40
0.0
 40
1.0
 40
1.0
 40
1.0
 40
2.0
 40
2.0
 40
2.0
 40
3.0
 40
3.0
 40
3.0
 40
4.0
 40
4.0
 40
4.0
 40
5.0
 40
5.0
 40
5.0
 40
6.0
 40
6.0
 40
6.0
 40
7.0
 40
7.0
 40
7.0
 40
8.0
 40
8.0
 40
8.0
 40
8.0
 10
92.20453556722664
 20
-111.9056586091764
 30
0.0
 10
92.08912486847078
 20
-112.1151204146796
 30
0.0
 10
91.90377873136434
 20
-112.1340684398484
 30
0.0
 10
91.77941078434682
 20
-112.1340684398484
 30
0.0
 10
91.60784502918138
 20
-112.1340684398484
 30
0.0
 10
91.45626082783038
 20
-112.0875596507976
 30
0.0
 10
91.35463051101551
 20
-111.9056586091764
 30
0.0
 10
91.24369843639047
 20
-111.7110107142598
 30
0.0
 10
91.22337237302749
 20
-111.4739881448746
 30
0.0
 10
91.22337237302749
 20
-111.3113796379708
 30
0.0
 10
91.22337237302749
 20
-111.1673746466873
 30
0.0
 10
91.24128686955079
 20
-110.9155381667156
 30
0.0
 10
91.35463051101551
 20
-110.7167561572167
 30
0.0
 10
91.46969670022285
 20
-110.5138400331354
 30
0.0
 10
91.64160696493683
 20
-110.4904133838357
 30
0.0
 10
91.77941078434682
 20
-110.4904133838357
 30
0.0
 10
91.94925399176964
 20
-110.4904133838357
 30
0.0
 10
92.10290525041178
 20
-110.5348551155955
 30
0.0
 10
92.20453556722664
 20
-110.7167561572167
 30
0.0
 10
92.31098901772087
 20
-110.9093369948421
 30
0.0
 10
92.33579370521467
 20
-111.1377468255142
 30
0.0
 10
92.33579370521467
 20
-111.3113796379708
 30
0.0
 10
92.33579370521467
 20
-111.4826008835877
 30
0.0
 10
92.31305607501201
 20
-111.7130777715509
 30
0.0
 10
92.20453556722664
 20
-111.9056586091764
 30
0.0
  0
SPLINE
  5
116
330
FC
100
AcDbEntity
  8
_U+30EC_U+30A4_U+30E4_U+30FC 1
370
     0
100
AcDbSpline
210
0.0
220
0.0
230
1.0
 70
    11
 71
     3
 72
    17
 73
    13
 74
     0
 42
0.0000000001
 43
0.0000000001
 12
1.0
 22
0.0
 32
0.0
 13
1.0
 23
0.0
 33
0.0
 40
0.0
 40
0.0
 40
0.0
 40
0.0
 40
1.0
 40
1.0
 40
1.0
 40
2.0
 40
2.0
 40
2.0
 40
3.0
 40
3.0
 40
3.0
 40
4.0
 40
4.0
 40
4.0
 40
4.0
 10
91.77941078434682
 20
-110.6829942214612
 30
0.0
 10
91.51276039378848
 20
-110.6829942214612
 30
0.0
 10
91.46315101880089
 20
-110.9665255798973
 30
0.0
 10
91.46315101880089
 20
-111.3113796379708
 30
0.0
 10
91.46315101880089
 20
-111.6307399894534
 30
0.0
 10
91.50139157868716
 20
-111.9394205449318
 30
0.0
 10
91.77941078434682
 20
-111.9394205449318
 30
0.0
 10
92.043994117614
 20
-111.9394205449318
 30
0.0
 10
92.09601505944129
 20
-111.6583007533354
 30
0.0
 10
92.09601505944129
 20
-111.3113796379708
 30
0.0
 10
92.09601505944129
 20
-110.9916747769396
 30
0.0
 10
92.05536293271533
 20
-110.6829942214612
 30
0.0
 10
91.77941078434682
 20
-110.6829942214612
 30
0.0
  0
HATCH
  5
117
330
FC
100
AcDbEntity
  8
_U+30EC_U+30A4_U+30E4_U+30FC 1
 62
   179
420
  2234388
100
AcDbHatch
 10
0.0
 20
0.0
 30
0.0
210
0.0
220
0.0
230
1.0
  2
SOLID
 70
     1
 71
     0
 91
        2
 92
        1
 93
        1
 72
     4
 94
        3
 73
     0
 74
     1
 95
       29
 96
       25
 40
0.0
 40
0.0
 40
0.0
 40
0.0
 40
1.0
 40
1.0
 40
1.0
 40
2.0
 40
2.0
 40
2.0
 40
3.0
 40
3.0
 40
3.0
 40
4.0
 40
4.0
 40
4.0
 40
5.0
 40
5.0
 40
5.0
 40
6.0
 40
6.0
 40
6.0
 40
7.0
 40
7.0
 40
7.0
 40
8.0
 40
8.0
 40
8.0
 40
8.0
 10
92.20453556722664
 20
-111.9056586091764
 10
92.08912486847078
 20
-112.1151204146796
 10
91.90377873136434
 20
-112.1340684398484
 10
91.77941078434682
 20
-112.1340684398484
 10
91.60784502918138
 20
-112.1340684398484
 10
91.45626082783038
 20
-112.0875596507976
 10
91.35463051101551
 20
-111.9056586091764
 10
91.24369843639047
 20
-111.7110107142598
 10
91.22337237302749
 20
-111.4739881448746
 10
91.22337237302749
 20
-111.3113796379708
 10
91.22337237302749
 20
-111.1673746466873
 10
91.24128686955079
 20
-110.9155381667156
 10
91.35463051101551
 20
-110.7167561572167
 10
91.46969670022285
 20
-110.5138400331354
 10
91.64160696493683
 20
-110.4904133838357
 10
91.77941078434682
 20
-110.4904133838357
 10
91.94925399176964
 20
-110.4904133838357
 10
92.10290525041178
 20
-110.5348551155955
 10
92.20453556722664
 20
-110.7167561572167
 10
92.31098901772087
 20
-110.9093369948421
 10
92.33579370521467
 20
-111.1377468255142
 10
92.33579370521467
 20
-111.3113796379708
 10
92.33579370521467
 20
-111.4826008835877
 10
92.31305607501201
 20
-111.7130777715509
 10
92.20453556722664
 20
-111.9056586091764
 97
        0
 97
        0
 92
        1
 93
        1
 72
     4
 94
        3
 73
     0
 74
     1
 95
       17
 96
       13
 40
0.0
 40
0.0
 40
0.0
 40
0.0
 40
1.0
 40
1.0
 40
1.0
 40
2.0
 40
2.0
 40
2.0
 40
3.0
 40
3.0
 40
3.0
 40
4.0
 40
4.0
 40
4.0
 40
4.0
 10
91.77941078434682
 20
-110.6829942214612
 10
91.51276039378848
 20
-110.6829942214612
 10
91.46315101880089
 20
-110.9665255798973
 10
91.46315101880089
 20
-111.3113796379708
 10
91.46315101880089
 20
-111.6307399894534
 10
91.50139157868716
 20
-111.9394205449318
 10
91.77941078434682
 20
-111.9394205449318
 10
92.043994117614
 20
-111.9394205449318
 10
92.09601505944129
 20
-111.6583007533354
 10
92.09601505944129
 20
-111.3113796379708
 10
92.09601505944129
 20
-110.9916747769396
 10
92.05536293271533
 20
-110.6829942214612
 10
91.77941078434682
 20
-110.6829942214612
 97
        0
 97
        0
 75
     2
 76
     1
 98
        0
  0
ENDBLK
  5
FF
330
FC
100
AcDbEntity
  8
0
100
AcDbBlockEnd
  0
BLOCK
  5
11A
330
118
100
AcDbEntity
  8
0
100
AcDbBlockBegin
  2
block 7
 70
     0
 10
0.0
 20
0.0
 30
0.0
  3
block 7
  1

  0
SPLINE
  5
11C
330
118
100
AcDbEntity
  8
_U+30EC_U+30A4_U+30E4_U+30FC 1
370
     0
100
AcDbSpline
210
0.0
220
0.0
230
1.0
 70
    11
 71
     3
 72
    26
 73
    22
 74
     0
 42
0.0000000001
 43
0.0000000001
 12
1.0
 22
0.0
 32
0.0
 13
1.0
 23
0.0
 33
0.0
 40
0.0
 40
0.0
 40
0.0
 40
0.0
 40
1.0
 40
1.0
 40
1.0
 40
2.0
 40
2.0
 40
2.0
 40
3.0
 40
3.0
 40
3.0
 40
4.0
 40
4.0
 40
4.0
 40
5.0
 40
5.0
 40
5.0
 40
6.0
 40
6.0
 40
6.0
 40
7.0
 40
7.0
 40
7.0
 40
7.0
 10
117.6141818282353
 20
-132.9944661125847
 30
0.0
 10
117.6141818282353
 20
-132.9944661125847
 30
0.0
 10
116.5100287252128
 20
-132.9944661125847
 30
0.0
 10
116.5100287252128
 20
-132.9944661125847
 30
0.0
 10
116.5100287252128
 20
-132.9944661125847
 30
0.0
 10
116.5100287252128
 20
-133.3472438902743
 30
0.0
 10
116.5100287252128
 20
-133.3472438902743
 30
0.0
 10
116.5100287252128
 20
-133.3472438902743
 30
0.0
 10
116.361889619347
 20
-133.3472438902743
 30
0.0
 10
116.361889619347
 20
-133.3472438902743
 30
0.0
 10
116.3470757087605
 20
-132.9923990552936
 30
0.0
 10
116.1844672018567
 20
-132.942789680306
 30
0.0
 10
116.0700900317464
 20
-132.9110948018417
 30
0.0
 10
116.0700900317464
 20
-132.9110948018417
 30
0.0
 10
116.0700900317464
 20
-132.7550319763598
 30
0.0
 10
116.0700900317464
 20
-132.7550319763598
 30
0.0
 10
116.0700900317464
 20
-132.7550319763598
 30
0.0
 10
117.6141818282353
 20
-132.7550319763598
 30
0.0
 10
117.6141818282353
 20
-132.7550319763598
 30
0.0
 10
117.6141818282353
 20
-132.7550319763598
 30
0.0
 10
117.6141818282353
 20
-132.9944661125847
 30
0.0
 10
117.6141818282353
 20
-132.9944661125847
 30
0.0
  0
HATCH
  5
11D
330
118
100
AcDbEntity
  8
_U+30EC_U+30A4_U+30E4_U+30FC 1
 62
   179
420
  2234388
100
AcDbHatch
 10
0.0
 20
0.0
 30
0.0
210
0.0
220
0.0
230
1.0
  2
SOLID
 70
     1
 71
     0
 91
        1
 92
        1
 93
        1
 72
     4
 94
        3
 73
     0
 74
     1
 95
       26
 96
       22
 40
0.0
 40
0.0
 40
0.0
 40
0.0
 40
1.0
 40
1.0
 40
1.0
 40
2.0
 40
2.0
 40
2.0
 40
3.0
 40
3.0
 40
3.0
 40
4.0
 40
4.0
 40
4.0
 40
5.0
 40
5.0
 40
5.0
 40
6.0
 40
6.0
 40
6.0
 40
7.0
 40
7.0
 40
7.0
 40
7.0
 10
117.6141818282353
 20
-132.9944661125847
 10
117.6141818282353
 20
-132.9944661125847
 10
116.5100287252128
 20
-132.9944661125847
 10
116.5100287252128
 20
-132.9944661125847
 10
116.5100287252128
 20
-132.9944661125847
 10
116.5100287252128
 20
-133.3472438902743
 10
116.5100287252128
 20
-133.3472438902743
 10
116.5100287252128
 20
-133.3472438902743
 10
116.361889619347
 20
-133.3472438902743
 10
116.361889619347
 20
-133.3472438902743
 10
116.3470757087605
 20
-132.9923990552936
 10
116.1844672018567
 20
-132.942789680306
 10
116.0700900317464
 20
-132.9110948018417
 10
116.0700900317464
 20
-132.9110948018417
 10
116.0700900317464
 20
-132.7550319763598
 10
116.0700900317464
 20
-132.7550319763598
 10
116.0700900317464
 20
-132.7550319763598
 10
117.6141818282353
 20
-132.7550319763598
 10
117.6141818282353
 20
-132.7550319763598
 10
117.6141818282353
 20
-132.7550319763598
 10
117.6141818282353
 20
-132.9944661125847
 10
117.6141818282353
 20
-132.9944661125847
 97
        0
 97
        0
 75
     2
 76
     1
 98
        0
  0
SPLINE
  5
11E
330
118
100
AcDbEntity
  8
_U+30EC_U+30A4_U+30E4_U+30FC 1
370
     0
100
AcDbSpline
210
0.0
220
0.0
230
1.0
 70
    11
 71
     3
 72
    53
 73
    49
 74
     0
 42
0.0000000001
 43
0.0000000001
 12
1.0
 22
0.0
 32
0.0
 13
1.0
 23
0.0
 33
0.0
 40
0.0
 40
0.0
 40
0.0
 40
0.0
 40
1.0
 40
1.0
 40
1.0
 40
2.0
 40
2.0
 40
2.0
 40
3.0
 40
3.0
 40
3.0
 40
4.0
 40
4.0
 40
4.0
 40
5.0
 40
5.0
 40
5.0
 40
6.0
 40
6.0
 40
6.0
 40
7.0
 40
7.0
 40
7.0
 40
8.0
 40
8.0
 40
8.0
 40
9.0
 40
9.0
 40
9.0
 40
10.0
 40
10.0
 40
10.0
 40
11.0
 40
11.0
 40
11.0
 40
12.0
 40
12.0
 40
12.0
 40
13.0
 40
13.0
 40
13.0
 40
14.0
 40
14.0
 40
14.0
 40
15.0
 40
15.0
 40
15.0
 40
16.0
 40
16.0
 40
16.0
 40
16.0
 10
117.665169241417
 20
-131.7053113820042
 30
0.0
 10
117.665169241417
 20
-131.7886826927473
 30
0.0
 10
117.6482882735393
 20
-131.8975477100812
 30
0.0
 10
117.5845540070622
 20
-132.005723708318
 30
0.0
 10
117.4746554610827
 20
-132.1910698454245
 30
0.0
 10
117.3433973230947
 20
-132.2138074756271
 30
0.0
 10
117.2359103439549
 20
-132.2344780485386
 30
0.0
 10
117.2359103439549
 20
-132.2344780485386
 30
0.0
 10
117.2359103439549
 20
-131.9967664600564
 30
0.0
 10
117.2359103439549
 20
-131.9967664600564
 30
0.0
 10
117.4343478439053
 20
-131.9381998368071
 30
0.0
 10
117.4639756650785
 20
-131.8024630746883
 30
0.0
 10
117.4639756650785
 20
-131.7028998151646
 30
0.0
 10
117.4639756650785
 20
-131.5537271806533
 30
0.0
 10
117.3647569151033
 20
-131.3911186737494
 30
0.0
 10
117.1318684603004
 20
-131.3911186737494
 30
0.0
 10
116.8762423752948
 20
-131.3911186737494
 30
0.0
 10
116.8063069369443
 20
-131.5833550018264
 30
0.0
 10
116.8063069369443
 20
-131.7122015729747
 30
0.0
 10
116.8063069369443
 20
-131.7459635087302
 30
0.0
 10
116.8063069369443
 20
-131.8975477100812
 30
0.0
 10
116.9354980176411
 20
-131.9922878359255
 30
0.0
 10
116.9354980176411
 20
-131.9922878359255
 30
0.0
 10
116.9162054829237
 20
-132.1800455398717
 30
0.0
 10
116.9162054829237
 20
-132.1800455398717
 30
0.0
 10
116.9162054829237
 20
-132.1800455398717
 30
0.0
 10
116.0700900317464
 20
-132.0511989687233
 30
0.0
 10
116.0700900317464
 20
-132.0511989687233
 30
0.0
 10
116.0700900317464
 20
-132.0511989687233
 30
0.0
 10
116.0700900317464
 20
-131.2192084090355
 30
0.0
 10
116.0700900317464
 20
-131.2192084090355
 30
0.0
 10
116.0700900317464
 20
-131.2192084090355
 30
0.0
 10
116.264737926663
 20
-131.2192084090355
 30
0.0
 10
116.264737926663
 20
-131.2192084090355
 30
0.0
 10
116.264737926663
 20
-131.2192084090355
 30
0.0
 10
116.264737926663
 20
-131.8768771371697
 30
0.0
 10
116.264737926663
 20
-131.8768771371697
 30
0.0
 10
116.264737926663
 20
-131.8768771371697
 30
0.0
 10
116.6877956522517
 20
-131.9471570850688
 30
0.0
 10
116.6877956522517
 20
-131.9471570850688
 30
0.0
 10
116.6536892069477
 20
-131.881700270849
 30
0.0
 10
116.6137260993188
 20
-131.7935058264266
 30
0.0
 10
116.6137260993188
 20
-131.6667263125694
 30
0.0
 10
116.6137260993188
 20
-131.3952527883318
 30
0.0
 10
116.7997612555223
 20
-131.1423827797144
 30
0.0
 10
117.1129204351315
 20
-131.1423827797144
 30
0.0
 10
117.430213729323
 20
-131.1423827797144
 30
0.0
 10
117.665169241417
 20
-131.3818169159393
 30
0.0
 10
117.665169241417
 20
-131.7053113820042
 30
0.0
  0
HATCH
  5
11F
330
118
100
AcDbEntity
  8
_U+30EC_U+30A4_U+30E4_U+30FC 1
 62
   179
420
  2234388
100
AcDbHatch
 10
0.0
 20
0.0
 30
0.0
210
0.0
220
0.0
230
1.0
  2
SOLID
 70
     1
 71
     0
 91
        1
 92
        1
 93
        1
 72
     4
 94
        3
 73
     0
 74
     1
 95
       53
 96
       49
 40
0.0
 40
0.0
 40
0.0
 40
0.0
 40
1.0
 40
1.0
 40
1.0
 40
2.0
 40
2.0
 40
2.0
 40
3.0
 40
3.0
 40
3.0
 40
4.0
 40
4.0
 40
4.0
 40
5.0
 40
5.0
 40
5.0
 40
6.0
 40
6.0
 40
6.0
 40
7.0
 40
7.0
 40
7.0
 40
8.0
 40
8.0
 40
8.0
 40
9.0
 40
9.0
 40
9.0
 40
10.0
 40
10.0
 40
10.0
 40
11.0
 40
11.0
 40
11.0
 40
12.0
 40
12.0
 40
12.0
 40
13.0
 40
13.0
 40
13.0
 40
14.0
 40
14.0
 40
14.0
 40
15.0
 40
15.0
 40
15.0
 40
16.0
 40
16.0
 40
16.0
 40
16.0
 10
117.665169241417
 20
-131.7053113820042
 10
117.665169241417
 20
-131.7886826927473
 10
117.6482882735393
 20
-131.8975477100812
 10
117.5845540070622
 20
-132.005723708318
 10
117.4746554610827
 20
-132.1910698454245
 10
117.3433973230947
 20
-132.2138074756271
 10
117.2359103439549
 20
-132.2344780485386
 10
117.2359103439549
 20
-132.2344780485386
 10
117.2359103439549
 20
-131.9967664600564
 10
117.2359103439549
 20
-131.9967664600564
 10
117.4343478439053
 20
-131.9381998368071
 10
117.4639756650785
 20
-131.8024630746883
 10
117.4639756650785
 20
-131.7028998151646
 10
117.4639756650785
 20
-131.5537271806533
 10
117.3647569151033
 20
-131.3911186737494
 10
117.1318684603004
 20
-131.3911186737494
 10
116.8762423752948
 20
-131.3911186737494
 10
116.8063069369443
 20
-131.5833550018264
 10
116.8063069369443
 20
-131.7122015729747
 10
116.8063069369443
 20
-131.7459635087302
 10
116.8063069369443
 20
-131.8975477100812
 10
116.9354980176411
 20
-131.9922878359255
 10
116.9354980176411
 20
-131.9922878359255
 10
116.9162054829237
 20
-132.1800455398717
 10
116.9162054829237
 20
-132.1800455398717
 10
116.9162054829237
 20
-132.1800455398717
 10
116.0700900317464
 20
-132.0511989687233
 10
116.0700900317464
 20
-132.0511989687233
 10
116.0700900317464
 20
-132.0511989687233
 10
116.0700900317464
 20
-131.2192084090355
 10
116.0700900317464
 20
-131.2192084090355
 10
116.0700900317464
 20
-131.2192084090355
 10
116.264737926663
 20
-131.2192084090355
 10
116.264737926663
 20
-131.2192084090355
 10
116.264737926663
 20
-131.2192084090355
 10
116.264737926663
 20
-131.8768771371697
 10
116.264737926663
 20
-131.8768771371697
 10
116.264737926663
 20
-131.8768771371697
 10
116.6877956522517
 20
-131.9471570850688
 10
116.6877956522517
 20
-131.9471570850688
 10
116.6536892069477
 20
-131.881700270849
 10
116.6137260993188
 20
-131.7935058264266
 10
116.6137260993188
 20
-131.6667263125694
 10
116.6137260993188
 20
-131.3952527883318
 10
116.7997612555223
 20
-131.1423827797144
 10
117.1129204351315
 20
-131.1423827797144
 10
117.430213729323
 20
-131.1423827797144
 10
117.665169241417
 20
-131.3818169159393
 10
117.665169241417
 20
-131.7053113820042
 97
        0
 97
        0
 75
     2
 76
     1
 98
        0
  0
POLYLINE
  5
120
330
118
100
AcDbEntity
  8
_U+30EC_U+30A4_U+30E4_U+30FC 1
370
     0
100
AcDb2dPolyline
 66
     1
 10
0.0
 20
0.0
 30
0.0
  0
VERTEX
  5
121
330
120
100
AcDbEntity
  8
_U+30EC_U+30A4_U+30E4_U+30FC 1
370
     0
100
AcDbVertex
100
AcDb2dVertex
 10
117.6141818282353
 20
-130.8970919811646
 30
0.0
  0
VERTEX
  5
122
330
120
100
AcDbEntity
  8
_U+30EC_U+30A4_U+30E4_U+30FC 1
370
     0
100
AcDbVertex
100
AcDb2dVertex
 10
117.3626898578121
 20
-130.8970919811646
 30
0.0
  0
VERTEX
  5
123
330
120
100
AcDbEntity
  8
_U+30EC_U+30A4_U+30E4_U+30FC 1
370
     0
100
AcDbVertex
100
AcDb2dVertex
 10
117.3626898578121
 20
-130.6283745333151
 30
0.0
  0
VERTEX
  5
124
330
120
100
AcDbEntity
  8
_U+30EC_U+30A4_U+30E4_U+30FC 1
370
     0
100
AcDbVertex
100
AcDb2dVertex
 10
117.6141818282353
 20
-130.6283745333151
 30
0.0
  0
VERTEX
  5
125
330
120
100
AcDbEntity
  8
_U+30EC_U+30A4_U+30E4_U+30FC 1
370
     0
100
AcDbVertex
100
AcDb2dVertex
 10
117.6141818282353
 20
-130.8970919811646
 30
0.0
  0
SEQEND
  5
126
330
120
100
AcDbEntity
  8
_U+30EC_U+30A4_U+30E4_U+30FC 1
370
     0
  0
HATCH
  5
127
330
118
100
AcDbEntity
  8
_U+30EC_U+30A4_U+30E4_U+30FC 1
 62
   179
420
  2234388
100
AcDbHatch
 10
0.0
 20
0.0
 30
0.0
210
0.0
220
0.0
230
1.0
  2
SOLID
 70
     1
 71
     0
 91
        1
 92
        1
 93
        4
 72
     1
 10
117.6141818282353
 20
-130.8970919811646
 11
117.3626898578121
 21
-130.8970919811646
 72
     1
 10
117.3626898578121
 20
-130.8970919811646
 11
117.3626898578121
 21
-130.6283745333151
 72
     1
 10
117.3626898578121
 20
-130.6283745333151
 11
117.6141818282353
 21
-130.6283745333151
 72
     1
 10
117.6141818282353
 20
-130.6283745333151
 11
117.6141818282353
 21
-130.8970919811646
 97
        0
 75
     2
 76
     1
 98
        0
  0
SPLINE
  5
128
330
118
100
AcDbEntity
  8
_U+30EC_U+30A4_U+30E4_U+30FC 1
370
     0
100
AcDbSpline
210
0.0
220
0.0
230
1.0
 70
    11
 71
     3
 72
    53
 73
    49
 74
     0
 42
0.0000000001
 43
0.0000000001
 12
1.0
 22
0.0
 32
0.0
 13
1.0
 23
0.0
 33
0.0
 40
0.0
 40
0.0
 40
0.0
 40
0.0
 40
1.0
 40
1.0
 40
1.0
 40
2.0
 40
2.0
 40
2.0
 40
3.0
 40
3.0
 40
3.0
 40
4.0
 40
4.0
 40
4.0
 40
5.0
 40
5.0
 40
5.0
 40
6.0
 40
6.0
 40
6.0
 40
7.0
 40
7.0
 40
7.0
 40
8.0
 40
8.0
 40
8.0
 40
9.0
 40
9.0
 40
9.0
 40
10.0
 40
10.0
 40
10.0
 40
11.0
 40
11.0
 40
11.0
 40
12.0
 40
12.0
 40
12.0
 40
13.0
 40
13.0
 40
13.0
 40
14.0
 40
14.0
 40
14.0
 40
15.0
 40
15.0
 40
15.0
 40
16.0
 40
16.0
 40
16.0
 40
16.0
 10
117.665169241417
 20
-129.8614962782985
 30
0.0
 10
117.665169241417
 20
-129.9448675890416
 30
0.0
 10
117.6482882735393
 20
-130.0537326063755
 30
0.0
 10
117.5845540070622
 20
-130.1619086046123
 30
0.0
 10
117.4746554610827
 20
-130.3475992512673
 30
0.0
 10
117.3433973230947
 20
-130.3699923719214
 30
0.0
 10
117.2359103439549
 20
-130.3903184352844
 30
0.0
 10
117.2359103439549
 20
-130.3903184352844
 30
0.0
 10
117.2359103439549
 20
-130.1529513563507
 30
0.0
 10
117.2359103439549
 20
-130.1529513563507
 30
0.0
 10
117.4343478439053
 20
-130.0943847331014
 30
0.0
 10
117.4639756650785
 20
-129.9586479709826
 30
0.0
 10
117.4639756650785
 20
-129.8590847114588
 30
0.0
 10
117.4639756650785
 20
-129.7099120769475
 30
0.0
 10
117.3647569151033
 20
-129.5473035700437
 30
0.0
 10
117.1318684603004
 20
-129.5473035700437
 30
0.0
 10
116.8762423752948
 20
-129.5473035700437
 30
0.0
 10
116.8063069369443
 20
-129.7391953885721
 30
0.0
 10
116.8063069369443
 20
-129.8680419597205
 30
0.0
 10
116.8063069369443
 20
-129.9021484050245
 30
0.0
 10
116.8063069369443
 20
-130.0537326063755
 30
0.0
 10
116.9354980176411
 20
-130.1484727322198
 30
0.0
 10
116.9354980176411
 20
-130.1484727322198
 30
0.0
 10
116.9162054829237
 20
-130.3362304361659
 30
0.0
 10
116.9162054829237
 20
-130.3362304361659
 30
0.0
 10
116.9162054829237
 20
-130.3362304361659
 30
0.0
 10
116.0700900317464
 20
-130.2073838650176
 30
0.0
 10
116.0700900317464
 20
-130.2073838650176
 30
0.0
 10
116.0700900317464
 20
-130.2073838650176
 30
0.0
 10
116.0700900317464
 20
-129.3753933053298
 30
0.0
 10
116.0700900317464
 20
-129.3753933053298
 30
0.0
 10
116.0700900317464
 20
-129.3753933053298
 30
0.0
 10
116.264737926663
 20
-129.3753933053298
 30
0.0
 10
116.264737926663
 20
-129.3753933053298
 30
0.0
 10
116.264737926663
 20
-129.3753933053298
 30
0.0
 10
116.264737926663
 20
-130.0330620334639
 30
0.0
 10
116.264737926663
 20
-130.0330620334639
 30
0.0
 10
116.264737926663
 20
-130.0330620334639
 30
0.0
 10
116.6877956522517
 20
-130.1033419813631
 30
0.0
 10
116.6877956522517
 20
-130.1033419813631
 30
0.0
 10
116.6536892069477
 20
-130.0378851671433
 30
0.0
 10
116.6137260993188
 20
-129.9496907227209
 30
0.0
 10
116.6137260993188
 20
-129.8229112088637
 30
0.0
 10
116.6137260993188
 20
-129.5517821941746
 30
0.0
 10
116.7997612555223
 20
-129.2985676760087
 30
0.0
 10
117.1129204351315
 20
-129.2985676760087
 30
0.0
 10
117.430213729323
 20
-129.2985676760087
 30
0.0
 10
117.665169241417
 20
-129.5380018122336
 30
0.0
 10
117.665169241417
 20
-129.8614962782985
 30
0.0
  0
HATCH
  5
129
330
118
100
AcDbEntity
  8
_U+30EC_U+30A4_U+30E4_U+30FC 1
 62
   179
420
  2234388
100
AcDbHatch
 10
0.0
 20
0.0
 30
0.0
210
0.0
220
0.0
230
1.0
  2
SOLID
 70
     1
 71
     0
 91
        1
 92
        1
 93
        1
 72
     4
 94
        3
 73
     0
 74
     1
 95
       53
 96
       49
 40
0.0
 40
0.0
 40
0.0
 40
0.0
 40
1.0
 40
1.0
 40
1.0
 40
2.0
 40
2.0
 40
2.0
 40
3.0
 40
3.0
 40
3.0
 40
4.0
 40
4.0
 40
4.0
 40
5.0
 40
5.0
 40
5.0
 40
6.0
 40
6.0
 40
6.0
 40
7.0
 40
7.0
 40
7.0
 40
8.0
 40
8.0
 40
8.0
 40
9.0
 40
9.0
 40
9.0
 40
10.0
 40
10.0
 40
10.0
 40
11.0
 40
11.0
 40
11.0
 40
12.0
 40
12.0
 40
12.0
 40
13.0
 40
13.0
 40
13.0
 40
14.0
 40
14.0
 40
14.0
 40
15.0
 40
15.0
 40
15.0
 40
16.0
 40
16.0
 40
16.0
 40
16.0
 10
117.665169241417
 20
-129.8614962782985
 10
117.665169241417
 20
-129.9448675890416
 10
117.6482882735393
 20
-130.0537326063755
 10
117.5845540070622
 20
-130.1619086046123
 10
117.4746554610827
 20
-130.3475992512673
 10
117.3433973230947
 20
-130.3699923719214
 10
117.2359103439549
 20
-130.3903184352844
 10
117.2359103439549
 20
-130.3903184352844
 10
117.2359103439549
 20
-130.1529513563507
 10
117.2359103439549
 20
-130.1529513563507
 10
117.4343478439053
 20
-130.0943847331014
 10
117.4639756650785
 20
-129.9586479709826
 10
117.4639756650785
 20
-129.8590847114588
 10
117.4639756650785
 20
-129.7099120769475
 10
117.3647569151033
 20
-129.5473035700437
 10
117.1318684603004
 20
-129.5473035700437
 10
116.8762423752948
 20
-129.5473035700437
 10
116.8063069369443
 20
-129.7391953885721
 10
116.8063069369443
 20
-129.8680419597205
 10
116.8063069369443
 20
-129.9021484050245
 10
116.8063069369443
 20
-130.0537326063755
 10
116.9354980176411
 20
-130.1484727322198
 10
116.9354980176411
 20
-130.1484727322198
 10
116.9162054829237
 20
-130.3362304361659
 10
116.9162054829237
 20
-130.3362304361659
 10
116.9162054829237
 20
-130.3362304361659
 10
116.0700900317464
 20
-130.2073838650176
 10
116.0700900317464
 20
-130.2073838650176
 10
116.0700900317464
 20
-130.2073838650176
 10
116.0700900317464
 20
-129.3753933053298
 10
116.0700900317464
 20
-129.3753933053298
 10
116.0700900317464
 20
-129.3753933053298
 10
116.264737926663
 20
-129.3753933053298
 10
116.264737926663
 20
-129.3753933053298
 10
116.264737926663
 20
-129.3753933053298
 10
116.264737926663
 20
-130.0330620334639
 10
116.264737926663
 20
-130.0330620334639
 10
116.264737926663
 20
-130.0330620334639
 10
116.6877956522517
 20
-130.1033419813631
 10
116.6877956522517
 20
-130.1033419813631
 10
116.6536892069477
 20
-130.0378851671433
 10
116.6137260993188
 20
-129.9496907227209
 10
116.6137260993188
 20
-129.8229112088637
 10
116.6137260993188
 20
-129.5517821941746
 10
116.7997612555223
 20
-129.2985676760087
 10
117.1129204351315
 20
-129.2985676760087
 10
117.430213729323
 20
-129.2985676760087
 10
117.665169241417
 20
-129.5380018122336
 10
117.665169241417
 20
-129.8614962782985
 97
        0
 97
        0
 75
     2
 76
     1
 98
        0
  0
ENDBLK
  5
11B
330
118
100
AcDbEntity
  8
0
100
AcDbBlockEnd
  0
BLOCK
  5
12C
330
12A
100
AcDbEntity
  8
0
100
AcDbBlockBegin
  2
block 8
 70
     0
 10
0.0
 20
0.0
 30
0.0
  3
block 8
  1

  0
SPLINE
  5
12E
330
12A
100
AcDbEntity
  8
_U+30EC_U+30A4_U+30E4_U+30FC 1
370
     0
100
AcDbSpline
210
0.0
220
0.0
230
1.0
 70
    11
 71
     3
 72
    44
 73
    40
 74
     0
 42
0.0000000001
 43
0.0000000001
 12
1.0
 22
0.0
 32
0.0
 13
1.0
 23
0.0
 33
0.0
 40
0.0
 40
0.0
 40
0.0
 40
0.0
 40
1.0
 40
1.0
 40
1.0
 40
2.0
 40
2.0
 40
2.0
 40
3.0
 40
3.0
 40
3.0
 40
4.0
 40
4.0
 40
4.0
 40
5.0
 40
5.0
 40
5.0
 40
6.0
 40
6.0
 40
6.0
 40
7.0
 40
7.0
 40
7.0
 40
8.0
 40
8.0
 40
8.0
 40
9.0
 40
9.0
 40
9.0
 40
10.0
 40
10.0
 40
10.0
 40
11.0
 40
11.0
 40
11.0
 40
12.0
 40
12.0
 40
12.0
 40
13.0
 40
13.0
 40
13.0
 40
13.0
 10
65.38756780049339
 20
-129.9958550022233
 30
0.0
 10
65.5463867023634
 20
-130.2287434570262
 30
0.0
 10
65.62045625529628
 20
-130.3283067165499
 30
0.0
 10
65.7641167370312
 20
-130.3803276583772
 30
0.0
 10
65.7641167370312
 20
-130.3803276583772
 30
0.0
 10
65.7641167370312
 20
-129.5479925891408
 30
0.0
 10
65.7641167370312
 20
-129.5479925891408
 30
0.0
 10
65.7641167370312
 20
-129.5479925891408
 30
0.0
 10
65.96944442795208
 20
-129.5479925891408
 30
0.0
 10
65.96944442795208
 20
-129.5479925891408
 30
0.0
 10
65.96944442795208
 20
-129.5479925891408
 30
0.0
 10
65.96944442795208
 20
-130.6469780489355
 30
0.0
 10
65.96944442795208
 20
-130.6469780489355
 30
0.0
 10
65.61184351658315
 20
-130.61321611318
 30
0.0
 10
65.53363984906798
 20
-130.5429361652809
 30
0.0
 10
65.23529458004535
 20
-130.1315917643421
 30
0.0
 10
65.03651257054644
 20
-129.8580511828133
 30
0.0
 10
64.96864418948701
 20
-129.7877712349142
 30
0.0
 10
64.83118487962554
 20
-129.7877712349142
 30
0.0
 10
64.71267359493295
 20
-129.7877712349142
 30
0.0
 10
64.58175996649345
 20
-129.8645968642352
 30
0.0
 10
64.58175996649345
 20
-130.075092198384
 30
0.0
 10
64.58175996649345
 20
-130.3531114040437
 30
0.0
 10
64.81223685445667
 20
-130.3620686523053
 30
0.0
 10
64.92868108185812
 20
-130.3665472764361
 30
0.0
 10
64.92868108185812
 20
-130.3665472764361
 30
0.0
 10
64.92868108185812
 20
-130.6063259222095
 30
0.0
 10
64.92868108185812
 20
-130.6063259222095
 30
0.0
 10
64.80155705845239
 20
-130.5973686739479
 30
0.0
 10
64.68959145518177
 20
-130.585655349298
 30
0.0
 10
64.57108017048918
 20
-130.5002169812638
 30
0.0
 10
64.410194211328
 20
-130.3823947156683
 30
0.0
 10
64.37643227557257
 20
-130.1836127061694
 30
0.0
 10
64.37643227557257
 20
-130.0592447591519
 30
0.0
 10
64.37643227557257
 20
-129.7629665474204
 30
0.0
 10
64.5604003744849
 20
-129.5414469077188
 30
0.0
 10
64.8332519369167
 20
-129.5414469077188
 30
0.0
 10
65.06200627713729
 20
-129.5414469077188
 30
0.0
 10
65.16122502711248
 20
-129.6658148547363
 30
0.0
 10
65.38756780049339
 20
-129.9958550022233
 30
0.0
  0
HATCH
  5
12F
330
12A
100
AcDbEntity
  8
_U+30EC_U+30A4_U+30E4_U+30FC 1
 62
   179
420
  2234388
100
AcDbHatch
 10
0.0
 20
0.0
 30
0.0
210
0.0
220
0.0
230
1.0
  2
SOLID
 70
     1
 71
     0
 91
        1
 92
        1
 93
        1
 72
     4
 94
        3
 73
     0
 74
     1
 95
       44
 96
       40
 40
0.0
 40
0.0
 40
0.0
 40
0.0
 40
1.0
 40
1.0
 40
1.0
 40
2.0
 40
2.0
 40
2.0
 40
3.0
 40
3.0
 40
3.0
 40
4.0
 40
4.0
 40
4.0
 40
5.0
 40
5.0
 40
5.0
 40
6.0
 40
6.0
 40
6.0
 40
7.0
 40
7.0
 40
7.0
 40
8.0
 40
8.0
 40
8.0
 40
9.0
 40
9.0
 40
9.0
 40
10.0
 40
10.0
 40
10.0
 40
11.0
 40
11.0
 40
11.0
 40
12.0
 40
12.0
 40
12.0
 40
13.0
 40
13.0
 40
13.0
 40
13.0
 10
65.38756780049339
 20
-129.9958550022233
 10
65.5463867023634
 20
-130.2287434570262
 10
65.62045625529628
 20
-130.3283067165499
 10
65.7641167370312
 20
-130.3803276583772
 10
65.7641167370312
 20
-130.3803276583772
 10
65.7641167370312
 20
-129.5479925891408
 10
65.7641167370312
 20
-129.5479925891408
 10
65.7641167370312
 20
-129.5479925891408
 10
65.96944442795208
 20
-129.5479925891408
 10
65.96944442795208
 20
-129.5479925891408
 10
65.96944442795208
 20
-129.5479925891408
 10
65.96944442795208
 20
-130.6469780489355
 10
65.96944442795208
 20
-130.6469780489355
 10
65.61184351658315
 20
-130.61321611318
 10
65.53363984906798
 20
-130.5429361652809
 10
65.23529458004535
 20
-130.1315917643421
 10
65.03651257054644
 20
-129.8580511828133
 10
64.96864418948701
 20
-129.7877712349142
 10
64.83118487962554
 20
-129.7877712349142
 10
64.71267359493295
 20
-129.7877712349142
 10
64.58175996649345
 20
-129.8645968642352
 10
64.58175996649345
 20
-130.075092198384
 10
64.58175996649345
 20
-130.3531114040437
 10
64.81223685445667
 20
-130.3620686523053
 10
64.92868108185812
 20
-130.3665472764361
 10
64.92868108185812
 20
-130.3665472764361
 10
64.92868108185812
 20
-130.6063259222095
 10
64.92868108185812
 20
-130.6063259222095
 10
64.80155705845239
 20
-130.5973686739479
 10
64.68959145518177
 20
-130.585655349298
 10
64.57108017048918
 20
-130.5002169812638
 10
64.410194211328
 20
-130.3823947156683
 10
64.37643227557257
 20
-130.1836127061694
 10
64.37643227557257
 20
-130.0592447591519
 10
64.37643227557257
 20
-129.7629665474204
 10
64.5604003744849
 20
-129.5414469077188
 10
64.8332519369167
 20
-129.5414469077188
 10
65.06200627713729
 20
-129.5414469077188
 10
65.16122502711248
 20
-129.6658148547363
 10
65.38756780049339
 20
-129.9958550022233
 97
        0
 97
        0
 75
     2
 76
     1
 98
        0
  0
SPLINE
  5
130
330
12A
100
AcDbEntity
  8
_U+30EC_U+30A4_U+30E4_U+30FC 1
370
     0
100
AcDbSpline
210
0.0
220
0.0
230
1.0
 70
    11
 71
     3
 72
    53
 73
    49
 74
     0
 42
0.0000000001
 43
0.0000000001
 12
1.0
 22
0.0
 32
0.0
 13
1.0
 23
0.0
 33
0.0
 40
0.0
 40
0.0
 40
0.0
 40
0.0
 40
1.0
 40
1.0
 40
1.0
 40
2.0
 40
2.0
 40
2.0
 40
3.0
 40
3.0
 40
3.0
 40
4.0
 40
4.0
 40
4.0
 40
5.0
 40
5.0
 40
5.0
 40
6.0
 40
6.0
 40
6.0
 40
7.0
 40
7.0
 40
7.0
 40
8.0
 40
8.0
 40
8.0
 40
9.0
 40
9.0
 40
9.0
 40
10.0
 40
10.0
 40
10.0
 40
11.0
 40
11.0
 40
11.0
 40
12.0
 40
12.0
 40
12.0
 40
13.0
 40
13.0
 40
13.0
 40
14.0
 40
14.0
 40
14.0
 40
15.0
 40
15.0
 40
15.0
 40
16.0
 40
16.0
 40
16.0
 40
16.0
 10
66.02008733158526
 20
-128.8579399634452
 30
0.0
 10
66.02008733158526
 20
-128.9416557837368
 30
0.0
 10
66.00320636370753
 20
-129.0498317819737
 30
0.0
 10
65.93981660677893
 20
-129.1586967993076
 30
0.0
 10
65.82991806079947
 20
-129.344042936414
 30
0.0
 10
65.69865992281144
 20
-129.3664360570681
 30
0.0
 10
65.59082843412313
 20
-129.3867621204311
 30
0.0
 10
65.59082843412313
 20
-129.3867621204311
 30
0.0
 10
65.59082843412313
 20
-129.1493950414974
 30
0.0
 10
65.59082843412313
 20
-129.1493950414974
 30
0.0
 10
65.78961044362204
 20
-129.0908284182481
 30
0.0
 10
65.81923826479519
 20
-128.9550916561293
 30
0.0
 10
65.81923826479519
 20
-128.8555283966056
 30
0.0
 10
65.81923826479519
 20
-128.7063557620943
 30
0.0
 10
65.71967500527147
 20
-128.5434027456419
 30
0.0
 10
65.4871310600171
 20
-128.5434027456419
 30
0.0
 10
65.23116046546305
 20
-128.5434027456419
 30
0.0
 10
65.16122502711248
 20
-128.7356390737189
 30
0.0
 10
65.16122502711248
 20
-128.8644856448672
 30
0.0
 10
65.16122502711248
 20
-128.8985920901712
 30
0.0
 10
65.16122502711248
 20
-129.0498317819737
 30
0.0
 10
65.29041610780935
 20
-129.1449164173665
 30
0.0
 10
65.29041610780935
 20
-129.1449164173665
 30
0.0
 10
65.27146808264047
 20
-129.3326741213127
 30
0.0
 10
65.27146808264047
 20
-129.3326741213127
 30
0.0
 10
65.27146808264047
 20
-129.3326741213127
 30
0.0
 10
64.42500812191459
 20
-129.2038275501643
 30
0.0
 10
64.42500812191459
 20
-129.2038275501643
 30
0.0
 10
64.42500812191459
 20
-129.2038275501643
 30
0.0
 10
64.42500812191459
 20
-128.3718369904765
 30
0.0
 10
64.42500812191459
 20
-128.3718369904765
 30
0.0
 10
64.42500812191459
 20
-128.3718369904765
 30
0.0
 10
64.6196560168312
 20
-128.3718369904765
 30
0.0
 10
64.6196560168312
 20
-128.3718369904765
 30
0.0
 10
64.6196560168312
 20
-128.3718369904765
 30
0.0
 10
64.6196560168312
 20
-129.0295057186107
 30
0.0
 10
64.6196560168312
 20
-129.0295057186107
 30
0.0
 10
64.6196560168312
 20
-129.0295057186107
 30
0.0
 10
65.04271374241988
 20
-129.0997856665098
 30
0.0
 10
65.04271374241988
 20
-129.0997856665098
 30
0.0
 10
65.00895180666443
 20
-129.03432885229
 30
0.0
 10
64.96864418948701
 20
-128.9461344078676
 30
0.0
 10
64.96864418948701
 20
-128.8193548940104
 30
0.0
 10
64.96864418948701
 20
-128.5482258793213
 30
0.0
 10
65.15502385523902
 20
-128.2950113611554
 30
0.0
 10
65.46818303484824
 20
-128.2950113611554
 30
0.0
 10
65.78547632903974
 20
-128.2950113611554
 30
0.0
 10
66.02008733158526
 20
-128.5344454973803
 30
0.0
 10
66.02008733158526
 20
-128.8579399634452
 30
0.0
  0
HATCH
  5
131
330
12A
100
AcDbEntity
  8
_U+30EC_U+30A4_U+30E4_U+30FC 1
 62
   179
420
  2234388
100
AcDbHatch
 10
0.0
 20
0.0
 30
0.0
210
0.0
220
0.0
230
1.0
  2
SOLID
 70
     1
 71
     0
 91
        1
 92
        1
 93
        1
 72
     4
 94
        3
 73
     0
 74
     1
 95
       53
 96
       49
 40
0.0
 40
0.0
 40
0.0
 40
0.0
 40
1.0
 40
1.0
 40
1.0
 40
2.0
 40
2.0
 40
2.0
 40
3.0
 40
3.0
 40
3.0
 40
4.0
 40
4.0
 40
4.0
 40
5.0
 40
5.0
 40
5.0
 40
6.0
 40
6.0
 40
6.0
 40
7.0
 40
7.0
 40
7.0
 40
8.0
 40
8.0
 40
8.0
 40
9.0
 40
9.0
 40
9.0
 40
10.0
 40
10.0
 40
10.0
 40
11.0
 40
11.0
 40
11.0
 40
12.0
 40
12.0
 40
12.0
 40
13.0
 40
13.0
 40
13.0
 40
14.0
 40
14.0
 40
14.0
 40
15.0
 40
15.0
 40
15.0
 40
16.0
 40
16.0
 40
16.0
 40
16.0
 10
66.02008733158526
 20
-128.8579399634452
 10
66.02008733158526
 20
-128.9416557837368
 10
66.00320636370753
 20
-129.0498317819737
 10
65.93981660677893
 20
-129.1586967993076
 10
65.82991806079947
 20
-129.344042936414
 10
65.69865992281144
 20
-129.3664360570681
 10
65.59082843412313
 20
-129.3867621204311
 10
65.59082843412313
 20
-129.3867621204311
 10
65.59082843412313
 20
-129.1493950414974
 10
65.59082843412313
 20
-129.1493950414974
 10
65.78961044362204
 20
-129.0908284182481
 10
65.81923826479519
 20
-128.9550916561293
 10
65.81923826479519
 20
-128.8555283966056
 10
65.81923826479519
 20
-128.7063557620943
 10
65.71967500527147
 20
-128.5434027456419
 10
65.4871310600171
 20
-128.5434027456419
 10
65.23116046546305
 20
-128.5434027456419
 10
65.16122502711248
 20
-128.7356390737189
 10
65.16122502711248
 20
-128.8644856448672
 10
65.16122502711248
 20
-128.8985920901712
 10
65.16122502711248
 20
-129.0498317819737
 10
65.29041610780935
 20
-129.1449164173665
 10
65.29041610780935
 20
-129.1449164173665
 10
65.27146808264047
 20
-129.3326741213127
 10
65.27146808264047
 20
-129.3326741213127
 10
65.27146808264047
 20
-129.3326741213127
 10
64.42500812191459
 20
-129.2038275501643
 10
64.42500812191459
 20
-129.2038275501643
 10
64.42500812191459
 20
-129.2038275501643
 10
64.42500812191459
 20
-128.3718369904765
 10
64.42500812191459
 20
-128.3718369904765
 10
64.42500812191459
 20
-128.3718369904765
 10
64.6196560168312
 20
-128.3718369904765
 10
64.6196560168312
 20
-128.3718369904765
 10
64.6196560168312
 20
-128.3718369904765
 10
64.6196560168312
 20
-129.0295057186107
 10
64.6196560168312
 20
-129.0295057186107
 10
64.6196560168312
 20
-129.0295057186107
 10
65.04271374241988
 20
-129.0997856665098
 10
65.04271374241988
 20
-129.0997856665098
 10
65.00895180666443
 20
-129.03432885229
 10
64.96864418948701
 20
-128.9461344078676
 10
64.96864418948701
 20
-128.8193548940104
 10
64.96864418948701
 20
-128.5482258793213
 10
65.15502385523902
 20
-128.2950113611554
 10
65.46818303484824
 20
-128.2950113611554
 10
65.78547632903974
 20
-128.2950113611554
 10
66.02008733158526
 20
-128.5344454973803
 10
66.02008733158526
 20
-128.8579399634452
 97
        0
 97
        0
 75
     2
 76
     1
 98
        0
  0
ENDBLK
  5
12D
330
12A
100
AcDbEntity
  8
0
100
AcDbBlockEnd
  0
ENDSEC
  0
SECTION
  2
ENTITIES
  0
SPLINE
  5
41
330
1F
100
AcDbEntity
  8
_U+30EC_U+30A4_U+30E4_U+30FC 1
 62
   179
420
  2234388
370
     9
100
AcDbSpline
210
0.0
220
0.0
230
1.0
 70
    11
 71
     3
 72
    17
 73
    13
 74
     0
 42
0.0000000001
 43
0.0000000001
 12
1.0
 22
0.0
 32
0.0
 13
1.0
 23
0.0
 33
0.0
 40
0.0
 40
0.0
 40
0.0
 40
0.0
 40
1.0
 40
1.0
 40
1.0
 40
2.0
 40
2.0
 40
2.0
 40
3.0
 40
3.0
 40
3.0
 40
4.0
 40
4.0
 40
4.0
 40
4.0
 10
71.13689624070213
 20
-110.8576649722855
 30
0.0
 10
71.19274096149964
 20
-110.8576649722855
 30
0.0
 10
71.23750846035753
 20
-110.9024324722744
 30
0.0
 10
71.23750846035753
 20
-110.9575716389274
 30
0.0
 10
71.23750846035753
 20
-111.0126755278024
 30
0.0
 10
71.19274096149964
 20
-111.0574783055691
 30
0.0
 10
71.13689624070213
 20
-111.0574783055691
 30
0.0
 10
71.08179235321906
 20
-111.0574783055691
 30
0.0
 10
71.0369895765843
 20
-111.0126755278024
 30
0.0
 10
71.0369895765843
 20
-110.9575716389274
 30
0.0
 10
71.0369895765843
 20
-110.9024324722744
 30
0.0
 10
71.08179235321906
 20
-110.8576649722855
 30
0.0
 10
71.13689624070213
 20
-110.8576649722855
 30
0.0
  0
SPLINE
  5
42
330
1F
100
AcDbEntity
  8
_U+30EC_U+30A4_U+30E4_U+30FC 1
 62
   179
420
  2234388
370
     9
100
AcDbSpline
210
0.0
220
0.0
230
1.0
 70
    11
 71
     3
 72
    17
 73
    13
 74
     0
 42
0.0000000001
 43
0.0000000001
 12
1.0
 22
0.0
 32
0.0
 13
1.0
 23
0.0
 33
0.0
 40
0.0
 40
0.0
 40
0.0
 40
0.0
 40
1.0
 40
1.0
 40
1.0
 40
2.0
 40
2.0
 40
2.0
 40
3.0
 40
3.0
 40
3.0
 40
4.0
 40
4.0
 40
4.0
 40
4.0
 10
74.31189615970113
 20
-110.7577583056438
 30
0.0
 10
74.36774088049864
 20
-110.7577583056438
 30
0.0
 10
74.41250837935652
 20
-110.801855527855
 30
0.0
 10
74.41250837935652
 20
-110.8576649722855
 30
0.0
 10
74.41250837935652
 20
-110.9127688611607
 30
0.0
 10
74.36774088049864
 20
-110.9575716389274
 30
0.0
 10
74.31189615970113
 20
-110.9575716389274
 30
0.0
 10
74.25679227221806
 20
-110.9575716389274
 30
0.0
 10
74.21198949558331
 20
-110.9127688611607
 30
0.0
 10
74.21198949558331
 20
-110.8576649722855
 30
0.0
 10
74.21198949558331
 20
-110.801855527855
 30
0.0
 10
74.25679227221806
 20
-110.7577583056438
 30
0.0
 10
74.31189615970113
 20
-110.7577583056438
 30
0.0
  0
POLYLINE
  5
43
330
1F
100
AcDbEntity
  8
_U+30EC_U+30A4_U+30E4_U+30FC 1
 62
   179
420
  2234388
370
    25
100
AcDb2dPolyline
 66
     1
 10
0.0
 20
0.0
 30
0.0
  0
VERTEX
  5
44
330
43
100
AcDbEntity
  8
_U+30EC_U+30A4_U+30E4_U+30FC 1
 62
   179
420
  2234388
370
    25
100
AcDbVertex
100
AcDb2dVertex
 10
81.15059904078684
 20
-142.1715257977905
 30
0.0
  0
VERTEX
  5
45
330
43
100
AcDbEntity
  8
_U+30EC_U+30A4_U+30E4_U+30FC 1
 62
   179
420
  2234388
370
    25
100
AcDbVertex
100
AcDb2dVertex
 10
71.15001957370066
 20
-142.1715257977905
 30
0.0
  0
SEQEND
  5
46
330
43
100
AcDbEntity
  8
_U+30EC_U+30A4_U+30E4_U+30FC 1
 62
   179
420
  2234388
370
    25
  0
POLYLINE
  5
47
330
1F
100
AcDbEntity
  8
_U+30EC_U+30A4_U+30E4_U+30FC 1
 62
   179
420
  2234388
370
    25
100
AcDb2dPolyline
 66
     1
 10
0.0
 20
0.0
 30
0.0
  0
VERTEX
  5
48
330
47
100
AcDbEntity
  8
_U+30EC_U+30A4_U+30E4_U+30FC 1
 62
   179
420
  2234388
370
    25
100
AcDbVertex
100
AcDb2dVertex
 10
74.15000831479594
 20
-117.1718227484847
 30
0.0
  0
VERTEX
  5
49
330
47
100
AcDbEntity
  8
_U+30EC_U+30A4_U+30E4_U+30FC 1
 62
   179
420
  2234388
370
    25
100
AcDbVertex
100
AcDb2dVertex
 10
71.15001957370066
 20
-117.1718227484847
 30
0.0
  0
SEQEND
  5
4A
330
47
100
AcDbEntity
  8
_U+30EC_U+30A4_U+30E4_U+30FC 1
 62
   179
420
  2234388
370
    25
  0
POLYLINE
  5
4B
330
1F
100
AcDbEntity
  8
_U+30EC_U+30A4_U+30E4_U+30FC 1
 62
   179
420
  2234388
370
    25
100
AcDb2dPolyline
 66
     1
 10
0.0
 20
0.0
 30
0.0
  0
VERTEX
  5
4C
330
4B
100
AcDbEntity
  8
_U+30EC_U+30A4_U+30E4_U+30FC 1
 62
   179
420
  2234388
370
    25
100
AcDbVertex
100
AcDb2dVertex
 10
111.1505029976478
 20
-123.6720355246375
 30
0.0
  0
VERTEX
  5
4D
330
4B
100
AcDbEntity
  8
_U+30EC_U+30A4_U+30E4_U+30FC 1
 62
   179
420
  2234388
370
    25
100
AcDbVertex
100
AcDb2dVertex
 10
111.1505029976478
 20
-122.6722633026652
 30
0.0
  0
SEQEND
  5
4E
330
4B
100
AcDbEntity
  8
_U+30EC_U+30A4_U+30E4_U+30FC 1
 62
   179
420
  2234388
370
    25
  0
POLYLINE
  5
4F
330
1F
100
AcDbEntity
  8
_U+30EC_U+30A4_U+30E4_U+30FC 1
 62
   179
420
  2234388
370
    25
100
AcDb2dPolyline
 66
     1
 10
0.0
 20
0.0
 30
0.0
  0
VERTEX
  5
50
330
4F
100
AcDbEntity
  8
_U+30EC_U+30A4_U+30E4_U+30FC 1
 62
   179
420
  2234388
370
    25
100
AcDbVertex
100
AcDb2dVertex
 10
71.15001957370066
 20
-142.1715257977905
 30
0.0
  0
VERTEX
  5
51
330
4F
100
AcDbEntity
  8
_U+30EC_U+30A4_U+30E4_U+30FC 1
 62
   179
420
  2234388
370
    25
100
AcDbVertex
100
AcDb2dVertex
 10
71.15001957370066
 20
-117.1718227484847
 30
0.0
  0
SEQEND
  5
52
330
4F
100
AcDbEntity
  8
_U+30EC_U+30A4_U+30E4_U+30FC 1
 62
   179
420
  2234388
370
    25
  0
POLYLINE
  5
53
330
1F
100
AcDbEntity
  8
_U+30EC_U+30A4_U+30E4_U+30FC 1
 62
   179
420
  2234388
370
    25
100
AcDb2dPolyline
 66
     1
 10
0.0
 20
0.0
 30
0.0
  0
VERTEX
  5
54
330
53
100
AcDbEntity
  8
_U+30EC_U+30A4_U+30E4_U+30FC 1
 62
   179
420
  2234388
370
    25
100
AcDbVertex
100
AcDb2dVertex
 10
81.15059904078684
 20
-139.1715388540962
 30
0.0
  0
VERTEX
  5
55
330
53
100
AcDbEntity
  8
_U+30EC_U+30A4_U+30E4_U+30FC 1
 62
   179
420
  2234388
370
    25
100
AcDbVertex
100
AcDb2dVertex
 10
77.15031080950938
 20
-139.1715388540962
 30
0.0
  0
SEQEND
  5
56
330
53
100
AcDbEntity
  8
_U+30EC_U+30A4_U+30E4_U+30FC 1
 62
   179
420
  2234388
370
    25
  0
POLYLINE
  5
57
330
1F
100
AcDbEntity
  8
_U+30EC_U+30A4_U+30E4_U+30FC 1
 62
   179
420
  2234388
370
    25
100
AcDb2dPolyline
 66
     1
 10
0.0
 20
0.0
 30
0.0
  0
VERTEX
  5
58
330
57
100
AcDbEntity
  8
_U+30EC_U+30A4_U+30E4_U+30FC 1
 62
   179
420
  2234388
370
    25
100
AcDbVertex
100
AcDb2dVertex
 10
111.1505029976478
 20
-123.6720355246375
 30
0.0
  0
VERTEX
  5
59
330
57
100
AcDbEntity
  8
_U+30EC_U+30A4_U+30E4_U+30FC 1
 62
   179
420
  2234388
370
    25
100
AcDbVertex
100
AcDb2dVertex
 10
72.15046387085118
 20
-123.6720355246375
 30
0.0
  0
SEQEND
  5
5A
330
57
100
AcDbEntity
  8
_U+30EC_U+30A4_U+30E4_U+30FC 1
 62
   179
420
  2234388
370
    25
  0
POLYLINE
  5
5B
330
1F
100
AcDbEntity
  8
_U+30EC_U+30A4_U+30E4_U+30FC 1
 62
   179
420
  2234388
370
    25
100
AcDb2dPolyline
 66
     1
 10
0.0
 20
0.0
 30
0.0
  0
VERTEX
  5
5C
330
5B
100
AcDbEntity
  8
_U+30EC_U+30A4_U+30E4_U+30FC 1
 62
   179
420
  2234388
370
    25
100
AcDbVertex
100
AcDb2dVertex
 10
111.1505029976478
 20
-122.6722633026652
 30
0.0
  0
VERTEX
  5
5D
330
5B
100
AcDbEntity
  8
_U+30EC_U+30A4_U+30E4_U+30FC 1
 62
   179
420
  2234388
370
    25
100
AcDbVertex
100
AcDb2dVertex
 10
72.15046387085118
 20
-122.6722633026652
 30
0.0
  0
SEQEND
  5
5E
330
5B
100
AcDbEntity
  8
_U+30EC_U+30A4_U+30E4_U+30FC 1
 62
   179
420
  2234388
370
    25
  0
POLYLINE
  5
5F
330
1F
100
AcDbEntity
  8
_U+30EC_U+30A4_U+30E4_U+30FC 1
 62
   179
420
  2234388
370
    25
100
AcDb2dPolyline
 66
     1
 10
0.0
 20
0.0
 30
0.0
  0
VERTEX
  5
60
330
5F
100
AcDbEntity
  8
_U+30EC_U+30A4_U+30E4_U+30FC 1
 62
   179
420
  2234388
370
    25
100
AcDbVertex
100
AcDb2dVertex
 10
72.15046387085118
 20
-141.1717535758179
 30
0.0
  0
VERTEX
  5
61
330
5F
100
AcDbEntity
  8
_U+30EC_U+30A4_U+30E4_U+30FC 1
 62
   179
420
  2234388
370
    25
100
AcDbVertex
100
AcDb2dVertex
 10
72.15046387085118
 20
-123.6720355246375
 30
0.0
  0
SEQEND
  5
62
330
5F
100
AcDbEntity
  8
_U+30EC_U+30A4_U+30E4_U+30FC 1
 62
   179
420
  2234388
370
    25
  0
POLYLINE
  5
63
330
1F
100
AcDbEntity
  8
_U+30EC_U+30A4_U+30E4_U+30FC 1
 62
   179
420
  2234388
370
    25
100
AcDb2dPolyline
 66
     1
 10
0.0
 20
0.0
 30
0.0
  0
VERTEX
  5
64
330
63
100
AcDbEntity
  8
_U+30EC_U+30A4_U+30E4_U+30FC 1
 62
   179
420
  2234388
370
    25
100
AcDbVertex
100
AcDb2dVertex
 10
74.15000831479594
 20
-118.171594970457
 30
0.0
  0
VERTEX
  5
65
330
63
100
AcDbEntity
  8
_U+30EC_U+30A4_U+30E4_U+30FC 1
 62
   179
420
  2234388
370
    25
100
AcDbVertex
100
AcDb2dVertex
 10
72.15046387085118
 20
-118.171594970457
 30
0.0
  0
SEQEND
  5
66
330
63
100
AcDbEntity
  8
_U+30EC_U+30A4_U+30E4_U+30FC 1
 62
   179
420
  2234388
370
    25
  0
POLYLINE
  5
67
330
1F
100
AcDbEntity
  8
_U+30EC_U+30A4_U+30E4_U+30FC 1
 62
   179
420
  2234388
370
    25
100
AcDb2dPolyline
 66
     1
 10
0.0
 20
0.0
 30
0.0
  0
VERTEX
  5
68
330
67
100
AcDbEntity
  8
_U+30EC_U+30A4_U+30E4_U+30FC 1
 62
   179
420
  2234388
370
    25
100
AcDbVertex
100
AcDb2dVertex
 10
80.15015656631026
 20
-141.1717535758179
 30
0.0
  0
VERTEX
  5
69
330
67
100
AcDbEntity
  8
_U+30EC_U+30A4_U+30E4_U+30FC 1
 62
   179
420
  2234388
370
    25
100
AcDbVertex
100
AcDb2dVertex
 10
72.15046387085118
 20
-141.1717535758179
 30
0.0
  0
SEQEND
  5
6A
330
67
100
AcDbEntity
  8
_U+30EC_U+30A4_U+30E4_U+30FC 1
 62
   179
420
  2234388
370
    25
  0
POLYLINE
  5
6B
330
1F
100
AcDbEntity
  8
_U+30EC_U+30A4_U+30E4_U+30FC 1
 62
   179
420
  2234388
370
    25
100
AcDb2dPolyline
 66
     1
 10
0.0
 20
0.0
 30
0.0
  0
VERTEX
  5
6C
330
6B
100
AcDbEntity
  8
_U+30EC_U+30A4_U+30E4_U+30FC 1
 62
   179
420
  2234388
370
    25
100
AcDbVertex
100
AcDb2dVertex
 10
81.15059904078684
 20
-142.1715257977905
 30
0.0
  0
VERTEX
  5
6D
330
6B
100
AcDbEntity
  8
_U+30EC_U+30A4_U+30E4_U+30FC 1
 62
   179
420
  2234388
370
    25
100
AcDbVertex
100
AcDb2dVertex
 10
81.15059904078684
 20
-139.1715388540962
 30
0.0
  0
SEQEND
  5
6E
330
6B
100
AcDbEntity
  8
_U+30EC_U+30A4_U+30E4_U+30FC 1
 62
   179
420
  2234388
370
    25
  0
POLYLINE
  5
6F
330
1F
100
AcDbEntity
  8
_U+30EC_U+30A4_U+30E4_U+30FC 1
 62
   179
420
  2234388
370
    25
100
AcDb2dPolyline
 66
     1
 10
0.0
 20
0.0
 30
0.0
  0
VERTEX
  5
70
330
6F
100
AcDbEntity
  8
_U+30EC_U+30A4_U+30E4_U+30FC 1
 62
   179
420
  2234388
370
    25
100
AcDbVertex
100
AcDb2dVertex
 10
80.15015656631026
 20
-141.1717535758179
 30
0.0
  0
VERTEX
  5
71
330
6F
100
AcDbEntity
  8
_U+30EC_U+30A4_U+30E4_U+30FC 1
 62
   179
420
  2234388
370
    25
100
AcDbVertex
100
AcDb2dVertex
 10
80.15015656631026
 20
-140.1719813538461
 30
0.0
  0
SEQEND
  5
72
330
6F
100
AcDbEntity
  8
_U+30EC_U+30A4_U+30E4_U+30FC 1
 62
   179
420
  2234388
370
    25
  0
POLYLINE
  5
73
330
1F
100
AcDbEntity
  8
_U+30EC_U+30A4_U+30E4_U+30FC 1
 62
   179
420
  2234388
370
    25
100
AcDb2dPolyline
 66
     1
 10
0.0
 20
0.0
 30
0.0
  0
VERTEX
  5
74
330
73
100
AcDbEntity
  8
_U+30EC_U+30A4_U+30E4_U+30FC 1
 62
   179
420
  2234388
370
    25
100
AcDbVertex
100
AcDb2dVertex
 10
80.15015656631026
 20
-140.1719813538461
 30
0.0
  0
VERTEX
  5
75
330
73
100
AcDbEntity
  8
_U+30EC_U+30A4_U+30E4_U+30FC 1
 62
   179
420
  2234388
370
    25
100
AcDbVertex
100
AcDb2dVertex
 10
77.15031080950938
 20
-140.1719813538461
 30
0.0
  0
SEQEND
  5
76
330
73
100
AcDbEntity
  8
_U+30EC_U+30A4_U+30E4_U+30FC 1
 62
   179
420
  2234388
370
    25
  0
POLYLINE
  5
77
330
1F
100
AcDbEntity
  8
_U+30EC_U+30A4_U+30E4_U+30FC 1
 62
   179
420
  2234388
370
    25
100
AcDb2dPolyline
 66
     1
 10
0.0
 20
0.0
 30
0.0
  0
VERTEX
  5
78
330
77
100
AcDbEntity
  8
_U+30EC_U+30A4_U+30E4_U+30FC 1
 62
   179
420
  2234388
370
    25
100
AcDbVertex
100
AcDb2dVertex
 10
77.15031080950938
 20
-140.1719813538461
 30
0.0
  0
VERTEX
  5
79
330
77
100
AcDbEntity
  8
_U+30EC_U+30A4_U+30E4_U+30FC 1
 62
   179
420
  2234388
370
    25
100
AcDbVertex
100
AcDb2dVertex
 10
77.15031080950938
 20
-139.1715388540962
 30
0.0
  0
SEQEND
  5
7A
330
77
100
AcDbEntity
  8
_U+30EC_U+30A4_U+30E4_U+30FC 1
 62
   179
420
  2234388
370
    25
  0
POLYLINE
  5
7B
330
1F
100
AcDbEntity
  8
_U+30EC_U+30A4_U+30E4_U+30FC 1
 62
   179
420
  2234388
370
    25
100
AcDb2dPolyline
 66
     1
 10
0.0
 20
0.0
 30
0.0
  0
VERTEX
  5
7C
330
7B
100
AcDbEntity
  8
_U+30EC_U+30A4_U+30E4_U+30FC 1
 62
   179
420
  2234388
370
    25
100
AcDbVertex
100
AcDb2dVertex
 10
74.15000831479594
 20
-118.171594970457
 30
0.0
  0
VERTEX
  5
7D
330
7B
100
AcDbEntity
  8
_U+30EC_U+30A4_U+30E4_U+30FC 1
 62
   179
420
  2234388
370
    25
100
AcDbVertex
100
AcDb2dVertex
 10
74.15000831479594
 20
-117.1718227484847
 30
0.0
  0
SEQEND
  5
7E
330
7B
100
AcDbEntity
  8
_U+30EC_U+30A4_U+30E4_U+30FC 1
 62
   179
420
  2234388
370
    25
  0
POLYLINE
  5
7F
330
1F
100
AcDbEntity
  8
_U+30EC_U+30A4_U+30E4_U+30FC 1
 62
   179
420
  2234388
370
    25
100
AcDb2dPolyline
 66
     1
 10
0.0
 20
0.0
 30
0.0
  0
VERTEX
  5
80
330
7F
100
AcDbEntity
  8
_U+30EC_U+30A4_U+30E4_U+30FC 1
 62
   179
420
  2234388
370
    25
100
AcDbVertex
100
AcDb2dVertex
 10
72.15046387085118
 20
-122.6722633026652
 30
0.0
  0
VERTEX
  5
81
330
7F
100
AcDbEntity
  8
_U+30EC_U+30A4_U+30E4_U+30FC 1
 62
   179
420
  2234388
370
    25
100
AcDbVertex
100
AcDb2dVertex
 10
72.15046387085118
 20
-118.171594970457
 30
0.0
  0
SEQEND
  5
82
330
7F
100
AcDbEntity
  8
_U+30EC_U+30A4_U+30E4_U+30FC 1
 62
   179
420
  2234388
370
    25
  0
SPLINE
  5
83
330
1F
100
AcDbEntity
  8
_U+30EC_U+30A4_U+30E4_U+30FC 1
 62
   179
420
  2234388
370
     9
100
AcDbSpline
210
0.0
220
0.0
230
1.0
 70
    11
 71
     3
 72
    17
 73
    13
 74
     0
 42
0.0000000001
 43
0.0000000001
 12
1.0
 22
0.0
 32
0.0
 13
1.0
 23
0.0
 33
0.0
 40
0.0
 40
0.0
 40
0.0
 40
0.0
 40
1.0
 40
1.0
 40
1.0
 40
2.0
 40
2.0
 40
2.0
 40
3.0
 40
3.0
 40
3.0
 40
4.0
 40
4.0
 40
4.0
 40
4.0
 10
115.1502620622721
 20
-139.0716321874545
 30
0.0
 10
115.2053659497551
 20
-139.0716321874545
 30
0.0
 10
115.2501687263899
 20
-139.1163996874431
 30
0.0
 10
115.2501687263899
 20
-139.1715388540962
 30
0.0
 10
115.2501687263899
 20
-139.2273482985266
 30
0.0
 10
115.2053659497551
 20
-139.2714455207378
 30
0.0
 10
115.1502620622721
 20
-139.2714455207378
 30
0.0
 10
115.0951228970121
 20
-139.2714455207378
 30
0.0
 10
115.0503583045709
 20
-139.2273482985266
 30
0.0
 10
115.0503583045709
 20
-139.1715388540962
 30
0.0
 10
115.0503583045709
 20
-139.1163996874431
 30
0.0
 10
115.0951228970121
 20
-139.0716321874545
 30
0.0
 10
115.1502620622721
 20
-139.0716321874545
 30
0.0
  0
SPLINE
  5
84
330
1F
100
AcDbEntity
  8
_U+30EC_U+30A4_U+30E4_U+30FC 1
 62
   179
420
  2234388
370
     9
100
AcDbSpline
210
0.0
220
0.0
230
1.0
 70
    11
 71
     3
 72
    17
 73
    13
 74
     0
 42
0.0000000001
 43
0.0000000001
 12
1.0
 22
0.0
 32
0.0
 13
1.0
 23
0.0
 33
0.0
 40
0.0
 40
0.0
 40
0.0
 40
0.0
 40
1.0
 40
1.0
 40
1.0
 40
2.0
 40
2.0
 40
2.0
 40
3.0
 40
3.0
 40
3.0
 40
4.0
 40
4.0
 40
4.0
 40
4.0
 10
115.1502620622721
 20
-142.0716191311489
 30
0.0
 10
115.2053659497551
 20
-142.0716191311489
 30
0.0
 10
115.2501687263899
 20
-142.1163866311374
 30
0.0
 10
115.2501687263899
 20
-142.1715257977905
 30
0.0
 10
115.2501687263899
 20
-142.2273352422209
 30
0.0
 10
115.2053659497551
 20
-142.2721027422095
 30
0.0
 10
115.1502620622721
 20
-142.2721027422095
 30
0.0
 10
115.0951228970121
 20
-142.2721027422095
 30
0.0
 10
115.0503583045709
 20
-142.2273352422209
 30
0.0
 10
115.0503583045709
 20
-142.1715257977905
 30
0.0
 10
115.0503583045709
 20
-142.1163866311374
 30
0.0
 10
115.0951228970121
 20
-142.0716191311489
 30
0.0
 10
115.1502620622721
 20
-142.0716191311489
 30
0.0
  0
SPLINE
  5
85
330
1F
100
AcDbEntity
  8
_U+30EC_U+30A4_U+30E4_U+30FC 1
 62
   179
420
  2234388
370
     9
100
AcDbSpline
210
0.0
220
0.0
230
1.0
 70
    11
 71
     3
 72
    17
 73
    13
 74
     0
 42
0.0000000001
 43
0.0000000001
 12
1.0
 22
0.0
 32
0.0
 13
1.0
 23
0.0
 33
0.0
 40
0.0
 40
0.0
 40
0.0
 40
0.0
 40
1.0
 40
1.0
 40
1.0
 40
2.0
 40
2.0
 40
2.0
 40
3.0
 40
3.0
 40
3.0
 40
4.0
 40
4.0
 40
4.0
 40
4.0
 10
115.1502620622721
 20
-123.5721288579958
 30
0.0
 10
115.2053659497551
 20
-123.5721288579958
 30
0.0
 10
115.2501687263899
 20
-123.6169316357625
 30
0.0
 10
115.2501687263899
 20
-123.6720355246375
 30
0.0
 10
115.2501687263899
 20
-123.7271746912905
 30
0.0
 10
115.2053659497551
 20
-123.7719421912791
 30
0.0
 10
115.1502620622721
 20
-123.7719421912791
 30
0.0
 10
115.0951228970121
 20
-123.7719421912791
 30
0.0
 10
115.0503583045709
 20
-123.7271746912905
 30
0.0
 10
115.0503583045709
 20
-123.6720355246375
 30
0.0
 10
115.0503583045709
 20
-123.6169316357625
 30
0.0
 10
115.0951228970121
 20
-123.5721288579958
 30
0.0
 10
115.1502620622721
 20
-123.5721288579958
 30
0.0
  0
SPLINE
  5
86
330
1F
100
AcDbEntity
  8
_U+30EC_U+30A4_U+30E4_U+30FC 1
 62
   179
420
  2234388
370
     9
100
AcDbSpline
210
0.0
220
0.0
230
1.0
 70
    11
 71
     3
 72
    17
 73
    13
 74
     0
 42
0.0000000001
 43
0.0000000001
 12
1.0
 22
0.0
 32
0.0
 13
1.0
 23
0.0
 33
0.0
 40
0.0
 40
0.0
 40
0.0
 40
0.0
 40
1.0
 40
1.0
 40
1.0
 40
2.0
 40
2.0
 40
2.0
 40
3.0
 40
3.0
 40
3.0
 40
4.0
 40
4.0
 40
4.0
 40
4.0
 10
115.1502620622721
 20
-122.5716863582459
 30
0.0
 10
115.2053659497551
 20
-122.5716863582459
 30
0.0
 10
115.2501687263899
 20
-122.6164538582348
 30
0.0
 10
115.2501687263899
 20
-122.6722633026652
 30
0.0
 10
115.2501687263899
 20
-122.7274024693183
 30
0.0
 10
115.2053659497551
 20
-122.7721699693069
 30
0.0
 10
115.1502620622721
 20
-122.7721699693069
 30
0.0
 10
115.0951228970121
 20
-122.7721699693069
 30
0.0
 10
115.0503583045709
 20
-122.7274024693183
 30
0.0
 10
115.0503583045709
 20
-122.6722633026652
 30
0.0
 10
115.0503583045709
 20
-122.6164538582348
 30
0.0
 10
115.0951228970121
 20
-122.5716863582459
 30
0.0
 10
115.1502620622721
 20
-122.5716863582459
 30
0.0
  0
SPLINE
  5
87
330
1F
100
AcDbEntity
  8
_U+30EC_U+30A4_U+30E4_U+30FC 1
 62
   179
420
  2234388
370
     9
100
AcDbSpline
210
0.0
220
0.0
230
1.0
 70
    11
 71
     3
 72
    17
 73
    13
 74
     0
 42
0.0000000001
 43
0.0000000001
 12
1.0
 22
0.0
 32
0.0
 13
1.0
 23
0.0
 33
0.0
 40
0.0
 40
0.0
 40
0.0
 40
0.0
 40
1.0
 40
1.0
 40
1.0
 40
2.0
 40
2.0
 40
2.0
 40
3.0
 40
3.0
 40
3.0
 40
4.0
 40
4.0
 40
4.0
 40
4.0
 10
111.1505029976478
 20
-113.0721569161765
 30
0.0
 10
111.2056068851308
 20
-113.0721569161765
 30
0.0
 10
111.2504096617656
 20
-113.1169596939429
 30
0.0
 10
111.2504096617656
 20
-113.1720635828182
 30
0.0
 10
111.2504096617656
 20
-113.2272027494709
 30
0.0
 10
111.2056068851308
 20
-113.2719702494598
 30
0.0
 10
111.1505029976478
 20
-113.2719702494598
 30
0.0
 10
111.0953666388926
 20
-113.2719702494598
 30
0.0
 10
111.0505963335299
 20
-113.2272027494709
 30
0.0
 10
111.0505963335299
 20
-113.1720635828182
 30
0.0
 10
111.0505963335299
 20
-113.1169596939429
 30
0.0
 10
111.0953666388926
 20
-113.0721569161765
 30
0.0
 10
111.1505029976478
 20
-113.0721569161765
 30
0.0
  0
SPLINE
  5
88
330
1F
100
AcDbEntity
  8
_U+30EC_U+30A4_U+30E4_U+30FC 1
 62
   179
420
  2234388
370
     9
100
AcDbSpline
210
0.0
220
0.0
230
1.0
 70
    11
 71
     3
 72
    17
 73
    13
 74
     0
 42
0.0000000001
 43
0.0000000001
 12
1.0
 22
0.0
 32
0.0
 13
1.0
 23
0.0
 33
0.0
 40
0.0
 40
0.0
 40
0.0
 40
0.0
 40
1.0
 40
1.0
 40
1.0
 40
2.0
 40
2.0
 40
2.0
 40
3.0
 40
3.0
 40
3.0
 40
4.0
 40
4.0
 40
4.0
 40
4.0
 10
71.15001957370066
 20
-113.0721569161765
 30
0.0
 10
71.20512346118373
 20
-113.0721569161765
 30
0.0
 10
71.2499262378185
 20
-113.1169596939429
 30
0.0
 10
71.2499262378185
 20
-113.1720635828182
 30
0.0
 10
71.2499262378185
 20
-113.2272027494709
 30
0.0
 10
71.20512346118373
 20
-113.2719702494598
 30
0.0
 10
71.15001957370066
 20
-113.2719702494598
 30
0.0
 10
71.09488040844072
 20
-113.2719702494598
 30
0.0
 10
71.05011290958284
 20
-113.2272027494709
 30
0.0
 10
71.05011290958284
 20
-113.1720635828182
 30
0.0
 10
71.05011290958284
 20
-113.1169596939429
 30
0.0
 10
71.09488040844072
 20
-113.0721569161765
 30
0.0
 10
71.15001957370066
 20
-113.0721569161765
 30
0.0
  0
SPLINE
  5
89
330
1F
100
AcDbEntity
  8
_U+30EC_U+30A4_U+30E4_U+30FC 1
 62
   179
420
  2234388
370
     9
100
AcDbSpline
210
0.0
220
0.0
230
1.0
 70
    11
 71
     3
 72
    17
 73
    13
 74
     0
 42
0.0000000001
 43
0.0000000001
 12
1.0
 22
0.0
 32
0.0
 13
1.0
 23
0.0
 33
0.0
 40
0.0
 40
0.0
 40
0.0
 40
0.0
 40
1.0
 40
1.0
 40
1.0
 40
2.0
 40
2.0
 40
2.0
 40
3.0
 40
3.0
 40
3.0
 40
4.0
 40
4.0
 40
4.0
 40
4.0
 10
67.15026050907635
 20
-117.0719160818431
 30
0.0
 10
67.20536439655942
 20
-117.0719160818431
 30
0.0
 10
67.25016717319419
 20
-117.1167188596098
 30
0.0
 10
67.25016717319419
 20
-117.1718227484847
 30
0.0
 10
67.25016717319419
 20
-117.2269619151378
 30
0.0
 10
67.20536439655942
 20
-117.2717294151267
 30
0.0
 10
67.15026050907635
 20
-117.2717294151267
 30
0.0
 10
67.0951213438164
 20
-117.2717294151267
 30
0.0
 10
67.05035553879308
 20
-117.2269619151378
 30
0.0
 10
67.05035553879308
 20
-117.1718227484847
 30
0.0
 10
67.05035553879308
 20
-117.1167188596098
 30
0.0
 10
67.0951213438164
 20
-117.0719160818431
 30
0.0
 10
67.15026050907635
 20
-117.0719160818431
 30
0.0
  0
SPLINE
  5
8A
330
1F
100
AcDbEntity
  8
_U+30EC_U+30A4_U+30E4_U+30FC 1
 62
   179
420
  2234388
370
     9
100
AcDbSpline
210
0.0
220
0.0
230
1.0
 70
    11
 71
     3
 72
    17
 73
    13
 74
     0
 42
0.0000000001
 43
0.0000000001
 12
1.0
 22
0.0
 32
0.0
 13
1.0
 23
0.0
 33
0.0
 40
0.0
 40
0.0
 40
0.0
 40
0.0
 40
1.0
 40
1.0
 40
1.0
 40
2.0
 40
2.0
 40
2.0
 40
3.0
 40
3.0
 40
3.0
 40
4.0
 40
4.0
 40
4.0
 40
4.0
 10
67.15026050907635
 20
-142.0716191311489
 30
0.0
 10
67.20536439655942
 20
-142.0716191311489
 30
0.0
 10
67.25016717319419
 20
-142.1163866311374
 30
0.0
 10
67.25016717319419
 20
-142.1715257977905
 30
0.0
 10
67.25016717319419
 20
-142.2273352422209
 30
0.0
 10
67.20536439655942
 20
-142.2721027422095
 30
0.0
 10
67.15026050907635
 20
-142.2721027422095
 30
0.0
 10
67.0951213438164
 20
-142.2721027422095
 30
0.0
 10
67.05035553879308
 20
-142.2273352422209
 30
0.0
 10
67.05035553879308
 20
-142.1715257977905
 30
0.0
 10
67.05035553879308
 20
-142.1163866311374
 30
0.0
 10
67.0951213438164
 20
-142.0716191311489
 30
0.0
 10
67.15026050907635
 20
-142.0716191311489
 30
0.0
  0
SPLINE
  5
8B
330
1F
100
AcDbEntity
  8
_U+30EC_U+30A4_U+30E4_U+30FC 1
 62
   179
420
  2234388
370
     9
100
AcDbSpline
210
0.0
220
0.0
230
1.0
 70
    11
 71
     3
 72
    17
 73
    13
 74
     0
 42
0.0000000001
 43
0.0000000001
 12
1.0
 22
0.0
 32
0.0
 13
1.0
 23
0.0
 33
0.0
 40
0.0
 40
0.0
 40
0.0
 40
0.0
 40
1.0
 40
1.0
 40
1.0
 40
2.0
 40
2.0
 40
2.0
 40
3.0
 40
3.0
 40
3.0
 40
4.0
 40
4.0
 40
4.0
 40
4.0
 10
71.15001957370066
 20
-146.0720485745931
 30
0.0
 10
71.20512346118373
 20
-146.0720485745931
 30
0.0
 10
71.2499262378185
 20
-146.1168513523598
 30
0.0
 10
71.2499262378185
 20
-146.1719552412347
 30
0.0
 10
71.2499262378185
 20
-146.2270944078878
 30
0.0
 10
71.20512346118373
 20
-146.2718619078764
 30
0.0
 10
71.15001957370066
 20
-146.2718619078764
 30
0.0
 10
71.09488040844072
 20
-146.2718619078764
 30
0.0
 10
71.05011290958284
 20
-146.2270944078878
 30
0.0
 10
71.05011290958284
 20
-146.1719552412347
 30
0.0
 10
71.05011290958284
 20
-146.1168513523598
 30
0.0
 10
71.09488040844072
 20
-146.0720485745931
 30
0.0
 10
71.15001957370066
 20
-146.0720485745931
 30
0.0
  0
SPLINE
  5
8C
330
1F
100
AcDbEntity
  8
_U+30EC_U+30A4_U+30E4_U+30FC 1
 62
   179
420
  2234388
370
     9
100
AcDbSpline
210
0.0
220
0.0
230
1.0
 70
    11
 71
     3
 72
    17
 73
    13
 74
     0
 42
0.0000000001
 43
0.0000000001
 12
1.0
 22
0.0
 32
0.0
 13
1.0
 23
0.0
 33
0.0
 40
0.0
 40
0.0
 40
0.0
 40
0.0
 40
1.0
 40
1.0
 40
1.0
 40
2.0
 40
2.0
 40
2.0
 40
3.0
 40
3.0
 40
3.0
 40
4.0
 40
4.0
 40
4.0
 40
4.0
 10
81.15059904078684
 20
-146.0720485745931
 30
0.0
 10
81.2057382060468
 20
-146.0720485745931
 30
0.0
 10
81.25050570490468
 20
-146.1168513523598
 30
0.0
 10
81.25050570490468
 20
-146.1719552412347
 30
0.0
 10
81.25050570490468
 20
-146.2270944078878
 30
0.0
 10
81.2057382060468
 20
-146.2718619078764
 30
0.0
 10
81.15059904078684
 20
-146.2718619078764
 30
0.0
 10
81.09479164639298
 20
-146.2718619078764
 30
0.0
 10
81.05069442418177
 20
-146.2270944078878
 30
0.0
 10
81.05069442418177
 20
-146.1719552412347
 30
0.0
 10
81.05069442418177
 20
-146.1168513523598
 30
0.0
 10
81.09479164639298
 20
-146.0720485745931
 30
0.0
 10
81.15059904078684
 20
-146.0720485745931
 30
0.0
  0
POLYLINE
  5
8D
330
1F
100
AcDbEntity
  8
_U+30EC_U+30A4_U+30E4_U+30FC 1
 62
   179
420
  2234388
370
     9
100
AcDb2dPolyline
 66
     1
 10
0.0
 20
0.0
 30
0.0
  0
VERTEX
  5
8E
330
8D
100
AcDbEntity
  8
_U+30EC_U+30A4_U+30E4_U+30FC 1
 62
   179
420
  2234388
370
     9
100
AcDbVertex
100
AcDb2dVertex
 10
115.1502620622721
 20
-122.6722633026652
 30
0.0
  0
VERTEX
  5
8F
330
8D
100
AcDbEntity
  8
_U+30EC_U+30A4_U+30E4_U+30FC 1
 62
   179
420
  2234388
370
     9
100
AcDbVertex
100
AcDb2dVertex
 10
115.1502620622721
 20
-118.9019508036078
 30
0.0
  0
SEQEND
  5
90
330
8D
100
AcDbEntity
  8
_U+30EC_U+30A4_U+30E4_U+30FC 1
 62
   179
420
  2234388
370
     9
  0
POLYLINE
  5
91
330
1F
100
AcDbEntity
  8
_U+30EC_U+30A4_U+30E4_U+30FC 1
 62
   179
420
  2234388
370
     9
100
AcDb2dPolyline
 66
     1
 10
0.0
 20
0.0
 30
0.0
  0
VERTEX
  5
92
330
91
100
AcDbEntity
  8
_U+30EC_U+30A4_U+30E4_U+30FC 1
 62
   179
420
  2234388
370
     9
100
AcDbVertex
100
AcDb2dVertex
 10
115.1502620622721
 20
-122.6722633026652
 30
0.0
  0
VERTEX
  5
93
330
91
100
AcDbEntity
  8
_U+30EC_U+30A4_U+30E4_U+30FC 1
 62
   179
420
  2234388
370
     9
100
AcDbVertex
100
AcDb2dVertex
 10
115.1502620622721
 20
-123.6720355246375
 30
0.0
  0
SEQEND
  5
94
330
91
100
AcDbEntity
  8
_U+30EC_U+30A4_U+30E4_U+30FC 1
 62
   179
420
  2234388
370
     9
  0
POLYLINE
  5
95
330
1F
100
AcDbEntity
  8
_U+30EC_U+30A4_U+30E4_U+30FC 1
 62
   179
420
  2234388
370
     9
100
AcDb2dPolyline
 66
     1
 10
0.0
 20
0.0
 30
0.0
  0
VERTEX
  5
96
330
95
100
AcDbEntity
  8
_U+30EC_U+30A4_U+30E4_U+30FC 1
 62
   179
420
  2234388
370
     9
100
AcDbVertex
100
AcDb2dVertex
 10
113.6902207106319
 20
-122.6722633026652
 30
0.0
  0
VERTEX
  5
97
330
95
100
AcDbEntity
  8
_U+30EC_U+30A4_U+30E4_U+30FC 1
 62
   179
420
  2234388
370
     9
100
AcDbVertex
100
AcDb2dVertex
 10
116.1499989812111
 20
-122.6722633026652
 30
0.0
  0
SEQEND
  5
98
330
95
100
AcDbEntity
  8
_U+30EC_U+30A4_U+30E4_U+30FC 1
 62
   179
420
  2234388
370
     9
  0
POLYLINE
  5
99
330
1F
100
AcDbEntity
  8
_U+30EC_U+30A4_U+30E4_U+30FC 1
 62
   179
420
  2234388
370
     9
100
AcDb2dPolyline
 66
     1
 10
0.0
 20
0.0
 30
0.0
  0
VERTEX
  5
9A
330
99
100
AcDbEntity
  8
_U+30EC_U+30A4_U+30E4_U+30FC 1
 62
   179
420
  2234388
370
     9
100
AcDbVertex
100
AcDb2dVertex
 10
113.6902207106319
 20
-123.6720355246375
 30
0.0
  0
VERTEX
  5
9B
330
99
100
AcDbEntity
  8
_U+30EC_U+30A4_U+30E4_U+30FC 1
 62
   179
420
  2234388
370
     9
100
AcDbVertex
100
AcDb2dVertex
 10
116.1499989812111
 20
-123.6720355246375
 30
0.0
  0
SEQEND
  5
9C
330
99
100
AcDbEntity
  8
_U+30EC_U+30A4_U+30E4_U+30FC 1
 62
   179
420
  2234388
370
     9
  0
POLYLINE
  5
9D
330
1F
100
AcDbEntity
  8
_U+30EC_U+30A4_U+30E4_U+30FC 1
 62
   179
420
  2234388
370
     9
100
AcDb2dPolyline
 66
     1
 10
0.0
 20
0.0
 30
0.0
  0
VERTEX
  5
9E
330
9D
100
AcDbEntity
  8
_U+30EC_U+30A4_U+30E4_U+30FC 1
 62
   179
420
  2234388
370
     9
100
AcDbVertex
100
AcDb2dVertex
 10
115.1502620622721
 20
-142.1715257977905
 30
0.0
  0
VERTEX
  5
9F
330
9D
100
AcDbEntity
  8
_U+30EC_U+30A4_U+30E4_U+30FC 1
 62
   179
420
  2234388
370
     9
100
AcDbVertex
100
AcDb2dVertex
 10
115.1502620622721
 20
-139.1715388540962
 30
0.0
  0
SEQEND
  5
A0
330
9D
100
AcDbEntity
  8
_U+30EC_U+30A4_U+30E4_U+30FC 1
 62
   179
420
  2234388
370
     9
  0
POLYLINE
  5
A1
330
1F
100
AcDbEntity
  8
_U+30EC_U+30A4_U+30E4_U+30FC 1
 62
   179
420
  2234388
370
     9
100
AcDb2dPolyline
 66
     1
 10
0.0
 20
0.0
 30
0.0
  0
VERTEX
  5
A2
330
A1
100
AcDbEntity
  8
_U+30EC_U+30A4_U+30E4_U+30FC 1
 62
   179
420
  2234388
370
     9
100
AcDbVertex
100
AcDb2dVertex
 10
83.69031675377103
 20
-142.1715257977905
 30
0.0
  0
VERTEX
  5
A3
330
A1
100
AcDbEntity
  8
_U+30EC_U+30A4_U+30E4_U+30FC 1
 62
   179
420
  2234388
370
     9
100
AcDbVertex
100
AcDb2dVertex
 10
116.1499989812111
 20
-142.1715257977905
 30
0.0
  0
SEQEND
  5
A4
330
A1
100
AcDbEntity
  8
_U+30EC_U+30A4_U+30E4_U+30FC 1
 62
   179
420
  2234388
370
     9
  0
POLYLINE
  5
A5
330
1F
100
AcDbEntity
  8
_U+30EC_U+30A4_U+30E4_U+30FC 1
 62
   179
420
  2234388
370
     9
100
AcDb2dPolyline
 66
     1
 10
0.0
 20
0.0
 30
0.0
  0
VERTEX
  5
A6
330
A5
100
AcDbEntity
  8
_U+30EC_U+30A4_U+30E4_U+30FC 1
 62
   179
420
  2234388
370
     9
100
AcDbVertex
100
AcDb2dVertex
 10
81.15059904078684
 20
-146.1719552412347
 30
0.0
  0
VERTEX
  5
A7
330
A5
100
AcDbEntity
  8
_U+30EC_U+30A4_U+30E4_U+30FC 1
 62
   179
420
  2234388
370
     9
100
AcDbVertex
100
AcDb2dVertex
 10
71.15001957370066
 20
-146.1719552412347
 30
0.0
  0
SEQEND
  5
A8
330
A5
100
AcDbEntity
  8
_U+30EC_U+30A4_U+30E4_U+30FC 1
 62
   179
420
  2234388
370
     9
  0
POLYLINE
  5
A9
330
1F
100
AcDbEntity
  8
_U+30EC_U+30A4_U+30E4_U+30FC 1
 62
   179
420
  2234388
370
     9
100
AcDb2dPolyline
 66
     1
 10
0.0
 20
0.0
 30
0.0
  0
VERTEX
  5
AA
330
A9
100
AcDbEntity
  8
_U+30EC_U+30A4_U+30E4_U+30FC 1
 62
   179
420
  2234388
370
     9
100
AcDbVertex
100
AcDb2dVertex
 10
81.15059904078684
 20
-144.711913852711
 30
0.0
  0
VERTEX
  5
AB
330
A9
100
AcDbEntity
  8
_U+30EC_U+30A4_U+30E4_U+30FC 1
 62
   179
420
  2234388
370
     9
100
AcDbVertex
100
AcDb2dVertex
 10
81.15059904078684
 20
-147.1717274632073
 30
0.0
  0
SEQEND
  5
AC
330
A9
100
AcDbEntity
  8
_U+30EC_U+30A4_U+30E4_U+30FC 1
 62
   179
420
  2234388
370
     9
  0
POLYLINE
  5
AD
330
1F
100
AcDbEntity
  8
_U+30EC_U+30A4_U+30E4_U+30FC 1
 62
   179
420
  2234388
370
     9
100
AcDb2dPolyline
 66
     1
 10
0.0
 20
0.0
 30
0.0
  0
VERTEX
  5
AE
330
AD
100
AcDbEntity
  8
_U+30EC_U+30A4_U+30E4_U+30FC 1
 62
   179
420
  2234388
370
     9
100
AcDbVertex
100
AcDb2dVertex
 10
71.15001957370066
 20
-144.711913852711
 30
0.0
  0
VERTEX
  5
AF
330
AD
100
AcDbEntity
  8
_U+30EC_U+30A4_U+30E4_U+30FC 1
 62
   179
420
  2234388
370
     9
100
AcDbVertex
100
AcDb2dVertex
 10
71.15001957370066
 20
-147.1717274632073
 30
0.0
  0
SEQEND
  5
B0
330
AD
100
AcDbEntity
  8
_U+30EC_U+30A4_U+30E4_U+30FC 1
 62
   179
420
  2234388
370
     9
  0
POLYLINE
  5
B1
330
1F
100
AcDbEntity
  8
_U+30EC_U+30A4_U+30E4_U+30FC 1
 62
   179
420
  2234388
370
     9
100
AcDb2dPolyline
 66
     1
 10
0.0
 20
0.0
 30
0.0
  0
VERTEX
  5
B2
330
B1
100
AcDbEntity
  8
_U+30EC_U+30A4_U+30E4_U+30FC 1
 62
   179
420
  2234388
370
     9
100
AcDbVertex
100
AcDb2dVertex
 10
71.15001957370066
 20
-113.1720635828182
 30
0.0
  0
VERTEX
  5
B3
330
B1
100
AcDbEntity
  8
_U+30EC_U+30A4_U+30E4_U+30FC 1
 62
   179
420
  2234388
370
     9
100
AcDbVertex
100
AcDb2dVertex
 10
111.1505029976478
 20
-113.1720635828182
 30
0.0
  0
SEQEND
  5
B4
330
B1
100
AcDbEntity
  8
_U+30EC_U+30A4_U+30E4_U+30FC 1
 62
   179
420
  2234388
370
     9
  0
POLYLINE
  5
B5
330
1F
100
AcDbEntity
  8
_U+30EC_U+30A4_U+30E4_U+30FC 1
 62
   179
420
  2234388
370
     9
100
AcDb2dPolyline
 66
     1
 10
0.0
 20
0.0
 30
0.0
  0
VERTEX
  5
B6
330
B5
100
AcDbEntity
  8
_U+30EC_U+30A4_U+30E4_U+30FC 1
 62
   179
420
  2234388
370
     9
100
AcDbVertex
100
AcDb2dVertex
 10
71.15001957370066
 20
-114.6321049713419
 30
0.0
  0
VERTEX
  5
B7
330
B5
100
AcDbEntity
  8
_U+30EC_U+30A4_U+30E4_U+30FC 1
 62
   179
420
  2234388
370
     9
100
AcDbVertex
100
AcDb2dVertex
 10
71.15001957370066
 20
-112.1716210830683
 30
0.0
  0
SEQEND
  5
B8
330
B5
100
AcDbEntity
  8
_U+30EC_U+30A4_U+30E4_U+30FC 1
 62
   179
420
  2234388
370
     9
  0
POLYLINE
  5
B9
330
1F
100
AcDbEntity
  8
_U+30EC_U+30A4_U+30E4_U+30FC 1
 62
   179
420
  2234388
370
     9
100
AcDb2dPolyline
 66
     1
 10
0.0
 20
0.0
 30
0.0
  0
VERTEX
  5
BA
330
B9
100
AcDbEntity
  8
_U+30EC_U+30A4_U+30E4_U+30FC 1
 62
   179
420
  2234388
370
     9
100
AcDbVertex
100
AcDb2dVertex
 10
111.1505029976478
 20
-120.1318752477447
 30
0.0
  0
VERTEX
  5
BB
330
B9
100
AcDbEntity
  8
_U+30EC_U+30A4_U+30E4_U+30FC 1
 62
   179
420
  2234388
370
     9
100
AcDbVertex
100
AcDb2dVertex
 10
111.1505029976478
 20
-112.1716210830683
 30
0.0
  0
SEQEND
  5
BC
330
B9
100
AcDbEntity
  8
_U+30EC_U+30A4_U+30E4_U+30FC 1
 62
   179
420
  2234388
370
     9
  0
POLYLINE
  5
BD
330
1F
100
AcDbEntity
  8
_U+30EC_U+30A4_U+30E4_U+30FC 1
 62
   179
420
  2234388
370
     9
100
AcDb2dPolyline
 66
     1
 10
0.0
 20
0.0
 30
0.0
  0
VERTEX
  5
BE
330
BD
100
AcDbEntity
  8
_U+30EC_U+30A4_U+30E4_U+30FC 1
 62
   179
420
  2234388
370
     9
100
AcDbVertex
100
AcDb2dVertex
 10
115.1502620622721
 20
-139.1715388540962
 30
0.0
  0
VERTEX
  5
BF
330
BD
100
AcDbEntity
  8
_U+30EC_U+30A4_U+30E4_U+30FC 1
 62
   179
420
  2234388
370
     9
100
AcDbVertex
100
AcDb2dVertex
 10
115.1502620622721
 20
-123.6720355246375
 30
0.0
  0
SEQEND
  5
C0
330
BD
100
AcDbEntity
  8
_U+30EC_U+30A4_U+30E4_U+30FC 1
 62
   179
420
  2234388
370
     9
  0
POLYLINE
  5
C1
330
1F
100
AcDbEntity
  8
_U+30EC_U+30A4_U+30E4_U+30FC 1
 62
   179
420
  2234388
370
     9
100
AcDb2dPolyline
 66
     1
 10
0.0
 20
0.0
 30
0.0
  0
VERTEX
  5
C2
330
C1
100
AcDbEntity
  8
_U+30EC_U+30A4_U+30E4_U+30FC 1
 62
   179
420
  2234388
370
     9
100
AcDbVertex
100
AcDb2dVertex
 10
83.69031675377103
 20
-139.1715388540962
 30
0.0
  0
VERTEX
  5
C3
330
C1
100
AcDbEntity
  8
_U+30EC_U+30A4_U+30E4_U+30FC 1
 62
   179
420
  2234388
370
     9
100
AcDbVertex
100
AcDb2dVertex
 10
116.1499989812111
 20
-139.1715388540962
 30
0.0
  0
SEQEND
  5
C4
330
C1
100
AcDbEntity
  8
_U+30EC_U+30A4_U+30E4_U+30FC 1
 62
   179
420
  2234388
370
     9
  0
POLYLINE
  5
C5
330
1F
100
AcDbEntity
  8
_U+30EC_U+30A4_U+30E4_U+30FC 1
 62
   179
420
  2234388
370
     9
100
AcDb2dPolyline
 66
     1
 10
0.0
 20
0.0
 30
0.0
  0
VERTEX
  5
C6
330
C5
100
AcDbEntity
  8
_U+30EC_U+30A4_U+30E4_U+30FC 1
 62
   179
420
  2234388
370
     9
100
AcDbVertex
100
AcDb2dVertex
 10
113.6902207106319
 20
-123.6720355246375
 30
0.0
  0
VERTEX
  5
C7
330
C5
100
AcDbEntity
  8
_U+30EC_U+30A4_U+30E4_U+30FC 1
 62
   179
420
  2234388
370
     9
100
AcDbVertex
100
AcDb2dVertex
 10
116.1499989812111
 20
-123.6720355246375
 30
0.0
  0
SEQEND
  5
C8
330
C5
100
AcDbEntity
  8
_U+30EC_U+30A4_U+30E4_U+30FC 1
 62
   179
420
  2234388
370
     9
  0
POLYLINE
  5
C9
330
1F
100
AcDbEntity
  8
_U+30EC_U+30A4_U+30E4_U+30FC 1
 62
   179
420
  2234388
370
     9
100
AcDb2dPolyline
 66
     1
 10
0.0
 20
0.0
 30
0.0
  0
VERTEX
  5
CA
330
C9
100
AcDbEntity
  8
_U+30EC_U+30A4_U+30E4_U+30FC 1
 62
   179
420
  2234388
370
     9
100
AcDbVertex
100
AcDb2dVertex
 10
67.15026050907635
 20
-142.1715257977905
 30
0.0
  0
VERTEX
  5
CB
330
C9
100
AcDbEntity
  8
_U+30EC_U+30A4_U+30E4_U+30FC 1
 62
   179
420
  2234388
370
     9
100
AcDbVertex
100
AcDb2dVertex
 10
67.15026050907635
 20
-117.1718227484847
 30
0.0
  0
SEQEND
  5
CC
330
C9
100
AcDbEntity
  8
_U+30EC_U+30A4_U+30E4_U+30FC 1
 62
   179
420
  2234388
370
     9
  0
POLYLINE
  5
CD
330
1F
100
AcDbEntity
  8
_U+30EC_U+30A4_U+30E4_U+30FC 1
 62
   179
420
  2234388
370
     9
100
AcDb2dPolyline
 66
     1
 10
0.0
 20
0.0
 30
0.0
  0
VERTEX
  5
CE
330
CD
100
AcDbEntity
  8
_U+30EC_U+30A4_U+30E4_U+30FC 1
 62
   179
420
  2234388
370
     9
100
AcDbVertex
100
AcDb2dVertex
 10
68.6102665829396
 20
-142.1715257977905
 30
0.0
  0
VERTEX
  5
CF
330
CD
100
AcDbEntity
  8
_U+30EC_U+30A4_U+30E4_U+30FC 1
 62
   179
420
  2234388
370
     9
100
AcDbVertex
100
AcDb2dVertex
 10
66.15048831236045
 20
-142.1715257977905
 30
0.0
  0
SEQEND
  5
D0
330
CD
100
AcDbEntity
  8
_U+30EC_U+30A4_U+30E4_U+30FC 1
 62
   179
420
  2234388
370
     9
  0
POLYLINE
  5
D1
330
1F
100
AcDbEntity
  8
_U+30EC_U+30A4_U+30E4_U+30FC 1
 62
   179
420
  2234388
370
     9
100
AcDb2dPolyline
 66
     1
 10
0.0
 20
0.0
 30
0.0
  0
VERTEX
  5
D2
330
D1
100
AcDbEntity
  8
_U+30EC_U+30A4_U+30E4_U+30FC 1
 62
   179
420
  2234388
370
     9
100
AcDbVertex
100
AcDb2dVertex
 10
68.6102665829396
 20
-117.1718227484847
 30
0.0
  0
VERTEX
  5
D3
330
D1
100
AcDbEntity
  8
_U+30EC_U+30A4_U+30E4_U+30FC 1
 62
   179
420
  2234388
370
     9
100
AcDbVertex
100
AcDb2dVertex
 10
66.15048831236045
 20
-117.1718227484847
 30
0.0
  0
SEQEND
  5
D4
330
D1
100
AcDbEntity
  8
_U+30EC_U+30A4_U+30E4_U+30FC 1
 62
   179
420
  2234388
370
     9
  0
POLYLINE
  5
D5
330
1F
100
AcDbEntity
  8
_U+30EC_U+30A4_U+30E4_U+30FC 1
 62
   179
420
  2234388
370
     9
100
AcDb2dPolyline
 66
     1
 10
0.0
 20
0.0
 30
0.0
  0
VERTEX
  5
D6
330
D5
100
AcDbEntity
  8
_U+30EC_U+30A4_U+30E4_U+30FC 1
 62
   179
420
  2234388
370
     9
100
AcDbVertex
100
AcDb2dVertex
 10
74.22370171750673
 20
-111.5632205276646
 30
0.0
  0
VERTEX
  5
D7
330
D5
100
AcDbEntity
  8
_U+30EC_U+30A4_U+30E4_U+30FC 1
 62
   179
420
  2234388
370
     9
100
AcDbVertex
100
AcDb2dVertex
 10
74.22370171750673
 20
-110.1521094169063
 30
0.0
  0
SEQEND
  5
D8
330
D5
100
AcDbEntity
  8
_U+30EC_U+30A4_U+30E4_U+30FC 1
 62
   179
420
  2234388
370
     9
  0
POLYLINE
  5
D9
330
1F
100
AcDbEntity
  8
_U+30EC_U+30A4_U+30E4_U+30FC 1
 62
   179
420
  2234388
370
     9
100
AcDb2dPolyline
 66
     1
 10
0.0
 20
0.0
 30
0.0
  0
VERTEX
  5
DA
330
D9
100
AcDbEntity
  8
_U+30EC_U+30A4_U+30E4_U+30FC 1
 62
   179
420
  2234388
370
     9
100
AcDbVertex
100
AcDb2dVertex
 10
71.22509068289655
 20
-111.5632205276646
 30
0.0
  0
VERTEX
  5
DB
330
D9
100
AcDbEntity
  8
_U+30EC_U+30A4_U+30E4_U+30FC 1
 62
   179
420
  2234388
370
     9
100
AcDbVertex
100
AcDb2dVertex
 10
71.22509068289655
 20
-110.1521094169063
 30
0.0
  0
SEQEND
  5
DC
330
D9
100
AcDbEntity
  8
_U+30EC_U+30A4_U+30E4_U+30FC 1
 62
   179
420
  2234388
370
     9
  0
POLYLINE
  5
DD
330
1F
100
AcDbEntity
  8
_U+30EC_U+30A4_U+30E4_U+30FC 1
 62
   179
420
  2234388
370
     9
100
AcDb2dPolyline
 66
     1
 10
0.0
 20
0.0
 30
0.0
  0
VERTEX
  5
DE
330
DD
100
AcDbEntity
  8
_U+30EC_U+30A4_U+30E4_U+30FC 1
 62
   179
420
  2234388
370
     9
100
AcDbVertex
100
AcDb2dVertex
 10
69.97453053806196
 20
-110.8576649722855
 30
0.0
  0
VERTEX
  5
DF
330
DD
100
AcDbEntity
  8
_U+30EC_U+30A4_U+30E4_U+30FC 1
 62
   179
420
  2234388
370
     9
100
AcDbVertex
100
AcDb2dVertex
 10
75.3543916478281
 20
-110.8576649722855
 30
0.0
  0
SEQEND
  5
E0
330
DD
100
AcDbEntity
  8
_U+30EC_U+30A4_U+30E4_U+30FC 1
 62
   179
420
  2234388
370
     9
  0
INSERT
  5
E2
330
1F
100
AcDbEntity
  8
_U+30EC_U+30A4_U+30E4_U+30FC 1
100
AcDbBlockReference
  2
block 2
 10
0.0
 20
0.0
 30
0.0
  0
INSERT
  5
E8
330
1F
100
AcDbEntity
  8
_U+30EC_U+30A4_U+30E4_U+30FC 1
100
AcDbBlockReference
  2
block 3
 10
0.0
 20
0.0
 30
0.0
  0
INSERT
  5
EE
330
1F
100
AcDbEntity
  8
_U+30EC_U+30A4_U+30E4_U+30FC 1
100
AcDbBlockReference
  2
block 4
 10
0.0
 20
0.0
 30
0.0
  0
INSERT
  5
F4
330
1F
100
AcDbEntity
  8
_U+30EC_U+30A4_U+30E4_U+30FC 1
100
AcDbBlockReference
  2
block 5
 10
0.0
 20
0.0
 30
0.0
  0
INSERT
  5
FD
330
1F
100
AcDbEntity
  8
_U+30EC_U+30A4_U+30E4_U+30FC 1
100
AcDbBlockReference
  2
block 6
 10
0.0
 20
0.0
 30
0.0
  0
INSERT
  5
119
330
1F
100
AcDbEntity
  8
_U+30EC_U+30A4_U+30E4_U+30FC 1
100
AcDbBlockReference
  2
block 7
 10
0.0
 20
0.0
 30
0.0
  0
INSERT
  5
12B
330
1F
100
AcDbEntity
  8
_U+30EC_U+30A4_U+30E4_U+30FC 1
100
AcDbBlockReference
  2
block 8
 10
0.0
 20
0.0
 30
0.0
  0
ENDSEC
  0
SECTION
  2
OBJECTS
  0
DICTIONARY
  5
C
330
0
100
AcDbDictionary
281
     1
  3
ACAD_GROUP
350
D
  3
ACAD_LAYOUT
350
1A
  3
ACAD_MATERIAL
350
3B
  3
ACAD_MLEADERSTYLE
350
133
  3
ACAD_MLINESTYLE
350
17
  3
ACAD_PLOTSETTINGS
350
19
  3
ACAD_PLOTSTYLENAME
350
E
  3
ACAD_TABLESTYLE
350
132
  3
ACAD_VISUALSTYLE
350
2A
  0
SUN
  5
3F
330
29
100
AcDbSun
 90
        1
290
     0
 63
     7
421
 16777215
 40
1.0
291
     1
 91
  2455826
 92
 54000000
292
     0
 70
     2
 71
   256
280
     1
  0
DICTIONARY
  5
D
102
{ACAD_REACTORS
330
C
102
}
330
C
100
AcDbDictionary
281
     1
  0
DICTIONARY
  5
1A
102
{ACAD_REACTORS
330
C
102
}
330
C
100
AcDbDictionary
281
     1
  3
Layout1
350
1E
  3
Layout2
350
26
  3
Model
350
22
  0
DICTIONARY
  5
3B
102
{ACAD_REACTORS
330
C
102
}
330
C
100
AcDbDictionary
281
     1
  3
ByBlock
350
3D
  3
ByLayer
350
3C
  3
Global
350
3E
  0
DICTIONARY
  5
133
102
{ACAD_REACTORS
330
C
102
}
330
C
100
AcDbDictionary
281
     1
  0
DICTIONARY
  5
17
102
{ACAD_REACTORS
330
C
102
}
330
C
100
AcDbDictionary
281
     1
  3
Standard
350
18
  0
DICTIONARY
  5
19
102
{ACAD_REACTORS
330
C
102
}
330
C
100
AcDbDictionary
281
     1
  0
ACDBDICTIONARYWDFLT
  5
E
102
{ACAD_REACTORS
330
C
102
}
330
C
100
AcDbDictionary
281
     1
  3
Normal
350
F
100
AcDbDictionaryWithDefault
340
F
  0
DICTIONARY
  5
132
102
{ACAD_REACTORS
330
C
102
}
330
C
100
AcDbDictionary
281
     1
  0
DICTIONARY
  5
2A
102
{ACAD_REACTORS
330
C
102
}
330
C
100
AcDbDictionary
281
     1
  3
2dWireframe
350
2F
  3
3D Hidden
350
31
  3
3dWireframe
350
30
  3
Basic
350
32
  3
Brighten
350
36
  3
ColorChange
350
3A
  3
Conceptual
350
34
  3
Dim
350
35
  3
Facepattern
350
39
  3
Flat
350
2B
  3
FlatWithEdges
350
2C
  3
Gouraud
350
2D
  3
GouraudWithEdges
350
2E
  3
Linepattern
350
38
  3
Realistic
350
33
  3
Thicken
350
37
  0
LAYOUT
  5
1E
102
{ACAD_REACTORS
330
1A
102
}
330
1A
100
AcDbPlotSettings
  1

  2
none_device
  4

  6

 40
0.0
 41
0.0
 42
0.0
 43
0.0
 44
0.0
 45
0.0
 46
0.0
 47
0.0
 48
0.0
 49
0.0
140
0.0
141
0.0
142
1.0
143
1.0
 70
   688
 72
     0
 73
     0
 74
     5
  7

 75
    16
 76
     0
 77
     2
 78
   300
147
1.0
148
0.0
149
0.0
100
AcDbLayout
  1
Layout1
 70
     1
 71
     1
 10
0.0
 20
0.0
 11
12.0
 21
9.0
 12
0.0
 22
0.0
 32
0.0
 14
1.000000000000000E+20
 24
1.000000000000000E+20
 34
1.000000000000000E+20
 15
-1.000000000000000E+20
 25
-1.000000000000000E+20
 35
-1.000000000000000E+20
146
0.0
 13
0.0
 23
0.0
 33
0.0
 16
1.0
 26
0.0
 36
0.0
 17
0.0
 27
1.0
 37
0.0
 76
     0
330
1B
  0
LAYOUT
  5
26
102
{ACAD_REACTORS
330
1A
102
}
330
1A
100
AcDbPlotSettings
  1

  2
none_device
  4

  6

 40
0.0
 41
0.0
 42
0.0
 43
0.0
 44
0.0
 45
0.0
 46
0.0
 47
0.0
 48
0.0
 49
0.0
140
0.0
141
0.0
142
1.0
143
1.0
 70
   688
 72
     0
 73
     0
 74
     5
  7

 75
    16
 76
     0
 77
     2
 78
   300
147
1.0
148
0.0
149
0.0
100
AcDbLayout
  1
Layout2
 70
     1
 71
     2
 10
0.0
 20
0.0
 11
0.0
 21
0.0
 12
0.0
 22
0.0
 32
0.0
 14
0.0
 24
0.0
 34
0.0
 15
0.0
 25
0.0
 35
0.0
146
0.0
 13
0.0
 23
0.0
 33
0.0
 16
1.0
 26
0.0
 36
0.0
 17
0.0
 27
1.0
 37
0.0
 76
     0
330
23
  0
LAYOUT
  5
22
102
{ACAD_REACTORS
330
1A
102
}
330
1A
100
AcDbPlotSettings
  1

  2
none_device
  4

  6

 40
0.0
 41
0.0
 42
0.0
 43
0.0
 44
0.0
 45
0.0
 46
0.0
 47
0.0
 48
0.0
 49
0.0
140
0.0
141
0.0
142
1.0
143
1.0
 70
  1712
 72
     0
 73
     0
 74
     0
  7

 75
     0
 76
     0
 77
     2
 78
   300
147
1.0
148
0.0
149
0.0
100
AcDbLayout
  1
Model
 70
     1
 71
     0
 10
0.0
 20
0.0
 11
12.0
 21
9.0
 12
0.0
 22
0.0
 32
0.0
 14
1.000000000000000E+20
 24
1.000000000000000E+20
 34
1.000000000000000E+20
 15
-1.000000000000000E+20
 25
-1.000000000000000E+20
 35
-1.000000000000000E+20
146
0.0
 13
0.0
 23
0.0
 33
0.0
 16
1.0
 26
0.0
 36
0.0
 17
0.0
 27
1.0
 37
0.0
 76
     0
330
1F
331
29
  0
MATERIAL
  5
3D
102
{ACAD_REACTORS
330
3B
102
}
330
3B
100
AcDbMaterial
  1
ByBlock
 72
     1
 94
      127
  0
MATERIAL
  5
3C
102
{ACAD_REACTORS
330
3B
102
}
330
3B
100
AcDbMaterial
  1
ByLayer
 72
     1
 94
      127
  0
MATERIAL
  5
3E
102
{ACAD_REACTORS
330
3B
102
}
330
3B
100
AcDbMaterial
  1
Global
 72
     1
 94
      127
  0
MLINESTYLE
  5
18
102
{ACAD_REACTORS
330
17
102
}
330
17
100
AcDbMlineStyle
  2
Standard
 70
     0
  3

 62
   256
 51
90.0
 52
90.0
 71
     2
 49
0.5
 62
   256
  6
BYLAYER
 49
-0.5
 62
   256
  6
BYLAYER
  0
ACDBPLACEHOLDER
  5
F
102
{ACAD_REACTORS
330
E
102
}
330
E
  0
VISUALSTYLE
  5
2F
102
{ACAD_REACTORS
330
2A
102
}
330
2A
100
AcDbVisualStyle
  2
2dWireframe
 70
     4
177
     2
291
     0
 71
     0
176
     1
 72
     2
176
     1
 73
     0
176
     1
 90
        0
176
     1
 40
-0.6
176
     1
 41
-30.0
176
     1
 62
     5
 63
     7
421
 16777215
176
     1
 74
     1
176
     1
 91
        4
176
     1
 64
     7
176
     1
 65
   257
176
     1
 75
     1
176
     1
175
     1
176
     1
 42
1.0
176
     1
 92
        0
176
     1
 66
   257
176
     1
 43
1.0
176
     1
 76
     1
176
     1
 77
     6
176
     1
 78
     2
176
     1
 67
     7
176
     1
 79
     5
176
     1
170
     0
176
     1
171
     0
176
     1
290
     0
176
     1
 93
        1
176
     1
 44
0.0
176
     1
173
     0
176
     1
  0
VISUALSTYLE
  5
31
102
{ACAD_REACTORS
330
2A
102
}
330
2A
100
AcDbVisualStyle
  2
3D Hidden
 70
     6
177
     2
291
     0
 71
     1
176
     1
 72
     2
176
     1
 73
     2
176
     1
 90
        0
176
     1
 40
-0.6
176
     1
 41
-30.0
176
     1
 62
     5
 63
     7
421
 16777215
176
     1
 74
     2
176
     1
 91
        2
176
     1
 64
     7
176
     1
 65
   257
176
     1
 75
     2
176
     1
175
     1
176
     1
 42
40.0
176
     1
 92
        0
176
     1
 66
   257
176
     1
 43
1.0
176
     1
 76
     1
176
     1
 77
     6
176
     1
 78
     2
176
     1
 67
     7
176
     1
 79
     3
176
     1
170
     0
176
     1
171
     0
176
     1
290
     0
176
     1
 93
        1
176
     1
 44
0.0
176
     1
173
     0
176
     1
  0
VISUALSTYLE
  5
30
102
{ACAD_REACTORS
330
2A
102
}
330
2A
100
AcDbVisualStyle
  2
3dWireframe
 70
     5
177
     2
291
     0
 71
     0
176
     1
 72
     2
176
     1
 73
     0
176
     1
 90
        0
176
     1
 40
-0.6
176
     1
 41
-30.0
176
     1
 62
     5
 63
     7
421
 16777215
176
     1
 74
     1
176
     1
 91
        4
176
     1
 64
     7
176
     1
 65
   257
176
     1
 75
     1
176
     1
175
     1
176
     1
 42
1.0
176
     1
 92
        0
176
     1
 66
   257
176
     1
 43
1.0
176
     1
 76
     1
176
     1
 77
     6
176
     1
 78
     2
176
     1
 67
     7
176
     1
 79
     5
176
     1
170
     0
176
     1
171
     0
176
     1
290
     0
176
     1
 93
        1
176
     1
 44
0.0
176
     1
173
     0
176
     1
  0
VISUALSTYLE
  5
32
102
{ACAD_REACTORS
330
2A
102
}
330
2A
100
AcDbVisualStyle
  2
Basic
 70
     7
177
     2
291
     1
 71
     1
176
     1
 72
     0
176
     1
 73
     1
176
     1
 90
        0
176
     1
 40
-0.6
176
     1
 41
-30.0
176
     1
 62
     5
 63
     7
421
 16777215
176
     1
 74
     0
176
     1
 91
        4
176
     1
 64
     7
176
     1
 65
   257
176
     1
 75
     1
176
     1
175
     1
176
     1
 42
1.0
176
     1
 92
        8
176
     1
 66
     7
176
     1
 43
1.0
176
     1
 76
     1
176
     1
 77
     6
176
     1
 78
     2
176
     1
 67
     7
176
     1
 79
     5
176
     1
170
     0
176
     1
171
     0
176
     1
290
     0
176
     1
 93
        1
176
     1
 44
0.0
176
     1
173
     0
176
     1
  0
VISUALSTYLE
  5
36
102
{ACAD_REACTORS
330
2A
102
}
330
2A
100
AcDbVisualStyle
  2
Brighten
 70
    12
177
     2
291
     1
 71
     2
176
     1
 72
     2
176
     1
 73
     0
176
     1
 90
        0
176
     1
 40
-0.6
176
     1
 41
-30.0
176
     1
 62
     5
 63
     7
421
 16777215
176
     1
 74
     1
176
     1
 91
        4
176
     1
 64
     7
176
     1
 65
   257
176
     1
 75
     1
176
     1
175
     1
176
     1
 42
1.0
176
     1
 92
        8
176
     1
 66
     7
176
     1
 43
1.0
176
     1
 76
     1
176
     1
 77
     6
176
     1
 78
     2
176
     1
 67
     7
176
     1
 79
     5
176
     1
170
     0
176
     1
171
     0
176
     1
290
     0
176
     1
 93
        1
176
     1
 44
50.0
176
     1
173
     0
176
     1
  0
VISUALSTYLE
  5
3A
102
{ACAD_REACTORS
330
2A
102
}
330
2A
100
AcDbVisualStyle
  2
ColorChange
 70
    16
177
     2
291
     1
 71
     2
176
     1
 72
     2
176
     1
 73
     3
176
     1
 90
        0
176
     1
 40
-0.6
176
     1
 41
-30.0
176
     1
 62
     5
 63
     8
421
  8421504
176
     1
 74
     1
176
     1
 91
        4
176
     1
 64
     7
176
     1
 65
   257
176
     1
 75
     1
176
     1
175
     1
176
     1
 42
1.0
176
     1
 92
        8
176
     1
 66
     8
424
  8421504
176
     1
 43
1.0
176
     1
 76
     1
176
     1
 77
     6
176
     1
 78
     2
176
     1
 67
     7
176
     1
 79
     5
176
     1
170
     0
176
     1
171
     0
176
     1
290
     0
176
     1
 93
        1
176
     1
 44
0.0
176
     1
173
     0
176
     1
  0
VISUALSTYLE
  5
34
102
{ACAD_REACTORS
330
2A
102
}
330
2A
100
AcDbVisualStyle
  2
Conceptual
 70
     9
177
     2
291
     0
 71
     3
176
     1
 72
     2
176
     1
 73
     0
176
     1
 90
        0
176
     1
 40
-0.6
176
     1
 41
-30.0
176
     1
 62
     5
 63
     7
421
 16777215
176
     1
 74
     2
176
     1
 91
        2
176
     1
 64
     7
176
     1
 65
   257
176
     1
 75
     1
176
     1
175
     1
176
     1
 42
40.0
176
     1
 92
        8
176
     1
 66
     7
176
     1
 43
1.0
176
     1
 76
     1
176
     1
 77
     6
176
     1
 78
     2
176
     1
 67
     7
176
     1
 79
     3
176
     1
170
     0
176
     1
171
     0
176
     1
290
     0
176
     1
 93
        1
176
     1
 44
0.0
176
     1
173
     0
176
     1
  0
VISUALSTYLE
  5
35
102
{ACAD_REACTORS
330
2A
102
}
330
2A
100
AcDbVisualStyle
  2
Dim
 70
    11
177
     2
291
     1
 71
     2
176
     1
 72
     2
176
     1
 73
     0
176
     1
 90
        0
176
     1
 40
-0.6
176
     1
 41
-30.0
176
     1
 62
     5
 63
     7
421
 16777215
176
     1
 74
     1
176
     1
 91
        4
176
     1
 64
     7
176
     1
 65
   257
176
     1
 75
     1
176
     1
175
     1
176
     1
 42
1.0
176
     1
 92
        8
176
     1
 66
     7
176
     1
 43
1.0
176
     1
 76
     1
176
     1
 77
     6
176
     1
 78
     2
176
     1
 67
     7
176
     1
 79
     5
176
     1
170
     0
176
     1
171
     0
176
     1
290
     0
176
     1
 93
        1
176
     1
 44
-50.0
176
     1
173
     0
176
     1
  0
VISUALSTYLE
  5
39
102
{ACAD_REACTORS
330
2A
102
}
330
2A
100
AcDbVisualStyle
  2
Facepattern
 70
    15
177
     2
291
     1
 71
     2
176
     1
 72
     2
176
     1
 73
     0
176
     1
 90
        0
176
     1
 40
-0.6
176
     1
 41
-30.0
176
     1
 62
     5
 63
     7
421
 16777215
176
     1
 74
     1
176
     1
 91
        4
176
     1
 64
     7
176
     1
 65
   257
176
     1
 75
     1
176
     1
175
     1
176
     1
 42
1.0
176
     1
 92
        8
176
     1
 66
     7
176
     1
 43
1.0
176
     1
 76
     1
176
     1
 77
     6
176
     1
 78
     2
176
     1
 67
     7
176
     1
 79
     5
176
     1
170
     0
176
     1
171
     0
176
     1
290
     0
176
     1
 93
        1
176
     1
 44
0.0
176
     1
173
     0
176
     1
  0
VISUALSTYLE
  5
2B
102
{ACAD_REACTORS
330
2A
102
}
330
2A
100
AcDbVisualStyle
  2
Flat
 70
     0
177
     2
291
     1
 71
     2
176
     1
 72
     1
176
     1
 73
     1
176
     1
 90
        2
176
     1
 40
-0.6
176
     1
 41
30.0
176
     1
 62
     5
 63
     7
421
 16777215
176
     1
 74
     0
176
     1
 91
        4
176
     1
 64
     7
176
     1
 65
   257
176
     1
 75
     1
176
     1
175
     1
176
     1
 42
1.0
176
     1
 92
        8
176
     1
 66
     7
176
     1
 43
1.0
176
     1
 76
     1
176
     1
 77
     6
176
     1
 78
     2
176
     1
 67
     7
176
     1
 79
     5
176
     1
170
     0
176
     1
171
     0
176
     1
290
     0
176
     1
 93
       13
176
     1
 44
0.0
176
     1
173
     0
176
     1
  0
VISUALSTYLE
  5
2C
102
{ACAD_REACTORS
330
2A
102
}
330
2A
100
AcDbVisualStyle
  2
FlatWithEdges
 70
     1
177
     2
291
     1
 71
     2
176
     1
 72
     1
176
     1
 73
     1
176
     1
 90
        2
176
     1
 40
-0.6
176
     1
 41
30.0
176
     1
 62
     5
 63
     7
421
 16777215
176
     1
 74
     1
176
     1
 91
        4
176
     1
 64
     7
176
     1
 65
   257
176
     1
 75
     1
176
     1
175
     1
176
     1
 42
1.0
176
     1
 92
        0
176
     1
 66
   257
176
     1
 43
1.0
176
     1
 76
     1
176
     1
 77
     6
176
     1
 78
     2
176
     1
 67
     7
176
     1
 79
     5
176
     1
170
     0
176
     1
171
     0
176
     1
290
     0
176
     1
 93
       13
176
     1
 44
0.0
176
     1
173
     0
176
     1
  0
VISUALSTYLE
  5
2D
102
{ACAD_REACTORS
330
2A
102
}
330
2A
100
AcDbVisualStyle
  2
Gouraud
 70
     2
177
     2
291
     1
 71
     2
176
     1
 72
     2
176
     1
 73
     1
176
     1
 90
        2
176
     1
 40
-0.6
176
     1
 41
30.0
176
     1
 62
     5
 63
     7
421
 16777215
176
     1
 74
     0
176
     1
 91
        4
176
     1
 64
     7
176
     1
 65
   257
176
     1
 75
     1
176
     1
175
     1
176
     1
 42
1.0
176
     1
 92
        0
176
     1
 66
     7
176
     1
 43
1.0
176
     1
 76
     1
176
     1
 77
     6
176
     1
 78
     2
176
     1
 67
     7
176
     1
 79
     5
176
     1
170
     0
176
     1
171
     0
176
     1
290
     0
176
     1
 93
       13
176
     1
 44
0.0
176
     1
173
     0
176
     1
  0
VISUALSTYLE
  5
2E
102
{ACAD_REACTORS
330
2A
102
}
330
2A
100
AcDbVisualStyle
  2
GouraudWithEdges
 70
     3
177
     2
291
     1
 71
     2
176
     1
 72
     2
176
     1
 73
     1
176
     1
 90
        2
176
     1
 40
-0.6
176
     1
 41
30.0
176
     1
 62
     5
 63
     7
421
 16777215
176
     1
 74
     1
176
     1
 91
        4
176
     1
 64
     7
176
     1
 65
   257
176
     1
 75
     1
176
     1
175
     1
176
     1
 42
1.0
176
     1
 92
        0
176
     1
 66
   257
176
     1
 43
1.0
176
     1
 76
     1
176
     1
 77
     6
176
     1
 78
     2
176
     1
 67
     7
176
     1
 79
     5
176
     1
170
     0
176
     1
171
     0
176
     1
290
     0
176
     1
 93
       13
176
     1
 44
0.0
176
     1
173
     0
176
     1
  0
VISUALSTYLE
  5
38
102
{ACAD_REACTORS
330
2A
102
}
330
2A
100
AcDbVisualStyle
  2
Linepattern
 70
    14
177
     2
291
     1
 71
     2
176
     1
 72
     2
176
     1
 73
     0
176
     1
 90
        0
176
     1
 40
-0.6
176
     1
 41
-30.0
176
     1
 62
     5
 63
     7
421
 16777215
176
     1
 74
     1
176
     1
 91
        4
176
     1
 64
     7
176
     1
 65
   257
176
     1
 75
     7
176
     1
175
     7
176
     1
 42
1.0
176
     1
 92
        8
176
     1
 66
     7
176
     1
 43
1.0
176
     1
 76
     1
176
     1
 77
     6
176
     1
 78
     2
176
     1
 67
     7
176
     1
 79
     5
176
     1
170
     0
176
     1
171
     0
176
     1
290
     0
176
     1
 93
        1
176
     1
 44
0.0
176
     1
173
     0
176
     1
  0
VISUALSTYLE
  5
33
102
{ACAD_REACTORS
330
2A
102
}
330
2A
100
AcDbVisualStyle
  2
Realistic
 70
     8
177
     2
291
     0
 71
     2
176
     1
 72
     2
176
     1
 73
     0
176
     1
 90
        0
176
     1
 40
-0.6
176
     1
 41
-30.0
176
     1
 62
     5
 63
     7
421
 16777215
176
     1
 74
     1
176
     1
 91
        0
176
     1
 64
     7
176
     1
 65
   257
176
     1
 75
     1
176
     1
175
     1
176
     1
 42
1.0
176
     1
 92
        8
176
     1
 66
     8
424
  7895160
176
     1
 43
1.0
176
     1
 76
     1
176
     1
 77
     6
176
     1
 78
     2
176
     1
 67
     7
176
     1
 79
     5
176
     1
170
     0
176
     1
171
     0
176
     1
290
     0
176
     1
 93
       13
176
     1
 44
0.0
176
     1
173
     0
176
     1
  0
VISUALSTYLE
  5
37
102
{ACAD_REACTORS
330
2A
102
}
330
2A
100
AcDbVisualStyle
  2
Thicken
 70
    13
177
     2
291
     1
 71
     2
176
     1
 72
     2
176
     1
 73
     0
176
     1
 90
        0
176
     1
 40
-0.6
176
     1
 41
-30.0
176
     1
 62
     5
 63
     7
421
 16777215
176
     1
 74
     1
176
     1
 91
        4
176
     1
 64
     7
176
     1
 65
   257
176
     1
 75
     1
176
     1
175
     1
176
     1
 42
1.0
176
     1
 92
       12
176
     1
 66
     7
176
     1
 43
1.0
176
     1
 76
     1
176
     1
 77
     6
176
     1
 78
     2
176
     1
 67
     7
176
     1
 79
     5
176
     1
170
     0
176
     1
171
     0
176
     1
290
     0
176
     1
 93
        1
176
     1
 44
0.0
176
     1
173
     0
176
     1
  0
ENDSEC
  0
EOF
