  0
SECTION
  2
HEADER
  9
$ACADVER
  1
AC1024
  9
$ACADMAINTVER
 70
     6
  9
$DWGCODEPAGE
  3
UNDEFINED
  9
$INSBASE
 10
0.0
 20
0.0
 30
0.0
  9
$EXTMIN
 10
1.000000000000000E+20
 20
1.000000000000000E+20
 30
1.000000000000000E+20
  9
$EXTMAX
 10
-1.000000000000000E+20
 20
-1.000000000000000E+20
 30
-1.000000000000000E+20
  9
$LIMMIN
 10
0.0
 20
0.0
  9
$LIMMAX
 10
12.0
 20
9.0
  9
$ORTHOMODE
 70
     0
  9
$REGENMODE
 70
     1
  9
$FILLMODE
 70
     1
  9
$QTEXTMODE
 70
     0
  9
$MIRRTEXT
 70
     1
  9
$LTSCALE
 40
1.0
  9
$ATTMODE
 70
     1
  9
$TEXTSIZE
 40
0.2
  9
$TRACEWID
 40
0.05
  9
$TEXTSTYLE
  7
Standard
  9
$CLAYER
  8
0
  9
$CELTYPE
  6
ByLayer
  9
$CECOLOR
 62
   256
  9
$CELTSCALE
 40
1.0
  9
$DISPSILH
 70
     0
  9
$DIMSCALE
 40
1.0
  9
$DIMASZ
 40
0.18
  9
$DIMEXO
 40
0.0625
  9
$DIMDLI
 40
0.38
  9
$DIMRND
 40
0.0
  9
$DIMDLE
 40
0.0
  9
$DIMEXE
 40
0.18
  9
$DIMTP
 40
0.0
  9
$DIMTM
 40
0.0
  9
$DIMTXT
 40
0.18
  9
$DIMCEN
 40
0.09
  9
$DIMTSZ
 40
0.0
  9
$DIMTOL
 70
     0
  9
$DIMLIM
 70
     0
  9
$DIMTIH
 70
     1
  9
$DIMTOH
 70
     1
  9
$DIMSE1
 70
     0
  9
$DIMSE2
 70
     0
  9
$DIMTAD
 70
     0
  9
$DIMZIN
 70
     0
  9
$DIMBLK
  1

  9
$DIMASO
 70
     1
  9
$DIMSHO
 70
     1
  9
$DIMPOST
  1

  9
$DIMAPOST
  1

  9
$DIMALT
 70
     0
  9
$DIMALTD
 70
     2
  9
$DIMALTF
 40
25.4
  9
$DIMLFAC
 40
1.0
  9
$DIMTOFL
 70
     0
  9
$DIMTVP
 40
0.0
  9
$DIMTIX
 70
     0
  9
$DIMSOXD
 70
     0
  9
$DIMSAH
 70
     0
  9
$DIMBLK1
  1

  9
$DIMBLK2
  1

  9
$DIMSTYLE
  2
Standard
  9
$DIMCLRD
 70
     0
  9
$DIMCLRE
 70
     0
  9
$DIMCLRT
 70
     0
  9
$DIMTFAC
 40
1.0
  9
$DIMGAP
 40
0.09
  9
$DIMJUST
 70
     0
  9
$DIMSD1
 70
     0
  9
$DIMSD2
 70
     0
  9
$DIMTOLJ
 70
     1
  9
$DIMTZIN
 70
     0
  9
$DIMALTZ
 70
     0
  9
$DIMALTTZ
 70
     0
  9
$DIMUPT
 70
     0
  9
$DIMDEC
 70
     4
  9
$DIMTDEC
 70
     4
  9
$DIMALTU
 70
     2
  9
$DIMALTTD
 70
     2
  9
$DIMTXSTY
  7
Standard
  9
$DIMAUNIT
 70
     0
  9
$DIMADEC
 70
     0
  9
$DIMALTRND
 40
0.0
  9
$DIMAZIN
 70
     0
  9
$DIMDSEP
 70
    46
  9
$DIMATFIT
 70
     3
  9
$DIMFRAC
 70
     0
  9
$DIMLDRBLK
  1

  9
$DIMLUNIT
 70
     2
  9
$DIMLWD
 70
    -2
  9
$DIMLWE
 70
    -2
  9
$DIMTMOVE
 70
     0
  9
$DIMFXL
 40
1.0
  9
$DIMFXLON
 70
     0
  9
$DIMJOGANG
 40
0.7853981633974483
  9
$DIMTFILL
 70
     0
  9
$DIMTFILLCLR
 70
     0
  9
$DIMARCSYM
 70
     0
  9
$DIMLTYPE
  6

  9
$DIMLTEX1
  6

  9
$DIMLTEX2
  6

  9
$DIMTXTDIRECTION
 70
     0
  9
$LUNITS
 70
     2
  9
$LUPREC
 70
     4
  9
$SKETCHINC
 40
0.1
  9
$FILLETRAD
 40
0.5
  9
$AUNITS
 70
     0
  9
$AUPREC
 70
     0
  9
$MENU
  1
.
  9
$ELEVATION
 40
0.0
  9
$PELEVATION
 40
0.0
  9
$THICKNESS
 40
0.0
  9
$LIMCHECK
 70
     0
  9
$CHAMFERA
 40
0.5
  9
$CHAMFERB
 40
0.5
  9
$CHAMFERC
 40
1.0
  9
$CHAMFERD
 40
0.0
  9
$SKPOLY
 70
     0
  9
$TDCREATE
 40
2457917.593078692
  9
$TDUCREATE
 40
2457917.218078704
  9
$TDUPDATE
 40
2457917.593078692
  9
$TDUUPDATE
 40
2457917.218078704
  9
$TDINDWG
 40
0.0000000116
  9
$TDUSRTIMER
 40
0.0000000116
  9
$USRTIMER
 70
     1
  9
$ANGBASE
 50
0.0
  9
$ANGDIR
 70
     0
  9
$PDMODE
 70
     0
  9
$PDSIZE
 40
0.0
  9
$PLINEWID
 40
0.0
  9
$SPLFRAME
 70
     0
  9
$SPLINETYPE
 70
     6
  9
$SPLINESEGS
 70
     8
  9
$HANDSEED
  5
16F
  9
$SURFTAB1
 70
     6
  9
$SURFTAB2
 70
     6
  9
$SURFTYPE
 70
     6
  9
$SURFU
 70
     6
  9
$SURFV
 70
     6
  9
$UCSBASE
  2

  9
$UCSNAME
  2

  9
$UCSORG
 10
0.0
 20
0.0
 30
0.0
  9
$UCSXDIR
 10
1.0
 20
0.0
 30
0.0
  9
$UCSYDIR
 10
0.0
 20
1.0
 30
0.0
  9
$UCSORTHOREF
  2

  9
$UCSORTHOVIEW
 70
     0
  9
$UCSORGTOP
 10
0.0
 20
0.0
 30
0.0
  9
$UCSORGBOTTOM
 10
0.0
 20
0.0
 30
0.0
  9
$UCSORGLEFT
 10
0.0
 20
0.0
 30
0.0
  9
$UCSORGRIGHT
 10
0.0
 20
0.0
 30
0.0
  9
$UCSORGFRONT
 10
0.0
 20
0.0
 30
0.0
  9
$UCSORGBACK
 10
0.0
 20
0.0
 30
0.0
  9
$PUCSBASE
  2

  9
$PUCSNAME
  2

  9
$PUCSORG
 10
0.0
 20
0.0
 30
0.0
  9
$PUCSXDIR
 10
1.0
 20
0.0
 30
0.0
  9
$PUCSYDIR
 10
0.0
 20
1.0
 30
0.0
  9
$PUCSORTHOREF
  2

  9
$PUCSORTHOVIEW
 70
     0
  9
$PUCSORGTOP
 10
0.0
 20
0.0
 30
0.0
  9
$PUCSORGBOTTOM
 10
0.0
 20
0.0
 30
0.0
  9
$PUCSORGLEFT
 10
0.0
 20
0.0
 30
0.0
  9
$PUCSORGRIGHT
 10
0.0
 20
0.0
 30
0.0
  9
$PUCSORGFRONT
 10
0.0
 20
0.0
 30
0.0
  9
$PUCSORGBACK
 10
0.0
 20
0.0
 30
0.0
  9
$USERI1
 70
     0
  9
$USERI2
 70
     0
  9
$USERI3
 70
     0
  9
$USERI4
 70
     0
  9
$USERI5
 70
     0
  9
$USERR1
 40
0.0
  9
$USERR2
 40
0.0
  9
$USERR3
 40
0.0
  9
$USERR4
 40
0.0
  9
$USERR5
 40
0.0
  9
$WORLDVIEW
 70
     1
  9
$SHADEDGE
 70
     3
  9
$SHADEDIF
 70
    70
  9
$TILEMODE
 70
     1
  9
$MAXACTVP
 70
    64
  9
$PINSBASE
 10
0.0
 20
0.0
 30
0.0
  9
$PLIMCHECK
 70
     0
  9
$PEXTMIN
 10
1.000000000000000E+20
 20
1.000000000000000E+20
 30
1.000000000000000E+20
  9
$PEXTMAX
 10
-1.000000000000000E+20
 20
-1.000000000000000E+20
 30
-1.000000000000000E+20
  9
$PLIMMIN
 10
0.0
 20
0.0
  9
$PLIMMAX
 10
12.0
 20
9.0
  9
$UNITMODE
 70
     0
  9
$VISRETAIN
 70
     1
  9
$PLINEGEN
 70
     0
  9
$PSLTSCALE
 70
     1
  9
$TREEDEPTH
 70
  3020
  9
$CMLSTYLE
  2
Standard
  9
$CMLJUST
 70
     0
  9
$CMLSCALE
 40
1.0
  9
$PROXYGRAPHICS
 70
     1
  9
$MEASUREMENT
 70
     0
  9
$CELWEIGHT
370
    -1
  9
$ENDCAPS
280
     0
  9
$JOINSTYLE
280
     0
  9
$LWDISPLAY
290
     1
  9
$INSUNITS
 70
     1
  9
$HYPERLINKBASE
  1

  9
$STYLESHEET
  1

  9
$XEDIT
290
     1
  9
$CEPSNTYPE
380
     0
  9
$PSTYLEMODE
290
     1
  9
$FINGERPRINTGUID
  2
{6A00DB3F-428F-2D8F-98F1-4710AE29AA02}
  9
$VERSIONGUID
  2
{FAEB1C32-E019-11D5-929B-00C0DF256EC4}
  9
$EXTNAMES
290
     1
  9
$PSVPSCALE
 40
0.0
  9
$OLESTARTUP
290
     0
  9
$SORTENTS
280
   127
  9
$INDEXCTL
280
     0
  9
$HIDETEXT
280
     1
  9
$XCLIPFRAME
280
     2
  9
$HALOGAP
280
     0
  9
$OBSCOLOR
 70
   257
  9
$OBSLTYPE
280
     0
  9
$INTERSECTIONDISPLAY
280
     0
  9
$INTERSECTIONCOLOR
 70
   257
  9
$DIMASSOC
280
     2
  9
$PROJECTNAME
  1

  9
$CAMERADISPLAY
290
     0
  9
$LENSLENGTH
 40
50.0
  9
$CAMERAHEIGHT
 40
0.0
  9
$STEPSPERSEC
 40
2.0
  9
$STEPSIZE
 40
6.0
  9
$3DDWFPREC
 40
2.0
  9
$PSOLWIDTH
 40
0.25
  9
$PSOLHEIGHT
 40
4.0
  9
$LOFTANG1
 40
1.570796326794897
  9
$LOFTANG2
 40
1.570796326794897
  9
$LOFTMAG1
 40
0.0
  9
$LOFTMAG2
 40
0.0
  9
$LOFTPARAM
 70
     7
  9
$LOFTNORMALS
280
     1
  9
$LATITUDE
 40
37.795
  9
$LONGITUDE
 40
-122.394
  9
$NORTHDIRECTION
 40
0.0
  9
$TIMEZONE
 70
 -8000
  9
$LIGHTGLYPHDISPLAY
280
     1
  9
$TILEMODELIGHTSYNCH
280
     1
  9
$CMATERIAL
347
3C
  9
$SOLIDHIST
280
     1
  9
$SHOWHIST
280
     1
  9
$DWFFRAME
280
     2
  9
$DGNFRAME
280
     2
  9
$REALWORLDSCALE
290
     1
  9
$INTERFERECOLOR
 62
   256
  9
$CSHADOW
280
     0
  9
$SHADOWPLANELOCATION
 40
0.0
  0
ENDSEC
  0
SECTION
  2
CLASSES
  0
CLASS
  1
ACDBDICTIONARYWDFLT
  2
AcDbDictionaryWithDefault
  3
ObjectDBX Classes
 90
        0
 91
        4
280
     0
281
     0
  0
CLASS
  1
VISUALSTYLE
  2
AcDbVisualStyle
  3
ObjectDBX Classes
 90
     4095
 91
        4
280
     0
281
     0
  0
CLASS
  1
MATERIAL
  2
AcDbMaterial
  3
ObjectDBX Classes
 90
     1153
 91
        4
280
     0
281
     0
  0
CLASS
  1
SUN
  2
AcDbSun
  3
SCENEOE
 90
     1024
 91
        4
280
     0
281
     0
  0
ENDSEC
  0
SECTION
  2
TABLES
  0
TABLE
  2
VPORT
  5
8
330
0
100
AcDbSymbolTable
 70
     1
  0
VPORT
  5
29
330
8
100
AcDbSymbolTableRecord
100
AcDbViewportTableRecord
  2
*Active
 70
     0
 10
0.0
 20
0.0
 11
1.0
 21
1.0
 12
0.0
 22
0.0
 13
0.0
 23
0.0
 14
0.5
 24
0.5
 15
0.5
 25
0.5
 16
0.0
 26
0.0
 36
1.0
 17
91.00082462281999
 27
-128.4993055234307
 37
0.0
 40
256.9986110468615
 41
0.7081814508812795
 42
50.0
 43
0.0
 44
0.0
 50
0.0
 51
0.0
 71
     0
 72
   100
 73
     1
 74
     3
 75
     0
 76
     0
 77
     0
 78
     0
281
     0
 65
     1
110
0.0
120
0.0
130
0.0
111
1.0
121
0.0
131
0.0
112
0.0
122
1.0
132
0.0
 79
     0
146
0.0
 60
     3
 61
     5
292
     1
282
     1
141
0.0
142
0.0
 63
   250
361
3F
  0
ENDTAB
  0
TABLE
  2
LTYPE
  5
5
330
0
100
AcDbSymbolTable
 70
     1
  0
LTYPE
  5
14
330
5
100
AcDbSymbolTableRecord
100
AcDbLinetypeTableRecord
  2
ByBlock
 70
     0
  3

 72
    65
 73
     0
 40
0.0
  0
LTYPE
  5
15
330
5
100
AcDbSymbolTableRecord
100
AcDbLinetypeTableRecord
  2
ByLayer
 70
     0
  3

 72
    65
 73
     0
 40
0.0
  0
LTYPE
  5
16
330
5
100
AcDbSymbolTableRecord
100
AcDbLinetypeTableRecord
  2
Continuous
 70
     0
  3
Solid line
 72
    65
 73
     0
 40
0.0
  0
ENDTAB
  0
TABLE
  2
LAYER
  5
2
330
0
100
AcDbSymbolTable
 70
     2
  0
LAYER
  5
10
330
2
100
AcDbSymbolTableRecord
100
AcDbLayerTableRecord
  2
0
 70
     0
 62
     7
  6
Continuous
370
    -3
390
F
347
3E
  0
LAYER
  5
40
330
2
100
AcDbSymbolTableRecord
100
AcDbLayerTableRecord
  2
_U+30EC_U+30A4_U+30E4_U+30FC 1
 70
     0
 62
     7
  6
Continuous
370
    -3
390
F
347
3E
  0
ENDTAB
  0
TABLE
  2
STYLE
  5
3
330
0
100
AcDbSymbolTable
 70
     1
  0
STYLE
  5
11
330
3
100
AcDbSymbolTableRecord
100
AcDbTextStyleTableRecord
  2
Standard
 70
     0
 40
0.0
 41
1.0
 50
0.0
 71
     0
 42
0.2
  3
txt
  4

  0
ENDTAB
  0
TABLE
  2
VIEW
  5
6
330
0
100
AcDbSymbolTable
 70
     0
  0
ENDTAB
  0
TABLE
  2
UCS
  5
7
330
0
100
AcDbSymbolTable
 70
     0
  0
ENDTAB
  0
TABLE
  2
APPID
  5
9
330
0
100
AcDbSymbolTable
 70
     1
  0
APPID
  5
12
330
9
100
AcDbSymbolTableRecord
100
AcDbRegAppTableRecord
  2
ACAD
 70
     0
  0
ENDTAB
  0
TABLE
  2
DIMSTYLE
  5
A
330
0
100
AcDbSymbolTable
 70
     1
100
AcDbDimStyleTable
  0
DIMSTYLE
105
27
330
A
100
AcDbSymbolTableRecord
100
AcDbDimStyleTableRecord
  2
Standard
 70
     0
178
     0
340
11
  0
ENDTAB
  0
TABLE
  2
BLOCK_RECORD
  5
1
330
0
100
AcDbSymbolTable
 70
     5
  0
BLOCK_RECORD
  5
1F
330
1
100
AcDbSymbolTableRecord
100
AcDbBlockTableRecord
  2
*Model_Space
340
22
 70
     0
280
     1
281
     0
  0
BLOCK_RECORD
  5
1B
330
1
100
AcDbSymbolTableRecord
100
AcDbBlockTableRecord
  2
*Paper_Space
340
1E
 70
     0
280
     1
281
     0
  0
BLOCK_RECORD
  5
23
330
1
100
AcDbSymbolTableRecord
100
AcDbBlockTableRecord
  2
*Paper_Space0
340
26
 70
     0
280
     1
281
     0
  0
BLOCK_RECORD
  5
43
330
1
100
AcDbSymbolTableRecord
100
AcDbBlockTableRecord
  2
block 2
340
0
102
{BLKREFS
331
44
102
}
 70
     0
280
     1
281
     0
  0
BLOCK_RECORD
  5
47
330
1
100
AcDbSymbolTableRecord
100
AcDbBlockTableRecord
  2
block 3
340
0
102
{BLKREFS
331
48
102
}
 70
     0
280
     1
281
     0
  0
BLOCK_RECORD
  5
136
330
1
100
AcDbSymbolTableRecord
100
AcDbBlockTableRecord
  2
block 4
340
0
102
{BLKREFS
331
137
102
}
 70
     0
280
     1
281
     0
  0
BLOCK_RECORD
  5
154
330
1
100
AcDbSymbolTableRecord
100
AcDbBlockTableRecord
  2
block 5
340
0
102
{BLKREFS
331
155
102
}
 70
     0
280
     1
281
     0
  0
ENDTAB
  0
ENDSEC
  0
SECTION
  2
BLOCKS
  0
BLOCK
  5
20
330
1F
100
AcDbEntity
  8
0
100
AcDbBlockBegin
  2
*Model_Space
 70
     0
 10
0.0
 20
0.0
 30
0.0
  3
*Model_Space
  1

  0
ENDBLK
  5
21
330
1F
100
AcDbEntity
  8
0
100
AcDbBlockEnd
  0
BLOCK
  5
1C
330
1B
100
AcDbEntity
 67
     1
  8
0
100
AcDbBlockBegin
  2
*Paper_Space
 70
     0
 10
0.0
 20
0.0
 30
0.0
  3
*Paper_Space
  1

  0
ENDBLK
  5
1D
330
1B
100
AcDbEntity
 67
     1
  8
0
100
AcDbBlockEnd
  0
BLOCK
  5
24
330
23
100
AcDbEntity
  8
0
100
AcDbBlockBegin
  2
*Paper_Space0
 70
     0
 10
0.0
 20
0.0
 30
0.0
  3
*Paper_Space0
  1

  0
ENDBLK
  5
25
330
23
100
AcDbEntity
  8
0
100
AcDbBlockEnd
  0
BLOCK
  5
45
330
43
100
AcDbEntity
  8
0
100
AcDbBlockBegin
  2
block 2
 70
     0
 10
0.0
 20
0.0
 30
0.0
  3
block 2
  1

  0
INSERT
  5
48
330
43
100
AcDbEntity
  8
_U+30EC_U+30A4_U+30E4_U+30FC 1
100
AcDbBlockReference
  2
block 3
 10
0.0
 20
0.0
 30
0.0
  0
POLYLINE
  5
65
330
43
100
AcDbEntity
  8
_U+30EC_U+30A4_U+30E4_U+30FC 1
 62
   179
420
  2234388
370
    25
100
AcDb2dPolyline
 66
     1
 10
0.0
 20
0.0
 30
0.0
  0
VERTEX
  5
66
330
65
100
AcDbEntity
  8
_U+30EC_U+30A4_U+30E4_U+30FC 1
 62
   179
420
  2234388
370
    25
100
AcDbVertex
100
AcDb2dVertex
 10
104.8315123255253
 20
-123.1769824692057
 30
0.0
  0
VERTEX
  5
67
330
65
100
AcDbEntity
  8
_U+30EC_U+30A4_U+30E4_U+30FC 1
 62
   179
420
  2234388
370
    25
100
AcDbVertex
100
AcDb2dVertex
 10
104.8315123255253
 20
-127.1770944126503
 30
0.0
  0
SEQEND
  5
68
330
65
100
AcDbEntity
  8
_U+30EC_U+30A4_U+30E4_U+30FC 1
 62
   179
420
  2234388
370
    25
  0
POLYLINE
  5
69
330
43
100
AcDbEntity
  8
_U+30EC_U+30A4_U+30E4_U+30FC 1
 62
   179
420
  2234388
370
    25
100
AcDb2dPolyline
 66
     1
 10
0.0
 20
0.0
 30
0.0
  0
VERTEX
  5
6A
330
69
100
AcDbEntity
  8
_U+30EC_U+30A4_U+30E4_U+30FC 1
 62
   179
420
  2234388
370
    25
100
AcDbVertex
100
AcDb2dVertex
 10
88.7310194222616
 20
-123.1769824692057
 30
0.0
  0
VERTEX
  5
6B
330
69
100
AcDbEntity
  8
_U+30EC_U+30A4_U+30E4_U+30FC 1
 62
   179
420
  2234388
370
    25
100
AcDbVertex
100
AcDb2dVertex
 10
104.8315123255253
 20
-123.1769824692057
 30
0.0
  0
SEQEND
  5
6C
330
69
100
AcDbEntity
  8
_U+30EC_U+30A4_U+30E4_U+30FC 1
 62
   179
420
  2234388
370
    25
  0
POLYLINE
  5
6D
330
43
100
AcDbEntity
  8
_U+30EC_U+30A4_U+30E4_U+30FC 1
 62
   179
420
  2234388
370
    25
100
AcDb2dPolyline
 66
     1
 10
0.0
 20
0.0
 30
0.0
  0
VERTEX
  5
6E
330
6D
100
AcDbEntity
  8
_U+30EC_U+30A4_U+30E4_U+30FC 1
 62
   179
420
  2234388
370
    25
100
AcDbVertex
100
AcDb2dVertex
 10
105.6810717482957
 20
-122.3270702471959
 30
0.0
  0
VERTEX
  5
6F
330
6D
100
AcDbEntity
  8
_U+30EC_U+30A4_U+30E4_U+30FC 1
 62
   179
420
  2234388
370
    25
100
AcDbVertex
100
AcDb2dVertex
 10
105.6810717482957
 20
-127.1770944126503
 30
0.0
  0
SEQEND
  5
70
330
6D
100
AcDbEntity
  8
_U+30EC_U+30A4_U+30E4_U+30FC 1
 62
   179
420
  2234388
370
    25
  0
POLYLINE
  5
71
330
43
100
AcDbEntity
  8
_U+30EC_U+30A4_U+30E4_U+30FC 1
 62
   179
420
  2234388
370
    25
100
AcDb2dPolyline
 66
     1
 10
0.0
 20
0.0
 30
0.0
  0
VERTEX
  5
72
330
71
100
AcDbEntity
  8
_U+30EC_U+30A4_U+30E4_U+30FC 1
 62
   179
420
  2234388
370
    25
100
AcDbVertex
100
AcDb2dVertex
 10
87.73124720028937
 20
-122.3270702471959
 30
0.0
  0
VERTEX
  5
73
330
71
100
AcDbEntity
  8
_U+30EC_U+30A4_U+30E4_U+30FC 1
 62
   179
420
  2234388
370
    25
100
AcDbVertex
100
AcDb2dVertex
 10
105.6810717482957
 20
-122.3270702471959
 30
0.0
  0
SEQEND
  5
74
330
71
100
AcDbEntity
  8
_U+30EC_U+30A4_U+30E4_U+30FC 1
 62
   179
420
  2234388
370
    25
  0
POLYLINE
  5
75
330
43
100
AcDbEntity
  8
_U+30EC_U+30A4_U+30E4_U+30FC 1
 62
   179
420
  2234388
370
    25
100
AcDb2dPolyline
 66
     1
 10
0.0
 20
0.0
 30
0.0
  0
VERTEX
  5
76
330
75
100
AcDbEntity
  8
_U+30EC_U+30A4_U+30E4_U+30FC 1
 62
   179
420
  2234388
370
    25
100
AcDbVertex
100
AcDb2dVertex
 10
102.4474754419027
 20
-127.1770944126503
 30
0.0
  0
VERTEX
  5
77
330
75
100
AcDbEntity
  8
_U+30EC_U+30A4_U+30E4_U+30FC 1
 62
   179
420
  2234388
370
    25
100
AcDbVertex
100
AcDb2dVertex
 10
104.8315123255253
 20
-127.1770944126503
 30
0.0
  0
SEQEND
  5
78
330
75
100
AcDbEntity
  8
_U+30EC_U+30A4_U+30E4_U+30FC 1
 62
   179
420
  2234388
370
    25
  0
POLYLINE
  5
79
330
43
100
AcDbEntity
  8
_U+30EC_U+30A4_U+30E4_U+30FC 1
 62
   179
420
  2234388
370
    25
100
AcDb2dPolyline
 66
     1
 10
0.0
 20
0.0
 30
0.0
  0
VERTEX
  5
7A
330
79
100
AcDbEntity
  8
_U+30EC_U+30A4_U+30E4_U+30FC 1
 62
   179
420
  2234388
370
    25
100
AcDbVertex
100
AcDb2dVertex
 10
101.5814060195535
 20
-126.3020291350911
 30
0.0
  0
VERTEX
  5
7B
330
79
100
AcDbEntity
  8
_U+30EC_U+30A4_U+30E4_U+30FC 1
 62
   179
420
  2234388
370
    25
100
AcDbVertex
100
AcDb2dVertex
 10
101.5814060195535
 20
-127.3018013570633
 30
0.0
  0
SEQEND
  5
7C
330
79
100
AcDbEntity
  8
_U+30EC_U+30A4_U+30E4_U+30FC 1
 62
   179
420
  2234388
370
    25
  0
POLYLINE
  5
7D
330
43
100
AcDbEntity
  8
_U+30EC_U+30A4_U+30E4_U+30FC 1
 62
   179
420
  2234388
370
    25
100
AcDb2dPolyline
 66
     1
 10
0.0
 20
0.0
 30
0.0
  0
VERTEX
  5
7E
330
7D
100
AcDbEntity
  8
_U+30EC_U+30A4_U+30E4_U+30FC 1
 62
   179
420
  2234388
370
    25
100
AcDbVertex
100
AcDb2dVertex
 10
103.1309823689094
 20
-126.552148579473
 30
0.0
  0
VERTEX
  5
7F
330
7D
100
AcDbEntity
  8
_U+30EC_U+30A4_U+30E4_U+30FC 1
 62
   179
420
  2234388
370
    25
100
AcDbVertex
100
AcDb2dVertex
 10
104.181060675453
 20
-126.552148579473
 30
0.0
  0
SEQEND
  5
80
330
7D
100
AcDbEntity
  8
_U+30EC_U+30A4_U+30E4_U+30FC 1
 62
   179
420
  2234388
370
    25
  0
POLYLINE
  5
81
330
43
100
AcDbEntity
  8
_U+30EC_U+30A4_U+30E4_U+30FC 1
 62
   179
420
  2234388
370
    25
100
AcDb2dPolyline
 66
     1
 10
0.0
 20
0.0
 30
0.0
  0
VERTEX
  5
82
330
81
100
AcDbEntity
  8
_U+30EC_U+30A4_U+30E4_U+30FC 1
 62
   179
420
  2234388
370
    25
100
AcDbVertex
100
AcDb2dVertex
 10
102.880898208623
 20
-126.3020291350911
 30
0.0
  0
VERTEX
  5
83
330
81
100
AcDbEntity
  8
_U+30EC_U+30A4_U+30E4_U+30FC 1
 62
   179
420
  2234388
370
    25
100
AcDbVertex
100
AcDb2dVertex
 10
103.1309823689094
 20
-126.552148579473
 30
0.0
  0
SEQEND
  5
84
330
81
100
AcDbEntity
  8
_U+30EC_U+30A4_U+30E4_U+30FC 1
 62
   179
420
  2234388
370
    25
  0
POLYLINE
  5
85
330
43
100
AcDbEntity
  8
_U+30EC_U+30A4_U+30E4_U+30FC 1
 62
   179
420
  2234388
370
    25
100
AcDb2dPolyline
 66
     1
 10
0.0
 20
0.0
 30
0.0
  0
VERTEX
  5
86
330
85
100
AcDbEntity
  8
_U+30EC_U+30A4_U+30E4_U+30FC 1
 62
   179
420
  2234388
370
    25
100
AcDbVertex
100
AcDb2dVertex
 10
101.5814060195535
 20
-126.3020291350911
 30
0.0
  0
VERTEX
  5
87
330
85
100
AcDbEntity
  8
_U+30EC_U+30A4_U+30E4_U+30FC 1
 62
   179
420
  2234388
370
    25
100
AcDbVertex
100
AcDb2dVertex
 10
102.880898208623
 20
-126.3020291350911
 30
0.0
  0
SEQEND
  5
88
330
85
100
AcDbEntity
  8
_U+30EC_U+30A4_U+30E4_U+30FC 1
 62
   179
420
  2234388
370
    25
  0
POLYLINE
  5
89
330
43
100
AcDbEntity
  8
_U+30EC_U+30A4_U+30E4_U+30FC 1
 62
   179
420
  2234388
370
    25
100
AcDb2dPolyline
 66
     1
 10
0.0
 20
0.0
 30
0.0
  0
VERTEX
  5
8A
330
89
100
AcDbEntity
  8
_U+30EC_U+30A4_U+30E4_U+30FC 1
 62
   179
420
  2234388
370
    25
100
AcDbVertex
100
AcDb2dVertex
 10
91.45626072231197
 20
-127.3018013570633
 30
0.0
  0
VERTEX
  5
8B
330
89
100
AcDbEntity
  8
_U+30EC_U+30A4_U+30E4_U+30FC 1
 62
   179
420
  2234388
370
    25
100
AcDbVertex
100
AcDb2dVertex
 10
101.5814060195535
 20
-127.3018013570633
 30
0.0
  0
SEQEND
  5
8C
330
89
100
AcDbEntity
  8
_U+30EC_U+30A4_U+30E4_U+30FC 1
 62
   179
420
  2234388
370
    25
  0
POLYLINE
  5
8D
330
43
100
AcDbEntity
  8
_U+30EC_U+30A4_U+30E4_U+30FC 1
 62
   179
420
  2234388
370
    25
100
AcDb2dPolyline
 66
     1
 10
0.0
 20
0.0
 30
0.0
  0
VERTEX
  5
8E
330
8D
100
AcDbEntity
  8
_U+30EC_U+30A4_U+30E4_U+30FC 1
 62
   179
420
  2234388
370
    25
100
AcDbVertex
100
AcDb2dVertex
 10
103.0813818146193
 20
-125.2519508020203
 30
0.0
  0
VERTEX
  5
8F
330
8D
100
AcDbEntity
  8
_U+30EC_U+30A4_U+30E4_U+30FC 1
 62
   179
420
  2234388
370
    25
100
AcDbVertex
100
AcDb2dVertex
 10
103.0813818146193
 20
-126.1022158018078
 30
0.0
  0
SEQEND
  5
90
330
8D
100
AcDbEntity
  8
_U+30EC_U+30A4_U+30E4_U+30FC 1
 62
   179
420
  2234388
370
    25
  0
POLYLINE
  5
91
330
43
100
AcDbEntity
  8
_U+30EC_U+30A4_U+30E4_U+30FC 1
 62
   179
420
  2234388
370
    25
100
AcDb2dPolyline
 66
     1
 10
0.0
 20
0.0
 30
0.0
  0
VERTEX
  5
92
330
91
100
AcDbEntity
  8
_U+30EC_U+30A4_U+30E4_U+30FC 1
 62
   179
420
  2234388
370
    25
100
AcDbVertex
100
AcDb2dVertex
 10
100.7311410412456
 20
-125.3518574686619
 30
0.0
  0
VERTEX
  5
93
330
91
100
AcDbEntity
  8
_U+30EC_U+30A4_U+30E4_U+30FC 1
 62
   179
420
  2234388
370
    25
100
AcDbVertex
100
AcDb2dVertex
 10
100.7311410412456
 20
-126.0519096907093
 30
0.0
  0
SEQEND
  5
94
330
91
100
AcDbEntity
  8
_U+30EC_U+30A4_U+30E4_U+30FC 1
 62
   179
420
  2234388
370
    25
  0
POLYLINE
  5
95
330
43
100
AcDbEntity
  8
_U+30EC_U+30A4_U+30E4_U+30FC 1
 62
   179
420
  2234388
370
    25
100
AcDb2dPolyline
 66
     1
 10
0.0
 20
0.0
 30
0.0
  0
VERTEX
  5
96
330
95
100
AcDbEntity
  8
_U+30EC_U+30A4_U+30E4_U+30FC 1
 62
   179
420
  2234388
370
    25
100
AcDbVertex
100
AcDb2dVertex
 10
101.5814060195535
 20
-126.6768555238863
 30
0.0
  0
VERTEX
  5
97
330
95
100
AcDbEntity
  8
_U+30EC_U+30A4_U+30E4_U+30FC 1
 62
   179
420
  2234388
370
    25
100
AcDbVertex
100
AcDb2dVertex
 10
102.4474754419027
 20
-127.1770944126503
 30
0.0
  0
SEQEND
  5
98
330
95
100
AcDbEntity
  8
_U+30EC_U+30A4_U+30E4_U+30FC 1
 62
   179
420
  2234388
370
    25
  0
POLYLINE
  5
99
330
43
100
AcDbEntity
  8
_U+30EC_U+30A4_U+30E4_U+30FC 1
 62
   179
420
  2234388
370
    25
100
AcDb2dPolyline
 66
     1
 10
0.0
 20
0.0
 30
0.0
  0
VERTEX
  5
9A
330
99
100
AcDbEntity
  8
_U+30EC_U+30A4_U+30E4_U+30FC 1
 62
   179
420
  2234388
370
    25
100
AcDbVertex
100
AcDb2dVertex
 10
95.83151644402322
 20
-123.9455794134581
 30
0.0
  0
VERTEX
  5
9B
330
99
100
AcDbEntity
  8
_U+30EC_U+30A4_U+30E4_U+30FC 1
 62
   179
420
  2234388
370
    25
100
AcDbVertex
100
AcDb2dVertex
 10
95.83151644402322
 20
-126.0519096907093
 30
0.0
  0
SEQEND
  5
9C
330
99
100
AcDbEntity
  8
_U+30EC_U+30A4_U+30E4_U+30FC 1
 62
   179
420
  2234388
370
    25
  0
POLYLINE
  5
9D
330
43
100
AcDbEntity
  8
_U+30EC_U+30A4_U+30E4_U+30FC 1
 62
   179
420
  2234388
370
    25
100
AcDb2dPolyline
 66
     1
 10
0.0
 20
0.0
 30
0.0
  0
VERTEX
  5
9E
330
9D
100
AcDbEntity
  8
_U+30EC_U+30A4_U+30E4_U+30FC 1
 62
   179
420
  2234388
370
    25
100
AcDbVertex
100
AcDb2dVertex
 10
95.83151644402322
 20
-126.0519096907093
 30
0.0
  0
VERTEX
  5
9F
330
9D
100
AcDbEntity
  8
_U+30EC_U+30A4_U+30E4_U+30FC 1
 62
   179
420
  2234388
370
    25
100
AcDbVertex
100
AcDb2dVertex
 10
100.7311410412456
 20
-126.0519096907093
 30
0.0
  0
SEQEND
  5
A0
330
9D
100
AcDbEntity
  8
_U+30EC_U+30A4_U+30E4_U+30FC 1
 62
   179
420
  2234388
370
    25
  0
POLYLINE
  5
A1
330
43
100
AcDbEntity
  8
_U+30EC_U+30A4_U+30E4_U+30FC 1
 62
   179
420
  2234388
370
    25
100
AcDb2dPolyline
 66
     1
 10
0.0
 20
0.0
 30
0.0
  0
VERTEX
  5
A2
330
A1
100
AcDbEntity
  8
_U+30EC_U+30A4_U+30E4_U+30FC 1
 62
   179
420
  2234388
370
    25
100
AcDbVertex
100
AcDb2dVertex
 10
90.2061926986483
 20
-126.0519096907093
 30
0.0
  0
VERTEX
  5
A3
330
A1
100
AcDbEntity
  8
_U+30EC_U+30A4_U+30E4_U+30FC 1
 62
   179
420
  2234388
370
    25
100
AcDbVertex
100
AcDb2dVertex
 10
94.58095453148327
 20
-126.0519096907093
 30
0.0
  0
SEQEND
  5
A4
330
A1
100
AcDbEntity
  8
_U+30EC_U+30A4_U+30E4_U+30FC 1
 62
   179
420
  2234388
370
    25
  0
POLYLINE
  5
A5
330
43
100
AcDbEntity
  8
_U+30EC_U+30A4_U+30E4_U+30FC 1
 62
   179
420
  2234388
370
    25
100
AcDb2dPolyline
 66
     1
 10
0.0
 20
0.0
 30
0.0
  0
VERTEX
  5
A6
330
A5
100
AcDbEntity
  8
_U+30EC_U+30A4_U+30E4_U+30FC 1
 62
   179
420
  2234388
370
    25
100
AcDbVertex
100
AcDb2dVertex
 10
94.58095453148327
 20
-123.9455794134581
 30
0.0
  0
VERTEX
  5
A7
330
A5
100
AcDbEntity
  8
_U+30EC_U+30A4_U+30E4_U+30FC 1
 62
   179
420
  2234388
370
    25
100
AcDbVertex
100
AcDb2dVertex
 10
94.58095453148327
 20
-126.0519096907093
 30
0.0
  0
SEQEND
  5
A8
330
A5
100
AcDbEntity
  8
_U+30EC_U+30A4_U+30E4_U+30FC 1
 62
   179
420
  2234388
370
    25
  0
POLYLINE
  5
A9
330
43
100
AcDbEntity
  8
_U+30EC_U+30A4_U+30E4_U+30FC 1
 62
   179
420
  2234388
370
    25
100
AcDb2dPolyline
 66
     1
 10
0.0
 20
0.0
 30
0.0
  0
VERTEX
  5
AA
330
A9
100
AcDbEntity
  8
_U+30EC_U+30A4_U+30E4_U+30FC 1
 62
   179
420
  2234388
370
    25
100
AcDbVertex
100
AcDb2dVertex
 10
101.0308610335991
 20
-125.052137468737
 30
0.0
  0
VERTEX
  5
AB
330
A9
100
AcDbEntity
  8
_U+30EC_U+30A4_U+30E4_U+30FC 1
 62
   179
420
  2234388
370
    25
100
AcDbVertex
100
AcDb2dVertex
 10
102.880898208623
 20
-125.052137468737
 30
0.0
  0
SEQEND
  5
AC
330
A9
100
AcDbEntity
  8
_U+30EC_U+30A4_U+30E4_U+30FC 1
 62
   179
420
  2234388
370
    25
  0
POLYLINE
  5
AD
330
43
100
AcDbEntity
  8
_U+30EC_U+30A4_U+30E4_U+30FC 1
 62
   179
420
  2234388
370
    25
100
AcDb2dPolyline
 66
     1
 10
0.0
 20
0.0
 30
0.0
  0
VERTEX
  5
AE
330
AD
100
AcDbEntity
  8
_U+30EC_U+30A4_U+30E4_U+30FC 1
 62
   179
420
  2234388
370
    25
100
AcDbVertex
100
AcDb2dVertex
 10
104.181060675453
 20
-123.8270813579322
 30
0.0
  0
VERTEX
  5
AF
330
AD
100
AcDbEntity
  8
_U+30EC_U+30A4_U+30E4_U+30FC 1
 62
   179
420
  2234388
370
    25
100
AcDbVertex
100
AcDb2dVertex
 10
104.181060675453
 20
-126.552148579473
 30
0.0
  0
SEQEND
  5
B0
330
AD
100
AcDbEntity
  8
_U+30EC_U+30A4_U+30E4_U+30FC 1
 62
   179
420
  2234388
370
    25
  0
POLYLINE
  5
B1
330
43
100
AcDbEntity
  8
_U+30EC_U+30A4_U+30E4_U+30FC 1
 62
   179
420
  2234388
370
    25
100
AcDb2dPolyline
 66
     1
 10
0.0
 20
0.0
 30
0.0
  0
VERTEX
  5
B2
330
B1
100
AcDbEntity
  8
_U+30EC_U+30A4_U+30E4_U+30FC 1
 62
   179
420
  2234388
370
    25
100
AcDbVertex
100
AcDb2dVertex
 10
88.7310194222616
 20
-123.8270813579322
 30
0.0
  0
VERTEX
  5
B3
330
B1
100
AcDbEntity
  8
_U+30EC_U+30A4_U+30E4_U+30FC 1
 62
   179
420
  2234388
370
    25
100
AcDbVertex
100
AcDb2dVertex
 10
104.181060675453
 20
-123.8270813579322
 30
0.0
  0
SEQEND
  5
B4
330
B1
100
AcDbEntity
  8
_U+30EC_U+30A4_U+30E4_U+30FC 1
 62
   179
420
  2234388
370
    25
  0
POLYLINE
  5
B5
330
43
100
AcDbEntity
  8
_U+30EC_U+30A4_U+30E4_U+30FC 1
 62
   179
420
  2234388
370
    25
100
AcDb2dPolyline
 66
     1
 10
0.0
 20
0.0
 30
0.0
  0
VERTEX
  5
B6
330
B5
100
AcDbEntity
  8
_U+30EC_U+30A4_U+30E4_U+30FC 1
 62
   179
420
  2234388
370
    25
100
AcDbVertex
100
AcDb2dVertex
 10
94.58095453148327
 20
-123.9455794134581
 30
0.0
  0
VERTEX
  5
B7
330
B5
100
AcDbEntity
  8
_U+30EC_U+30A4_U+30E4_U+30FC 1
 62
   179
420
  2234388
370
    25
100
AcDbVertex
100
AcDb2dVertex
 10
95.83151644402322
 20
-123.9455794134581
 30
0.0
  0
SEQEND
  5
B8
330
B5
100
AcDbEntity
  8
_U+30EC_U+30A4_U+30E4_U+30FC 1
 62
   179
420
  2234388
370
    25
  0
POLYLINE
  5
B9
330
43
100
AcDbEntity
  8
_U+30EC_U+30A4_U+30E4_U+30FC 1
 62
   179
420
  2234388
370
    25
100
AcDb2dPolyline
 66
     1
 10
0.0
 20
0.0
 30
0.0
  0
VERTEX
  5
BA
330
B9
100
AcDbEntity
  8
_U+30EC_U+30A4_U+30E4_U+30FC 1
 62
   179
420
  2234388
370
    25
100
AcDbVertex
100
AcDb2dVertex
 10
87.98136664467124
 20
-124.5770516355225
 30
0.0
  0
VERTEX
  5
BB
330
B9
100
AcDbEntity
  8
_U+30EC_U+30A4_U+30E4_U+30FC 1
 62
   179
420
  2234388
370
    25
100
AcDbVertex
100
AcDb2dVertex
 10
87.98136664467124
 20
-140.0269544094375
 30
0.0
  0
SEQEND
  5
BC
330
B9
100
AcDbEntity
  8
_U+30EC_U+30A4_U+30E4_U+30FC 1
 62
   179
420
  2234388
370
    25
  0
POLYLINE
  5
BD
330
43
100
AcDbEntity
  8
_U+30EC_U+30A4_U+30E4_U+30FC 1
 62
   179
420
  2234388
370
    25
100
AcDb2dPolyline
 66
     1
 10
0.0
 20
0.0
 30
0.0
  0
VERTEX
  5
BE
330
BD
100
AcDbEntity
  8
_U+30EC_U+30A4_U+30E4_U+30FC 1
 62
   179
420
  2234388
370
    25
100
AcDbVertex
100
AcDb2dVertex
 10
90.45631213671166
 20
-138.7271094097629
 30
0.0
  0
VERTEX
  5
BF
330
BD
100
AcDbEntity
  8
_U+30EC_U+30A4_U+30E4_U+30FC 1
 62
   179
420
  2234388
370
    25
100
AcDbVertex
100
AcDb2dVertex
 10
90.70607879700626
 20
-138.9768760763667
 30
0.0
  0
SEQEND
  5
C0
330
BD
100
AcDbEntity
  8
_U+30EC_U+30A4_U+30E4_U+30FC 1
 62
   179
420
  2234388
370
    25
  0
POLYLINE
  5
C1
330
43
100
AcDbEntity
  8
_U+30EC_U+30A4_U+30E4_U+30FC 1
 62
   179
420
  2234388
370
    25
100
AcDb2dPolyline
 66
     1
 10
0.0
 20
0.0
 30
0.0
  0
VERTEX
  5
C2
330
C1
100
AcDbEntity
  8
_U+30EC_U+30A4_U+30E4_U+30FC 1
 62
   179
420
  2234388
370
    25
100
AcDbVertex
100
AcDb2dVertex
 10
90.70607879700626
 20
-138.9768760763667
 30
0.0
  0
VERTEX
  5
C3
330
C1
100
AcDbEntity
  8
_U+30EC_U+30A4_U+30E4_U+30FC 1
 62
   179
420
  2234388
370
    25
100
AcDbVertex
100
AcDb2dVertex
 10
90.70607879700626
 20
-140.0269544094375
 30
0.0
  0
SEQEND
  5
C4
330
C1
100
AcDbEntity
  8
_U+30EC_U+30A4_U+30E4_U+30FC 1
 62
   179
420
  2234388
370
    25
  0
POLYLINE
  5
C5
330
43
100
AcDbEntity
  8
_U+30EC_U+30A4_U+30E4_U+30FC 1
 62
   179
420
  2234388
370
    25
100
AcDb2dPolyline
 66
     1
 10
0.0
 20
0.0
 30
0.0
  0
VERTEX
  5
C6
330
C5
100
AcDbEntity
  8
_U+30EC_U+30A4_U+30E4_U+30FC 1
 62
   179
420
  2234388
370
    25
100
AcDbVertex
100
AcDb2dVertex
 10
88.09986247460748
 20
-130.4271655229487
 30
0.0
  0
VERTEX
  5
C7
330
C5
100
AcDbEntity
  8
_U+30EC_U+30A4_U+30E4_U+30FC 1
 62
   179
420
  2234388
370
    25
100
AcDbVertex
100
AcDb2dVertex
 10
88.09986247460748
 20
-131.6770571893028
 30
0.0
  0
SEQEND
  5
C8
330
C5
100
AcDbEntity
  8
_U+30EC_U+30A4_U+30E4_U+30FC 1
 62
   179
420
  2234388
370
    25
  0
POLYLINE
  5
C9
330
43
100
AcDbEntity
  8
_U+30EC_U+30A4_U+30E4_U+30FC 1
 62
   179
420
  2234388
370
    25
100
AcDb2dPolyline
 66
     1
 10
0.0
 20
0.0
 30
0.0
  0
VERTEX
  5
CA
330
C9
100
AcDbEntity
  8
_U+30EC_U+30A4_U+30E4_U+30FC 1
 62
   179
420
  2234388
370
    25
100
AcDbVertex
100
AcDb2dVertex
 10
90.2061926986483
 20
-126.0519096907093
 30
0.0
  0
VERTEX
  5
CB
330
C9
100
AcDbEntity
  8
_U+30EC_U+30A4_U+30E4_U+30FC 1
 62
   179
420
  2234388
370
    25
100
AcDbVertex
100
AcDb2dVertex
 10
90.2061926986483
 20
-130.4271655229487
 30
0.0
  0
SEQEND
  5
CC
330
C9
100
AcDbEntity
  8
_U+30EC_U+30A4_U+30E4_U+30FC 1
 62
   179
420
  2234388
370
    25
  0
POLYLINE
  5
CD
330
43
100
AcDbEntity
  8
_U+30EC_U+30A4_U+30E4_U+30FC 1
 62
   179
420
  2234388
370
    25
100
AcDb2dPolyline
 66
     1
 10
0.0
 20
0.0
 30
0.0
  0
VERTEX
  5
CE
330
CD
100
AcDbEntity
  8
_U+30EC_U+30A4_U+30E4_U+30FC 1
 62
   179
420
  2234388
370
    25
100
AcDbVertex
100
AcDb2dVertex
 10
88.09986247460748
 20
-131.6770571893028
 30
0.0
  0
VERTEX
  5
CF
330
CD
100
AcDbEntity
  8
_U+30EC_U+30A4_U+30E4_U+30FC 1
 62
   179
420
  2234388
370
    25
100
AcDbVertex
100
AcDb2dVertex
 10
90.2061926986483
 20
-131.6770571893028
 30
0.0
  0
SEQEND
  5
D0
330
CD
100
AcDbEntity
  8
_U+30EC_U+30A4_U+30E4_U+30FC 1
 62
   179
420
  2234388
370
    25
  0
POLYLINE
  5
D1
330
43
100
AcDbEntity
  8
_U+30EC_U+30A4_U+30E4_U+30FC 1
 62
   179
420
  2234388
370
    25
100
AcDb2dPolyline
 66
     1
 10
0.0
 20
0.0
 30
0.0
  0
VERTEX
  5
D2
330
D1
100
AcDbEntity
  8
_U+30EC_U+30A4_U+30E4_U+30FC 1
 62
   179
420
  2234388
370
    25
100
AcDbVertex
100
AcDb2dVertex
 10
89.40626910794494
 20
-138.9269227430462
 30
0.0
  0
VERTEX
  5
D3
330
D1
100
AcDbEntity
  8
_U+30EC_U+30A4_U+30E4_U+30FC 1
 62
   179
420
  2234388
370
    25
100
AcDbVertex
100
AcDb2dVertex
 10
90.25614603070721
 20
-138.9269227430462
 30
0.0
  0
SEQEND
  5
D4
330
D1
100
AcDbEntity
  8
_U+30EC_U+30A4_U+30E4_U+30FC 1
 62
   179
420
  2234388
370
    25
  0
POLYLINE
  5
D5
330
43
100
AcDbEntity
  8
_U+30EC_U+30A4_U+30E4_U+30FC 1
 62
   179
420
  2234388
370
    25
100
AcDb2dPolyline
 66
     1
 10
0.0
 20
0.0
 30
0.0
  0
VERTEX
  5
D6
330
D5
100
AcDbEntity
  8
_U+30EC_U+30A4_U+30E4_U+30FC 1
 62
   179
420
  2234388
370
    25
100
AcDbVertex
100
AcDb2dVertex
 10
88.09986247460748
 20
-130.4271655229487
 30
0.0
  0
VERTEX
  5
D7
330
D5
100
AcDbEntity
  8
_U+30EC_U+30A4_U+30E4_U+30FC 1
 62
   179
420
  2234388
370
    25
100
AcDbVertex
100
AcDb2dVertex
 10
90.2061926986483
 20
-130.4271655229487
 30
0.0
  0
SEQEND
  5
D8
330
D5
100
AcDbEntity
  8
_U+30EC_U+30A4_U+30E4_U+30FC 1
 62
   179
420
  2234388
370
    25
  0
POLYLINE
  5
D9
330
43
100
AcDbEntity
  8
_U+30EC_U+30A4_U+30E4_U+30FC 1
 62
   179
420
  2234388
370
    25
100
AcDb2dPolyline
 66
     1
 10
0.0
 20
0.0
 30
0.0
  0
VERTEX
  5
DA
330
D9
100
AcDbEntity
  8
_U+30EC_U+30A4_U+30E4_U+30FC 1
 62
   179
420
  2234388
370
    25
100
AcDbVertex
100
AcDb2dVertex
 10
89.20610300194049
 20
-136.8770721880028
 30
0.0
  0
VERTEX
  5
DB
330
D9
100
AcDbEntity
  8
_U+30EC_U+30A4_U+30E4_U+30FC 1
 62
   179
420
  2234388
370
    25
100
AcDbVertex
100
AcDb2dVertex
 10
89.20610300194049
 20
-138.7271094097629
 30
0.0
  0
SEQEND
  5
DC
330
D9
100
AcDbEntity
  8
_U+30EC_U+30A4_U+30E4_U+30FC 1
 62
   179
420
  2234388
370
    25
  0
POLYLINE
  5
DD
330
43
100
AcDbEntity
  8
_U+30EC_U+30A4_U+30E4_U+30FC 1
 62
   179
420
  2234388
370
    25
100
AcDb2dPolyline
 66
     1
 10
0.0
 20
0.0
 30
0.0
  0
VERTEX
  5
DE
330
DD
100
AcDbEntity
  8
_U+30EC_U+30A4_U+30E4_U+30FC 1
 62
   179
420
  2234388
370
    25
100
AcDbVertex
100
AcDb2dVertex
 10
90.83113851603794
 20
-137.4269116323099
 30
0.0
  0
VERTEX
  5
DF
330
DD
100
AcDbEntity
  8
_U+30EC_U+30A4_U+30E4_U+30FC 1
 62
   179
420
  2234388
370
    25
100
AcDbVertex
100
AcDb2dVertex
 10
91.33137739216467
 20
-138.2930163543153
 30
0.0
  0
SEQEND
  5
E0
330
DD
100
AcDbEntity
  8
_U+30EC_U+30A4_U+30E4_U+30FC 1
 62
   179
420
  2234388
370
    25
  0
POLYLINE
  5
E1
330
43
100
AcDbEntity
  8
_U+30EC_U+30A4_U+30E4_U+30FC 1
 62
   179
420
  2234388
370
    25
100
AcDb2dPolyline
 66
     1
 10
0.0
 20
0.0
 30
0.0
  0
VERTEX
  5
E2
330
E1
100
AcDbEntity
  8
_U+30EC_U+30A4_U+30E4_U+30FC 1
 62
   179
420
  2234388
370
    25
100
AcDbVertex
100
AcDb2dVertex
 10
90.2061926986483
 20
-131.6770571893028
 30
0.0
  0
VERTEX
  5
E3
330
E1
100
AcDbEntity
  8
_U+30EC_U+30A4_U+30E4_U+30FC 1
 62
   179
420
  2234388
370
    25
100
AcDbVertex
100
AcDb2dVertex
 10
90.2061926986483
 20
-136.5770346880777
 30
0.0
  0
SEQEND
  5
E4
330
E1
100
AcDbEntity
  8
_U+30EC_U+30A4_U+30E4_U+30FC 1
 62
   179
420
  2234388
370
    25
  0
POLYLINE
  5
E5
330
43
100
AcDbEntity
  8
_U+30EC_U+30A4_U+30E4_U+30FC 1
 62
   179
420
  2234388
370
    25
100
AcDb2dPolyline
 66
     1
 10
0.0
 20
0.0
 30
0.0
  0
VERTEX
  5
E6
330
E5
100
AcDbEntity
  8
_U+30EC_U+30A4_U+30E4_U+30FC 1
 62
   179
420
  2234388
370
    25
100
AcDbVertex
100
AcDb2dVertex
 10
87.98136664467124
 20
-140.0269544094375
 30
0.0
  0
VERTEX
  5
E7
330
E5
100
AcDbEntity
  8
_U+30EC_U+30A4_U+30E4_U+30FC 1
 62
   179
420
  2234388
370
    25
100
AcDbVertex
100
AcDb2dVertex
 10
90.70607879700626
 20
-140.0269544094375
 30
0.0
  0
SEQEND
  5
E8
330
E5
100
AcDbEntity
  8
_U+30EC_U+30A4_U+30E4_U+30FC 1
 62
   179
420
  2234388
370
    25
  0
POLYLINE
  5
E9
330
43
100
AcDbEntity
  8
_U+30EC_U+30A4_U+30E4_U+30FC 1
 62
   179
420
  2234388
370
    25
100
AcDb2dPolyline
 66
     1
 10
0.0
 20
0.0
 30
0.0
  0
VERTEX
  5
EA
330
E9
100
AcDbEntity
  8
_U+30EC_U+30A4_U+30E4_U+30FC 1
 62
   179
420
  2234388
370
    25
100
AcDbVertex
100
AcDb2dVertex
 10
90.45631213671166
 20
-137.4269116323099
 30
0.0
  0
VERTEX
  5
EB
330
E9
100
AcDbEntity
  8
_U+30EC_U+30A4_U+30E4_U+30FC 1
 62
   179
420
  2234388
370
    25
100
AcDbVertex
100
AcDb2dVertex
 10
90.45631213671166
 20
-138.7271094097629
 30
0.0
  0
SEQEND
  5
EC
330
E9
100
AcDbEntity
  8
_U+30EC_U+30A4_U+30E4_U+30FC 1
 62
   179
420
  2234388
370
    25
  0
POLYLINE
  5
ED
330
43
100
AcDbEntity
  8
_U+30EC_U+30A4_U+30E4_U+30FC 1
 62
   179
420
  2234388
370
    25
100
AcDb2dPolyline
 66
     1
 10
0.0
 20
0.0
 30
0.0
  0
VERTEX
  5
EE
330
ED
100
AcDbEntity
  8
_U+30EC_U+30A4_U+30E4_U+30FC 1
 62
   179
420
  2234388
370
    25
100
AcDbVertex
100
AcDb2dVertex
 10
89.50617577206278
 20
-136.5770346880777
 30
0.0
  0
VERTEX
  5
EF
330
ED
100
AcDbEntity
  8
_U+30EC_U+30A4_U+30E4_U+30FC 1
 62
   179
420
  2234388
370
    25
100
AcDbVertex
100
AcDb2dVertex
 10
90.2061926986483
 20
-136.5770346880777
 30
0.0
  0
SEQEND
  5
F0
330
ED
100
AcDbEntity
  8
_U+30EC_U+30A4_U+30E4_U+30FC 1
 62
   179
420
  2234388
370
    25
  0
POLYLINE
  5
F1
330
43
100
AcDbEntity
  8
_U+30EC_U+30A4_U+30E4_U+30FC 1
 62
   179
420
  2234388
370
    25
100
AcDb2dPolyline
 66
     1
 10
0.0
 20
0.0
 30
0.0
  0
VERTEX
  5
F2
330
F1
100
AcDbEntity
  8
_U+30EC_U+30A4_U+30E4_U+30FC 1
 62
   179
420
  2234388
370
    25
100
AcDbVertex
100
AcDb2dVertex
 10
91.33137739216467
 20
-138.2930163543153
 30
0.0
  0
VERTEX
  5
F3
330
F1
100
AcDbEntity
  8
_U+30EC_U+30A4_U+30E4_U+30FC 1
 62
   179
420
  2234388
370
    25
100
AcDbVertex
100
AcDb2dVertex
 10
91.33137739216467
 20
-140.6770180203864
 30
0.0
  0
SEQEND
  5
F4
330
F1
100
AcDbEntity
  8
_U+30EC_U+30A4_U+30E4_U+30FC 1
 62
   179
420
  2234388
370
    25
  0
POLYLINE
  5
F5
330
43
100
AcDbEntity
  8
_U+30EC_U+30A4_U+30E4_U+30FC 1
 62
   179
420
  2234388
370
    25
100
AcDb2dPolyline
 66
     1
 10
0.0
 20
0.0
 30
0.0
  0
VERTEX
  5
F6
330
F5
100
AcDbEntity
  8
_U+30EC_U+30A4_U+30E4_U+30FC 1
 62
   179
420
  2234388
370
    25
100
AcDbVertex
100
AcDb2dVertex
 10
91.45626072231197
 20
-127.3018013570633
 30
0.0
  0
VERTEX
  5
F7
330
F5
100
AcDbEntity
  8
_U+30EC_U+30A4_U+30E4_U+30FC 1
 62
   179
420
  2234388
370
    25
100
AcDbVertex
100
AcDb2dVertex
 10
91.45626072231197
 20
-137.4269116323099
 30
0.0
  0
SEQEND
  5
F8
330
F5
100
AcDbEntity
  8
_U+30EC_U+30A4_U+30E4_U+30FC 1
 62
   179
420
  2234388
370
    25
  0
POLYLINE
  5
F9
330
43
100
AcDbEntity
  8
_U+30EC_U+30A4_U+30E4_U+30FC 1
 62
   179
420
  2234388
370
    25
100
AcDb2dPolyline
 66
     1
 10
0.0
 20
0.0
 30
0.0
  0
VERTEX
  5
FA
330
F9
100
AcDbEntity
  8
_U+30EC_U+30A4_U+30E4_U+30FC 1
 62
   179
420
  2234388
370
    25
100
AcDbVertex
100
AcDb2dVertex
 10
86.4813555339353
 20
-123.5769619135503
 30
0.0
  0
VERTEX
  5
FB
330
F9
100
AcDbEntity
  8
_U+30EC_U+30A4_U+30E4_U+30FC 1
 62
   179
420
  2234388
370
    25
100
AcDbVertex
100
AcDb2dVertex
 10
86.4813555339353
 20
-141.5269302423962
 30
0.0
  0
SEQEND
  5
FC
330
F9
100
AcDbEntity
  8
_U+30EC_U+30A4_U+30E4_U+30FC 1
 62
   179
420
  2234388
370
    25
  0
POLYLINE
  5
FD
330
43
100
AcDbEntity
  8
_U+30EC_U+30A4_U+30E4_U+30FC 1
 62
   179
420
  2234388
370
    25
100
AcDb2dPolyline
 66
     1
 10
0.0
 20
0.0
 30
0.0
  0
VERTEX
  5
FE
330
FD
100
AcDbEntity
  8
_U+30EC_U+30A4_U+30E4_U+30FC 1
 62
   179
420
  2234388
370
    25
100
AcDbVertex
100
AcDb2dVertex
 10
87.3309127720028
 20
-124.5770516355225
 30
0.0
  0
VERTEX
  5
FF
330
FD
100
AcDbEntity
  8
_U+30EC_U+30A4_U+30E4_U+30FC 1
 62
   179
420
  2234388
370
    25
100
AcDbVertex
100
AcDb2dVertex
 10
87.3309127720028
 20
-140.6770180203864
 30
0.0
  0
SEQEND
  5
100
330
FD
100
AcDbEntity
  8
_U+30EC_U+30A4_U+30E4_U+30FC 1
 62
   179
420
  2234388
370
    25
  0
POLYLINE
  5
101
330
43
100
AcDbEntity
  8
_U+30EC_U+30A4_U+30E4_U+30FC 1
 62
   179
420
  2234388
370
    25
100
AcDb2dPolyline
 66
     1
 10
0.0
 20
0.0
 30
0.0
  0
VERTEX
  5
102
330
101
100
AcDbEntity
  8
_U+30EC_U+30A4_U+30E4_U+30FC 1
 62
   179
420
  2234388
370
    25
100
AcDbVertex
100
AcDb2dVertex
 10
87.3309127720028
 20
-140.6770180203864
 30
0.0
  0
VERTEX
  5
103
330
101
100
AcDbEntity
  8
_U+30EC_U+30A4_U+30E4_U+30FC 1
 62
   179
420
  2234388
370
    25
100
AcDbVertex
100
AcDb2dVertex
 10
91.33137739216467
 20
-140.6770180203864
 30
0.0
  0
SEQEND
  5
104
330
101
100
AcDbEntity
  8
_U+30EC_U+30A4_U+30E4_U+30FC 1
 62
   179
420
  2234388
370
    25
  0
POLYLINE
  5
105
330
43
100
AcDbEntity
  8
_U+30EC_U+30A4_U+30E4_U+30FC 1
 62
   179
420
  2234388
370
    25
100
AcDb2dPolyline
 66
     1
 10
0.0
 20
0.0
 30
0.0
  0
VERTEX
  5
106
330
105
100
AcDbEntity
  8
_U+30EC_U+30A4_U+30E4_U+30FC 1
 62
   179
420
  2234388
370
    25
100
AcDbVertex
100
AcDb2dVertex
 10
90.45631213671166
 20
-137.4269116323099
 30
0.0
  0
VERTEX
  5
107
330
105
100
AcDbEntity
  8
_U+30EC_U+30A4_U+30E4_U+30FC 1
 62
   179
420
  2234388
370
    25
100
AcDbVertex
100
AcDb2dVertex
 10
91.45626072231197
 20
-137.4269116323099
 30
0.0
  0
SEQEND
  5
108
330
105
100
AcDbEntity
  8
_U+30EC_U+30A4_U+30E4_U+30FC 1
 62
   179
420
  2234388
370
    25
  0
POLYLINE
  5
109
330
43
100
AcDbEntity
  8
_U+30EC_U+30A4_U+30E4_U+30FC 1
 62
   179
420
  2234388
370
    25
100
AcDb2dPolyline
 66
     1
 10
0.0
 20
0.0
 30
0.0
  0
VERTEX
  5
10A
330
109
100
AcDbEntity
  8
_U+30EC_U+30A4_U+30E4_U+30FC 1
 62
   179
420
  2234388
370
    25
100
AcDbVertex
100
AcDb2dVertex
 10
86.4813555339353
 20
-141.5269302423962
 30
0.0
  0
VERTEX
  5
10B
330
109
100
AcDbEntity
  8
_U+30EC_U+30A4_U+30E4_U+30FC 1
 62
   179
420
  2234388
370
    25
100
AcDbVertex
100
AcDb2dVertex
 10
91.33137739216467
 20
-141.5269302423962
 30
0.0
  0
SEQEND
  5
10C
330
109
100
AcDbEntity
  8
_U+30EC_U+30A4_U+30E4_U+30FC 1
 62
   179
420
  2234388
370
    25
  0
POLYLINE
  5
10D
330
43
100
AcDbEntity
  8
_U+30EC_U+30A4_U+30E4_U+30FC 1
 62
   179
420
  2234388
370
     9
100
AcDb2dPolyline
 66
     1
 10
0.0
 20
0.0
 30
0.0
  0
VERTEX
  5
10E
330
10D
100
AcDbEntity
  8
_U+30EC_U+30A4_U+30E4_U+30FC 1
 62
   179
420
  2234388
370
     9
100
AcDbVertex
100
AcDb2dVertex
 10
83.7411520302519
 20
-134.7886630218586
 30
0.0
  0
VERTEX
  5
10F
330
10D
100
AcDbEntity
  8
_U+30EC_U+30A4_U+30E4_U+30FC 1
 62
   179
420
  2234388
370
     9
100
AcDbVertex
100
AcDb2dVertex
 10
86.4813555339353
 20
-132.0487791336544
 30
0.0
  0
SEQEND
  5
110
330
10D
100
AcDbEntity
  8
_U+30EC_U+30A4_U+30E4_U+30FC 1
 62
   179
420
  2234388
370
     9
  0
POLYLINE
  5
111
330
43
100
AcDbEntity
  8
_U+30EC_U+30A4_U+30E4_U+30FC 1
 62
   179
420
  2234388
370
     9
100
AcDb2dPolyline
 66
     1
 10
0.0
 20
0.0
 30
0.0
  0
VERTEX
  5
112
330
111
100
AcDbEntity
  8
_U+30EC_U+30A4_U+30E4_U+30FC 1
 62
   179
420
  2234388
370
     9
100
AcDbVertex
100
AcDb2dVertex
 10
85.98114975088257
 20
-132.9148838556605
 30
0.0
  0
VERTEX
  5
113
330
111
100
AcDbEntity
  8
_U+30EC_U+30A4_U+30E4_U+30FC 1
 62
   179
420
  2234388
370
     9
100
AcDbVertex
100
AcDb2dVertex
 10
86.4813555339353
 20
-132.0487791336544
 30
0.0
  0
SEQEND
  5
114
330
111
100
AcDbEntity
  8
_U+30EC_U+30A4_U+30E4_U+30FC 1
 62
   179
420
  2234388
370
     9
  0
POLYLINE
  5
115
330
43
100
AcDbEntity
  8
_U+30EC_U+30A4_U+30E4_U+30FC 1
 62
   179
420
  2234388
370
     9
100
AcDb2dPolyline
 66
     1
 10
0.0
 20
0.0
 30
0.0
  0
VERTEX
  5
116
330
115
100
AcDbEntity
  8
_U+30EC_U+30A4_U+30E4_U+30FC 1
 62
   179
420
  2234388
370
     9
100
AcDbVertex
100
AcDb2dVertex
 10
85.6152860897074
 20
-132.5486652446403
 30
0.0
  0
VERTEX
  5
117
330
115
100
AcDbEntity
  8
_U+30EC_U+30A4_U+30E4_U+30FC 1
 62
   179
420
  2234388
370
     9
100
AcDbVertex
100
AcDb2dVertex
 10
86.4813555339353
 20
-132.0487791336544
 30
0.0
  0
SEQEND
  5
118
330
115
100
AcDbEntity
  8
_U+30EC_U+30A4_U+30E4_U+30FC 1
 62
   179
420
  2234388
370
     9
  0
POLYLINE
  5
119
330
43
100
AcDbEntity
  8
_U+30EC_U+30A4_U+30E4_U+30FC 1
 62
   179
420
  2234388
370
     9
100
AcDb2dPolyline
 66
     1
 10
0.0
 20
0.0
 30
0.0
  0
VERTEX
  5
11A
330
119
100
AcDbEntity
  8
_U+30EC_U+30A4_U+30E4_U+30FC 1
 62
   179
420
  2234388
370
     9
100
AcDbVertex
100
AcDb2dVertex
 10
70.99790179980373
 20
-134.7886630218586
 30
0.0
  0
VERTEX
  5
11B
330
119
100
AcDbEntity
  8
_U+30EC_U+30A4_U+30E4_U+30FC 1
 62
   179
420
  2234388
370
     9
100
AcDbVertex
100
AcDb2dVertex
 10
83.7411520302519
 20
-134.7886630218586
 30
0.0
  0
SEQEND
  5
11C
330
119
100
AcDbEntity
  8
_U+30EC_U+30A4_U+30E4_U+30FC 1
 62
   179
420
  2234388
370
     9
  0
SPLINE
  5
11D
330
43
100
AcDbEntity
  8
_U+30EC_U+30A4_U+30E4_U+30FC 1
 62
   179
420
  2234388
370
    25
100
AcDbSpline
210
0.0
220
0.0
230
1.0
 70
     8
 71
     3
 72
     8
 73
     4
 74
     0
 42
0.0000000001
 43
0.0000000001
 12
1.0
 22
0.0
 32
0.0
 13
1.0
 23
0.0
 33
0.0
 40
0.0
 40
0.0
 40
0.0
 40
0.0
 40
1.0
 40
1.0
 40
1.0
 40
1.0
 10
87.73124720028937
 20
-122.3270702471959
 30
0.0
 10
87.04086108935074
 20
-122.3270702471959
 30
0.0
 10
86.4813555339353
 20
-122.8865405248338
 30
0.0
 10
86.4813555339353
 20
-123.5769619135503
 30
0.0
  0
SPLINE
  5
11E
330
43
100
AcDbEntity
  8
_U+30EC_U+30A4_U+30E4_U+30FC 1
 62
   179
420
  2234388
370
    25
100
AcDbSpline
210
0.0
220
0.0
230
1.0
 70
     8
 71
     3
 72
     8
 73
     4
 74
     0
 42
0.0000000001
 43
0.0000000001
 12
1.0
 22
0.0
 32
0.0
 13
1.0
 23
0.0
 33
0.0
 40
0.0
 40
0.0
 40
0.0
 40
0.0
 40
1.0
 40
1.0
 40
1.0
 40
1.0
 10
102.880898208623
 20
-126.3020291350911
 30
0.0
 10
102.9918115391267
 20
-126.3020291350911
 30
0.0
 10
103.0813818146193
 20
-126.2124588573358
 30
0.0
 10
103.0813818146193
 20
-126.1022158018078
 30
0.0
  0
SPLINE
  5
11F
330
43
100
AcDbEntity
  8
_U+30EC_U+30A4_U+30E4_U+30FC 1
 62
   179
420
  2234388
370
    25
100
AcDbSpline
210
0.0
220
0.0
230
1.0
 70
     8
 71
     3
 72
     8
 73
     4
 74
     0
 42
0.0000000001
 43
0.0000000001
 12
1.0
 22
0.0
 32
0.0
 13
1.0
 23
0.0
 33
0.0
 40
0.0
 40
0.0
 40
0.0
 40
0.0
 40
1.0
 40
1.0
 40
1.0
 40
1.0
 10
101.0308610335991
 20
-125.052137468737
 30
0.0
 10
100.8655166414502
 20
-125.052137468737
 30
0.0
 10
100.7311410412456
 20
-125.186510524259
 30
0.0
 10
100.7311410412456
 20
-125.3518574686619
 30
0.0
  0
SPLINE
  5
120
330
43
100
AcDbEntity
  8
_U+30EC_U+30A4_U+30E4_U+30FC 1
 62
   179
420
  2234388
370
    25
100
AcDbSpline
210
0.0
220
0.0
230
1.0
 70
     8
 71
     3
 72
     8
 73
     4
 74
     0
 42
0.0000000001
 43
0.0000000001
 12
1.0
 22
0.0
 32
0.0
 13
1.0
 23
0.0
 33
0.0
 40
0.0
 40
0.0
 40
0.0
 40
0.0
 40
1.0
 40
1.0
 40
1.0
 40
1.0
 10
103.0813818146193
 20
-125.2519508020203
 30
0.0
 10
103.0813818146193
 20
-125.1417077464923
 30
0.0
 10
102.9918115391267
 20
-125.052137468737
 30
0.0
 10
102.880898208623
 20
-125.052137468737
 30
0.0
  0
SPLINE
  5
121
330
43
100
AcDbEntity
  8
_U+30EC_U+30A4_U+30E4_U+30FC 1
 62
   179
420
  2234388
370
    25
100
AcDbSpline
210
0.0
220
0.0
230
1.0
 70
     8
 71
     3
 72
     8
 73
     4
 74
     0
 42
0.0000000001
 43
0.0000000001
 12
1.0
 22
0.0
 32
0.0
 13
1.0
 23
0.0
 33
0.0
 40
0.0
 40
0.0
 40
0.0
 40
0.0
 40
1.0
 40
1.0
 40
1.0
 40
1.0
 10
89.20610300194049
 20
-138.7271094097629
 30
0.0
 10
89.20610300194049
 20
-138.8373524652909
 30
0.0
 10
89.29567327743314
 20
-138.9269227430462
 30
0.0
 10
89.40626910794494
 20
-138.9269227430462
 30
0.0
  0
SPLINE
  5
122
330
43
100
AcDbEntity
  8
_U+30EC_U+30A4_U+30E4_U+30FC 1
 62
   179
420
  2234388
370
    25
100
AcDbSpline
210
0.0
220
0.0
230
1.0
 70
     8
 71
     3
 72
     8
 73
     4
 74
     0
 42
0.0000000001
 43
0.0000000001
 12
1.0
 22
0.0
 32
0.0
 13
1.0
 23
0.0
 33
0.0
 40
0.0
 40
0.0
 40
0.0
 40
0.0
 40
1.0
 40
1.0
 40
1.0
 40
1.0
 10
90.25614603070721
 20
-138.9269227430462
 30
0.0
 10
90.36674186121901
 20
-138.9269227430462
 30
0.0
 10
90.45631213671166
 20
-138.8373524652909
 30
0.0
 10
90.45631213671166
 20
-138.7271094097629
 30
0.0
  0
SPLINE
  5
123
330
43
100
AcDbEntity
  8
_U+30EC_U+30A4_U+30E4_U+30FC 1
 62
   179
420
  2234388
370
    25
100
AcDbSpline
210
0.0
220
0.0
230
1.0
 70
     8
 71
     3
 72
     8
 73
     4
 74
     0
 42
0.0000000001
 43
0.0000000001
 12
1.0
 22
0.0
 32
0.0
 13
1.0
 23
0.0
 33
0.0
 40
0.0
 40
0.0
 40
0.0
 40
0.0
 40
1.0
 40
1.0
 40
1.0
 40
1.0
 10
89.50617577206278
 20
-136.5770346880777
 30
0.0
 10
89.34044077629102
 20
-136.5770346880777
 30
0.0
 10
89.20610300194049
 20
-136.7113724658221
 30
0.0
 10
89.20610300194049
 20
-136.8770721880028
 30
0.0
  0
SPLINE
  5
124
330
43
100
AcDbEntity
  8
_U+30EC_U+30A4_U+30E4_U+30FC 1
 62
   179
420
  2234388
370
    25
100
AcDbSpline
210
0.0
220
0.0
230
1.0
 70
     8
 71
     3
 72
     8
 73
     4
 74
     0
 42
0.0000000001
 43
0.0000000001
 12
1.0
 22
0.0
 32
0.0
 13
1.0
 23
0.0
 33
0.0
 40
0.0
 40
0.0
 40
0.0
 40
0.0
 40
1.0
 40
1.0
 40
1.0
 40
1.0
 10
88.7310194222616
 20
-123.8270813579322
 30
0.0
 10
88.31692663573638
 20
-123.8270813579322
 30
0.0
 10
87.98136664467124
 20
-124.1626083022928
 30
0.0
 10
87.98136664467124
 20
-124.5770516355225
 30
0.0
  0
SPLINE
  5
125
330
43
100
AcDbEntity
  8
_U+30EC_U+30A4_U+30E4_U+30FC 1
 62
   179
420
  2234388
370
    25
100
AcDbSpline
210
0.0
220
0.0
230
1.0
 70
     8
 71
     3
 72
     8
 73
     4
 74
     0
 42
0.0000000001
 43
0.0000000001
 12
1.0
 22
0.0
 32
0.0
 13
1.0
 23
0.0
 33
0.0
 40
0.0
 40
0.0
 40
0.0
 40
0.0
 40
1.0
 40
1.0
 40
1.0
 40
1.0
 10
88.7310194222616
 20
-123.1769824692057
 30
0.0
 10
87.95793997822823
 20
-123.1769824692057
 30
0.0
 10
87.3309127720028
 20
-123.8036569134937
 30
0.0
 10
87.3309127720028
 20
-124.5770516355225
 30
0.0
  0
SPLINE
  5
126
330
43
100
AcDbEntity
  8
_U+30EC_U+30A4_U+30E4_U+30FC 1
 62
   179
420
  2234388
370
     9
100
AcDbSpline
210
0.0
220
0.0
230
1.0
 70
    11
 71
     3
 72
    17
 73
    13
 74
     0
 42
0.0000000001
 43
0.0000000001
 12
1.0
 22
0.0
 32
0.0
 13
1.0
 23
0.0
 33
0.0
 40
0.0
 40
0.0
 40
0.0
 40
0.0
 40
1.0
 40
1.0
 40
1.0
 40
2.0
 40
2.0
 40
2.0
 40
3.0
 40
3.0
 40
3.0
 40
4.0
 40
4.0
 40
4.0
 40
4.0
 10
87.43117221388941
 20
-118.3269583037516
 30
0.0
 10
87.43117221388941
 20
-118.2715016370989
 30
0.0
 10
87.38640471503153
 20
-118.22705163711
 30
0.0
 10
87.3309127720028
 20
-118.22705163711
 30
0.0
 10
87.27581108929206
 20
-118.22705163711
 30
0.0
 10
87.23100831152567
 20
-118.2715016370989
 30
0.0
 10
87.23100831152567
 20
-118.3269583037516
 30
0.0
 10
87.23100831152567
 20
-118.3824502481821
 30
0.0
 10
87.27581108929206
 20
-118.427217748171
 30
0.0
 10
87.3309127720028
 20
-118.427217748171
 30
0.0
 10
87.38640471503153
 20
-118.427217748171
 30
0.0
 10
87.43117221388941
 20
-118.3824502481821
 30
0.0
 10
87.43117221388941
 20
-118.3269583037516
 30
0.0
  0
SPLINE
  5
127
330
43
100
AcDbEntity
  8
_U+30EC_U+30A4_U+30E4_U+30FC 1
 62
   179
420
  2234388
370
     9
100
AcDbSpline
210
0.0
220
0.0
230
1.0
 70
    11
 71
     3
 72
    17
 73
    13
 74
     0
 42
0.0000000001
 43
0.0000000001
 12
1.0
 22
0.0
 32
0.0
 13
1.0
 23
0.0
 33
0.0
 40
0.0
 40
0.0
 40
0.0
 40
0.0
 40
1.0
 40
1.0
 40
1.0
 40
2.0
 40
2.0
 40
2.0
 40
3.0
 40
3.0
 40
3.0
 40
4.0
 40
4.0
 40
4.0
 40
4.0
 10
104.9314189896431
 20
-118.3269583037516
 30
0.0
 10
104.9314189896431
 20
-118.2715016370989
 30
0.0
 10
104.8866162130084
 20
-118.22705163711
 30
0.0
 10
104.8315123255253
 20
-118.22705163711
 30
0.0
 10
104.7757055293618
 20
-118.22705163711
 30
0.0
 10
104.7309027515951
 20
-118.2715016370989
 30
0.0
 10
104.7309027515951
 20
-118.3269583037516
 30
0.0
 10
104.7309027515951
 20
-118.3824502481821
 30
0.0
 10
104.7757055293618
 20
-118.427217748171
 30
0.0
 10
104.8315123255253
 20
-118.427217748171
 30
0.0
 10
104.8866162130084
 20
-118.427217748171
 30
0.0
 10
104.9314189896431
 20
-118.3824502481821
 30
0.0
 10
104.9314189896431
 20
-118.3269583037516
 30
0.0
  0
SPLINE
  5
128
330
43
100
AcDbEntity
  8
_U+30EC_U+30A4_U+30E4_U+30FC 1
 62
   179
420
  2234388
370
     9
100
AcDbSpline
210
0.0
220
0.0
230
1.0
 70
    11
 71
     3
 72
    17
 73
    13
 74
     0
 42
0.0000000001
 43
0.0000000001
 12
1.0
 22
0.0
 32
0.0
 13
1.0
 23
0.0
 33
0.0
 40
0.0
 40
0.0
 40
0.0
 40
0.0
 40
1.0
 40
1.0
 40
1.0
 40
2.0
 40
2.0
 40
2.0
 40
3.0
 40
3.0
 40
3.0
 40
4.0
 40
4.0
 40
4.0
 40
4.0
 10
109.7814077547985
 20
-123.1769824692057
 30
0.0
 10
109.7814077547985
 20
-123.121525802553
 30
0.0
 10
109.7366402559406
 20
-123.077075802564
 30
0.0
 10
109.6815010906807
 20
-123.077075802564
 30
0.0
 10
109.625694417038
 20
-123.077075802564
 30
0.0
 10
109.5808916392713
 20
-123.121525802553
 30
0.0
 10
109.5808916392713
 20
-123.1769824692057
 30
0.0
 10
109.5808916392713
 20
-123.2324391358587
 30
0.0
 10
109.625694417038
 20
-123.2772419136251
 30
0.0
 10
109.6815010906807
 20
-123.2772419136251
 30
0.0
 10
109.7366402559406
 20
-123.2772419136251
 30
0.0
 10
109.7814077547985
 20
-123.2324391358587
 30
0.0
 10
109.7814077547985
 20
-123.1769824692057
 30
0.0
  0
SPLINE
  5
129
330
43
100
AcDbEntity
  8
_U+30EC_U+30A4_U+30E4_U+30FC 1
 62
   179
420
  2234388
370
     9
100
AcDbSpline
210
0.0
220
0.0
230
1.0
 70
    11
 71
     3
 72
    17
 73
    13
 74
     0
 42
0.0000000001
 43
0.0000000001
 12
1.0
 22
0.0
 32
0.0
 13
1.0
 23
0.0
 33
0.0
 40
0.0
 40
0.0
 40
0.0
 40
0.0
 40
1.0
 40
1.0
 40
1.0
 40
2.0
 40
2.0
 40
2.0
 40
3.0
 40
3.0
 40
3.0
 40
4.0
 40
4.0
 40
4.0
 40
4.0
 10
109.7814077547985
 20
-127.1770944126503
 30
0.0
 10
109.7814077547985
 20
-127.1219552459972
 30
0.0
 10
109.7366402559406
 20
-127.0771877460084
 30
0.0
 10
109.6815010906807
 20
-127.0771877460084
 30
0.0
 10
109.625694417038
 20
-127.0771877460084
 30
0.0
 10
109.5808916392713
 20
-127.1219552459972
 30
0.0
 10
109.5808916392713
 20
-127.1770944126503
 30
0.0
 10
109.5808916392713
 20
-127.2321983015252
 30
0.0
 10
109.625694417038
 20
-127.277001079292
 30
0.0
 10
109.6815010906807
 20
-127.277001079292
 30
0.0
 10
109.7366402559406
 20
-127.277001079292
 30
0.0
 10
109.7814077547985
 20
-127.2321983015252
 30
0.0
 10
109.7814077547985
 20
-127.1770944126503
 30
0.0
  0
POLYLINE
  5
12A
330
43
100
AcDbEntity
  8
_U+30EC_U+30A4_U+30E4_U+30FC 1
 62
   179
420
  2234388
370
     9
100
AcDb2dPolyline
 66
     1
 10
0.0
 20
0.0
 30
0.0
  0
VERTEX
  5
12B
330
12A
100
AcDbEntity
  8
_U+30EC_U+30A4_U+30E4_U+30FC 1
 62
   179
420
  2234388
370
     9
100
AcDbVertex
100
AcDb2dVertex
 10
87.3309127720028
 20
-118.3269583037516
 30
0.0
  0
VERTEX
  5
12C
330
12A
100
AcDbEntity
  8
_U+30EC_U+30A4_U+30E4_U+30FC 1
 62
   179
420
  2234388
370
     9
100
AcDbVertex
100
AcDb2dVertex
 10
104.8315123255253
 20
-118.3269583037516
 30
0.0
  0
SEQEND
  5
12D
330
12A
100
AcDbEntity
  8
_U+30EC_U+30A4_U+30E4_U+30FC 1
 62
   179
420
  2234388
370
     9
  0
POLYLINE
  5
12E
330
43
100
AcDbEntity
  8
_U+30EC_U+30A4_U+30E4_U+30FC 1
 62
   179
420
  2234388
370
     9
100
AcDb2dPolyline
 66
     1
 10
0.0
 20
0.0
 30
0.0
  0
VERTEX
  5
12F
330
12E
100
AcDbEntity
  8
_U+30EC_U+30A4_U+30E4_U+30FC 1
 62
   179
420
  2234388
370
     9
100
AcDbVertex
100
AcDb2dVertex
 10
87.3309127720028
 20
-122.0369810806018
 30
0.0
  0
VERTEX
  5
130
330
12E
100
AcDbEntity
  8
_U+30EC_U+30A4_U+30E4_U+30FC 1
 62
   179
420
  2234388
370
     9
100
AcDbVertex
100
AcDb2dVertex
 10
87.3309127720028
 20
-117.3268685817795
 30
0.0
  0
SEQEND
  5
131
330
12E
100
AcDbEntity
  8
_U+30EC_U+30A4_U+30E4_U+30FC 1
 62
   179
420
  2234388
370
     9
  0
POLYLINE
  5
132
330
43
100
AcDbEntity
  8
_U+30EC_U+30A4_U+30E4_U+30FC 1
 62
   179
420
  2234388
370
     9
100
AcDb2dPolyline
 66
     1
 10
0.0
 20
0.0
 30
0.0
  0
VERTEX
  5
133
330
132
100
AcDbEntity
  8
_U+30EC_U+30A4_U+30E4_U+30FC 1
 62
   179
420
  2234388
370
     9
100
AcDbVertex
100
AcDb2dVertex
 10
104.8315123255253
 20
-120.6369119142854
 30
0.0
  0
VERTEX
  5
134
330
132
100
AcDbEntity
  8
_U+30EC_U+30A4_U+30E4_U+30FC 1
 62
   179
420
  2234388
370
     9
100
AcDbVertex
100
AcDb2dVertex
 10
104.8315123255253
 20
-117.3268685817795
 30
0.0
  0
SEQEND
  5
135
330
132
100
AcDbEntity
  8
_U+30EC_U+30A4_U+30E4_U+30FC 1
 62
   179
420
  2234388
370
     9
  0
INSERT
  5
137
330
43
100
AcDbEntity
  8
_U+30EC_U+30A4_U+30E4_U+30FC 1
100
AcDbBlockReference
  2
block 4
 10
0.0
 20
0.0
 30
0.0
  0
POLYLINE
  5
148
330
43
100
AcDbEntity
  8
_U+30EC_U+30A4_U+30E4_U+30FC 1
 62
   179
420
  2234388
370
     9
100
AcDb2dPolyline
 66
     1
 10
0.0
 20
0.0
 30
0.0
  0
VERTEX
  5
149
330
148
100
AcDbEntity
  8
_U+30EC_U+30A4_U+30E4_U+30FC 1
 62
   179
420
  2234388
370
     9
100
AcDbVertex
100
AcDb2dVertex
 10
109.6815010906807
 20
-123.1769824692057
 30
0.0
  0
VERTEX
  5
14A
330
148
100
AcDbEntity
  8
_U+30EC_U+30A4_U+30E4_U+30FC 1
 62
   179
420
  2234388
370
     9
100
AcDbVertex
100
AcDb2dVertex
 10
109.6815010906807
 20
-127.1770944126503
 30
0.0
  0
SEQEND
  5
14B
330
148
100
AcDbEntity
  8
_U+30EC_U+30A4_U+30E4_U+30FC 1
 62
   179
420
  2234388
370
     9
  0
POLYLINE
  5
14C
330
43
100
AcDbEntity
  8
_U+30EC_U+30A4_U+30E4_U+30FC 1
 62
   179
420
  2234388
370
     9
100
AcDb2dPolyline
 66
     1
 10
0.0
 20
0.0
 30
0.0
  0
VERTEX
  5
14D
330
14C
100
AcDbEntity
  8
_U+30EC_U+30A4_U+30E4_U+30FC 1
 62
   179
420
  2234388
370
     9
100
AcDbVertex
100
AcDb2dVertex
 10
107.3712300385095
 20
-123.1769824692057
 30
0.0
  0
VERTEX
  5
14E
330
14C
100
AcDbEntity
  8
_U+30EC_U+30A4_U+30E4_U+30FC 1
 62
   179
420
  2234388
370
     9
100
AcDbVertex
100
AcDb2dVertex
 10
110.6812732873966
 20
-123.1769824692057
 30
0.0
  0
SEQEND
  5
14F
330
14C
100
AcDbEntity
  8
_U+30EC_U+30A4_U+30E4_U+30FC 1
 62
   179
420
  2234388
370
     9
  0
POLYLINE
  5
150
330
43
100
AcDbEntity
  8
_U+30EC_U+30A4_U+30E4_U+30FC 1
 62
   179
420
  2234388
370
     9
100
AcDb2dPolyline
 66
     1
 10
0.0
 20
0.0
 30
0.0
  0
VERTEX
  5
151
330
150
100
AcDbEntity
  8
_U+30EC_U+30A4_U+30E4_U+30FC 1
 62
   179
420
  2234388
370
     9
100
AcDbVertex
100
AcDb2dVertex
 10
107.3712300385095
 20
-127.1770944126503
 30
0.0
  0
VERTEX
  5
152
330
150
100
AcDbEntity
  8
_U+30EC_U+30A4_U+30E4_U+30FC 1
 62
   179
420
  2234388
370
     9
100
AcDbVertex
100
AcDb2dVertex
 10
110.6812732873966
 20
-127.1770944126503
 30
0.0
  0
SEQEND
  5
153
330
150
100
AcDbEntity
  8
_U+30EC_U+30A4_U+30E4_U+30FC 1
 62
   179
420
  2234388
370
     9
  0
INSERT
  5
155
330
43
100
AcDbEntity
  8
_U+30EC_U+30A4_U+30E4_U+30FC 1
100
AcDbBlockReference
  2
block 5
 10
0.0
 20
0.0
 30
0.0
  0
ENDBLK
  5
46
330
43
100
AcDbEntity
  8
0
100
AcDbBlockEnd
  0
BLOCK
  5
49
330
47
100
AcDbEntity
  8
0
100
AcDbBlockBegin
  2
block 3
 70
     0
 10
0.0
 20
0.0
 30
0.0
  3
block 3
  1

  0
SPLINE
  5
4B
330
47
100
AcDbEntity
  8
_U+30EC_U+30A4_U+30E4_U+30FC 1
370
     0
100
AcDbSpline
210
0.0
220
0.0
230
1.0
 70
    11
 71
     3
 72
    83
 73
    79
 74
     0
 42
0.0000000001
 43
0.0000000001
 12
1.0
 22
0.0
 32
0.0
 13
1.0
 23
0.0
 33
0.0
 40
0.0
 40
0.0
 40
0.0
 40
0.0
 40
1.0
 40
1.0
 40
1.0
 40
2.0
 40
2.0
 40
2.0
 40
3.0
 40
3.0
 40
3.0
 40
4.0
 40
4.0
 40
4.0
 40
5.0
 40
5.0
 40
5.0
 40
6.0
 40
6.0
 40
6.0
 40
7.0
 40
7.0
 40
7.0
 40
8.0
 40
8.0
 40
8.0
 40
9.0
 40
9.0
 40
9.0
 40
10.0
 40
10.0
 40
10.0
 40
11.0
 40
11.0
 40
11.0
 40
12.0
 40
12.0
 40
12.0
 40
13.0
 40
13.0
 40
13.0
 40
14.0
 40
14.0
 40
14.0
 40
15.0
 40
15.0
 40
15.0
 40
16.0
 40
16.0
 40
16.0
 40
17.0
 40
17.0
 40
17.0
 40
18.0
 40
18.0
 40
18.0
 40
19.0
 40
19.0
 40
19.0
 40
20.0
 40
20.0
 40
20.0
 40
21.0
 40
21.0
 40
21.0
 40
22.0
 40
22.0
 40
22.0
 40
23.0
 40
23.0
 40
23.0
 40
24.0
 40
24.0
 40
24.0
 40
25.0
 40
25.0
 40
25.0
 40
26.0
 40
26.0
 40
26.0
 40
26.0
 10
72.92474770312299
 20
-131.1327365123557
 30
0.0
 10
72.83793129689468
 20
-131.3928412214921
 30
0.0
 10
72.76386174396181
 20
-131.543047384649
 30
0.0
 10
72.71097952826324
 20
-131.6384765295904
 30
0.0
 10
72.81898327172581
 20
-131.7166801971055
 30
0.0
 10
72.85911863412898
 20
-131.750442132861
 30
0.0
 10
72.89925399653214
 20
-131.7821370113253
 30
0.0
 10
72.89925399653214
 20
-131.7821370113253
 30
0.0
 10
72.74698077608409
 20
-131.957836881073
 30
0.0
 10
72.74698077608409
 20
-131.957836881073
 30
0.0
 10
72.71321884032864
 20
-131.9175292638956
 30
0.0
 10
72.67721759250779
 20
-131.875154589427
 30
0.0
 10
72.5990139249926
 20
-131.8076307179161
 30
0.0
 10
72.33236353443428
 20
-132.1438720372765
 30
0.0
 10
71.98750947636077
 20
-132.2792642898469
 30
0.0
 10
71.78235404021413
 20
-132.3323187603197
 30
0.0
 10
71.78235404021413
 20
-132.3323187603197
 30
0.0
 10
71.62577445040954
 20
-132.1504177186985
 30
0.0
 10
71.62577445040954
 20
-132.1504177186985
 30
0.0
 10
71.71672497122013
 20
-132.1397379226943
 30
0.0
 10
71.93893363001874
 20
-132.1142442161034
 30
0.0
 10
72.19697128186395
 20
-131.9175292638956
 30
0.0
 10
72.2858547453834
 20
-131.8479383350936
 30
0.0
 10
72.36629772496399
 20
-131.7693901580299
 30
0.0
 10
72.43399385124914
 20
-131.6805066945104
 30
0.0
 10
72.26673446544027
 20
-131.5664740339487
 30
0.0
 10
72.16097003404309
 20
-131.5113525061847
 30
0.0
 10
72.01920435482506
 20
-131.4586425452603
 30
0.0
 10
72.01920435482506
 20
-131.4586425452603
 30
0.0
 10
72.1292751555788
 20
-131.3253173499812
 30
0.0
 10
72.1292751555788
 20
-131.3253173499812
 30
0.0
 10
72.35561792895972
 20
-131.4204019853741
 30
0.0
 10
72.45087481912687
 20
-131.4755235131381
 30
0.0
 10
72.53975828264632
 20
-131.5261664167712
 30
0.0
 10
72.66877710856892
 20
-131.3105034393946
 30
0.0
 10
72.70684541368094
 20
-131.1286023977734
 30
0.0
 10
72.72372638155865
 20
-131.0545328448405
 30
0.0
 10
72.72372638155865
 20
-131.0545328448405
 30
0.0
 10
72.12720809828764
 20
-131.0545328448405
 30
0.0
 10
72.12720809828764
 20
-131.0545328448405
 30
0.0
 10
72.02144366689048
 20
-131.2174858612929
 30
0.0
 10
71.85642359314701
 20
-131.3907741642009
 30
0.0
 10
71.6998440033424
 20
-131.5113525061847
 30
0.0
 10
71.6998440033424
 20
-131.5113525061847
 30
0.0
 10
71.50726316571694
 20
-131.3866400496186
 30
0.0
 10
71.50726316571694
 20
-131.3866400496186
 30
0.0
 10
71.63852130370496
 20
-131.32325029269
 30
0.0
 10
71.74841984968442
 20
-131.2026719507063
 30
0.0
 10
71.82042234532615
 20
-131.1241237736426
 30
0.0
 10
71.91137286613674
 20
-131.0207709090851
 30
0.0
 10
72.10808781834452
 20
-130.7541205185267
 30
0.0
 10
72.15046249281308
 20
-130.5405245984413
 30
0.0
 10
72.15046249281308
 20
-130.5405245984413
 30
0.0
 10
72.39161917678057
 20
-130.6397433484165
 30
0.0
 10
72.39161917678057
 20
-130.6397433484165
 30
0.0
 10
72.40436603007599
 20
-130.6462890298384
 30
0.0
 10
72.414873571306
 20
-130.6566243162942
 30
0.0
 10
72.414873571306
 20
-130.6714382268808
 30
0.0
 10
72.414873571306
 20
-130.7055446721847
 30
0.0
 10
72.39368623407172
 20
-130.709678786767
 30
0.0
 10
72.32599010778657
 20
-130.7244926973536
 30
0.0
 10
72.30910913990884
 20
-130.7520534612356
 30
0.0
 10
72.23710664426712
 20
-130.8726318032193
 30
0.0
 10
72.22229273368055
 20
-130.8977810002617
 30
0.0
 10
72.22229273368055
 20
-130.8977810002617
 30
0.0
 10
72.49531655088659
 20
-130.8977810002617
 30
0.0
 10
72.49531655088659
 20
-130.8977810002617
 30
0.0
 10
72.53114554393319
 20
-130.8977810002617
 30
0.0
 10
72.68996444580321
 20
-130.8895127710971
 30
0.0
 10
72.7216593242675
 20
-130.8853786565148
 30
0.0
 10
72.82742375566467
 20
-130.8746988605105
 30
0.0
 10
72.85911863412898
 20
-130.8512722112108
 30
0.0
 10
72.89081351259327
 20
-130.8323241860419
 30
0.0
 10
72.89081351259327
 20
-130.8323241860419
 30
0.0
 10
73.04532604510673
 20
-130.9994113170766
 30
0.0
 10
73.04532604510673
 20
-130.9994113170766
 30
0.0
 10
72.95213621223071
 20
-131.0524657875494
 30
0.0
 10
72.93732230164414
 20
-131.0924288951783
 30
0.0
 10
72.92474770312299
 20
-131.1327365123557
 30
0.0
  0
SPLINE
  5
4C
330
47
100
AcDbEntity
  8
_U+30EC_U+30A4_U+30E4_U+30FC 1
370
     0
100
AcDbSpline
210
0.0
220
0.0
230
1.0
 70
    11
 71
     3
 72
    17
 73
    13
 74
     0
 42
0.0000000001
 43
0.0000000001
 12
1.0
 22
0.0
 32
0.0
 13
1.0
 23
0.0
 33
0.0
 40
0.0
 40
0.0
 40
0.0
 40
0.0
 40
1.0
 40
1.0
 40
1.0
 40
2.0
 40
2.0
 40
2.0
 40
3.0
 40
3.0
 40
3.0
 40
4.0
 40
4.0
 40
4.0
 40
4.0
 10
72.99657794399045
 20
-130.8006293075776
 30
0.0
 10
72.94162867100071
 20
-130.7434407225225
 30
0.0
 10
72.80623641843039
 20
-130.6397433484165
 30
0.0
 10
72.7533542027318
 20
-130.6080484699522
 30
0.0
 10
72.7533542027318
 20
-130.6080484699522
 30
0.0
 10
72.85274520748126
 20
-130.5002169812638
 30
0.0
 10
72.85274520748126
 20
-130.5002169812638
 30
0.0
 10
72.86755911806783
 20
-130.5108967772681
 30
0.0
 10
73.01569822393358
 20
-130.6101155272433
 30
0.0
 10
73.0918348341576
 20
-130.6907307615982
 30
0.0
 10
73.0918348341576
 20
-130.6907307615982
 30
0.0
 10
72.99657794399045
 20
-130.8006293075776
 30
0.0
 10
72.99657794399045
 20
-130.8006293075776
 30
0.0
  0
SPLINE
  5
4D
330
47
100
AcDbEntity
  8
_U+30EC_U+30A4_U+30E4_U+30FC 1
370
     0
100
AcDbSpline
210
0.0
220
0.0
230
1.0
 70
    11
 71
     3
 72
    20
 73
    16
 74
     0
 42
0.0000000001
 43
0.0000000001
 12
1.0
 22
0.0
 32
0.0
 13
1.0
 23
0.0
 33
0.0
 40
0.0
 40
0.0
 40
0.0
 40
0.0
 40
1.0
 40
1.0
 40
1.0
 40
2.0
 40
2.0
 40
2.0
 40
3.0
 40
3.0
 40
3.0
 40
4.0
 40
4.0
 40
4.0
 40
5.0
 40
5.0
 40
5.0
 40
5.0
 10
73.20810680678478
 20
-130.6969319334716
 30
0.0
 10
73.18278535496819
 20
-130.6673041122985
 30
0.0
 10
73.16383732979932
 20
-130.6462890298384
 30
0.0
 10
73.10458168745302
 20
-130.5932345593656
 30
0.0
 10
73.00295137063816
 20
-130.5064181531373
 30
0.0
 10
72.99244382940815
 20
-130.4960828666815
 30
0.0
 10
72.97125649217385
 20
-130.4792018988038
 30
0.0
 10
72.97125649217385
 20
-130.4792018988038
 30
0.0
 10
73.07495386627987
 20
-130.3796386392801
 30
0.0
 10
73.07495386627987
 20
-130.3796386392801
 30
0.0
 10
73.23566757066678
 20
-130.5002169812638
 30
0.0
 10
73.2737358757788
 20
-130.5425916557324
 30
0.0
 10
73.30973712359965
 20
-130.5932345593656
 30
0.0
 10
73.30973712359965
 20
-130.5932345593656
 30
0.0
 10
73.20810680678478
 20
-130.6969319334716
 30
0.0
 10
73.20810680678478
 20
-130.6969319334716
 30
0.0
  0
HATCH
  5
4E
330
47
100
AcDbEntity
  8
_U+30EC_U+30A4_U+30E4_U+30FC 1
 62
   179
420
  2234388
100
AcDbHatch
 10
0.0
 20
0.0
 30
0.0
210
0.0
220
0.0
230
1.0
  2
SOLID
 70
     1
 71
     0
 91
        3
 92
        1
 93
        1
 72
     4
 94
        3
 73
     0
 74
     1
 95
       83
 96
       79
 40
0.0
 40
0.0
 40
0.0
 40
0.0
 40
1.0
 40
1.0
 40
1.0
 40
2.0
 40
2.0
 40
2.0
 40
3.0
 40
3.0
 40
3.0
 40
4.0
 40
4.0
 40
4.0
 40
5.0
 40
5.0
 40
5.0
 40
6.0
 40
6.0
 40
6.0
 40
7.0
 40
7.0
 40
7.0
 40
8.0
 40
8.0
 40
8.0
 40
9.0
 40
9.0
 40
9.0
 40
10.0
 40
10.0
 40
10.0
 40
11.0
 40
11.0
 40
11.0
 40
12.0
 40
12.0
 40
12.0
 40
13.0
 40
13.0
 40
13.0
 40
14.0
 40
14.0
 40
14.0
 40
15.0
 40
15.0
 40
15.0
 40
16.0
 40
16.0
 40
16.0
 40
17.0
 40
17.0
 40
17.0
 40
18.0
 40
18.0
 40
18.0
 40
19.0
 40
19.0
 40
19.0
 40
20.0
 40
20.0
 40
20.0
 40
21.0
 40
21.0
 40
21.0
 40
22.0
 40
22.0
 40
22.0
 40
23.0
 40
23.0
 40
23.0
 40
24.0
 40
24.0
 40
24.0
 40
25.0
 40
25.0
 40
25.0
 40
26.0
 40
26.0
 40
26.0
 40
26.0
 10
72.92474770312299
 20
-131.1327365123557
 10
72.83793129689468
 20
-131.3928412214921
 10
72.76386174396181
 20
-131.543047384649
 10
72.71097952826324
 20
-131.6384765295904
 10
72.81898327172581
 20
-131.7166801971055
 10
72.85911863412898
 20
-131.750442132861
 10
72.89925399653214
 20
-131.7821370113253
 10
72.89925399653214
 20
-131.7821370113253
 10
72.74698077608409
 20
-131.957836881073
 10
72.74698077608409
 20
-131.957836881073
 10
72.71321884032864
 20
-131.9175292638956
 10
72.67721759250779
 20
-131.875154589427
 10
72.5990139249926
 20
-131.8076307179161
 10
72.33236353443428
 20
-132.1438720372765
 10
71.98750947636077
 20
-132.2792642898469
 10
71.78235404021413
 20
-132.3323187603197
 10
71.78235404021413
 20
-132.3323187603197
 10
71.62577445040954
 20
-132.1504177186985
 10
71.62577445040954
 20
-132.1504177186985
 10
71.71672497122013
 20
-132.1397379226943
 10
71.93893363001874
 20
-132.1142442161034
 10
72.19697128186395
 20
-131.9175292638956
 10
72.2858547453834
 20
-131.8479383350936
 10
72.36629772496399
 20
-131.7693901580299
 10
72.43399385124914
 20
-131.6805066945104
 10
72.26673446544027
 20
-131.5664740339487
 10
72.16097003404309
 20
-131.5113525061847
 10
72.01920435482506
 20
-131.4586425452603
 10
72.01920435482506
 20
-131.4586425452603
 10
72.1292751555788
 20
-131.3253173499812
 10
72.1292751555788
 20
-131.3253173499812
 10
72.35561792895972
 20
-131.4204019853741
 10
72.45087481912687
 20
-131.4755235131381
 10
72.53975828264632
 20
-131.5261664167712
 10
72.66877710856892
 20
-131.3105034393946
 10
72.70684541368094
 20
-131.1286023977734
 10
72.72372638155865
 20
-131.0545328448405
 10
72.72372638155865
 20
-131.0545328448405
 10
72.12720809828764
 20
-131.0545328448405
 10
72.12720809828764
 20
-131.0545328448405
 10
72.02144366689048
 20
-131.2174858612929
 10
71.85642359314701
 20
-131.3907741642009
 10
71.6998440033424
 20
-131.5113525061847
 10
71.6998440033424
 20
-131.5113525061847
 10
71.50726316571694
 20
-131.3866400496186
 10
71.50726316571694
 20
-131.3866400496186
 10
71.63852130370496
 20
-131.32325029269
 10
71.74841984968442
 20
-131.2026719507063
 10
71.82042234532615
 20
-131.1241237736426
 10
71.91137286613674
 20
-131.0207709090851
 10
72.10808781834452
 20
-130.7541205185267
 10
72.15046249281308
 20
-130.5405245984413
 10
72.15046249281308
 20
-130.5405245984413
 10
72.39161917678057
 20
-130.6397433484165
 10
72.39161917678057
 20
-130.6397433484165
 10
72.40436603007599
 20
-130.6462890298384
 10
72.414873571306
 20
-130.6566243162942
 10
72.414873571306
 20
-130.6714382268808
 10
72.414873571306
 20
-130.7055446721847
 10
72.39368623407172
 20
-130.709678786767
 10
72.32599010778657
 20
-130.7244926973536
 10
72.30910913990884
 20
-130.7520534612356
 10
72.23710664426712
 20
-130.8726318032193
 10
72.22229273368055
 20
-130.8977810002617
 10
72.22229273368055
 20
-130.8977810002617
 10
72.49531655088659
 20
-130.8977810002617
 10
72.49531655088659
 20
-130.8977810002617
 10
72.53114554393319
 20
-130.8977810002617
 10
72.68996444580321
 20
-130.8895127710971
 10
72.7216593242675
 20
-130.8853786565148
 10
72.82742375566467
 20
-130.8746988605105
 10
72.85911863412898
 20
-130.8512722112108
 10
72.89081351259327
 20
-130.8323241860419
 10
72.89081351259327
 20
-130.8323241860419
 10
73.04532604510673
 20
-130.9994113170766
 10
73.04532604510673
 20
-130.9994113170766
 10
72.95213621223071
 20
-131.0524657875494
 10
72.93732230164414
 20
-131.0924288951783
 10
72.92474770312299
 20
-131.1327365123557
 97
        0
 97
        0
 92
        1
 93
        1
 72
     4
 94
        3
 73
     0
 74
     1
 95
       17
 96
       13
 40
0.0
 40
0.0
 40
0.0
 40
0.0
 40
1.0
 40
1.0
 40
1.0
 40
2.0
 40
2.0
 40
2.0
 40
3.0
 40
3.0
 40
3.0
 40
4.0
 40
4.0
 40
4.0
 40
4.0
 10
72.99657794399045
 20
-130.8006293075776
 10
72.94162867100071
 20
-130.7434407225225
 10
72.80623641843039
 20
-130.6397433484165
 10
72.7533542027318
 20
-130.6080484699522
 10
72.7533542027318
 20
-130.6080484699522
 10
72.85274520748126
 20
-130.5002169812638
 10
72.85274520748126
 20
-130.5002169812638
 10
72.86755911806783
 20
-130.5108967772681
 10
73.01569822393358
 20
-130.6101155272433
 10
73.0918348341576
 20
-130.6907307615982
 10
73.0918348341576
 20
-130.6907307615982
 10
72.99657794399045
 20
-130.8006293075776
 10
72.99657794399045
 20
-130.8006293075776
 97
        0
 97
        0
 92
        1
 93
        1
 72
     4
 94
        3
 73
     0
 74
     1
 95
       20
 96
       16
 40
0.0
 40
0.0
 40
0.0
 40
0.0
 40
1.0
 40
1.0
 40
1.0
 40
2.0
 40
2.0
 40
2.0
 40
3.0
 40
3.0
 40
3.0
 40
4.0
 40
4.0
 40
4.0
 40
5.0
 40
5.0
 40
5.0
 40
5.0
 10
73.20810680678478
 20
-130.6969319334716
 10
73.18278535496819
 20
-130.6673041122985
 10
73.16383732979932
 20
-130.6462890298384
 10
73.10458168745302
 20
-130.5932345593656
 10
73.00295137063816
 20
-130.5064181531373
 10
72.99244382940815
 20
-130.4960828666815
 10
72.97125649217385
 20
-130.4792018988038
 10
72.97125649217385
 20
-130.4792018988038
 10
73.07495386627987
 20
-130.3796386392801
 10
73.07495386627987
 20
-130.3796386392801
 10
73.23566757066678
 20
-130.5002169812638
 10
73.2737358757788
 20
-130.5425916557324
 10
73.30973712359965
 20
-130.5932345593656
 10
73.30973712359965
 20
-130.5932345593656
 10
73.20810680678478
 20
-130.6969319334716
 10
73.20810680678478
 20
-130.6969319334716
 97
        0
 97
        0
 75
     2
 76
     1
 98
        0
  0
SPLINE
  5
4F
330
47
100
AcDbEntity
  8
_U+30EC_U+30A4_U+30E4_U+30FC 1
370
     0
100
AcDbSpline
210
0.0
220
0.0
230
1.0
 70
    11
 71
     3
 72
    50
 73
    46
 74
     0
 42
0.0000000001
 43
0.0000000001
 12
1.0
 22
0.0
 32
0.0
 13
1.0
 23
0.0
 33
0.0
 40
0.0
 40
0.0
 40
0.0
 40
0.0
 40
1.0
 40
1.0
 40
1.0
 40
2.0
 40
2.0
 40
2.0
 40
3.0
 40
3.0
 40
3.0
 40
4.0
 40
4.0
 40
4.0
 40
5.0
 40
5.0
 40
5.0
 40
6.0
 40
6.0
 40
6.0
 40
7.0
 40
7.0
 40
7.0
 40
8.0
 40
8.0
 40
8.0
 40
9.0
 40
9.0
 40
9.0
 40
10.0
 40
10.0
 40
10.0
 40
11.0
 40
11.0
 40
11.0
 40
12.0
 40
12.0
 40
12.0
 40
13.0
 40
13.0
 40
13.0
 40
14.0
 40
14.0
 40
14.0
 40
15.0
 40
15.0
 40
15.0
 40
15.0
 10
74.85072833415191
 20
-130.9952772024942
 30
0.0
 10
74.74703096004589
 20
-131.3528781138632
 30
0.0
 10
74.64970701258758
 20
-131.6722384653458
 30
0.0
 10
74.34292125962608
 20
-131.9685166770773
 30
0.0
 10
74.18427461253033
 20
-132.1187228402342
 30
0.0
 10
74.00030651361799
 20
-132.2368896153783
 30
0.0
 10
73.7972181347625
 20
-132.3130262256023
 30
0.0
 10
73.7972181347625
 20
-132.3130262256023
 30
0.0
 10
73.62582463437133
 20
-132.12905812669
 30
0.0
 10
73.62582463437133
 20
-132.12905812669
 30
0.0
 10
73.93898381398054
 20
-132.0277723194236
 30
0.0
 10
74.11657848624516
 20
-131.9113280920222
 30
0.0
 10
74.29434541328406
 20
-131.701866286519
 30
0.0
 10
74.52068818666497
 20
-131.4352158959607
 30
0.0
 10
74.58407794359357
 20
-131.2026719507063
 30
0.0
 10
74.62438556077099
 20
-130.9783962346165
 30
0.0
 10
74.62438556077099
 20
-130.9783962346165
 30
0.0
 10
73.85423446504339
 20
-130.9783962346165
 30
0.0
 10
73.85423446504339
 20
-130.9783962346165
 30
0.0
 10
73.78877765082365
 20
-130.9783962346165
 30
0.0
 10
73.5538221387296
 20
-130.9952772024942
 30
0.0
 10
73.46717798727558
 20
-131.0014783743677
 30
0.0
 10
73.45443113398015
 20
-131.0014783743677
 30
0.0
 10
73.43324379674586
 20
-131.0035454316588
 30
0.0
 10
73.42687037009814
 20
-131.0035454316588
 30
0.0
 10
73.42687037009814
 20
-131.0035454316588
 30
0.0
 10
73.42687037009814
 20
-130.7816812824088
 30
0.0
 10
73.42687037009814
 20
-130.7816812824088
 30
0.0
 10
73.53900822814303
 20
-130.7985622502865
 30
0.0
 10
73.74640297635507
 20
-130.8026963648688
 30
0.0
 10
73.8564737771088
 20
-130.8026963648688
 30
0.0
 10
73.8564737771088
 20
-130.8026963648688
 30
0.0
 10
74.2964124705752
 20
-130.8026963648688
 30
0.0
 10
74.2964124705752
 20
-130.8026963648688
 30
0.0
 10
74.40217690197238
 20
-130.8026963648688
 30
0.0
 10
74.61801213412328
 20
-130.7899495115734
 30
0.0
 10
74.63696015929216
 20
-130.785815396991
 30
0.0
 10
74.66021455381758
 20
-130.7816812824088
 30
0.0
 10
74.67089434982186
 20
-130.7751356009868
 30
0.0
 10
74.71740313887274
 20
-130.7434407225225
 30
0.0
 10
74.71740313887274
 20
-130.7434407225225
 30
0.0
 10
74.90361054985048
 20
-130.8874457138059
 30
0.0
 10
74.90361054985048
 20
-130.8874457138059
 30
0.0
 10
74.87191567138619
 20
-130.9360215601479
 30
0.0
 10
74.86554224473848
 20
-130.9446342988611
 30
0.0
 10
74.85072833415191
 20
-130.9952772024942
 30
0.0
  0
SPLINE
  5
50
330
47
100
AcDbEntity
  8
_U+30EC_U+30A4_U+30E4_U+30FC 1
370
     0
100
AcDbSpline
210
0.0
220
0.0
230
1.0
 70
    11
 71
     3
 72
    17
 73
    13
 74
     0
 42
0.0000000001
 43
0.0000000001
 12
1.0
 22
0.0
 32
0.0
 13
1.0
 23
0.0
 33
0.0
 40
0.0
 40
0.0
 40
0.0
 40
0.0
 40
1.0
 40
1.0
 40
1.0
 40
2.0
 40
2.0
 40
2.0
 40
3.0
 40
3.0
 40
3.0
 40
4.0
 40
4.0
 40
4.0
 40
4.0
 10
74.70896265493387
 20
-130.703133105345
 30
0.0
 10
74.63696015929216
 20
-130.6314751192519
 30
0.0
 10
74.58838431295013
 20
-130.5973686739479
 30
0.0
 10
74.4846869388441
 20
-130.529844802437
 30
0.0
 10
74.4846869388441
 20
-130.529844802437
 30
0.0
 10
74.58201088630241
 20
-130.4134005750356
 30
0.0
 10
74.58201088630241
 20
-130.4134005750356
 30
0.0
 10
74.6665879804653
 20
-130.4578423067953
 30
0.0
 10
74.74909801733703
 20
-130.5150308918504
 30
0.0
 10
74.81042071697448
 20
-130.5911675020744
 30
0.0
 10
74.81042071697448
 20
-130.5911675020744
 30
0.0
 10
74.70896265493387
 20
-130.703133105345
 30
0.0
 10
74.70896265493387
 20
-130.703133105345
 30
0.0
  0
SPLINE
  5
51
330
47
100
AcDbEntity
  8
_U+30EC_U+30A4_U+30E4_U+30FC 1
370
     0
100
AcDbSpline
210
0.0
220
0.0
230
1.0
 70
    11
 71
     3
 72
    20
 73
    16
 74
     0
 42
0.0000000001
 43
0.0000000001
 12
1.0
 22
0.0
 32
0.0
 13
1.0
 23
0.0
 33
0.0
 40
0.0
 40
0.0
 40
0.0
 40
0.0
 40
1.0
 40
1.0
 40
1.0
 40
2.0
 40
2.0
 40
2.0
 40
3.0
 40
3.0
 40
3.0
 40
4.0
 40
4.0
 40
4.0
 40
5.0
 40
5.0
 40
5.0
 40
5.0
 10
75.05157740094197
 20
-130.6779839083027
 30
0.0
 10
75.02625594912539
 20
-130.6418104057076
 30
0.0
 10
74.95011933890136
 20
-130.5656737954836
 30
0.0
 10
74.89723712320277
 20
-130.5108967772681
 30
0.0
 10
74.88449026990736
 20
-130.4981499239727
 30
0.0
 10
74.87398272867735
 20
-130.4895371852596
 30
0.0
 10
74.85486244873421
 20
-130.4792018988038
 30
0.0
 10
74.85486244873421
 20
-130.4792018988038
 30
0.0
 10
74.96286619219678
 20
-130.3796386392801
 30
0.0
 10
74.96286619219678
 20
-130.3796386392801
 30
0.0
 10
75.06432425423739
 20
-130.4450954534998
 30
0.0
 10
75.10669892870597
 20
-130.4940158093904
 30
0.0
 10
75.15958114440456
 20
-130.578420648779
 30
0.0
 10
75.15958114440456
 20
-130.578420648779
 30
0.0
 10
75.05157740094197
 20
-130.6779839083027
 30
0.0
 10
75.05157740094197
 20
-130.6779839083027
 30
0.0
  0
HATCH
  5
52
330
47
100
AcDbEntity
  8
_U+30EC_U+30A4_U+30E4_U+30FC 1
 62
   179
420
  2234388
100
AcDbHatch
 10
0.0
 20
0.0
 30
0.0
210
0.0
220
0.0
230
1.0
  2
SOLID
 70
     1
 71
     0
 91
        3
 92
        1
 93
        1
 72
     4
 94
        3
 73
     0
 74
     1
 95
       50
 96
       46
 40
0.0
 40
0.0
 40
0.0
 40
0.0
 40
1.0
 40
1.0
 40
1.0
 40
2.0
 40
2.0
 40
2.0
 40
3.0
 40
3.0
 40
3.0
 40
4.0
 40
4.0
 40
4.0
 40
5.0
 40
5.0
 40
5.0
 40
6.0
 40
6.0
 40
6.0
 40
7.0
 40
7.0
 40
7.0
 40
8.0
 40
8.0
 40
8.0
 40
9.0
 40
9.0
 40
9.0
 40
10.0
 40
10.0
 40
10.0
 40
11.0
 40
11.0
 40
11.0
 40
12.0
 40
12.0
 40
12.0
 40
13.0
 40
13.0
 40
13.0
 40
14.0
 40
14.0
 40
14.0
 40
15.0
 40
15.0
 40
15.0
 40
15.0
 10
74.85072833415191
 20
-130.9952772024942
 10
74.74703096004589
 20
-131.3528781138632
 10
74.64970701258758
 20
-131.6722384653458
 10
74.34292125962608
 20
-131.9685166770773
 10
74.18427461253033
 20
-132.1187228402342
 10
74.00030651361799
 20
-132.2368896153783
 10
73.7972181347625
 20
-132.3130262256023
 10
73.7972181347625
 20
-132.3130262256023
 10
73.62582463437133
 20
-132.12905812669
 10
73.62582463437133
 20
-132.12905812669
 10
73.93898381398054
 20
-132.0277723194236
 10
74.11657848624516
 20
-131.9113280920222
 10
74.29434541328406
 20
-131.701866286519
 10
74.52068818666497
 20
-131.4352158959607
 10
74.58407794359357
 20
-131.2026719507063
 10
74.62438556077099
 20
-130.9783962346165
 10
74.62438556077099
 20
-130.9783962346165
 10
73.85423446504339
 20
-130.9783962346165
 10
73.85423446504339
 20
-130.9783962346165
 10
73.78877765082365
 20
-130.9783962346165
 10
73.5538221387296
 20
-130.9952772024942
 10
73.46717798727558
 20
-131.0014783743677
 10
73.45443113398015
 20
-131.0014783743677
 10
73.43324379674586
 20
-131.0035454316588
 10
73.42687037009814
 20
-131.0035454316588
 10
73.42687037009814
 20
-131.0035454316588
 10
73.42687037009814
 20
-130.7816812824088
 10
73.42687037009814
 20
-130.7816812824088
 10
73.53900822814303
 20
-130.7985622502865
 10
73.74640297635507
 20
-130.8026963648688
 10
73.8564737771088
 20
-130.8026963648688
 10
73.8564737771088
 20
-130.8026963648688
 10
74.2964124705752
 20
-130.8026963648688
 10
74.2964124705752
 20
-130.8026963648688
 10
74.40217690197238
 20
-130.8026963648688
 10
74.61801213412328
 20
-130.7899495115734
 10
74.63696015929216
 20
-130.785815396991
 10
74.66021455381758
 20
-130.7816812824088
 10
74.67089434982186
 20
-130.7751356009868
 10
74.71740313887274
 20
-130.7434407225225
 10
74.71740313887274
 20
-130.7434407225225
 10
74.90361054985048
 20
-130.8874457138059
 10
74.90361054985048
 20
-130.8874457138059
 10
74.87191567138619
 20
-130.9360215601479
 10
74.86554224473848
 20
-130.9446342988611
 10
74.85072833415191
 20
-130.9952772024942
 97
        0
 97
        0
 92
        1
 93
        1
 72
     4
 94
        3
 73
     0
 74
     1
 95
       17
 96
       13
 40
0.0
 40
0.0
 40
0.0
 40
0.0
 40
1.0
 40
1.0
 40
1.0
 40
2.0
 40
2.0
 40
2.0
 40
3.0
 40
3.0
 40
3.0
 40
4.0
 40
4.0
 40
4.0
 40
4.0
 10
74.70896265493387
 20
-130.703133105345
 10
74.63696015929216
 20
-130.6314751192519
 10
74.58838431295013
 20
-130.5973686739479
 10
74.4846869388441
 20
-130.529844802437
 10
74.4846869388441
 20
-130.529844802437
 10
74.58201088630241
 20
-130.4134005750356
 10
74.58201088630241
 20
-130.4134005750356
 10
74.6665879804653
 20
-130.4578423067953
 10
74.74909801733703
 20
-130.5150308918504
 10
74.81042071697448
 20
-130.5911675020744
 10
74.81042071697448
 20
-130.5911675020744
 10
74.70896265493387
 20
-130.703133105345
 10
74.70896265493387
 20
-130.703133105345
 97
        0
 97
        0
 92
        1
 93
        1
 72
     4
 94
        3
 73
     0
 74
     1
 95
       20
 96
       16
 40
0.0
 40
0.0
 40
0.0
 40
0.0
 40
1.0
 40
1.0
 40
1.0
 40
2.0
 40
2.0
 40
2.0
 40
3.0
 40
3.0
 40
3.0
 40
4.0
 40
4.0
 40
4.0
 40
5.0
 40
5.0
 40
5.0
 40
5.0
 10
75.05157740094197
 20
-130.6779839083027
 10
75.02625594912539
 20
-130.6418104057076
 10
74.95011933890136
 20
-130.5656737954836
 10
74.89723712320277
 20
-130.5108967772681
 10
74.88449026990736
 20
-130.4981499239727
 10
74.87398272867735
 20
-130.4895371852596
 10
74.85486244873421
 20
-130.4792018988038
 10
74.85486244873421
 20
-130.4792018988038
 10
74.96286619219678
 20
-130.3796386392801
 10
74.96286619219678
 20
-130.3796386392801
 10
75.06432425423739
 20
-130.4450954534998
 10
75.10669892870597
 20
-130.4940158093904
 10
75.15958114440456
 20
-130.578420648779
 10
75.15958114440456
 20
-130.578420648779
 10
75.05157740094197
 20
-130.6779839083027
 10
75.05157740094197
 20
-130.6779839083027
 97
        0
 97
        0
 75
     2
 76
     1
 98
        0
  0
SPLINE
  5
53
330
47
100
AcDbEntity
  8
_U+30EC_U+30A4_U+30E4_U+30FC 1
370
     0
100
AcDbSpline
210
0.0
220
0.0
230
1.0
 70
    11
 71
     3
 72
    35
 73
    31
 74
     0
 42
0.0000000001
 43
0.0000000001
 12
1.0
 22
0.0
 32
0.0
 13
1.0
 23
0.0
 33
0.0
 40
0.0
 40
0.0
 40
0.0
 40
0.0
 40
1.0
 40
1.0
 40
1.0
 40
2.0
 40
2.0
 40
2.0
 40
3.0
 40
3.0
 40
3.0
 40
4.0
 40
4.0
 40
4.0
 40
5.0
 40
5.0
 40
5.0
 40
6.0
 40
6.0
 40
6.0
 40
7.0
 40
7.0
 40
7.0
 40
8.0
 40
8.0
 40
8.0
 40
9.0
 40
9.0
 40
9.0
 40
10.0
 40
10.0
 40
10.0
 40
10.0
 10
75.5519775201745
 20
-130.709678786767
 30
0.0
 10
75.54973820810909
 20
-130.7730685436956
 30
0.0
 10
75.54973820810909
 20
-130.908460796266
 30
0.0
 10
75.54973820810909
 20
-130.9739176104857
 30
0.0
 10
75.54973820810909
 20
-130.9739176104857
 30
0.0
 10
75.54973820810909
 20
-131.2808756182214
 30
0.0
 10
75.54973820810909
 20
-131.2808756182214
 30
0.0
 10
75.54973820810909
 20
-131.3442653751501
 30
0.0
 10
75.56041800411337
 20
-131.570608148531
 30
0.0
 10
75.56455211869567
 20
-131.6339979054596
 30
0.0
 10
75.56455211869567
 20
-131.6339979054596
 30
0.0
 10
75.3256347467936
 20
-131.6339979054596
 30
0.0
 10
75.3256347467936
 20
-131.6339979054596
 30
0.0
 10
75.34044865738016
 20
-131.5389132700667
 30
0.0
 10
75.34251571467132
 20
-131.3780273109055
 30
0.0
 10
75.34251571467132
 20
-131.2788085609303
 30
0.0
 10
75.34251571467132
 20
-131.2788085609303
 30
0.0
 10
75.34251571467132
 20
-130.9339545028568
 30
0.0
 10
75.34251571467132
 20
-130.9339545028568
 30
0.0
 10
75.34251571467132
 20
-130.8512722112108
 30
0.0
 10
75.34044865738016
 20
-130.6779839083027
 30
0.0
 10
75.33614228802361
 20
-130.5997802407876
 30
0.0
 10
75.33614228802361
 20
-130.5997802407876
 30
0.0
 10
75.54767115081795
 20
-130.6121825845345
 30
0.0
 10
75.54767115081795
 20
-130.6121825845345
 30
0.0
 10
75.59417993986882
 20
-130.6145941513741
 30
0.0
 10
75.6112331625208
 20
-130.626996495121
 30
0.0
 10
75.6112331625208
 20
-130.6524902017119
 30
0.0
 10
75.6112331625208
 20
-130.6738497937204
 30
0.0
 10
75.58160534134765
 20
-130.6927978188893
 30
0.0
 10
75.5519775201745
 20
-130.709678786767
 30
0.0
  0
SPLINE
  5
54
330
47
100
AcDbEntity
  8
_U+30EC_U+30A4_U+30E4_U+30FC 1
370
     0
100
AcDbSpline
210
0.0
220
0.0
230
1.0
 70
    11
 71
     3
 72
    38
 73
    34
 74
     0
 42
0.0000000001
 43
0.0000000001
 12
1.0
 22
0.0
 32
0.0
 13
1.0
 23
0.0
 33
0.0
 40
0.0
 40
0.0
 40
0.0
 40
0.0
 40
1.0
 40
1.0
 40
1.0
 40
2.0
 40
2.0
 40
2.0
 40
3.0
 40
3.0
 40
3.0
 40
4.0
 40
4.0
 40
4.0
 40
5.0
 40
5.0
 40
5.0
 40
6.0
 40
6.0
 40
6.0
 40
7.0
 40
7.0
 40
7.0
 40
8.0
 40
8.0
 40
8.0
 40
9.0
 40
9.0
 40
9.0
 40
10.0
 40
10.0
 40
10.0
 40
11.0
 40
11.0
 40
11.0
 40
11.0
 10
76.50179034545789
 20
-130.6524902017119
 30
0.0
 10
76.47853595093245
 20
-130.6693711695896
 30
0.0
 10
76.4764688936413
 20
-130.6693711695896
 30
0.0
 10
76.46372204034589
 20
-130.6841850801762
 30
0.0
 10
76.45941567098932
 20
-130.785815396991
 30
0.0
 10
76.4530422443416
 20
-131.2322997718794
 30
0.0
 10
76.4489081297593
 20
-131.3211832353989
 30
0.0
 10
76.44046764582045
 20
-131.4648437171338
 30
0.0
 10
76.42134736587731
 20
-131.7969509219119
 30
0.0
 10
76.1674438286144
 20
-132.0277723194236
 30
0.0
 10
76.13368189285895
 20
-132.0594671978879
 30
0.0
 10
75.9221530300646
 20
-132.2455023540914
 30
0.0
 10
75.73594561908685
 20
-132.3175048497331
 30
0.0
 10
75.73594561908685
 20
-132.3175048497331
 30
0.0
 10
75.5561116347568
 20
-132.12905812669
 30
0.0
 10
75.5561116347568
 20
-132.12905812669
 30
0.0
 10
75.63224824498083
 20
-132.1142442161034
 30
0.0
 10
75.7995076307897
 20
-132.0825493376391
 30
0.0
 10
75.99622258299748
 20
-131.909261034731
 30
0.0
 10
76.24788680819498
 20
-131.6911864905147
 30
0.0
 10
76.24788680819498
 20
-131.4269476667961
 30
0.0
 10
76.24788680819498
 20
-130.9150064776879
 30
0.0
 10
76.24788680819498
 20
-130.6738497937204
 30
0.0
 10
76.24788680819498
 20
-130.661102940425
 30
0.0
 10
76.24375269361268
 20
-130.5615396809013
 30
0.0
 10
76.24375269361268
 20
-130.5615396809013
 30
0.0
 10
76.46165498305473
 20
-130.5763535914879
 30
0.0
 10
76.46165498305473
 20
-130.5763535914879
 30
0.0
 10
76.48490937758017
 20
-130.578420648779
 30
0.0
 10
76.51867131333562
 20
-130.5804877060702
 30
0.0
 10
76.51867131333562
 20
-130.6187282659564
 30
0.0
 10
76.51867131333562
 20
-130.6294080619607
 30
0.0
 10
76.51660425604446
 20
-130.6418104057076
 30
0.0
 10
76.50179034545789
 20
-130.6524902017119
 30
0.0
  0
HATCH
  5
55
330
47
100
AcDbEntity
  8
_U+30EC_U+30A4_U+30E4_U+30FC 1
 62
   179
420
  2234388
100
AcDbHatch
 10
0.0
 20
0.0
 30
0.0
210
0.0
220
0.0
230
1.0
  2
SOLID
 70
     1
 71
     0
 91
        2
 92
        1
 93
        1
 72
     4
 94
        3
 73
     0
 74
     1
 95
       35
 96
       31
 40
0.0
 40
0.0
 40
0.0
 40
0.0
 40
1.0
 40
1.0
 40
1.0
 40
2.0
 40
2.0
 40
2.0
 40
3.0
 40
3.0
 40
3.0
 40
4.0
 40
4.0
 40
4.0
 40
5.0
 40
5.0
 40
5.0
 40
6.0
 40
6.0
 40
6.0
 40
7.0
 40
7.0
 40
7.0
 40
8.0
 40
8.0
 40
8.0
 40
9.0
 40
9.0
 40
9.0
 40
10.0
 40
10.0
 40
10.0
 40
10.0
 10
75.5519775201745
 20
-130.709678786767
 10
75.54973820810909
 20
-130.7730685436956
 10
75.54973820810909
 20
-130.908460796266
 10
75.54973820810909
 20
-130.9739176104857
 10
75.54973820810909
 20
-130.9739176104857
 10
75.54973820810909
 20
-131.2808756182214
 10
75.54973820810909
 20
-131.2808756182214
 10
75.54973820810909
 20
-131.3442653751501
 10
75.56041800411337
 20
-131.570608148531
 10
75.56455211869567
 20
-131.6339979054596
 10
75.56455211869567
 20
-131.6339979054596
 10
75.3256347467936
 20
-131.6339979054596
 10
75.3256347467936
 20
-131.6339979054596
 10
75.34044865738016
 20
-131.5389132700667
 10
75.34251571467132
 20
-131.3780273109055
 10
75.34251571467132
 20
-131.2788085609303
 10
75.34251571467132
 20
-131.2788085609303
 10
75.34251571467132
 20
-130.9339545028568
 10
75.34251571467132
 20
-130.9339545028568
 10
75.34251571467132
 20
-130.8512722112108
 10
75.34044865738016
 20
-130.6779839083027
 10
75.33614228802361
 20
-130.5997802407876
 10
75.33614228802361
 20
-130.5997802407876
 10
75.54767115081795
 20
-130.6121825845345
 10
75.54767115081795
 20
-130.6121825845345
 10
75.59417993986882
 20
-130.6145941513741
 10
75.6112331625208
 20
-130.626996495121
 10
75.6112331625208
 20
-130.6524902017119
 10
75.6112331625208
 20
-130.6738497937204
 10
75.58160534134765
 20
-130.6927978188893
 10
75.5519775201745
 20
-130.709678786767
 97
        0
 97
        0
 92
        1
 93
        1
 72
     4
 94
        3
 73
     0
 74
     1
 95
       38
 96
       34
 40
0.0
 40
0.0
 40
0.0
 40
0.0
 40
1.0
 40
1.0
 40
1.0
 40
2.0
 40
2.0
 40
2.0
 40
3.0
 40
3.0
 40
3.0
 40
4.0
 40
4.0
 40
4.0
 40
5.0
 40
5.0
 40
5.0
 40
6.0
 40
6.0
 40
6.0
 40
7.0
 40
7.0
 40
7.0
 40
8.0
 40
8.0
 40
8.0
 40
9.0
 40
9.0
 40
9.0
 40
10.0
 40
10.0
 40
10.0
 40
11.0
 40
11.0
 40
11.0
 40
11.0
 10
76.50179034545789
 20
-130.6524902017119
 10
76.47853595093245
 20
-130.6693711695896
 10
76.4764688936413
 20
-130.6693711695896
 10
76.46372204034589
 20
-130.6841850801762
 10
76.45941567098932
 20
-130.785815396991
 10
76.4530422443416
 20
-131.2322997718794
 10
76.4489081297593
 20
-131.3211832353989
 10
76.44046764582045
 20
-131.4648437171338
 10
76.42134736587731
 20
-131.7969509219119
 10
76.1674438286144
 20
-132.0277723194236
 10
76.13368189285895
 20
-132.0594671978879
 10
75.9221530300646
 20
-132.2455023540914
 10
75.73594561908685
 20
-132.3175048497331
 10
75.73594561908685
 20
-132.3175048497331
 10
75.5561116347568
 20
-132.12905812669
 10
75.5561116347568
 20
-132.12905812669
 10
75.63224824498083
 20
-132.1142442161034
 10
75.7995076307897
 20
-132.0825493376391
 10
75.99622258299748
 20
-131.909261034731
 10
76.24788680819498
 20
-131.6911864905147
 10
76.24788680819498
 20
-131.4269476667961
 10
76.24788680819498
 20
-130.9150064776879
 10
76.24788680819498
 20
-130.6738497937204
 10
76.24788680819498
 20
-130.661102940425
 10
76.24375269361268
 20
-130.5615396809013
 10
76.24375269361268
 20
-130.5615396809013
 10
76.46165498305473
 20
-130.5763535914879
 10
76.46165498305473
 20
-130.5763535914879
 10
76.48490937758017
 20
-130.578420648779
 10
76.51867131333562
 20
-130.5804877060702
 10
76.51867131333562
 20
-130.6187282659564
 10
76.51867131333562
 20
-130.6294080619607
 10
76.51660425604446
 20
-130.6418104057076
 10
76.50179034545789
 20
-130.6524902017119
 97
        0
 97
        0
 75
     2
 76
     1
 98
        0
  0
SPLINE
  5
56
330
47
100
AcDbEntity
  8
_U+30EC_U+30A4_U+30E4_U+30FC 1
370
     0
100
AcDbSpline
210
0.0
220
0.0
230
1.0
 70
    11
 71
     3
 72
    26
 73
    22
 74
     0
 42
0.0000000001
 43
0.0000000001
 12
1.0
 22
0.0
 32
0.0
 13
1.0
 23
0.0
 33
0.0
 40
0.0
 40
0.0
 40
0.0
 40
0.0
 40
1.0
 40
1.0
 40
1.0
 40
2.0
 40
2.0
 40
2.0
 40
3.0
 40
3.0
 40
3.0
 40
4.0
 40
4.0
 40
4.0
 40
5.0
 40
5.0
 40
5.0
 40
6.0
 40
6.0
 40
6.0
 40
7.0
 40
7.0
 40
7.0
 40
7.0
 10
77.00219046469043
 20
-132.1734998584497
 30
0.0
 10
76.99788409533386
 20
-132.1821125971628
 30
0.0
 10
76.98737655410386
 20
-132.2158745329183
 30
0.0
 10
76.98307018474729
 20
-132.2220757047917
 30
0.0
 10
76.97876381539074
 20
-132.2306884435048
 30
0.0
 10
76.97032333145187
 20
-132.2348225580871
 30
0.0
 10
76.95981579022185
 20
-132.2348225580871
 30
0.0
 10
76.94500187963529
 20
-132.2348225580871
 30
0.0
 10
76.93862845298757
 20
-132.2265543289225
 30
0.0
 10
76.91537405846213
 20
-132.184179654454
 30
0.0
 10
76.91537405846213
 20
-132.184179654454
 30
0.0
 10
76.8011691431261
 20
-131.9640380529465
 30
0.0
 10
76.8011691431261
 20
-131.9640380529465
 30
0.0
 10
77.12690292125647
 20
-131.9195963211868
 30
0.0
 10
77.88844127827095
 20
-131.5874891164087
 30
0.0
 10
78.2904839213996
 20
-131.0693467554271
 30
0.0
 10
78.2904839213996
 20
-131.0693467554271
 30
0.0
 10
78.3750610155625
 20
-131.2743299367995
 30
0.0
 10
78.3750610155625
 20
-131.2743299367995
 30
0.0
 10
77.96044377391267
 20
-131.7631889861564
 30
0.0
 10
77.2939900522911
 20
-132.0487874018836
 30
0.0
 10
77.00219046469043
 20
-132.1734998584497
 30
0.0
  0
SPLINE
  5
57
330
47
100
AcDbEntity
  8
_U+30EC_U+30A4_U+30E4_U+30FC 1
370
     0
100
AcDbSpline
210
0.0
220
0.0
230
1.0
 70
    11
 71
     3
 72
    17
 73
    13
 74
     0
 42
0.0000000001
 43
0.0000000001
 12
1.0
 22
0.0
 32
0.0
 13
1.0
 23
0.0
 33
0.0
 40
0.0
 40
0.0
 40
0.0
 40
0.0
 40
1.0
 40
1.0
 40
1.0
 40
2.0
 40
2.0
 40
2.0
 40
3.0
 40
3.0
 40
3.0
 40
4.0
 40
4.0
 40
4.0
 40
4.0
 10
77.2962293643565
 20
-131.0820936087225
 30
0.0
 10
77.15653074242962
 20
-130.9487684134434
 30
0.0
 10
76.93862845298757
 20
-130.8343912433331
 30
0.0
 10
76.83493107888155
 20
-130.7899495115734
 30
0.0
 10
76.83493107888155
 20
-130.7899495115734
 30
0.0
 10
76.951375306283
 20
-130.5997802407876
 30
0.0
 10
76.951375306283
 20
-130.5997802407876
 30
0.0
 10
77.26660154318336
 20
-130.7499864039445
 30
0.0
 10
77.36168617857625
 20
-130.8409369247551
 30
0.0
 10
77.41680770634025
 20
-130.8936468856794
 30
0.0
 10
77.41680770634025
 20
-130.8936468856794
 30
0.0
 10
77.2962293643565
 20
-131.0820936087225
 30
0.0
 10
77.2962293643565
 20
-131.0820936087225
 30
0.0
  0
HATCH
  5
58
330
47
100
AcDbEntity
  8
_U+30EC_U+30A4_U+30E4_U+30FC 1
 62
   179
420
  2234388
100
AcDbHatch
 10
0.0
 20
0.0
 30
0.0
210
0.0
220
0.0
230
1.0
  2
SOLID
 70
     1
 71
     0
 91
        2
 92
        1
 93
        1
 72
     4
 94
        3
 73
     0
 74
     1
 95
       26
 96
       22
 40
0.0
 40
0.0
 40
0.0
 40
0.0
 40
1.0
 40
1.0
 40
1.0
 40
2.0
 40
2.0
 40
2.0
 40
3.0
 40
3.0
 40
3.0
 40
4.0
 40
4.0
 40
4.0
 40
5.0
 40
5.0
 40
5.0
 40
6.0
 40
6.0
 40
6.0
 40
7.0
 40
7.0
 40
7.0
 40
7.0
 10
77.00219046469043
 20
-132.1734998584497
 10
76.99788409533386
 20
-132.1821125971628
 10
76.98737655410386
 20
-132.2158745329183
 10
76.98307018474729
 20
-132.2220757047917
 10
76.97876381539074
 20
-132.2306884435048
 10
76.97032333145187
 20
-132.2348225580871
 10
76.95981579022185
 20
-132.2348225580871
 10
76.94500187963529
 20
-132.2348225580871
 10
76.93862845298757
 20
-132.2265543289225
 10
76.91537405846213
 20
-132.184179654454
 10
76.91537405846213
 20
-132.184179654454
 10
76.8011691431261
 20
-131.9640380529465
 10
76.8011691431261
 20
-131.9640380529465
 10
77.12690292125647
 20
-131.9195963211868
 10
77.88844127827095
 20
-131.5874891164087
 10
78.2904839213996
 20
-131.0693467554271
 10
78.2904839213996
 20
-131.0693467554271
 10
78.3750610155625
 20
-131.2743299367995
 10
78.3750610155625
 20
-131.2743299367995
 10
77.96044377391267
 20
-131.7631889861564
 10
77.2939900522911
 20
-132.0487874018836
 10
77.00219046469043
 20
-132.1734998584497
 97
        0
 97
        0
 92
        1
 93
        1
 72
     4
 94
        3
 73
     0
 74
     1
 95
       17
 96
       13
 40
0.0
 40
0.0
 40
0.0
 40
0.0
 40
1.0
 40
1.0
 40
1.0
 40
2.0
 40
2.0
 40
2.0
 40
3.0
 40
3.0
 40
3.0
 40
4.0
 40
4.0
 40
4.0
 40
4.0
 10
77.2962293643565
 20
-131.0820936087225
 10
77.15653074242962
 20
-130.9487684134434
 10
76.93862845298757
 20
-130.8343912433331
 10
76.83493107888155
 20
-130.7899495115734
 10
76.83493107888155
 20
-130.7899495115734
 10
76.951375306283
 20
-130.5997802407876
 10
76.951375306283
 20
-130.5997802407876
 10
77.26660154318336
 20
-130.7499864039445
 10
77.36168617857625
 20
-130.8409369247551
 10
77.41680770634025
 20
-130.8936468856794
 10
77.41680770634025
 20
-130.8936468856794
 10
77.2962293643565
 20
-131.0820936087225
 10
77.2962293643565
 20
-131.0820936087225
 97
        0
 97
        0
 75
     2
 76
     1
 98
        0
  0
SPLINE
  5
59
330
47
100
AcDbEntity
  8
_U+30EC_U+30A4_U+30E4_U+30FC 1
370
     0
100
AcDbSpline
210
0.0
220
0.0
230
1.0
 70
    11
 71
     3
 72
    59
 73
    55
 74
     0
 42
0.0000000001
 43
0.0000000001
 12
1.0
 22
0.0
 32
0.0
 13
1.0
 23
0.0
 33
0.0
 40
0.0
 40
0.0
 40
0.0
 40
0.0
 40
1.0
 40
1.0
 40
1.0
 40
2.0
 40
2.0
 40
2.0
 40
3.0
 40
3.0
 40
3.0
 40
4.0
 40
4.0
 40
4.0
 40
5.0
 40
5.0
 40
5.0
 40
6.0
 40
6.0
 40
6.0
 40
7.0
 40
7.0
 40
7.0
 40
8.0
 40
8.0
 40
8.0
 40
9.0
 40
9.0
 40
9.0
 40
10.0
 40
10.0
 40
10.0
 40
11.0
 40
11.0
 40
11.0
 40
12.0
 40
12.0
 40
12.0
 40
13.0
 40
13.0
 40
13.0
 40
14.0
 40
14.0
 40
14.0
 40
15.0
 40
15.0
 40
15.0
 40
16.0
 40
16.0
 40
16.0
 40
17.0
 40
17.0
 40
17.0
 40
18.0
 40
18.0
 40
18.0
 40
18.0
 10
79.93930662064018
 20
-131.1685655054023
 30
0.0
 10
79.85266246918614
 20
-131.4290147240872
 30
0.0
 10
79.70659042061155
 20
-131.7673231007387
 30
0.0
 10
79.38292369977233
 20
-132.0594671978879
 30
0.0
 10
79.21790362602886
 20
-132.205194736914
 30
0.0
 10
79.0592569789331
 20
-132.2771972325557
 30
0.0
 10
78.9619330314748
 20
-132.3237060216066
 30
0.0
 10
78.9619330314748
 20
-132.3237060216066
 30
0.0
 10
78.77159150591474
 20
-132.1800455398717
 30
0.0
 10
78.77159150591474
 20
-132.1800455398717
 30
0.0
 10
79.03600258440767
 20
-132.0825493376391
 30
0.0
 10
79.2687187844363
 20
-131.9133951493133
 30
0.0
 10
79.44217934211862
 20
-131.6911864905147
 30
0.0
 10
79.53950328957693
 20
-131.5664740339487
 30
0.0
 10
79.69814993667269
 20
-131.3039577579726
 30
0.0
 10
79.77221948960556
 20
-130.9783962346165
 30
0.0
 10
79.77221948960556
 20
-130.9783962346165
 30
0.0
 10
79.13539358915713
 20
-130.9783962346165
 30
0.0
 10
79.13539358915713
 20
-130.9783962346165
 30
0.0
 10
79.06563040558082
 20
-131.0755479273006
 30
0.0
 10
78.88372936395963
 20
-131.3335855791458
 30
0.0
 10
78.70596243692073
 20
-131.4565754879692
 30
0.0
 10
78.70596243692073
 20
-131.4565754879692
 30
0.0
 10
78.53887530588612
 20
-131.3294514645635
 30
0.0
 10
78.53887530588612
 20
-131.3294514645635
 30
0.0
 10
78.84772811613877
 20
-131.109309863056
 30
0.0
 10
79.06563040558082
 20
-130.7327609265182
 30
0.0
 10
79.13332653186598
 20
-130.5212320637239
 30
0.0
 10
79.13332653186598
 20
-130.5212320637239
 30
0.0
 10
79.35329587859918
 20
-130.6207953232476
 30
0.0
 10
79.35329587859918
 20
-130.6207953232476
 30
0.0
 10
79.35760224795574
 20
-130.6228623805387
 30
0.0
 10
79.3977376103589
 20
-130.6397433484165
 30
0.0
 10
79.3977376103589
 20
-130.6631699977162
 30
0.0
 10
79.3977376103589
 20
-130.6779839083027
 30
0.0
 10
79.3977376103589
 20
-130.6883191947585
 30
0.0
 10
79.30472003225715
 20
-130.7138129013493
 30
0.0
 10
79.26441241507973
 20
-130.7816812824088
 30
0.0
 10
79.26027830049743
 20
-130.7878824542822
 30
0.0
 10
79.24322507784545
 20
-130.813376160873
 30
0.0
 10
79.24322507784545
 20
-130.813376160873
 30
0.0
 10
79.56706405345894
 20
-130.813376160873
 30
0.0
 10
79.56706405345894
 20
-130.813376160873
 30
0.0
 10
79.75309920966242
 20
-130.813376160873
 30
0.0
 10
79.77635360418786
 20
-130.8113091035819
 30
0.0
 10
79.80391436806985
 20
-130.8088975367422
 30
0.0
 10
79.87367755164617
 20
-130.8047634221599
 30
0.0
 10
79.88849146223274
 20
-130.7964951929953
 30
0.0
 10
79.90967879946703
 20
-130.7816812824088
 30
0.0
 10
79.90967879946703
 20
-130.7816812824088
 30
0.0
 10
80.07263181591935
 20
-130.9487684134434
 30
0.0
 10
80.07263181591935
 20
-130.9487684134434
 30
0.0
 10
79.99425589362991
 20
-131.0207709090851
 30
0.0
 10
79.98581540969106
 20
-131.0311061955408
 30
0.0
 10
79.93930662064018
 20
-131.1685655054023
 30
0.0
  0
SPLINE
  5
5A
330
47
100
AcDbEntity
  8
_U+30EC_U+30A4_U+30E4_U+30FC 1
370
     0
100
AcDbSpline
210
0.0
220
0.0
230
1.0
 70
    11
 71
     3
 72
    17
 73
    13
 74
     0
 42
0.0000000001
 43
0.0000000001
 12
1.0
 22
0.0
 32
0.0
 13
1.0
 23
0.0
 33
0.0
 40
0.0
 40
0.0
 40
0.0
 40
0.0
 40
1.0
 40
1.0
 40
1.0
 40
2.0
 40
2.0
 40
2.0
 40
3.0
 40
3.0
 40
3.0
 40
4.0
 40
4.0
 40
4.0
 40
4.0
 10
79.85042315712073
 20
-130.703133105345
 30
0.0
 10
79.74465872572357
 20
-130.6101155272433
 30
0.0
 10
79.73191187242814
 20
-130.5997802407876
 30
0.0
 10
79.63045381038754
 20
-130.5212320637239
 30
0.0
 10
79.63045381038754
 20
-130.5212320637239
 30
0.0
 10
79.74259166843241
 20
-130.4240803710398
 30
0.0
 10
79.74259166843241
 20
-130.4240803710398
 30
0.0
 10
79.85266246918614
 20
-130.5002169812638
 30
0.0
 10
79.88435734765044
 20
-130.5319118597281
 30
0.0
 10
79.96686738452217
 20
-130.6166612086653
 30
0.0
 10
79.96686738452217
 20
-130.6166612086653
 30
0.0
 10
79.85042315712073
 20
-130.703133105345
 30
0.0
 10
79.85042315712073
 20
-130.703133105345
 30
0.0
  0
SPLINE
  5
5B
330
47
100
AcDbEntity
  8
_U+30EC_U+30A4_U+30E4_U+30FC 1
370
     0
100
AcDbSpline
210
0.0
220
0.0
230
1.0
 70
    11
 71
     3
 72
    17
 73
    13
 74
     0
 42
0.0000000001
 43
0.0000000001
 12
1.0
 22
0.0
 32
0.0
 13
1.0
 23
0.0
 33
0.0
 40
0.0
 40
0.0
 40
0.0
 40
0.0
 40
1.0
 40
1.0
 40
1.0
 40
2.0
 40
2.0
 40
2.0
 40
3.0
 40
3.0
 40
3.0
 40
4.0
 40
4.0
 40
4.0
 40
4.0
 10
80.18476967396423
 20
-130.7117458440582
 30
0.0
 10
80.12344697432678
 20
-130.6356092338341
 30
0.0
 10
80.05781790533277
 20
-130.5636067381924
 30
0.0
 10
79.97737492575219
 20
-130.5043510958461
 30
0.0
 10
79.97737492575219
 20
-130.5043510958461
 30
0.0
 10
80.09795326773593
 20
-130.4113335177444
 30
0.0
 10
80.09795326773593
 20
-130.4113335177444
 30
0.0
 10
80.18683673125538
 20
-130.4685221027995
 30
0.0
 10
80.23971894695396
 20
-130.5212320637239
 30
0.0
 10
80.30534801594797
 20
-130.6101155272433
 30
0.0
 10
80.30534801594797
 20
-130.6101155272433
 30
0.0
 10
80.18476967396423
 20
-130.7117458440582
 30
0.0
 10
80.18476967396423
 20
-130.7117458440582
 30
0.0
  0
HATCH
  5
5C
330
47
100
AcDbEntity
  8
_U+30EC_U+30A4_U+30E4_U+30FC 1
 62
   179
420
  2234388
100
AcDbHatch
 10
0.0
 20
0.0
 30
0.0
210
0.0
220
0.0
230
1.0
  2
SOLID
 70
     1
 71
     0
 91
        3
 92
        1
 93
        1
 72
     4
 94
        3
 73
     0
 74
     1
 95
       59
 96
       55
 40
0.0
 40
0.0
 40
0.0
 40
0.0
 40
1.0
 40
1.0
 40
1.0
 40
2.0
 40
2.0
 40
2.0
 40
3.0
 40
3.0
 40
3.0
 40
4.0
 40
4.0
 40
4.0
 40
5.0
 40
5.0
 40
5.0
 40
6.0
 40
6.0
 40
6.0
 40
7.0
 40
7.0
 40
7.0
 40
8.0
 40
8.0
 40
8.0
 40
9.0
 40
9.0
 40
9.0
 40
10.0
 40
10.0
 40
10.0
 40
11.0
 40
11.0
 40
11.0
 40
12.0
 40
12.0
 40
12.0
 40
13.0
 40
13.0
 40
13.0
 40
14.0
 40
14.0
 40
14.0
 40
15.0
 40
15.0
 40
15.0
 40
16.0
 40
16.0
 40
16.0
 40
17.0
 40
17.0
 40
17.0
 40
18.0
 40
18.0
 40
18.0
 40
18.0
 10
79.93930662064018
 20
-131.1685655054023
 10
79.85266246918614
 20
-131.4290147240872
 10
79.70659042061155
 20
-131.7673231007387
 10
79.38292369977233
 20
-132.0594671978879
 10
79.21790362602886
 20
-132.205194736914
 10
79.0592569789331
 20
-132.2771972325557
 10
78.9619330314748
 20
-132.3237060216066
 10
78.9619330314748
 20
-132.3237060216066
 10
78.77159150591474
 20
-132.1800455398717
 10
78.77159150591474
 20
-132.1800455398717
 10
79.03600258440767
 20
-132.0825493376391
 10
79.2687187844363
 20
-131.9133951493133
 10
79.44217934211862
 20
-131.6911864905147
 10
79.53950328957693
 20
-131.5664740339487
 10
79.69814993667269
 20
-131.3039577579726
 10
79.77221948960556
 20
-130.9783962346165
 10
79.77221948960556
 20
-130.9783962346165
 10
79.13539358915713
 20
-130.9783962346165
 10
79.13539358915713
 20
-130.9783962346165
 10
79.06563040558082
 20
-131.0755479273006
 10
78.88372936395963
 20
-131.3335855791458
 10
78.70596243692073
 20
-131.4565754879692
 10
78.70596243692073
 20
-131.4565754879692
 10
78.53887530588612
 20
-131.3294514645635
 10
78.53887530588612
 20
-131.3294514645635
 10
78.84772811613877
 20
-131.109309863056
 10
79.06563040558082
 20
-130.7327609265182
 10
79.13332653186598
 20
-130.5212320637239
 10
79.13332653186598
 20
-130.5212320637239
 10
79.35329587859918
 20
-130.6207953232476
 10
79.35329587859918
 20
-130.6207953232476
 10
79.35760224795574
 20
-130.6228623805387
 10
79.3977376103589
 20
-130.6397433484165
 10
79.3977376103589
 20
-130.6631699977162
 10
79.3977376103589
 20
-130.6779839083027
 10
79.3977376103589
 20
-130.6883191947585
 10
79.30472003225715
 20
-130.7138129013493
 10
79.26441241507973
 20
-130.7816812824088
 10
79.26027830049743
 20
-130.7878824542822
 10
79.24322507784545
 20
-130.813376160873
 10
79.24322507784545
 20
-130.813376160873
 10
79.56706405345894
 20
-130.813376160873
 10
79.56706405345894
 20
-130.813376160873
 10
79.75309920966242
 20
-130.813376160873
 10
79.77635360418786
 20
-130.8113091035819
 10
79.80391436806985
 20
-130.8088975367422
 10
79.87367755164617
 20
-130.8047634221599
 10
79.88849146223274
 20
-130.7964951929953
 10
79.90967879946703
 20
-130.7816812824088
 10
79.90967879946703
 20
-130.7816812824088
 10
80.07263181591935
 20
-130.9487684134434
 10
80.07263181591935
 20
-130.9487684134434
 10
79.99425589362991
 20
-131.0207709090851
 10
79.98581540969106
 20
-131.0311061955408
 10
79.93930662064018
 20
-131.1685655054023
 97
        0
 97
        0
 92
        1
 93
        1
 72
     4
 94
        3
 73
     0
 74
     1
 95
       17
 96
       13
 40
0.0
 40
0.0
 40
0.0
 40
0.0
 40
1.0
 40
1.0
 40
1.0
 40
2.0
 40
2.0
 40
2.0
 40
3.0
 40
3.0
 40
3.0
 40
4.0
 40
4.0
 40
4.0
 40
4.0
 10
79.85042315712073
 20
-130.703133105345
 10
79.74465872572357
 20
-130.6101155272433
 10
79.73191187242814
 20
-130.5997802407876
 10
79.63045381038754
 20
-130.5212320637239
 10
79.63045381038754
 20
-130.5212320637239
 10
79.74259166843241
 20
-130.4240803710398
 10
79.74259166843241
 20
-130.4240803710398
 10
79.85266246918614
 20
-130.5002169812638
 10
79.88435734765044
 20
-130.5319118597281
 10
79.96686738452217
 20
-130.6166612086653
 10
79.96686738452217
 20
-130.6166612086653
 10
79.85042315712073
 20
-130.703133105345
 10
79.85042315712073
 20
-130.703133105345
 97
        0
 97
        0
 92
        1
 93
        1
 72
     4
 94
        3
 73
     0
 74
     1
 95
       17
 96
       13
 40
0.0
 40
0.0
 40
0.0
 40
0.0
 40
1.0
 40
1.0
 40
1.0
 40
2.0
 40
2.0
 40
2.0
 40
3.0
 40
3.0
 40
3.0
 40
4.0
 40
4.0
 40
4.0
 40
4.0
 10
80.18476967396423
 20
-130.7117458440582
 10
80.12344697432678
 20
-130.6356092338341
 10
80.05781790533277
 20
-130.5636067381924
 10
79.97737492575219
 20
-130.5043510958461
 10
79.97737492575219
 20
-130.5043510958461
 10
80.09795326773593
 20
-130.4113335177444
 10
80.09795326773593
 20
-130.4113335177444
 10
80.18683673125538
 20
-130.4685221027995
 10
80.23971894695396
 20
-130.5212320637239
 10
80.30534801594797
 20
-130.6101155272433
 10
80.30534801594797
 20
-130.6101155272433
 10
80.18476967396423
 20
-130.7117458440582
 10
80.18476967396423
 20
-130.7117458440582
 97
        0
 97
        0
 75
     2
 76
     1
 98
        0
  0
SPLINE
  5
5D
330
47
100
AcDbEntity
  8
_U+30EC_U+30A4_U+30E4_U+30FC 1
370
     0
100
AcDbSpline
210
0.0
220
0.0
230
1.0
 70
    11
 71
     3
 72
    17
 73
    13
 74
     0
 42
0.0000000001
 43
0.0000000001
 12
1.0
 22
0.0
 32
0.0
 13
1.0
 23
0.0
 33
0.0
 40
0.0
 40
0.0
 40
0.0
 40
0.0
 40
1.0
 40
1.0
 40
1.0
 40
2.0
 40
2.0
 40
2.0
 40
3.0
 40
3.0
 40
3.0
 40
4.0
 40
4.0
 40
4.0
 40
4.0
 10
72.0212714121162
 20
-133.9497910906445
 30
0.0
 10
71.91137286613674
 20
-133.867453308547
 30
0.0
 10
71.65953638616499
 20
-133.763755934441
 30
0.0
 10
71.5473985281201
 20
-133.7320610559767
 30
0.0
 10
71.5473985281201
 20
-133.7320610559767
 30
0.0
 10
71.63628199163955
 20
-133.5542941289378
 30
0.0
 10
71.63628199163955
 20
-133.5542941289378
 30
0.0
 10
71.83523625591272
 20
-133.6283636818707
 30
0.0
 10
71.95150822853991
 20
-133.6769395282127
 30
0.0
 10
72.11859535957453
 20
-133.7806369023187
 30
0.0
 10
72.11859535957453
 20
-133.7806369023187
 30
0.0
 10
72.0212714121162
 20
-133.9497910906445
 30
0.0
 10
72.0212714121162
 20
-133.9497910906445
 30
0.0
  0
SPLINE
  5
5E
330
47
100
AcDbEntity
  8
_U+30EC_U+30A4_U+30E4_U+30FC 1
370
     0
100
AcDbSpline
210
0.0
220
0.0
230
1.0
 70
    11
 71
     3
 72
    29
 73
    25
 74
     0
 42
0.0000000001
 43
0.0000000001
 12
1.0
 22
0.0
 32
0.0
 13
1.0
 23
0.0
 33
0.0
 40
0.0
 40
0.0
 40
0.0
 40
0.0
 40
1.0
 40
1.0
 40
1.0
 40
2.0
 40
2.0
 40
2.0
 40
3.0
 40
3.0
 40
3.0
 40
4.0
 40
4.0
 40
4.0
 40
5.0
 40
5.0
 40
5.0
 40
6.0
 40
6.0
 40
6.0
 40
7.0
 40
7.0
 40
7.0
 40
8.0
 40
8.0
 40
8.0
 40
8.0
 10
72.6918592483201
 20
-134.2674288943846
 30
0.0
 10
72.42744816982717
 20
-134.5168538075166
 30
0.0
 10
72.25622692421025
 20
-134.6164170670403
 30
0.0
 10
71.90293238219787
 20
-134.8193331911216
 30
0.0
 10
71.87537161831588
 20
-134.8617078655901
 30
0.0
 10
71.86469182231161
 20
-134.880655890759
 30
0.0
 10
71.84367673985159
 20
-134.880655890759
 30
0.0
 10
71.8329969438473
 20
-134.880655890759
 30
0.0
 10
71.8266235171996
 20
-134.8765217761767
 30
0.0
 10
71.80130206538301
 20
-134.8427598404213
 30
0.0
 10
71.80130206538301
 20
-134.8427598404213
 30
0.0
 10
71.65540227158269
 20
-134.6501790027958
 30
0.0
 10
71.65540227158269
 20
-134.6501790027958
 30
0.0
 10
71.87743867560704
 20
-134.5950574750318
 30
0.0
 10
72.07845999717136
 20
-134.4765461903392
 30
0.0
 10
72.26880152273141
 20
-134.349766676482
 30
0.0
 10
72.5416530851632
 20
-134.1657985775697
 30
0.0
 10
72.83362492753812
 20
-133.8612521366736
 30
0.0
 10
72.99657794399045
 20
-133.5880560646933
 30
0.0
 10
72.99657794399045
 20
-133.5880560646933
 30
0.0
 10
73.12559676991305
 20
-133.7723686731541
 30
0.0
 10
73.12559676991305
 20
-133.7723686731541
 30
0.0
 10
73.00708548522046
 20
-133.9563367720665
 30
0.0
 10
72.85274520748126
 20
-134.1172227312277
 30
0.0
 10
72.6918592483201
 20
-134.2674288943846
 30
0.0
  0
SPLINE
  5
5F
330
47
100
AcDbEntity
  8
_U+30EC_U+30A4_U+30E4_U+30FC 1
370
     0
100
AcDbSpline
210
0.0
220
0.0
230
1.0
 70
    11
 71
     3
 72
    20
 73
    16
 74
     0
 42
0.0000000001
 43
0.0000000001
 12
1.0
 22
0.0
 32
0.0
 13
1.0
 23
0.0
 33
0.0
 40
0.0
 40
0.0
 40
0.0
 40
0.0
 40
1.0
 40
1.0
 40
1.0
 40
2.0
 40
2.0
 40
2.0
 40
3.0
 40
3.0
 40
3.0
 40
4.0
 40
4.0
 40
4.0
 40
5.0
 40
5.0
 40
5.0
 40
5.0
 10
72.26466740814911
 20
-133.4505967548318
 30
0.0
 10
72.15890297675195
 20
-133.3785942591901
 30
0.0
 10
71.90069307013246
 20
-133.253881802624
 30
0.0
 10
71.78218178543987
 20
-133.2115071281555
 30
0.0
 10
71.78218178543987
 20
-133.2115071281555
 30
0.0
 10
71.86899819166817
 20
-133.0402858825385
 30
0.0
 10
71.86899819166817
 20
-133.0402858825385
 30
0.0
 10
71.91757403801019
 20
-133.0613009649986
 30
0.0
 10
71.99164359094307
 20
-133.0909287861717
 30
0.0
 10
72.11015487563566
 20
-133.150184428518
 30
0.0
 10
72.2624280960837
 20
-133.2242539814509
 30
0.0
 10
72.30480277055227
 20
-133.2559488599152
 30
0.0
 10
72.34717744502085
 20
-133.2876437383795
 30
0.0
 10
72.34717744502085
 20
-133.2876437383795
 30
0.0
 10
72.26466740814911
 20
-133.4505967548318
 30
0.0
 10
72.26466740814911
 20
-133.4505967548318
 30
0.0
  0
HATCH
  5
60
330
47
100
AcDbEntity
  8
_U+30EC_U+30A4_U+30E4_U+30FC 1
 62
   179
420
  2234388
100
AcDbHatch
 10
0.0
 20
0.0
 30
0.0
210
0.0
220
0.0
230
1.0
  2
SOLID
 70
     1
 71
     0
 91
        3
 92
        1
 93
        1
 72
     4
 94
        3
 73
     0
 74
     1
 95
       17
 96
       13
 40
0.0
 40
0.0
 40
0.0
 40
0.0
 40
1.0
 40
1.0
 40
1.0
 40
2.0
 40
2.0
 40
2.0
 40
3.0
 40
3.0
 40
3.0
 40
4.0
 40
4.0
 40
4.0
 40
4.0
 10
72.0212714121162
 20
-133.9497910906445
 10
71.91137286613674
 20
-133.867453308547
 10
71.65953638616499
 20
-133.763755934441
 10
71.5473985281201
 20
-133.7320610559767
 10
71.5473985281201
 20
-133.7320610559767
 10
71.63628199163955
 20
-133.5542941289378
 10
71.63628199163955
 20
-133.5542941289378
 10
71.83523625591272
 20
-133.6283636818707
 10
71.95150822853991
 20
-133.6769395282127
 10
72.11859535957453
 20
-133.7806369023187
 10
72.11859535957453
 20
-133.7806369023187
 10
72.0212714121162
 20
-133.9497910906445
 10
72.0212714121162
 20
-133.9497910906445
 97
        0
 97
        0
 92
        1
 93
        1
 72
     4
 94
        3
 73
     0
 74
     1
 95
       29
 96
       25
 40
0.0
 40
0.0
 40
0.0
 40
0.0
 40
1.0
 40
1.0
 40
1.0
 40
2.0
 40
2.0
 40
2.0
 40
3.0
 40
3.0
 40
3.0
 40
4.0
 40
4.0
 40
4.0
 40
5.0
 40
5.0
 40
5.0
 40
6.0
 40
6.0
 40
6.0
 40
7.0
 40
7.0
 40
7.0
 40
8.0
 40
8.0
 40
8.0
 40
8.0
 10
72.6918592483201
 20
-134.2674288943846
 10
72.42744816982717
 20
-134.5168538075166
 10
72.25622692421025
 20
-134.6164170670403
 10
71.90293238219787
 20
-134.8193331911216
 10
71.87537161831588
 20
-134.8617078655901
 10
71.86469182231161
 20
-134.880655890759
 10
71.84367673985159
 20
-134.880655890759
 10
71.8329969438473
 20
-134.880655890759
 10
71.8266235171996
 20
-134.8765217761767
 10
71.80130206538301
 20
-134.8427598404213
 10
71.80130206538301
 20
-134.8427598404213
 10
71.65540227158269
 20
-134.6501790027958
 10
71.65540227158269
 20
-134.6501790027958
 10
71.87743867560704
 20
-134.5950574750318
 10
72.07845999717136
 20
-134.4765461903392
 10
72.26880152273141
 20
-134.349766676482
 10
72.5416530851632
 20
-134.1657985775697
 10
72.83362492753812
 20
-133.8612521366736
 10
72.99657794399045
 20
-133.5880560646933
 10
72.99657794399045
 20
-133.5880560646933
 10
73.12559676991305
 20
-133.7723686731541
 10
73.12559676991305
 20
-133.7723686731541
 10
73.00708548522046
 20
-133.9563367720665
 10
72.85274520748126
 20
-134.1172227312277
 10
72.6918592483201
 20
-134.2674288943846
 97
        0
 97
        0
 92
        1
 93
        1
 72
     4
 94
        3
 73
     0
 74
     1
 95
       20
 96
       16
 40
0.0
 40
0.0
 40
0.0
 40
0.0
 40
1.0
 40
1.0
 40
1.0
 40
2.0
 40
2.0
 40
2.0
 40
3.0
 40
3.0
 40
3.0
 40
4.0
 40
4.0
 40
4.0
 40
5.0
 40
5.0
 40
5.0
 40
5.0
 10
72.26466740814911
 20
-133.4505967548318
 10
72.15890297675195
 20
-133.3785942591901
 10
71.90069307013246
 20
-133.253881802624
 10
71.78218178543987
 20
-133.2115071281555
 10
71.78218178543987
 20
-133.2115071281555
 10
71.86899819166817
 20
-133.0402858825385
 10
71.86899819166817
 20
-133.0402858825385
 10
71.91757403801019
 20
-133.0613009649986
 10
71.99164359094307
 20
-133.0909287861717
 10
72.11015487563566
 20
-133.150184428518
 10
72.2624280960837
 20
-133.2242539814509
 10
72.30480277055227
 20
-133.2559488599152
 10
72.34717744502085
 20
-133.2876437383795
 10
72.34717744502085
 20
-133.2876437383795
 10
72.26466740814911
 20
-133.4505967548318
 10
72.26466740814911
 20
-133.4505967548318
 97
        0
 97
        0
 75
     2
 76
     1
 98
        0
  0
SPLINE
  5
61
330
47
100
AcDbEntity
  8
_U+30EC_U+30A4_U+30E4_U+30FC 1
370
     0
100
AcDbSpline
210
0.0
220
0.0
230
1.0
 70
    11
 71
     3
 72
    29
 73
    25
 74
     0
 42
0.0000000001
 43
0.0000000001
 12
1.0
 22
0.0
 32
0.0
 13
1.0
 23
0.0
 33
0.0
 40
0.0
 40
0.0
 40
0.0
 40
0.0
 40
1.0
 40
1.0
 40
1.0
 40
2.0
 40
2.0
 40
2.0
 40
3.0
 40
3.0
 40
3.0
 40
4.0
 40
4.0
 40
4.0
 40
5.0
 40
5.0
 40
5.0
 40
6.0
 40
6.0
 40
6.0
 40
7.0
 40
7.0
 40
7.0
 40
8.0
 40
8.0
 40
8.0
 40
8.0
 10
74.3873629913858
 20
-134.0555555220417
 30
0.0
 10
74.3873629913858
 20
-134.0555555220417
 30
0.0
 10
73.90298256615968
 20
-134.0555555220417
 30
0.0
 10
73.90298256615968
 20
-134.0555555220417
 30
0.0
 10
73.87542180227767
 20
-134.0555555220417
 30
0.0
 10
73.55812850808617
 20
-134.0555555220417
 30
0.0
 10
73.34659964529183
 20
-134.0810492286325
 30
0.0
 10
73.34659964529183
 20
-134.0810492286325
 30
0.0
 10
73.34659964529183
 20
-133.8505723406693
 30
0.0
 10
73.34659964529183
 20
-133.8505723406693
 30
0.0
 10
73.50524629238758
 20
-133.8736544804205
 30
0.0
 10
73.69558781794764
 20
-133.8760660472602
 30
0.0
 10
73.90298256615968
 20
-133.8760660472602
 30
0.0
 10
73.90298256615968
 20
-133.8760660472602
 30
0.0
 10
74.3873629913858
 20
-133.8760660472602
 30
0.0
 10
74.3873629913858
 20
-133.8760660472602
 30
0.0
 10
74.57357040236356
 20
-133.8760660472602
 30
0.0
 10
74.75977781334132
 20
-133.8736544804205
 30
0.0
 10
74.94374591225365
 20
-133.8505723406693
 30
0.0
 10
74.94374591225365
 20
-133.8505723406693
 30
0.0
 10
74.94374591225365
 20
-134.0810492286325
 30
0.0
 10
74.94374591225365
 20
-134.0810492286325
 30
0.0
 10
74.75977781334132
 20
-134.0579670888814
 30
0.0
 10
74.51224770272611
 20
-134.0555555220417
 30
0.0
 10
74.3873629913858
 20
-134.0555555220417
 30
0.0
  0
HATCH
  5
62
330
47
100
AcDbEntity
  8
_U+30EC_U+30A4_U+30E4_U+30FC 1
 62
   179
420
  2234388
100
AcDbHatch
 10
0.0
 20
0.0
 30
0.0
210
0.0
220
0.0
230
1.0
  2
SOLID
 70
     1
 71
     0
 91
        1
 92
        1
 93
        1
 72
     4
 94
        3
 73
     0
 74
     1
 95
       29
 96
       25
 40
0.0
 40
0.0
 40
0.0
 40
0.0
 40
1.0
 40
1.0
 40
1.0
 40
2.0
 40
2.0
 40
2.0
 40
3.0
 40
3.0
 40
3.0
 40
4.0
 40
4.0
 40
4.0
 40
5.0
 40
5.0
 40
5.0
 40
6.0
 40
6.0
 40
6.0
 40
7.0
 40
7.0
 40
7.0
 40
8.0
 40
8.0
 40
8.0
 40
8.0
 10
74.3873629913858
 20
-134.0555555220417
 10
74.3873629913858
 20
-134.0555555220417
 10
73.90298256615968
 20
-134.0555555220417
 10
73.90298256615968
 20
-134.0555555220417
 10
73.87542180227767
 20
-134.0555555220417
 10
73.55812850808617
 20
-134.0555555220417
 10
73.34659964529183
 20
-134.0810492286325
 10
73.34659964529183
 20
-134.0810492286325
 10
73.34659964529183
 20
-133.8505723406693
 10
73.34659964529183
 20
-133.8505723406693
 10
73.50524629238758
 20
-133.8736544804205
 10
73.69558781794764
 20
-133.8760660472602
 10
73.90298256615968
 20
-133.8760660472602
 10
73.90298256615968
 20
-133.8760660472602
 10
74.3873629913858
 20
-133.8760660472602
 10
74.3873629913858
 20
-133.8760660472602
 10
74.57357040236356
 20
-133.8760660472602
 10
74.75977781334132
 20
-133.8736544804205
 10
74.94374591225365
 20
-133.8505723406693
 10
74.94374591225365
 20
-133.8505723406693
 10
74.94374591225365
 20
-134.0810492286325
 10
74.94374591225365
 20
-134.0810492286325
 10
74.75977781334132
 20
-134.0579670888814
 10
74.51224770272611
 20
-134.0555555220417
 10
74.3873629913858
 20
-134.0555555220417
 97
        0
 97
        0
 75
     2
 76
     1
 98
        0
  0
SPLINE
  5
63
330
47
100
AcDbEntity
  8
_U+30EC_U+30A4_U+30E4_U+30FC 1
370
     0
100
AcDbSpline
210
0.0
220
0.0
230
1.0
 70
    11
 71
     3
 72
    56
 73
    52
 74
     0
 42
0.0000000001
 43
0.0000000001
 12
1.0
 22
0.0
 32
0.0
 13
1.0
 23
0.0
 33
0.0
 40
0.0
 40
0.0
 40
0.0
 40
0.0
 40
1.0
 40
1.0
 40
1.0
 40
2.0
 40
2.0
 40
2.0
 40
3.0
 40
3.0
 40
3.0
 40
4.0
 40
4.0
 40
4.0
 40
5.0
 40
5.0
 40
5.0
 40
6.0
 40
6.0
 40
6.0
 40
7.0
 40
7.0
 40
7.0
 40
8.0
 40
8.0
 40
8.0
 40
9.0
 40
9.0
 40
9.0
 40
10.0
 40
10.0
 40
10.0
 40
11.0
 40
11.0
 40
11.0
 40
12.0
 40
12.0
 40
12.0
 40
13.0
 40
13.0
 40
13.0
 40
14.0
 40
14.0
 40
14.0
 40
15.0
 40
15.0
 40
15.0
 40
16.0
 40
16.0
 40
16.0
 40
17.0
 40
17.0
 40
17.0
 40
17.0
 10
76.11249455562466
 20
-134.3094590593046
 30
0.0
 10
75.99811738551436
 20
-134.1954263987428
 30
0.0
 10
75.8077758599543
 20
-134.0049126184085
 30
0.0
 10
75.48617619640623
 20
-133.8715874231293
 30
0.0
 10
75.48617619640623
 20
-133.8715874231293
 30
0.0
 10
75.48617619640623
 20
-134.2229871626248
 30
0.0
 10
75.48617619640623
 20
-134.2229871626248
 30
0.0
 10
75.48617619640623
 20
-134.3476996191908
 30
0.0
 10
75.4946166803451
 20
-134.7177028743067
 30
0.0
 10
75.50943059093167
 20
-134.8258788725435
 30
0.0
 10
75.50943059093167
 20
-134.8258788725435
 30
0.0
 10
75.25345999637761
 20
-134.8258788725435
 30
0.0
 10
75.25345999637761
 20
-134.8258788725435
 30
0.0
 10
75.26827390696418
 20
-134.7201144411464
 30
0.0
 10
75.2705132190296
 20
-134.5592284819852
 30
0.0
 10
75.2705132190296
 20
-134.5147867502255
 30
0.0
 10
75.27258027632075
 20
-134.4662109038835
 30
0.0
 10
75.27895370296847
 20
-134.252614983798
 30
0.0
 10
75.27895370296847
 20
-134.2081732520383
 30
0.0
 10
75.27895370296847
 20
-134.2081732520383
 30
0.0
 10
75.27895370296847
 20
-133.6559244457527
 30
0.0
 10
75.27895370296847
 20
-133.6559244457527
 30
0.0
 10
75.27895370296847
 20
-133.5732421541067
 30
0.0
 10
75.27258027632075
 20
-133.3468993807258
 30
0.0
 10
75.26620684967304
 20
-133.2686957132106
 30
0.0
 10
75.26207273509074
 20
-133.2135741854466
 30
0.0
 10
75.25569930844303
 20
-133.1756781351089
 30
0.0
 10
75.24501951243874
 20
-133.129169346058
 30
0.0
 10
75.24501951243874
 20
-133.129169346058
 30
0.0
 10
75.52648381358367
 20
-133.1481173712269
 30
0.0
 10
75.52648381358367
 20
-133.1481173712269
 30
0.0
 10
75.53905841210482
 20
-133.1481173712269
 30
0.0
 10
75.56661917598682
 20
-133.1522514858092
 30
0.0
 10
75.56661917598682
 20
-133.1798122496912
 30
0.0
 10
75.56661917598682
 20
-133.2011718416997
 30
0.0
 10
75.54336478146138
 20
-133.2159857522863
 30
0.0
 10
75.49685599241052
 20
-133.2432020066198
 30
0.0
 10
75.48841550847165
 20
-133.3744601446078
 30
0.0
 10
75.48617619640623
 20
-133.5057182825958
 30
0.0
 10
75.48617619640623
 20
-133.6345648537441
 30
0.0
 10
75.48617619640623
 20
-133.6345648537441
 30
0.0
 10
75.48617619640623
 20
-133.8695203658382
 30
0.0
 10
75.48617619640623
 20
-133.8695203658382
 30
0.0
 10
75.48617619640623
 20
-133.8695203658382
 30
0.0
 10
75.58573945592995
 20
-133.6814181523436
 30
0.0
 10
75.58573945592995
 20
-133.6814181523436
 30
0.0
 10
75.87753904353062
 20
-133.8143988380742
 30
0.0
 10
76.16107040196668
 20
-134.0283392677082
 30
0.0
 10
76.25202092277728
 20
-134.14237192827
 30
0.0
 10
76.25202092277728
 20
-134.14237192827
 30
0.0
 10
76.11249455562466
 20
-134.3094590593046
 30
0.0
 10
76.11249455562466
 20
-134.3094590593046
 30
0.0
  0
HATCH
  5
64
330
47
100
AcDbEntity
  8
_U+30EC_U+30A4_U+30E4_U+30FC 1
 62
   179
420
  2234388
100
AcDbHatch
 10
0.0
 20
0.0
 30
0.0
210
0.0
220
0.0
230
1.0
  2
SOLID
 70
     1
 71
     0
 91
        1
 92
        1
 93
        1
 72
     4
 94
        3
 73
     0
 74
     1
 95
       56
 96
       52
 40
0.0
 40
0.0
 40
0.0
 40
0.0
 40
1.0
 40
1.0
 40
1.0
 40
2.0
 40
2.0
 40
2.0
 40
3.0
 40
3.0
 40
3.0
 40
4.0
 40
4.0
 40
4.0
 40
5.0
 40
5.0
 40
5.0
 40
6.0
 40
6.0
 40
6.0
 40
7.0
 40
7.0
 40
7.0
 40
8.0
 40
8.0
 40
8.0
 40
9.0
 40
9.0
 40
9.0
 40
10.0
 40
10.0
 40
10.0
 40
11.0
 40
11.0
 40
11.0
 40
12.0
 40
12.0
 40
12.0
 40
13.0
 40
13.0
 40
13.0
 40
14.0
 40
14.0
 40
14.0
 40
15.0
 40
15.0
 40
15.0
 40
16.0
 40
16.0
 40
16.0
 40
17.0
 40
17.0
 40
17.0
 40
17.0
 10
76.11249455562466
 20
-134.3094590593046
 10
75.99811738551436
 20
-134.1954263987428
 10
75.8077758599543
 20
-134.0049126184085
 10
75.48617619640623
 20
-133.8715874231293
 10
75.48617619640623
 20
-133.8715874231293
 10
75.48617619640623
 20
-134.2229871626248
 10
75.48617619640623
 20
-134.2229871626248
 10
75.48617619640623
 20
-134.3476996191908
 10
75.4946166803451
 20
-134.7177028743067
 10
75.50943059093167
 20
-134.8258788725435
 10
75.50943059093167
 20
-134.8258788725435
 10
75.25345999637761
 20
-134.8258788725435
 10
75.25345999637761
 20
-134.8258788725435
 10
75.26827390696418
 20
-134.7201144411464
 10
75.2705132190296
 20
-134.5592284819852
 10
75.2705132190296
 20
-134.5147867502255
 10
75.27258027632075
 20
-134.4662109038835
 10
75.27895370296847
 20
-134.252614983798
 10
75.27895370296847
 20
-134.2081732520383
 10
75.27895370296847
 20
-134.2081732520383
 10
75.27895370296847
 20
-133.6559244457527
 10
75.27895370296847
 20
-133.6559244457527
 10
75.27895370296847
 20
-133.5732421541067
 10
75.27258027632075
 20
-133.3468993807258
 10
75.26620684967304
 20
-133.2686957132106
 10
75.26207273509074
 20
-133.2135741854466
 10
75.25569930844303
 20
-133.1756781351089
 10
75.24501951243874
 20
-133.129169346058
 10
75.24501951243874
 20
-133.129169346058
 10
75.52648381358367
 20
-133.1481173712269
 10
75.52648381358367
 20
-133.1481173712269
 10
75.53905841210482
 20
-133.1481173712269
 10
75.56661917598682
 20
-133.1522514858092
 10
75.56661917598682
 20
-133.1798122496912
 10
75.56661917598682
 20
-133.2011718416997
 10
75.54336478146138
 20
-133.2159857522863
 10
75.49685599241052
 20
-133.2432020066198
 10
75.48841550847165
 20
-133.3744601446078
 10
75.48617619640623
 20
-133.5057182825958
 10
75.48617619640623
 20
-133.6345648537441
 10
75.48617619640623
 20
-133.6345648537441
 10
75.48617619640623
 20
-133.8695203658382
 10
75.48617619640623
 20
-133.8695203658382
 10
75.48617619640623
 20
-133.8695203658382
 10
75.58573945592995
 20
-133.6814181523436
 10
75.58573945592995
 20
-133.6814181523436
 10
75.87753904353062
 20
-133.8143988380742
 10
76.16107040196668
 20
-134.0283392677082
 10
76.25202092277728
 20
-134.14237192827
 10
76.25202092277728
 20
-134.14237192827
 10
76.11249455562466
 20
-134.3094590593046
 10
76.11249455562466
 20
-134.3094590593046
 97
        0
 97
        0
 75
     2
 76
     1
 98
        0
  0
ENDBLK
  5
4A
330
47
100
AcDbEntity
  8
0
100
AcDbBlockEnd
  0
BLOCK
  5
138
330
136
100
AcDbEntity
  8
0
100
AcDbBlockBegin
  2
block 4
 70
     0
 10
0.0
 20
0.0
 30
0.0
  3
block 4
  1

  0
SPLINE
  5
13A
330
136
100
AcDbEntity
  8
_U+30EC_U+30A4_U+30E4_U+30FC 1
370
     0
100
AcDbSpline
210
0.0
220
0.0
230
1.0
 70
    11
 71
     3
 72
    26
 73
    22
 74
     0
 42
0.0000000001
 43
0.0000000001
 12
1.0
 22
0.0
 32
0.0
 13
1.0
 23
0.0
 33
0.0
 40
0.0
 40
0.0
 40
0.0
 40
0.0
 40
1.0
 40
1.0
 40
1.0
 40
2.0
 40
2.0
 40
2.0
 40
3.0
 40
3.0
 40
3.0
 40
4.0
 40
4.0
 40
4.0
 40
5.0
 40
5.0
 40
5.0
 40
6.0
 40
6.0
 40
6.0
 40
7.0
 40
7.0
 40
7.0
 40
7.0
 10
94.69947371764458
 20
-117.7306260556368
 30
0.0
 10
94.69947371764458
 20
-117.7306260556368
 30
0.0
 10
94.69947371764458
 20
-116.6264729526142
 30
0.0
 10
94.69947371764458
 20
-116.6264729526142
 30
0.0
 10
94.69947371764458
 20
-116.6264729526142
 30
0.0
 10
94.36943357015764
 20
-116.6264729526142
 30
0.0
 10
94.36943357015764
 20
-116.6264729526142
 30
0.0
 10
94.36943357015764
 20
-116.6264729526142
 30
0.0
 10
94.36943357015764
 20
-116.4783338467485
 30
0.0
 10
94.36943357015764
 20
-116.4783338467485
 30
0.0
 10
94.70154077493574
 20
-116.4635199361619
 30
0.0
 10
94.7480495639866
 20
-116.3005669197096
 30
0.0
 10
94.77767738515975
 20
-116.1861897495993
 30
0.0
 10
94.77767738515975
 20
-116.1861897495993
 30
0.0
 10
94.92374943373434
 20
-116.1861897495993
 30
0.0
 10
94.92374943373434
 20
-116.1861897495993
 30
0.0
 10
94.92374943373434
 20
-116.1861897495993
 30
0.0
 10
94.92374943373434
 20
-117.7306260556368
 30
0.0
 10
94.92374943373434
 20
-117.7306260556368
 30
0.0
 10
94.92374943373434
 20
-117.7306260556368
 30
0.0
 10
94.69947371764458
 20
-117.7306260556368
 30
0.0
 10
94.69947371764458
 20
-117.7306260556368
 30
0.0
  0
HATCH
  5
13B
330
136
100
AcDbEntity
  8
_U+30EC_U+30A4_U+30E4_U+30FC 1
 62
   179
420
  2234388
100
AcDbHatch
 10
0.0
 20
0.0
 30
0.0
210
0.0
220
0.0
230
1.0
  2
SOLID
 70
     1
 71
     0
 91
        1
 92
        1
 93
        1
 72
     4
 94
        3
 73
     0
 74
     1
 95
       26
 96
       22
 40
0.0
 40
0.0
 40
0.0
 40
0.0
 40
1.0
 40
1.0
 40
1.0
 40
2.0
 40
2.0
 40
2.0
 40
3.0
 40
3.0
 40
3.0
 40
4.0
 40
4.0
 40
4.0
 40
5.0
 40
5.0
 40
5.0
 40
6.0
 40
6.0
 40
6.0
 40
7.0
 40
7.0
 40
7.0
 40
7.0
 10
94.69947371764458
 20
-117.7306260556368
 10
94.69947371764458
 20
-117.7306260556368
 10
94.69947371764458
 20
-116.6264729526142
 10
94.69947371764458
 20
-116.6264729526142
 10
94.69947371764458
 20
-116.6264729526142
 10
94.36943357015764
 20
-116.6264729526142
 10
94.36943357015764
 20
-116.6264729526142
 10
94.36943357015764
 20
-116.6264729526142
 10
94.36943357015764
 20
-116.4783338467485
 10
94.36943357015764
 20
-116.4783338467485
 10
94.70154077493574
 20
-116.4635199361619
 10
94.7480495639866
 20
-116.3005669197096
 10
94.77767738515975
 20
-116.1861897495993
 10
94.77767738515975
 20
-116.1861897495993
 10
94.92374943373434
 20
-116.1861897495993
 10
94.92374943373434
 20
-116.1861897495993
 10
94.92374943373434
 20
-116.1861897495993
 10
94.92374943373434
 20
-117.7306260556368
 10
94.92374943373434
 20
-117.7306260556368
 10
94.92374943373434
 20
-117.7306260556368
 10
94.69947371764458
 20
-117.7306260556368
 10
94.69947371764458
 20
-117.7306260556368
 97
        0
 97
        0
 75
     2
 76
     1
 98
        0
  0
SPLINE
  5
13C
330
136
100
AcDbEntity
  8
_U+30EC_U+30A4_U+30E4_U+30FC 1
370
     0
100
AcDbSpline
210
0.0
220
0.0
230
1.0
 70
    11
 71
     3
 72
    26
 73
    22
 74
     0
 42
0.0000000001
 43
0.0000000001
 12
1.0
 22
0.0
 32
0.0
 13
1.0
 23
0.0
 33
0.0
 40
0.0
 40
0.0
 40
0.0
 40
0.0
 40
1.0
 40
1.0
 40
1.0
 40
2.0
 40
2.0
 40
2.0
 40
3.0
 40
3.0
 40
3.0
 40
4.0
 40
4.0
 40
4.0
 40
5.0
 40
5.0
 40
5.0
 40
6.0
 40
6.0
 40
6.0
 40
7.0
 40
7.0
 40
7.0
 40
7.0
 10
95.83601071822851
 20
-117.7306260556368
 30
0.0
 10
95.83601071822851
 20
-117.7306260556368
 30
0.0
 10
95.59898814884332
 20
-117.7306260556368
 30
0.0
 10
95.59898814884332
 20
-117.7306260556368
 30
0.0
 10
95.62448185543415
 20
-117.4216009906099
 30
0.0
 10
95.81706269305963
 20
-116.9034586296283
 30
0.0
 10
96.22323945077058
 20
-116.3977186123936
 30
0.0
 10
96.22323945077058
 20
-116.3977186123936
 30
0.0
 10
95.38539222875782
 20
-116.3977186123936
 30
0.0
 10
95.38539222875782
 20
-116.3977186123936
 30
0.0
 10
95.38539222875782
 20
-116.3977186123936
 30
0.0
 10
95.38539222875782
 20
-116.1861897495993
 30
0.0
 10
95.38539222875782
 20
-116.1861897495993
 30
0.0
 10
95.38539222875782
 20
-116.1861897495993
 30
0.0
 10
96.46026202015577
 20
-116.1861897495993
 30
0.0
 10
96.46026202015577
 20
-116.1861897495993
 30
0.0
 10
96.46026202015577
 20
-116.1861897495993
 30
0.0
 10
96.46026202015577
 20
-116.3977186123936
 30
0.0
 10
96.46026202015577
 20
-116.3977186123936
 30
0.0
 10
96.13642304454228
 20
-116.6877956522517
 30
0.0
 10
95.86977265398394
 20
-117.2800075661661
 30
0.0
 10
95.83601071822851
 20
-117.7306260556368
 30
0.0
  0
HATCH
  5
13D
330
136
100
AcDbEntity
  8
_U+30EC_U+30A4_U+30E4_U+30FC 1
 62
   179
420
  2234388
100
AcDbHatch
 10
0.0
 20
0.0
 30
0.0
210
0.0
220
0.0
230
1.0
  2
SOLID
 70
     1
 71
     0
 91
        1
 92
        1
 93
        1
 72
     4
 94
        3
 73
     0
 74
     1
 95
       26
 96
       22
 40
0.0
 40
0.0
 40
0.0
 40
0.0
 40
1.0
 40
1.0
 40
1.0
 40
2.0
 40
2.0
 40
2.0
 40
3.0
 40
3.0
 40
3.0
 40
4.0
 40
4.0
 40
4.0
 40
5.0
 40
5.0
 40
5.0
 40
6.0
 40
6.0
 40
6.0
 40
7.0
 40
7.0
 40
7.0
 40
7.0
 10
95.83601071822851
 20
-117.7306260556368
 10
95.83601071822851
 20
-117.7306260556368
 10
95.59898814884332
 20
-117.7306260556368
 10
95.59898814884332
 20
-117.7306260556368
 10
95.62448185543415
 20
-117.4216009906099
 10
95.81706269305963
 20
-116.9034586296283
 10
96.22323945077058
 20
-116.3977186123936
 10
96.22323945077058
 20
-116.3977186123936
 10
95.38539222875782
 20
-116.3977186123936
 10
95.38539222875782
 20
-116.3977186123936
 10
95.38539222875782
 20
-116.3977186123936
 10
95.38539222875782
 20
-116.1861897495993
 10
95.38539222875782
 20
-116.1861897495993
 10
95.38539222875782
 20
-116.1861897495993
 10
96.46026202015577
 20
-116.1861897495993
 10
96.46026202015577
 20
-116.1861897495993
 10
96.46026202015577
 20
-116.1861897495993
 10
96.46026202015577
 20
-116.3977186123936
 10
96.46026202015577
 20
-116.3977186123936
 10
96.13642304454228
 20
-116.6877956522517
 10
95.86977265398394
 20
-117.2800075661661
 10
95.83601071822851
 20
-117.7306260556368
 97
        0
 97
        0
 75
     2
 76
     1
 98
        0
  0
POLYLINE
  5
13E
330
136
100
AcDbEntity
  8
_U+30EC_U+30A4_U+30E4_U+30FC 1
370
     0
100
AcDb2dPolyline
 66
     1
 10
0.0
 20
0.0
 30
0.0
  0
VERTEX
  5
13F
330
13E
100
AcDbEntity
  8
_U+30EC_U+30A4_U+30E4_U+30FC 1
370
     0
100
AcDbVertex
100
AcDb2dVertex
 10
96.66180010604289
 20
-117.7306260556368
 30
0.0
  0
VERTEX
  5
140
330
13E
100
AcDbEntity
  8
_U+30EC_U+30A4_U+30E4_U+30FC 1
370
     0
100
AcDbVertex
100
AcDb2dVertex
 10
96.66180010604289
 20
-117.478789575665
 30
0.0
  0
VERTEX
  5
141
330
13E
100
AcDbEntity
  8
_U+30EC_U+30A4_U+30E4_U+30FC 1
370
     0
100
AcDbVertex
100
AcDb2dVertex
 10
96.91363658601465
 20
-117.478789575665
 30
0.0
  0
VERTEX
  5
142
330
13E
100
AcDbEntity
  8
_U+30EC_U+30A4_U+30E4_U+30FC 1
370
     0
100
AcDbVertex
100
AcDb2dVertex
 10
96.91363658601465
 20
-117.7306260556368
 30
0.0
  0
VERTEX
  5
143
330
13E
100
AcDbEntity
  8
_U+30EC_U+30A4_U+30E4_U+30FC 1
370
     0
100
AcDbVertex
100
AcDb2dVertex
 10
96.66180010604289
 20
-117.7306260556368
 30
0.0
  0
SEQEND
  5
144
330
13E
100
AcDbEntity
  8
_U+30EC_U+30A4_U+30E4_U+30FC 1
370
     0
  0
HATCH
  5
145
330
136
100
AcDbEntity
  8
_U+30EC_U+30A4_U+30E4_U+30FC 1
 62
   179
420
  2234388
100
AcDbHatch
 10
0.0
 20
0.0
 30
0.0
210
0.0
220
0.0
230
1.0
  2
SOLID
 70
     1
 71
     0
 91
        1
 92
        1
 93
        4
 72
     1
 10
96.66180010604289
 20
-117.7306260556368
 11
96.66180010604289
 21
-117.478789575665
 72
     1
 10
96.66180010604289
 20
-117.478789575665
 11
96.91363658601465
 21
-117.478789575665
 72
     1
 10
96.91363658601465
 20
-117.478789575665
 11
96.91363658601465
 21
-117.7306260556368
 72
     1
 10
96.91363658601465
 20
-117.7306260556368
 11
96.66180010604289
 21
-117.7306260556368
 97
        0
 75
     2
 76
     1
 98
        0
  0
SPLINE
  5
146
330
136
100
AcDbEntity
  8
_U+30EC_U+30A4_U+30E4_U+30FC 1
370
     0
100
AcDbSpline
210
0.0
220
0.0
230
1.0
 70
    11
 71
     3
 72
    53
 73
    49
 74
     0
 42
0.0000000001
 43
0.0000000001
 12
1.0
 22
0.0
 32
0.0
 13
1.0
 23
0.0
 33
0.0
 40
0.0
 40
0.0
 40
0.0
 40
0.0
 40
1.0
 40
1.0
 40
1.0
 40
2.0
 40
2.0
 40
2.0
 40
3.0
 40
3.0
 40
3.0
 40
4.0
 40
4.0
 40
4.0
 40
5.0
 40
5.0
 40
5.0
 40
6.0
 40
6.0
 40
6.0
 40
7.0
 40
7.0
 40
7.0
 40
8.0
 40
8.0
 40
8.0
 40
9.0
 40
9.0
 40
9.0
 40
10.0
 40
10.0
 40
10.0
 40
11.0
 40
11.0
 40
11.0
 40
12.0
 40
12.0
 40
12.0
 40
13.0
 40
13.0
 40
13.0
 40
14.0
 40
14.0
 40
14.0
 40
15.0
 40
15.0
 40
15.0
 40
16.0
 40
16.0
 40
16.0
 40
16.0
 10
97.63090546604367
 20
-117.78126895927
 30
0.0
 10
97.5527017985285
 20
-117.78126895927
 30
0.0
 10
97.45107148171363
 20
-117.7643879913922
 30
0.0
 10
97.34944116489875
 20
-117.7009982344636
 30
0.0
 10
97.17615286199069
 20
-117.5910996884842
 30
0.0
 10
97.15479326998214
 20
-117.4598415504962
 30
0.0
 10
97.13584524481327
 20
-117.3520100618078
 30
0.0
 10
97.13584524481327
 20
-117.3520100618078
 30
0.0
 10
97.35805390361188
 20
-117.3520100618078
 30
0.0
 10
97.35805390361188
 20
-117.3520100618078
 30
0.0
 10
97.41283092182735
 20
-117.5507920713067
 30
0.0
 10
97.53995494523308
 20
-117.5804198924799
 30
0.0
 10
97.63297252333481
 20
-117.5804198924799
 30
0.0
 10
97.77249889048744
 20
-117.5804198924799
 30
0.0
 10
97.92477211093548
 20
-117.4808566329562
 30
0.0
 10
97.92477211093548
 20
-117.2483126877018
 30
0.0
 10
97.92477211093548
 20
-116.9923420931478
 30
0.0
 10
97.74493812660543
 20
-116.9224066547972
 30
0.0
 10
97.62435978462169
 20
-116.9224066547972
 30
0.0
 10
97.5926649061574
 20
-116.9224066547972
 30
0.0
 10
97.45107148171363
 20
-116.9224066547972
 30
0.0
 10
97.36218801819417
 20
-117.0515977354941
 30
0.0
 10
97.36218801819417
 20
-117.0515977354941
 30
0.0
 10
97.18648814844644
 20
-117.0326497103252
 30
0.0
 10
97.18648814844644
 20
-117.0326497103252
 30
0.0
 10
97.18648814844644
 20
-117.0326497103252
 30
0.0
 10
97.30706649043019
 20
-116.1861897495993
 30
0.0
 10
97.30706649043019
 20
-116.1861897495993
 30
0.0
 10
97.30706649043019
 20
-116.1861897495993
 30
0.0
 10
98.08565807009664
 20
-116.1861897495993
 30
0.0
 10
98.08565807009664
 20
-116.1861897495993
 30
0.0
 10
98.08565807009664
 20
-116.1861897495993
 30
0.0
 10
98.08565807009664
 20
-116.3808376445159
 30
0.0
 10
98.08565807009664
 20
-116.3808376445159
 30
0.0
 10
98.08565807009664
 20
-116.3808376445159
 30
0.0
 10
97.4700195068825
 20
-116.3808376445159
 30
0.0
 10
97.4700195068825
 20
-116.3808376445159
 30
0.0
 10
97.4700195068825
 20
-116.3808376445159
 30
0.0
 10
97.40456269266275
 20
-116.8038953701046
 30
0.0
 10
97.40456269266275
 20
-116.8038953701046
 30
0.0
 10
97.4658853923002
 20
-116.7701334343491
 30
0.0
 10
97.54822317439768
 20
-116.7298258171717
 30
0.0
 10
97.66673445909026
 20
-116.7298258171717
 30
0.0
 10
97.92063799635318
 20
-116.7298258171717
 30
0.0
 10
98.15766056573837
 20
-116.9162054829237
 30
0.0
 10
98.15766056573837
 20
-117.2293646625329
 30
0.0
 10
98.15766056573837
 20
-117.5466579567244
 30
0.0
 10
97.9333848496486
 20
-117.78126895927
 30
0.0
 10
97.63090546604367
 20
-117.78126895927
 30
0.0
  0
HATCH
  5
147
330
136
100
AcDbEntity
  8
_U+30EC_U+30A4_U+30E4_U+30FC 1
 62
   179
420
  2234388
100
AcDbHatch
 10
0.0
 20
0.0
 30
0.0
210
0.0
220
0.0
230
1.0
  2
SOLID
 70
     1
 71
     0
 91
        1
 92
        1
 93
        1
 72
     4
 94
        3
 73
     0
 74
     1
 95
       53
 96
       49
 40
0.0
 40
0.0
 40
0.0
 40
0.0
 40
1.0
 40
1.0
 40
1.0
 40
2.0
 40
2.0
 40
2.0
 40
3.0
 40
3.0
 40
3.0
 40
4.0
 40
4.0
 40
4.0
 40
5.0
 40
5.0
 40
5.0
 40
6.0
 40
6.0
 40
6.0
 40
7.0
 40
7.0
 40
7.0
 40
8.0
 40
8.0
 40
8.0
 40
9.0
 40
9.0
 40
9.0
 40
10.0
 40
10.0
 40
10.0
 40
11.0
 40
11.0
 40
11.0
 40
12.0
 40
12.0
 40
12.0
 40
13.0
 40
13.0
 40
13.0
 40
14.0
 40
14.0
 40
14.0
 40
15.0
 40
15.0
 40
15.0
 40
16.0
 40
16.0
 40
16.0
 40
16.0
 10
97.63090546604367
 20
-117.78126895927
 10
97.5527017985285
 20
-117.78126895927
 10
97.45107148171363
 20
-117.7643879913922
 10
97.34944116489875
 20
-117.7009982344636
 10
97.17615286199069
 20
-117.5910996884842
 10
97.15479326998214
 20
-117.4598415504962
 10
97.13584524481327
 20
-117.3520100618078
 10
97.13584524481327
 20
-117.3520100618078
 10
97.35805390361188
 20
-117.3520100618078
 10
97.35805390361188
 20
-117.3520100618078
 10
97.41283092182735
 20
-117.5507920713067
 10
97.53995494523308
 20
-117.5804198924799
 10
97.63297252333481
 20
-117.5804198924799
 10
97.77249889048744
 20
-117.5804198924799
 10
97.92477211093548
 20
-117.4808566329562
 10
97.92477211093548
 20
-117.2483126877018
 10
97.92477211093548
 20
-116.9923420931478
 10
97.74493812660543
 20
-116.9224066547972
 10
97.62435978462169
 20
-116.9224066547972
 10
97.5926649061574
 20
-116.9224066547972
 10
97.45107148171363
 20
-116.9224066547972
 10
97.36218801819417
 20
-117.0515977354941
 10
97.36218801819417
 20
-117.0515977354941
 10
97.18648814844644
 20
-117.0326497103252
 10
97.18648814844644
 20
-117.0326497103252
 10
97.18648814844644
 20
-117.0326497103252
 10
97.30706649043019
 20
-116.1861897495993
 10
97.30706649043019
 20
-116.1861897495993
 10
97.30706649043019
 20
-116.1861897495993
 10
98.08565807009664
 20
-116.1861897495993
 10
98.08565807009664
 20
-116.1861897495993
 10
98.08565807009664
 20
-116.1861897495993
 10
98.08565807009664
 20
-116.3808376445159
 10
98.08565807009664
 20
-116.3808376445159
 10
98.08565807009664
 20
-116.3808376445159
 10
97.4700195068825
 20
-116.3808376445159
 10
97.4700195068825
 20
-116.3808376445159
 10
97.4700195068825
 20
-116.3808376445159
 10
97.40456269266275
 20
-116.8038953701046
 10
97.40456269266275
 20
-116.8038953701046
 10
97.4658853923002
 20
-116.7701334343491
 10
97.54822317439768
 20
-116.7298258171717
 10
97.66673445909026
 20
-116.7298258171717
 10
97.92063799635318
 20
-116.7298258171717
 10
98.15766056573837
 20
-116.9162054829237
 10
98.15766056573837
 20
-117.2293646625329
 10
98.15766056573837
 20
-117.5466579567244
 10
97.9333848496486
 20
-117.78126895927
 10
97.63090546604367
 20
-117.78126895927
 97
        0
 97
        0
 75
     2
 76
     1
 98
        0
  0
ENDBLK
  5
139
330
136
100
AcDbEntity
  8
0
100
AcDbBlockEnd
  0
BLOCK
  5
156
330
154
100
AcDbEntity
  8
0
100
AcDbBlockBegin
  2
block 5
 70
     0
 10
0.0
 20
0.0
 30
0.0
  3
block 5
  1

  0
POLYLINE
  5
158
330
154
100
AcDbEntity
  8
_U+30EC_U+30A4_U+30E4_U+30FC 1
370
     0
100
AcDb2dPolyline
 66
     1
 10
0.0
 20
0.0
 30
0.0
  0
VERTEX
  5
159
330
158
100
AcDbEntity
  8
_U+30EC_U+30A4_U+30E4_U+30FC 1
370
     0
100
AcDbVertex
100
AcDb2dVertex
 10
108.7378933104891
 20
-124.8430256849351
 30
0.0
  0
VERTEX
  5
15A
330
158
100
AcDbEntity
  8
_U+30EC_U+30A4_U+30E4_U+30FC 1
370
     0
100
AcDbVertex
100
AcDb2dVertex
 10
109.0848144258538
 20
-124.8430256849351
 30
0.0
  0
VERTEX
  5
15B
330
158
100
AcDbEntity
  8
_U+30EC_U+30A4_U+30E4_U+30FC 1
370
     0
100
AcDbVertex
100
AcDb2dVertex
 10
109.0848144258538
 20
-125.0609279743771
 30
0.0
  0
VERTEX
  5
15C
330
158
100
AcDbEntity
  8
_U+30EC_U+30A4_U+30E4_U+30FC 1
370
     0
100
AcDbVertex
100
AcDb2dVertex
 10
108.7378933104891
 20
-125.0609279743771
 30
0.0
  0
VERTEX
  5
15D
330
158
100
AcDbEntity
  8
_U+30EC_U+30A4_U+30E4_U+30FC 1
370
     0
100
AcDbVertex
100
AcDb2dVertex
 10
108.7378933104891
 20
-125.7167018999944
 30
0.0
  0
VERTEX
  5
15E
330
158
100
AcDbEntity
  8
_U+30EC_U+30A4_U+30E4_U+30FC 1
370
     0
100
AcDbVertex
100
AcDb2dVertex
 10
108.5136175943994
 20
-125.7167018999944
 30
0.0
  0
VERTEX
  5
15F
330
158
100
AcDbEntity
  8
_U+30EC_U+30A4_U+30E4_U+30FC 1
370
     0
100
AcDbVertex
100
AcDb2dVertex
 10
107.5403781198163
 20
-125.0376735798517
 30
0.0
  0
VERTEX
  5
160
330
158
100
AcDbEntity
  8
_U+30EC_U+30A4_U+30E4_U+30FC 1
370
     0
100
AcDbVertex
100
AcDb2dVertex
 10
107.5403781198163
 20
-124.8430256849351
 30
0.0
  0
VERTEX
  5
161
330
158
100
AcDbEntity
  8
_U+30EC_U+30A4_U+30E4_U+30FC 1
370
     0
100
AcDbVertex
100
AcDb2dVertex
 10
108.5391113009902
 20
-124.8430256849351
 30
0.0
  0
VERTEX
  5
162
330
158
100
AcDbEntity
  8
_U+30EC_U+30A4_U+30E4_U+30FC 1
370
     0
100
AcDbVertex
100
AcDb2dVertex
 10
108.5391113009902
 20
-124.635630936723
 30
0.0
  0
VERTEX
  5
163
330
158
100
AcDbEntity
  8
_U+30EC_U+30A4_U+30E4_U+30FC 1
370
     0
100
AcDbVertex
100
AcDb2dVertex
 10
108.7378933104891
 20
-124.635630936723
 30
0.0
  0
VERTEX
  5
164
330
158
100
AcDbEntity
  8
_U+30EC_U+30A4_U+30E4_U+30FC 1
370
     0
100
AcDbVertex
100
AcDb2dVertex
 10
108.7378933104891
 20
-124.8430256849351
 30
0.0
  0
SEQEND
  5
165
330
158
100
AcDbEntity
  8
_U+30EC_U+30A4_U+30E4_U+30FC 1
370
     0
  0
POLYLINE
  5
166
330
154
100
AcDbEntity
  8
_U+30EC_U+30A4_U+30E4_U+30FC 1
370
     0
100
AcDb2dPolyline
 66
     1
 10
0.0
 20
0.0
 30
0.0
  0
VERTEX
  5
167
330
166
100
AcDbEntity
  8
_U+30EC_U+30A4_U+30E4_U+30FC 1
370
     0
100
AcDbVertex
100
AcDb2dVertex
 10
107.8831651205987
 20
-125.0609279743771
 30
0.0
  0
VERTEX
  5
168
330
166
100
AcDbEntity
  8
_U+30EC_U+30A4_U+30E4_U+30FC 1
370
     0
100
AcDbVertex
100
AcDb2dVertex
 10
108.5391113009902
 20
-125.5177476357213
 30
0.0
  0
VERTEX
  5
169
330
166
100
AcDbEntity
  8
_U+30EC_U+30A4_U+30E4_U+30FC 1
370
     0
100
AcDbVertex
100
AcDb2dVertex
 10
108.5391113009902
 20
-125.0609279743771
 30
0.0
  0
VERTEX
  5
16A
330
166
100
AcDbEntity
  8
_U+30EC_U+30A4_U+30E4_U+30FC 1
370
     0
100
AcDbVertex
100
AcDb2dVertex
 10
107.8831651205987
 20
-125.0609279743771
 30
0.0
  0
SEQEND
  5
16B
330
166
100
AcDbEntity
  8
_U+30EC_U+30A4_U+30E4_U+30FC 1
370
     0
  0
HATCH
  5
16C
330
154
100
AcDbEntity
  8
_U+30EC_U+30A4_U+30E4_U+30FC 1
 62
   179
420
  2234388
100
AcDbHatch
 10
0.0
 20
0.0
 30
0.0
210
0.0
220
0.0
230
1.0
  2
SOLID
 70
     1
 71
     0
 91
        2
 92
        1
 93
       11
 72
     1
 10
108.7378933104891
 20
-124.8430256849351
 11
109.0848144258538
 21
-124.8430256849351
 72
     1
 10
109.0848144258538
 20
-124.8430256849351
 11
109.0848144258538
 21
-125.0609279743771
 72
     1
 10
109.0848144258538
 20
-125.0609279743771
 11
108.7378933104891
 21
-125.0609279743771
 72
     1
 10
108.7378933104891
 20
-125.0609279743771
 11
108.7378933104891
 21
-125.7167018999944
 72
     1
 10
108.7378933104891
 20
-125.7167018999944
 11
108.5136175943994
 21
-125.7167018999944
 72
     1
 10
108.5136175943994
 20
-125.7167018999944
 11
107.5403781198163
 21
-125.0376735798517
 72
     1
 10
107.5403781198163
 20
-125.0376735798517
 11
107.5403781198163
 21
-124.8430256849351
 72
     1
 10
107.5403781198163
 20
-124.8430256849351
 11
108.5391113009902
 21
-124.8430256849351
 72
     1
 10
108.5391113009902
 20
-124.8430256849351
 11
108.5391113009902
 21
-124.635630936723
 72
     1
 10
108.5391113009902
 20
-124.635630936723
 11
108.7378933104891
 21
-124.635630936723
 72
     1
 10
108.7378933104891
 20
-124.635630936723
 11
108.7378933104891
 21
-124.8430256849351
 97
        0
 92
        1
 93
        3
 72
     1
 10
107.8831651205987
 20
-125.0609279743771
 11
108.5391113009902
 21
-125.5177476357213
 72
     1
 10
108.5391113009902
 20
-125.5177476357213
 11
108.5391113009902
 21
-125.0609279743771
 72
     1
 10
108.5391113009902
 20
-125.0609279743771
 11
107.8831651205987
 21
-125.0609279743771
 97
        0
 75
     2
 76
     1
 98
        0
  0
ENDBLK
  5
157
330
154
100
AcDbEntity
  8
0
100
AcDbBlockEnd
  0
ENDSEC
  0
SECTION
  2
ENTITIES
  0
SPLINE
  5
41
330
1F
100
AcDbEntity
  8
_U+30EC_U+30A4_U+30E4_U+30FC 1
370
     0
100
AcDbSpline
210
0.0
220
0.0
230
1.0
 70
    11
 71
     3
 72
    71
 73
    67
 74
     0
 42
0.0000000001
 43
0.0000000001
 12
1.0
 22
0.0
 32
0.0
 13
1.0
 23
0.0
 33
0.0
 40
0.0
 40
0.0
 40
0.0
 40
0.0
 40
1.0
 40
1.0
 40
1.0
 40
2.0
 40
2.0
 40
2.0
 40
3.0
 40
3.0
 40
3.0
 40
4.0
 40
4.0
 40
4.0
 40
5.0
 40
5.0
 40
5.0
 40
6.0
 40
6.0
 40
6.0
 40
7.0
 40
7.0
 40
7.0
 40
8.0
 40
8.0
 40
8.0
 40
9.0
 40
9.0
 40
9.0
 40
10.0
 40
10.0
 40
10.0
 40
11.0
 40
11.0
 40
11.0
 40
12.0
 40
12.0
 40
12.0
 40
13.0
 40
13.0
 40
13.0
 40
14.0
 40
14.0
 40
14.0
 40
15.0
 40
15.0
 40
15.0
 40
16.0
 40
16.0
 40
16.0
 40
17.0
 40
17.0
 40
17.0
 40
18.0
 40
18.0
 40
18.0
 40
19.0
 40
19.0
 40
19.0
 40
20.0
 40
20.0
 40
20.0
 40
21.0
 40
21.0
 40
21.0
 40
22.0
 40
22.0
 40
22.0
 40
22.0
 10
87.3309127720028
 20
-124.5770516355225
 30
0.0
 10
87.3309127720028
 20
-124.5770516355225
 30
0.0
 10
87.3309127720028
 20
-140.6770180203864
 30
0.0
 10
87.3309127720028
 20
-140.6770180203864
 30
0.0
 10
87.3309127720028
 20
-140.6770180203864
 30
0.0
 10
91.33137739216467
 20
-140.6770180203864
 30
0.0
 10
91.33137739216467
 20
-140.6770180203864
 30
0.0
 10
91.33137739216467
 20
-140.6770180203864
 30
0.0
 10
91.33137739216467
 20
-138.2930163543153
 30
0.0
 10
91.33137739216467
 20
-138.2930163543153
 30
0.0
 10
91.33137739216467
 20
-138.2930163543153
 30
0.0
 10
90.83113851603794
 20
-137.4269116323099
 30
0.0
 10
90.83113851603794
 20
-137.4269116323099
 30
0.0
 10
90.83113851603794
 20
-137.4269116323099
 30
0.0
 10
90.45631213671166
 20
-137.4269116323099
 30
0.0
 10
90.45631213671166
 20
-137.4269116323099
 30
0.0
 10
90.45631213671166
 20
-137.4269116323099
 30
0.0
 10
90.45631213671166
 20
-138.7271094097629
 30
0.0
 10
90.45631213671166
 20
-138.7271094097629
 30
0.0
 10
90.45631213671166
 20
-138.7271094097629
 30
0.0
 10
90.70607879700626
 20
-138.9768760763667
 30
0.0
 10
90.70607879700626
 20
-138.9768760763667
 30
0.0
 10
90.70607879700626
 20
-138.9768760763667
 30
0.0
 10
90.70607879700626
 20
-140.0269544094375
 30
0.0
 10
90.70607879700626
 20
-140.0269544094375
 30
0.0
 10
90.70607879700626
 20
-140.0269544094375
 30
0.0
 10
87.98136664467124
 20
-140.0269544094375
 30
0.0
 10
87.98136664467124
 20
-140.0269544094375
 30
0.0
 10
87.98136664467124
 20
-140.0269544094375
 30
0.0
 10
87.98136664467124
 20
-124.5770516355225
 30
0.0
 10
87.98136664467124
 20
-124.5770516355225
 30
0.0
 10
87.98136664467124
 20
-124.1626083022928
 30
0.0
 10
88.31692663573638
 20
-123.8270813579322
 30
0.0
 10
88.7310194222616
 20
-123.8270813579322
 30
0.0
 10
88.7310194222616
 20
-123.8270813579322
 30
0.0
 10
104.181060675453
 20
-123.8270813579322
 30
0.0
 10
104.181060675453
 20
-123.8270813579322
 30
0.0
 10
104.181060675453
 20
-123.8270813579322
 30
0.0
 10
104.181060675453
 20
-126.552148579473
 30
0.0
 10
104.181060675453
 20
-126.552148579473
 30
0.0
 10
104.181060675453
 20
-126.552148579473
 30
0.0
 10
103.1309823689094
 20
-126.552148579473
 30
0.0
 10
103.1309823689094
 20
-126.552148579473
 30
0.0
 10
103.1309823689094
 20
-126.552148579473
 30
0.0
 10
102.880898208623
 20
-126.3020291350911
 30
0.0
 10
102.880898208623
 20
-126.3020291350911
 30
0.0
 10
102.880898208623
 20
-126.3020291350911
 30
0.0
 10
101.5814060195535
 20
-126.3020291350911
 30
0.0
 10
101.5814060195535
 20
-126.3020291350911
 30
0.0
 10
101.5814060195535
 20
-126.3020291350911
 30
0.0
 10
101.5814060195535
 20
-126.6768555238863
 30
0.0
 10
101.5814060195535
 20
-126.6768555238863
 30
0.0
 10
101.5814060195535
 20
-126.6768555238863
 30
0.0
 10
102.4474754419027
 20
-127.1770944126503
 30
0.0
 10
102.4474754419027
 20
-127.1770944126503
 30
0.0
 10
102.4474754419027
 20
-127.1770944126503
 30
0.0
 10
104.8315123255253
 20
-127.1770944126503
 30
0.0
 10
104.8315123255253
 20
-127.1770944126503
 30
0.0
 10
104.8315123255253
 20
-127.1770944126503
 30
0.0
 10
104.8315123255253
 20
-123.1769824692057
 30
0.0
 10
104.8315123255253
 20
-123.1769824692057
 30
0.0
 10
104.8315123255253
 20
-123.1769824692057
 30
0.0
 10
88.7310194222616
 20
-123.1769824692057
 30
0.0
 10
88.7310194222616
 20
-123.1769824692057
 30
0.0
 10
87.95793997822823
 20
-123.1769824692057
 30
0.0
 10
87.3309127720028
 20
-123.8036569134937
 30
0.0
 10
87.3309127720028
 20
-124.5770516355225
 30
0.0
  0
HATCH
  5
42
330
1F
100
AcDbEntity
  8
_U+30EC_U+30A4_U+30E4_U+30FC 1
 62
     7
420
 16777215
100
AcDbHatch
 10
0.0
 20
0.0
 30
0.0
210
0.0
220
0.0
230
1.0
  2
SOLID
 70
     1
 71
     0
 91
        1
 92
        1
 93
        1
 72
     4
 94
        3
 73
     0
 74
     1
 95
       71
 96
       67
 40
0.0
 40
0.0
 40
0.0
 40
0.0
 40
1.0
 40
1.0
 40
1.0
 40
2.0
 40
2.0
 40
2.0
 40
3.0
 40
3.0
 40
3.0
 40
4.0
 40
4.0
 40
4.0
 40
5.0
 40
5.0
 40
5.0
 40
6.0
 40
6.0
 40
6.0
 40
7.0
 40
7.0
 40
7.0
 40
8.0
 40
8.0
 40
8.0
 40
9.0
 40
9.0
 40
9.0
 40
10.0
 40
10.0
 40
10.0
 40
11.0
 40
11.0
 40
11.0
 40
12.0
 40
12.0
 40
12.0
 40
13.0
 40
13.0
 40
13.0
 40
14.0
 40
14.0
 40
14.0
 40
15.0
 40
15.0
 40
15.0
 40
16.0
 40
16.0
 40
16.0
 40
17.0
 40
17.0
 40
17.0
 40
18.0
 40
18.0
 40
18.0
 40
19.0
 40
19.0
 40
19.0
 40
20.0
 40
20.0
 40
20.0
 40
21.0
 40
21.0
 40
21.0
 40
22.0
 40
22.0
 40
22.0
 40
22.0
 10
87.3309127720028
 20
-124.5770516355225
 10
87.3309127720028
 20
-124.5770516355225
 10
87.3309127720028
 20
-140.6770180203864
 10
87.3309127720028
 20
-140.6770180203864
 10
87.3309127720028
 20
-140.6770180203864
 10
91.33137739216467
 20
-140.6770180203864
 10
91.33137739216467
 20
-140.6770180203864
 10
91.33137739216467
 20
-140.6770180203864
 10
91.33137739216467
 20
-138.2930163543153
 10
91.33137739216467
 20
-138.2930163543153
 10
91.33137739216467
 20
-138.2930163543153
 10
90.83113851603794
 20
-137.4269116323099
 10
90.83113851603794
 20
-137.4269116323099
 10
90.83113851603794
 20
-137.4269116323099
 10
90.45631213671166
 20
-137.4269116323099
 10
90.45631213671166
 20
-137.4269116323099
 10
90.45631213671166
 20
-137.4269116323099
 10
90.45631213671166
 20
-138.7271094097629
 10
90.45631213671166
 20
-138.7271094097629
 10
90.45631213671166
 20
-138.7271094097629
 10
90.70607879700626
 20
-138.9768760763667
 10
90.70607879700626
 20
-138.9768760763667
 10
90.70607879700626
 20
-138.9768760763667
 10
90.70607879700626
 20
-140.0269544094375
 10
90.70607879700626
 20
-140.0269544094375
 10
90.70607879700626
 20
-140.0269544094375
 10
87.98136664467124
 20
-140.0269544094375
 10
87.98136664467124
 20
-140.0269544094375
 10
87.98136664467124
 20
-140.0269544094375
 10
87.98136664467124
 20
-124.5770516355225
 10
87.98136664467124
 20
-124.5770516355225
 10
87.98136664467124
 20
-124.1626083022928
 10
88.31692663573638
 20
-123.8270813579322
 10
88.7310194222616
 20
-123.8270813579322
 10
88.7310194222616
 20
-123.8270813579322
 10
104.181060675453
 20
-123.8270813579322
 10
104.181060675453
 20
-123.8270813579322
 10
104.181060675453
 20
-123.8270813579322
 10
104.181060675453
 20
-126.552148579473
 10
104.181060675453
 20
-126.552148579473
 10
104.181060675453
 20
-126.552148579473
 10
103.1309823689094
 20
-126.552148579473
 10
103.1309823689094
 20
-126.552148579473
 10
103.1309823689094
 20
-126.552148579473
 10
102.880898208623
 20
-126.3020291350911
 10
102.880898208623
 20
-126.3020291350911
 10
102.880898208623
 20
-126.3020291350911
 10
101.5814060195535
 20
-126.3020291350911
 10
101.5814060195535
 20
-126.3020291350911
 10
101.5814060195535
 20
-126.3020291350911
 10
101.5814060195535
 20
-126.6768555238863
 10
101.5814060195535
 20
-126.6768555238863
 10
101.5814060195535
 20
-126.6768555238863
 10
102.4474754419027
 20
-127.1770944126503
 10
102.4474754419027
 20
-127.1770944126503
 10
102.4474754419027
 20
-127.1770944126503
 10
104.8315123255253
 20
-127.1770944126503
 10
104.8315123255253
 20
-127.1770944126503
 10
104.8315123255253
 20
-127.1770944126503
 10
104.8315123255253
 20
-123.1769824692057
 10
104.8315123255253
 20
-123.1769824692057
 10
104.8315123255253
 20
-123.1769824692057
 10
88.7310194222616
 20
-123.1769824692057
 10
88.7310194222616
 20
-123.1769824692057
 10
87.95793997822823
 20
-123.1769824692057
 10
87.3309127720028
 20
-123.8036569134937
 10
87.3309127720028
 20
-124.5770516355225
 97
        0
 97
        0
 75
     2
 76
     1
 98
        0
  0
INSERT
  5
44
330
1F
100
AcDbEntity
  8
_U+30EC_U+30A4_U+30E4_U+30FC 1
100
AcDbBlockReference
  2
block 2
 10
0.0
 20
0.0
 30
0.0
  0
ENDSEC
  0
SECTION
  2
OBJECTS
  0
DICTIONARY
  5
C
330
0
100
AcDbDictionary
281
     1
  3
ACAD_GROUP
350
D
  3
ACAD_LAYOUT
350
1A
  3
ACAD_MATERIAL
350
3B
  3
ACAD_MLEADERSTYLE
350
16E
  3
ACAD_MLINESTYLE
350
17
  3
ACAD_PLOTSETTINGS
350
19
  3
ACAD_PLOTSTYLENAME
350
E
  3
ACAD_TABLESTYLE
350
16D
  3
ACAD_VISUALSTYLE
350
2A
  0
SUN
  5
3F
330
29
100
AcDbSun
 90
        1
290
     0
 63
     7
421
 16777215
 40
1.0
291
     1
 91
  2455826
 92
 54000000
292
     0
 70
     2
 71
   256
280
     1
  0
DICTIONARY
  5
D
102
{ACAD_REACTORS
330
C
102
}
330
C
100
AcDbDictionary
281
     1
  0
DICTIONARY
  5
1A
102
{ACAD_REACTORS
330
C
102
}
330
C
100
AcDbDictionary
281
     1
  3
Layout1
350
1E
  3
Layout2
350
26
  3
Model
350
22
  0
DICTIONARY
  5
3B
102
{ACAD_REACTORS
330
C
102
}
330
C
100
AcDbDictionary
281
     1
  3
ByBlock
350
3D
  3
ByLayer
350
3C
  3
Global
350
3E
  0
DICTIONARY
  5
16E
102
{ACAD_REACTORS
330
C
102
}
330
C
100
AcDbDictionary
281
     1
  0
DICTIONARY
  5
17
102
{ACAD_REACTORS
330
C
102
}
330
C
100
AcDbDictionary
281
     1
  3
Standard
350
18
  0
DICTIONARY
  5
19
102
{ACAD_REACTORS
330
C
102
}
330
C
100
AcDbDictionary
281
     1
  0
ACDBDICTIONARYWDFLT
  5
E
102
{ACAD_REACTORS
330
C
102
}
330
C
100
AcDbDictionary
281
     1
  3
Normal
350
F
100
AcDbDictionaryWithDefault
340
F
  0
DICTIONARY
  5
16D
102
{ACAD_REACTORS
330
C
102
}
330
C
100
AcDbDictionary
281
     1
  0
DICTIONARY
  5
2A
102
{ACAD_REACTORS
330
C
102
}
330
C
100
AcDbDictionary
281
     1
  3
2dWireframe
350
2F
  3
3D Hidden
350
31
  3
3dWireframe
350
30
  3
Basic
350
32
  3
Brighten
350
36
  3
ColorChange
350
3A
  3
Conceptual
350
34
  3
Dim
350
35
  3
Facepattern
350
39
  3
Flat
350
2B
  3
FlatWithEdges
350
2C
  3
Gouraud
350
2D
  3
GouraudWithEdges
350
2E
  3
Linepattern
350
38
  3
Realistic
350
33
  3
Thicken
350
37
  0
LAYOUT
  5
1E
102
{ACAD_REACTORS
330
1A
102
}
330
1A
100
AcDbPlotSettings
  1

  2
none_device
  4

  6

 40
0.0
 41
0.0
 42
0.0
 43
0.0
 44
0.0
 45
0.0
 46
0.0
 47
0.0
 48
0.0
 49
0.0
140
0.0
141
0.0
142
1.0
143
1.0
 70
   688
 72
     0
 73
     0
 74
     5
  7

 75
    16
 76
     0
 77
     2
 78
   300
147
1.0
148
0.0
149
0.0
100
AcDbLayout
  1
Layout1
 70
     1
 71
     1
 10
0.0
 20
0.0
 11
12.0
 21
9.0
 12
0.0
 22
0.0
 32
0.0
 14
1.000000000000000E+20
 24
1.000000000000000E+20
 34
1.000000000000000E+20
 15
-1.000000000000000E+20
 25
-1.000000000000000E+20
 35
-1.000000000000000E+20
146
0.0
 13
0.0
 23
0.0
 33
0.0
 16
1.0
 26
0.0
 36
0.0
 17
0.0
 27
1.0
 37
0.0
 76
     0
330
1B
  0
LAYOUT
  5
26
102
{ACAD_REACTORS
330
1A
102
}
330
1A
100
AcDbPlotSettings
  1

  2
none_device
  4

  6

 40
0.0
 41
0.0
 42
0.0
 43
0.0
 44
0.0
 45
0.0
 46
0.0
 47
0.0
 48
0.0
 49
0.0
140
0.0
141
0.0
142
1.0
143
1.0
 70
   688
 72
     0
 73
     0
 74
     5
  7

 75
    16
 76
     0
 77
     2
 78
   300
147
1.0
148
0.0
149
0.0
100
AcDbLayout
  1
Layout2
 70
     1
 71
     2
 10
0.0
 20
0.0
 11
0.0
 21
0.0
 12
0.0
 22
0.0
 32
0.0
 14
0.0
 24
0.0
 34
0.0
 15
0.0
 25
0.0
 35
0.0
146
0.0
 13
0.0
 23
0.0
 33
0.0
 16
1.0
 26
0.0
 36
0.0
 17
0.0
 27
1.0
 37
0.0
 76
     0
330
23
  0
LAYOUT
  5
22
102
{ACAD_REACTORS
330
1A
102
}
330
1A
100
AcDbPlotSettings
  1

  2
none_device
  4

  6

 40
0.0
 41
0.0
 42
0.0
 43
0.0
 44
0.0
 45
0.0
 46
0.0
 47
0.0
 48
0.0
 49
0.0
140
0.0
141
0.0
142
1.0
143
1.0
 70
  1712
 72
     0
 73
     0
 74
     0
  7

 75
     0
 76
     0
 77
     2
 78
   300
147
1.0
148
0.0
149
0.0
100
AcDbLayout
  1
Model
 70
     1
 71
     0
 10
0.0
 20
0.0
 11
12.0
 21
9.0
 12
0.0
 22
0.0
 32
0.0
 14
1.000000000000000E+20
 24
1.000000000000000E+20
 34
1.000000000000000E+20
 15
-1.000000000000000E+20
 25
-1.000000000000000E+20
 35
-1.000000000000000E+20
146
0.0
 13
0.0
 23
0.0
 33
0.0
 16
1.0
 26
0.0
 36
0.0
 17
0.0
 27
1.0
 37
0.0
 76
     0
330
1F
331
29
  0
MATERIAL
  5
3D
102
{ACAD_REACTORS
330
3B
102
}
330
3B
100
AcDbMaterial
  1
ByBlock
 72
     1
 94
      127
  0
MATERIAL
  5
3C
102
{ACAD_REACTORS
330
3B
102
}
330
3B
100
AcDbMaterial
  1
ByLayer
 72
     1
 94
      127
  0
MATERIAL
  5
3E
102
{ACAD_REACTORS
330
3B
102
}
330
3B
100
AcDbMaterial
  1
Global
 72
     1
 94
      127
  0
MLINESTYLE
  5
18
102
{ACAD_REACTORS
330
17
102
}
330
17
100
AcDbMlineStyle
  2
Standard
 70
     0
  3

 62
   256
 51
90.0
 52
90.0
 71
     2
 49
0.5
 62
   256
  6
BYLAYER
 49
-0.5
 62
   256
  6
BYLAYER
  0
ACDBPLACEHOLDER
  5
F
102
{ACAD_REACTORS
330
E
102
}
330
E
  0
VISUALSTYLE
  5
2F
102
{ACAD_REACTORS
330
2A
102
}
330
2A
100
AcDbVisualStyle
  2
2dWireframe
 70
     4
177
     2
291
     0
 71
     0
176
     1
 72
     2
176
     1
 73
     0
176
     1
 90
        0
176
     1
 40
-0.6
176
     1
 41
-30.0
176
     1
 62
     5
 63
     7
421
 16777215
176
     1
 74
     1
176
     1
 91
        4
176
     1
 64
     7
176
     1
 65
   257
176
     1
 75
     1
176
     1
175
     1
176
     1
 42
1.0
176
     1
 92
        0
176
     1
 66
   257
176
     1
 43
1.0
176
     1
 76
     1
176
     1
 77
     6
176
     1
 78
     2
176
     1
 67
     7
176
     1
 79
     5
176
     1
170
     0
176
     1
171
     0
176
     1
290
     0
176
     1
 93
        1
176
     1
 44
0.0
176
     1
173
     0
176
     1
  0
VISUALSTYLE
  5
31
102
{ACAD_REACTORS
330
2A
102
}
330
2A
100
AcDbVisualStyle
  2
3D Hidden
 70
     6
177
     2
291
     0
 71
     1
176
     1
 72
     2
176
     1
 73
     2
176
     1
 90
        0
176
     1
 40
-0.6
176
     1
 41
-30.0
176
     1
 62
     5
 63
     7
421
 16777215
176
     1
 74
     2
176
     1
 91
        2
176
     1
 64
     7
176
     1
 65
   257
176
     1
 75
     2
176
     1
175
     1
176
     1
 42
40.0
176
     1
 92
        0
176
     1
 66
   257
176
     1
 43
1.0
176
     1
 76
     1
176
     1
 77
     6
176
     1
 78
     2
176
     1
 67
     7
176
     1
 79
     3
176
     1
170
     0
176
     1
171
     0
176
     1
290
     0
176
     1
 93
        1
176
     1
 44
0.0
176
     1
173
     0
176
     1
  0
VISUALSTYLE
  5
30
102
{ACAD_REACTORS
330
2A
102
}
330
2A
100
AcDbVisualStyle
  2
3dWireframe
 70
     5
177
     2
291
     0
 71
     0
176
     1
 72
     2
176
     1
 73
     0
176
     1
 90
        0
176
     1
 40
-0.6
176
     1
 41
-30.0
176
     1
 62
     5
 63
     7
421
 16777215
176
     1
 74
     1
176
     1
 91
        4
176
     1
 64
     7
176
     1
 65
   257
176
     1
 75
     1
176
     1
175
     1
176
     1
 42
1.0
176
     1
 92
        0
176
     1
 66
   257
176
     1
 43
1.0
176
     1
 76
     1
176
     1
 77
     6
176
     1
 78
     2
176
     1
 67
     7
176
     1
 79
     5
176
     1
170
     0
176
     1
171
     0
176
     1
290
     0
176
     1
 93
        1
176
     1
 44
0.0
176
     1
173
     0
176
     1
  0
VISUALSTYLE
  5
32
102
{ACAD_REACTORS
330
2A
102
}
330
2A
100
AcDbVisualStyle
  2
Basic
 70
     7
177
     2
291
     1
 71
     1
176
     1
 72
     0
176
     1
 73
     1
176
     1
 90
        0
176
     1
 40
-0.6
176
     1
 41
-30.0
176
     1
 62
     5
 63
     7
421
 16777215
176
     1
 74
     0
176
     1
 91
        4
176
     1
 64
     7
176
     1
 65
   257
176
     1
 75
     1
176
     1
175
     1
176
     1
 42
1.0
176
     1
 92
        8
176
     1
 66
     7
176
     1
 43
1.0
176
     1
 76
     1
176
     1
 77
     6
176
     1
 78
     2
176
     1
 67
     7
176
     1
 79
     5
176
     1
170
     0
176
     1
171
     0
176
     1
290
     0
176
     1
 93
        1
176
     1
 44
0.0
176
     1
173
     0
176
     1
  0
VISUALSTYLE
  5
36
102
{ACAD_REACTORS
330
2A
102
}
330
2A
100
AcDbVisualStyle
  2
Brighten
 70
    12
177
     2
291
     1
 71
     2
176
     1
 72
     2
176
     1
 73
     0
176
     1
 90
        0
176
     1
 40
-0.6
176
     1
 41
-30.0
176
     1
 62
     5
 63
     7
421
 16777215
176
     1
 74
     1
176
     1
 91
        4
176
     1
 64
     7
176
     1
 65
   257
176
     1
 75
     1
176
     1
175
     1
176
     1
 42
1.0
176
     1
 92
        8
176
     1
 66
     7
176
     1
 43
1.0
176
     1
 76
     1
176
     1
 77
     6
176
     1
 78
     2
176
     1
 67
     7
176
     1
 79
     5
176
     1
170
     0
176
     1
171
     0
176
     1
290
     0
176
     1
 93
        1
176
     1
 44
50.0
176
     1
173
     0
176
     1
  0
VISUALSTYLE
  5
3A
102
{ACAD_REACTORS
330
2A
102
}
330
2A
100
AcDbVisualStyle
  2
ColorChange
 70
    16
177
     2
291
     1
 71
     2
176
     1
 72
     2
176
     1
 73
     3
176
     1
 90
        0
176
     1
 40
-0.6
176
     1
 41
-30.0
176
     1
 62
     5
 63
     8
421
  8421504
176
     1
 74
     1
176
     1
 91
        4
176
     1
 64
     7
176
     1
 65
   257
176
     1
 75
     1
176
     1
175
     1
176
     1
 42
1.0
176
     1
 92
        8
176
     1
 66
     8
424
  8421504
176
     1
 43
1.0
176
     1
 76
     1
176
     1
 77
     6
176
     1
 78
     2
176
     1
 67
     7
176
     1
 79
     5
176
     1
170
     0
176
     1
171
     0
176
     1
290
     0
176
     1
 93
        1
176
     1
 44
0.0
176
     1
173
     0
176
     1
  0
VISUALSTYLE
  5
34
102
{ACAD_REACTORS
330
2A
102
}
330
2A
100
AcDbVisualStyle
  2
Conceptual
 70
     9
177
     2
291
     0
 71
     3
176
     1
 72
     2
176
     1
 73
     0
176
     1
 90
        0
176
     1
 40
-0.6
176
     1
 41
-30.0
176
     1
 62
     5
 63
     7
421
 16777215
176
     1
 74
     2
176
     1
 91
        2
176
     1
 64
     7
176
     1
 65
   257
176
     1
 75
     1
176
     1
175
     1
176
     1
 42
40.0
176
     1
 92
        8
176
     1
 66
     7
176
     1
 43
1.0
176
     1
 76
     1
176
     1
 77
     6
176
     1
 78
     2
176
     1
 67
     7
176
     1
 79
     3
176
     1
170
     0
176
     1
171
     0
176
     1
290
     0
176
     1
 93
        1
176
     1
 44
0.0
176
     1
173
     0
176
     1
  0
VISUALSTYLE
  5
35
102
{ACAD_REACTORS
330
2A
102
}
330
2A
100
AcDbVisualStyle
  2
Dim
 70
    11
177
     2
291
     1
 71
     2
176
     1
 72
     2
176
     1
 73
     0
176
     1
 90
        0
176
     1
 40
-0.6
176
     1
 41
-30.0
176
     1
 62
     5
 63
     7
421
 16777215
176
     1
 74
     1
176
     1
 91
        4
176
     1
 64
     7
176
     1
 65
   257
176
     1
 75
     1
176
     1
175
     1
176
     1
 42
1.0
176
     1
 92
        8
176
     1
 66
     7
176
     1
 43
1.0
176
     1
 76
     1
176
     1
 77
     6
176
     1
 78
     2
176
     1
 67
     7
176
     1
 79
     5
176
     1
170
     0
176
     1
171
     0
176
     1
290
     0
176
     1
 93
        1
176
     1
 44
-50.0
176
     1
173
     0
176
     1
  0
VISUALSTYLE
  5
39
102
{ACAD_REACTORS
330
2A
102
}
330
2A
100
AcDbVisualStyle
  2
Facepattern
 70
    15
177
     2
291
     1
 71
     2
176
     1
 72
     2
176
     1
 73
     0
176
     1
 90
        0
176
     1
 40
-0.6
176
     1
 41
-30.0
176
     1
 62
     5
 63
     7
421
 16777215
176
     1
 74
     1
176
     1
 91
        4
176
     1
 64
     7
176
     1
 65
   257
176
     1
 75
     1
176
     1
175
     1
176
     1
 42
1.0
176
     1
 92
        8
176
     1
 66
     7
176
     1
 43
1.0
176
     1
 76
     1
176
     1
 77
     6
176
     1
 78
     2
176
     1
 67
     7
176
     1
 79
     5
176
     1
170
     0
176
     1
171
     0
176
     1
290
     0
176
     1
 93
        1
176
     1
 44
0.0
176
     1
173
     0
176
     1
  0
VISUALSTYLE
  5
2B
102
{ACAD_REACTORS
330
2A
102
}
330
2A
100
AcDbVisualStyle
  2
Flat
 70
     0
177
     2
291
     1
 71
     2
176
     1
 72
     1
176
     1
 73
     1
176
     1
 90
        2
176
     1
 40
-0.6
176
     1
 41
30.0
176
     1
 62
     5
 63
     7
421
 16777215
176
     1
 74
     0
176
     1
 91
        4
176
     1
 64
     7
176
     1
 65
   257
176
     1
 75
     1
176
     1
175
     1
176
     1
 42
1.0
176
     1
 92
        8
176
     1
 66
     7
176
     1
 43
1.0
176
     1
 76
     1
176
     1
 77
     6
176
     1
 78
     2
176
     1
 67
     7
176
     1
 79
     5
176
     1
170
     0
176
     1
171
     0
176
     1
290
     0
176
     1
 93
       13
176
     1
 44
0.0
176
     1
173
     0
176
     1
  0
VISUALSTYLE
  5
2C
102
{ACAD_REACTORS
330
2A
102
}
330
2A
100
AcDbVisualStyle
  2
FlatWithEdges
 70
     1
177
     2
291
     1
 71
     2
176
     1
 72
     1
176
     1
 73
     1
176
     1
 90
        2
176
     1
 40
-0.6
176
     1
 41
30.0
176
     1
 62
     5
 63
     7
421
 16777215
176
     1
 74
     1
176
     1
 91
        4
176
     1
 64
     7
176
     1
 65
   257
176
     1
 75
     1
176
     1
175
     1
176
     1
 42
1.0
176
     1
 92
        0
176
     1
 66
   257
176
     1
 43
1.0
176
     1
 76
     1
176
     1
 77
     6
176
     1
 78
     2
176
     1
 67
     7
176
     1
 79
     5
176
     1
170
     0
176
     1
171
     0
176
     1
290
     0
176
     1
 93
       13
176
     1
 44
0.0
176
     1
173
     0
176
     1
  0
VISUALSTYLE
  5
2D
102
{ACAD_REACTORS
330
2A
102
}
330
2A
100
AcDbVisualStyle
  2
Gouraud
 70
     2
177
     2
291
     1
 71
     2
176
     1
 72
     2
176
     1
 73
     1
176
     1
 90
        2
176
     1
 40
-0.6
176
     1
 41
30.0
176
     1
 62
     5
 63
     7
421
 16777215
176
     1
 74
     0
176
     1
 91
        4
176
     1
 64
     7
176
     1
 65
   257
176
     1
 75
     1
176
     1
175
     1
176
     1
 42
1.0
176
     1
 92
        0
176
     1
 66
     7
176
     1
 43
1.0
176
     1
 76
     1
176
     1
 77
     6
176
     1
 78
     2
176
     1
 67
     7
176
     1
 79
     5
176
     1
170
     0
176
     1
171
     0
176
     1
290
     0
176
     1
 93
       13
176
     1
 44
0.0
176
     1
173
     0
176
     1
  0
VISUALSTYLE
  5
2E
102
{ACAD_REACTORS
330
2A
102
}
330
2A
100
AcDbVisualStyle
  2
GouraudWithEdges
 70
     3
177
     2
291
     1
 71
     2
176
     1
 72
     2
176
     1
 73
     1
176
     1
 90
        2
176
     1
 40
-0.6
176
     1
 41
30.0
176
     1
 62
     5
 63
     7
421
 16777215
176
     1
 74
     1
176
     1
 91
        4
176
     1
 64
     7
176
     1
 65
   257
176
     1
 75
     1
176
     1
175
     1
176
     1
 42
1.0
176
     1
 92
        0
176
     1
 66
   257
176
     1
 43
1.0
176
     1
 76
     1
176
     1
 77
     6
176
     1
 78
     2
176
     1
 67
     7
176
     1
 79
     5
176
     1
170
     0
176
     1
171
     0
176
     1
290
     0
176
     1
 93
       13
176
     1
 44
0.0
176
     1
173
     0
176
     1
  0
VISUALSTYLE
  5
38
102
{ACAD_REACTORS
330
2A
102
}
330
2A
100
AcDbVisualStyle
  2
Linepattern
 70
    14
177
     2
291
     1
 71
     2
176
     1
 72
     2
176
     1
 73
     0
176
     1
 90
        0
176
     1
 40
-0.6
176
     1
 41
-30.0
176
     1
 62
     5
 63
     7
421
 16777215
176
     1
 74
     1
176
     1
 91
        4
176
     1
 64
     7
176
     1
 65
   257
176
     1
 75
     7
176
     1
175
     7
176
     1
 42
1.0
176
     1
 92
        8
176
     1
 66
     7
176
     1
 43
1.0
176
     1
 76
     1
176
     1
 77
     6
176
     1
 78
     2
176
     1
 67
     7
176
     1
 79
     5
176
     1
170
     0
176
     1
171
     0
176
     1
290
     0
176
     1
 93
        1
176
     1
 44
0.0
176
     1
173
     0
176
     1
  0
VISUALSTYLE
  5
33
102
{ACAD_REACTORS
330
2A
102
}
330
2A
100
AcDbVisualStyle
  2
Realistic
 70
     8
177
     2
291
     0
 71
     2
176
     1
 72
     2
176
     1
 73
     0
176
     1
 90
        0
176
     1
 40
-0.6
176
     1
 41
-30.0
176
     1
 62
     5
 63
     7
421
 16777215
176
     1
 74
     1
176
     1
 91
        0
176
     1
 64
     7
176
     1
 65
   257
176
     1
 75
     1
176
     1
175
     1
176
     1
 42
1.0
176
     1
 92
        8
176
     1
 66
     8
424
  7895160
176
     1
 43
1.0
176
     1
 76
     1
176
     1
 77
     6
176
     1
 78
     2
176
     1
 67
     7
176
     1
 79
     5
176
     1
170
     0
176
     1
171
     0
176
     1
290
     0
176
     1
 93
       13
176
     1
 44
0.0
176
     1
173
     0
176
     1
  0
VISUALSTYLE
  5
37
102
{ACAD_REACTORS
330
2A
102
}
330
2A
100
AcDbVisualStyle
  2
Thicken
 70
    13
177
     2
291
     1
 71
     2
176
     1
 72
     2
176
     1
 73
     0
176
     1
 90
        0
176
     1
 40
-0.6
176
     1
 41
-30.0
176
     1
 62
     5
 63
     7
421
 16777215
176
     1
 74
     1
176
     1
 91
        4
176
     1
 64
     7
176
     1
 65
   257
176
     1
 75
     1
176
     1
175
     1
176
     1
 42
1.0
176
     1
 92
       12
176
     1
 66
     7
176
     1
 43
1.0
176
     1
 76
     1
176
     1
 77
     6
176
     1
 78
     2
176
     1
 67
     7
176
     1
 79
     5
176
     1
170
     0
176
     1
171
     0
176
     1
290
     0
176
     1
 93
        1
176
     1
 44
0.0
176
     1
173
     0
176
     1
  0
ENDSEC
  0
EOF
