  0
SECTION
  2
HEADER
  9
$ACADVER
  1
AC1024
  9
$ACADMAINTVER
 70
     6
  9
$DWGCODEPAGE
  3
UNDEFINED
  9
$INSBASE
 10
0.0
 20
0.0
 30
0.0
  9
$EXTMIN
 10
1.000000000000000E+20
 20
1.000000000000000E+20
 30
1.000000000000000E+20
  9
$EXTMAX
 10
-1.000000000000000E+20
 20
-1.000000000000000E+20
 30
-1.000000000000000E+20
  9
$LIMMIN
 10
0.0
 20
0.0
  9
$LIMMAX
 10
12.0
 20
9.0
  9
$ORTHOMODE
 70
     0
  9
$REGENMODE
 70
     1
  9
$FILLMODE
 70
     1
  9
$QTEXTMODE
 70
     0
  9
$MIRRTEXT
 70
     1
  9
$LTSCALE
 40
1.0
  9
$ATTMODE
 70
     1
  9
$TEXTSIZE
 40
0.2
  9
$TRACEWID
 40
0.05
  9
$TEXTSTYLE
  7
Standard
  9
$CLAYER
  8
0
  9
$CELTYPE
  6
ByLayer
  9
$CECOLOR
 62
   256
  9
$CELTSCALE
 40
1.0
  9
$DISPSILH
 70
     0
  9
$DIMSCALE
 40
1.0
  9
$DIMASZ
 40
0.18
  9
$DIMEXO
 40
0.0625
  9
$DIMDLI
 40
0.38
  9
$DIMRND
 40
0.0
  9
$DIMDLE
 40
0.0
  9
$DIMEXE
 40
0.18
  9
$DIMTP
 40
0.0
  9
$DIMTM
 40
0.0
  9
$DIMTXT
 40
0.18
  9
$DIMCEN
 40
0.09
  9
$DIMTSZ
 40
0.0
  9
$DIMTOL
 70
     0
  9
$DIMLIM
 70
     0
  9
$DIMTIH
 70
     1
  9
$DIMTOH
 70
     1
  9
$DIMSE1
 70
     0
  9
$DIMSE2
 70
     0
  9
$DIMTAD
 70
     0
  9
$DIMZIN
 70
     0
  9
$DIMBLK
  1

  9
$DIMASO
 70
     1
  9
$DIMSHO
 70
     1
  9
$DIMPOST
  1

  9
$DIMAPOST
  1

  9
$DIMALT
 70
     0
  9
$DIMALTD
 70
     2
  9
$DIMALTF
 40
25.4
  9
$DIMLFAC
 40
1.0
  9
$DIMTOFL
 70
     0
  9
$DIMTVP
 40
0.0
  9
$DIMTIX
 70
     0
  9
$DIMSOXD
 70
     0
  9
$DIMSAH
 70
     0
  9
$DIMBLK1
  1

  9
$DIMBLK2
  1

  9
$DIMSTYLE
  2
Standard
  9
$DIMCLRD
 70
     0
  9
$DIMCLRE
 70
     0
  9
$DIMCLRT
 70
     0
  9
$DIMTFAC
 40
1.0
  9
$DIMGAP
 40
0.09
  9
$DIMJUST
 70
     0
  9
$DIMSD1
 70
     0
  9
$DIMSD2
 70
     0
  9
$DIMTOLJ
 70
     1
  9
$DIMTZIN
 70
     0
  9
$DIMALTZ
 70
     0
  9
$DIMALTTZ
 70
     0
  9
$DIMUPT
 70
     0
  9
$DIMDEC
 70
     4
  9
$DIMTDEC
 70
     4
  9
$DIMALTU
 70
     2
  9
$DIMALTTD
 70
     2
  9
$DIMTXSTY
  7
Standard
  9
$DIMAUNIT
 70
     0
  9
$DIMADEC
 70
     0
  9
$DIMALTRND
 40
0.0
  9
$DIMAZIN
 70
     0
  9
$DIMDSEP
 70
    46
  9
$DIMATFIT
 70
     3
  9
$DIMFRAC
 70
     0
  9
$DIMLDRBLK
  1

  9
$DIMLUNIT
 70
     2
  9
$DIMLWD
 70
    -2
  9
$DIMLWE
 70
    -2
  9
$DIMTMOVE
 70
     0
  9
$DIMFXL
 40
1.0
  9
$DIMFXLON
 70
     0
  9
$DIMJOGANG
 40
0.7853981633974483
  9
$DIMTFILL
 70
     0
  9
$DIMTFILLCLR
 70
     0
  9
$DIMARCSYM
 70
     0
  9
$DIMLTYPE
  6

  9
$DIMLTEX1
  6

  9
$DIMLTEX2
  6

  9
$DIMTXTDIRECTION
 70
     0
  9
$LUNITS
 70
     2
  9
$LUPREC
 70
     4
  9
$SKETCHINC
 40
0.1
  9
$FILLETRAD
 40
0.5
  9
$AUNITS
 70
     0
  9
$AUPREC
 70
     0
  9
$MENU
  1
.
  9
$ELEVATION
 40
0.0
  9
$PELEVATION
 40
0.0
  9
$THICKNESS
 40
0.0
  9
$LIMCHECK
 70
     0
  9
$CHAMFERA
 40
0.5
  9
$CHAMFERB
 40
0.5
  9
$CHAMFERC
 40
1.0
  9
$CHAMFERD
 40
0.0
  9
$SKPOLY
 70
     0
  9
$TDCREATE
 40
2457917.592928229
  9
$TDUCREATE
 40
2457917.217928241
  9
$TDUPDATE
 40
2457917.592928229
  9
$TDUUPDATE
 40
2457917.217928241
  9
$TDINDWG
 40
0.0000000116
  9
$TDUSRTIMER
 40
0.0000000116
  9
$USRTIMER
 70
     1
  9
$ANGBASE
 50
0.0
  9
$ANGDIR
 70
     0
  9
$PDMODE
 70
     0
  9
$PDSIZE
 40
0.0
  9
$PLINEWID
 40
0.0
  9
$SPLFRAME
 70
     0
  9
$SPLINETYPE
 70
     6
  9
$SPLINESEGS
 70
     8
  9
$HANDSEED
  5
10F
  9
$SURFTAB1
 70
     6
  9
$SURFTAB2
 70
     6
  9
$SURFTYPE
 70
     6
  9
$SURFU
 70
     6
  9
$SURFV
 70
     6
  9
$UCSBASE
  2

  9
$UCSNAME
  2

  9
$UCSORG
 10
0.0
 20
0.0
 30
0.0
  9
$UCSXDIR
 10
1.0
 20
0.0
 30
0.0
  9
$UCSYDIR
 10
0.0
 20
1.0
 30
0.0
  9
$UCSORTHOREF
  2

  9
$UCSORTHOVIEW
 70
     0
  9
$UCSORGTOP
 10
0.0
 20
0.0
 30
0.0
  9
$UCSORGBOTTOM
 10
0.0
 20
0.0
 30
0.0
  9
$UCSORGLEFT
 10
0.0
 20
0.0
 30
0.0
  9
$UCSORGRIGHT
 10
0.0
 20
0.0
 30
0.0
  9
$UCSORGFRONT
 10
0.0
 20
0.0
 30
0.0
  9
$UCSORGBACK
 10
0.0
 20
0.0
 30
0.0
  9
$PUCSBASE
  2

  9
$PUCSNAME
  2

  9
$PUCSORG
 10
0.0
 20
0.0
 30
0.0
  9
$PUCSXDIR
 10
1.0
 20
0.0
 30
0.0
  9
$PUCSYDIR
 10
0.0
 20
1.0
 30
0.0
  9
$PUCSORTHOREF
  2

  9
$PUCSORTHOVIEW
 70
     0
  9
$PUCSORGTOP
 10
0.0
 20
0.0
 30
0.0
  9
$PUCSORGBOTTOM
 10
0.0
 20
0.0
 30
0.0
  9
$PUCSORGLEFT
 10
0.0
 20
0.0
 30
0.0
  9
$PUCSORGRIGHT
 10
0.0
 20
0.0
 30
0.0
  9
$PUCSORGFRONT
 10
0.0
 20
0.0
 30
0.0
  9
$PUCSORGBACK
 10
0.0
 20
0.0
 30
0.0
  9
$USERI1
 70
     0
  9
$USERI2
 70
     0
  9
$USERI3
 70
     0
  9
$USERI4
 70
     0
  9
$USERI5
 70
     0
  9
$USERR1
 40
0.0
  9
$USERR2
 40
0.0
  9
$USERR3
 40
0.0
  9
$USERR4
 40
0.0
  9
$USERR5
 40
0.0
  9
$WORLDVIEW
 70
     1
  9
$SHADEDGE
 70
     3
  9
$SHADEDIF
 70
    70
  9
$TILEMODE
 70
     1
  9
$MAXACTVP
 70
    64
  9
$PINSBASE
 10
0.0
 20
0.0
 30
0.0
  9
$PLIMCHECK
 70
     0
  9
$PEXTMIN
 10
1.000000000000000E+20
 20
1.000000000000000E+20
 30
1.000000000000000E+20
  9
$PEXTMAX
 10
-1.000000000000000E+20
 20
-1.000000000000000E+20
 30
-1.000000000000000E+20
  9
$PLIMMIN
 10
0.0
 20
0.0
  9
$PLIMMAX
 10
12.0
 20
9.0
  9
$UNITMODE
 70
     0
  9
$VISRETAIN
 70
     1
  9
$PLINEGEN
 70
     0
  9
$PSLTSCALE
 70
     1
  9
$TREEDEPTH
 70
  3020
  9
$CMLSTYLE
  2
Standard
  9
$CMLJUST
 70
     0
  9
$CMLSCALE
 40
1.0
  9
$PROXYGRAPHICS
 70
     1
  9
$MEASUREMENT
 70
     0
  9
$CELWEIGHT
370
    -1
  9
$ENDCAPS
280
     0
  9
$JOINSTYLE
280
     0
  9
$LWDISPLAY
290
     1
  9
$INSUNITS
 70
     1
  9
$HYPERLINKBASE
  1

  9
$STYLESHEET
  1

  9
$XEDIT
290
     1
  9
$CEPSNTYPE
380
     0
  9
$PSTYLEMODE
290
     1
  9
$FINGERPRINTGUID
  2
{B8EAE63C-C0C8-AC76-7B99-3C24BDAABF97}
  9
$VERSIONGUID
  2
{FAEB1C32-E019-11D5-929B-00C0DF256EC4}
  9
$EXTNAMES
290
     1
  9
$PSVPSCALE
 40
0.0
  9
$OLESTARTUP
290
     0
  9
$SORTENTS
280
   127
  9
$INDEXCTL
280
     0
  9
$HIDETEXT
280
     1
  9
$XCLIPFRAME
280
     2
  9
$HALOGAP
280
     0
  9
$OBSCOLOR
 70
   257
  9
$OBSLTYPE
280
     0
  9
$INTERSECTIONDISPLAY
280
     0
  9
$INTERSECTIONCOLOR
 70
   257
  9
$DIMASSOC
280
     2
  9
$PROJECTNAME
  1

  9
$CAMERADISPLAY
290
     0
  9
$LENSLENGTH
 40
50.0
  9
$CAMERAHEIGHT
 40
0.0
  9
$STEPSPERSEC
 40
2.0
  9
$STEPSIZE
 40
6.0
  9
$3DDWFPREC
 40
2.0
  9
$PSOLWIDTH
 40
0.25
  9
$PSOLHEIGHT
 40
4.0
  9
$LOFTANG1
 40
1.570796326794897
  9
$LOFTANG2
 40
1.570796326794897
  9
$LOFTMAG1
 40
0.0
  9
$LOFTMAG2
 40
0.0
  9
$LOFTPARAM
 70
     7
  9
$LOFTNORMALS
280
     1
  9
$LATITUDE
 40
37.795
  9
$LONGITUDE
 40
-122.394
  9
$NORTHDIRECTION
 40
0.0
  9
$TIMEZONE
 70
 -8000
  9
$LIGHTGLYPHDISPLAY
280
     1
  9
$TILEMODELIGHTSYNCH
280
     1
  9
$CMATERIAL
347
3C
  9
$SOLIDHIST
280
     1
  9
$SHOWHIST
280
     1
  9
$DWFFRAME
280
     2
  9
$DGNFRAME
280
     2
  9
$REALWORLDSCALE
290
     1
  9
$INTERFERECOLOR
 62
   256
  9
$CSHADOW
280
     0
  9
$SHADOWPLANELOCATION
 40
0.0
  0
ENDSEC
  0
SECTION
  2
CLASSES
  0
CLASS
  1
ACDBDICTIONARYWDFLT
  2
AcDbDictionaryWithDefault
  3
ObjectDBX Classes
 90
        0
 91
        4
280
     0
281
     0
  0
CLASS
  1
VISUALSTYLE
  2
AcDbVisualStyle
  3
ObjectDBX Classes
 90
     4095
 91
        4
280
     0
281
     0
  0
CLASS
  1
MATERIAL
  2
AcDbMaterial
  3
ObjectDBX Classes
 90
     1153
 91
        4
280
     0
281
     0
  0
CLASS
  1
SUN
  2
AcDbSun
  3
SCENEOE
 90
     1024
 91
        4
280
     0
281
     0
  0
ENDSEC
  0
SECTION
  2
TABLES
  0
TABLE
  2
VPORT
  5
8
330
0
100
AcDbSymbolTable
 70
     1
  0
VPORT
  5
29
330
8
100
AcDbSymbolTableRecord
100
AcDbViewportTableRecord
  2
*Active
 70
     0
 10
0.0
 20
0.0
 11
1.0
 21
1.0
 12
0.0
 22
0.0
 13
0.0
 23
0.0
 14
0.5
 24
0.5
 15
0.5
 25
0.5
 16
0.0
 26
0.0
 36
1.0
 17
91.00082462281999
 27
-128.4993055234307
 37
0.0
 40
256.9986110468615
 41
0.7081814508812795
 42
50.0
 43
0.0
 44
0.0
 50
0.0
 51
0.0
 71
     0
 72
   100
 73
     1
 74
     3
 75
     0
 76
     0
 77
     0
 78
     0
281
     0
 65
     1
110
0.0
120
0.0
130
0.0
111
1.0
121
0.0
131
0.0
112
0.0
122
1.0
132
0.0
 79
     0
146
0.0
 60
     3
 61
     5
292
     1
282
     1
141
0.0
142
0.0
 63
   250
361
3F
  0
ENDTAB
  0
TABLE
  2
LTYPE
  5
5
330
0
100
AcDbSymbolTable
 70
     1
  0
LTYPE
  5
14
330
5
100
AcDbSymbolTableRecord
100
AcDbLinetypeTableRecord
  2
ByBlock
 70
     0
  3

 72
    65
 73
     0
 40
0.0
  0
LTYPE
  5
15
330
5
100
AcDbSymbolTableRecord
100
AcDbLinetypeTableRecord
  2
ByLayer
 70
     0
  3

 72
    65
 73
     0
 40
0.0
  0
LTYPE
  5
16
330
5
100
AcDbSymbolTableRecord
100
AcDbLinetypeTableRecord
  2
Continuous
 70
     0
  3
Solid line
 72
    65
 73
     0
 40
0.0
  0
ENDTAB
  0
TABLE
  2
LAYER
  5
2
330
0
100
AcDbSymbolTable
 70
     2
  0
LAYER
  5
10
330
2
100
AcDbSymbolTableRecord
100
AcDbLayerTableRecord
  2
0
 70
     0
 62
     7
  6
Continuous
370
    -3
390
F
347
3E
  0
LAYER
  5
40
330
2
100
AcDbSymbolTableRecord
100
AcDbLayerTableRecord
  2
_U+30EC_U+30A4_U+30E4_U+30FC 1
 70
     0
 62
     7
  6
Continuous
370
    -3
390
F
347
3E
  0
ENDTAB
  0
TABLE
  2
STYLE
  5
3
330
0
100
AcDbSymbolTable
 70
     1
  0
STYLE
  5
11
330
3
100
AcDbSymbolTableRecord
100
AcDbTextStyleTableRecord
  2
Standard
 70
     0
 40
0.0
 41
1.0
 50
0.0
 71
     0
 42
0.2
  3
txt
  4

  0
ENDTAB
  0
TABLE
  2
VIEW
  5
6
330
0
100
AcDbSymbolTable
 70
     0
  0
ENDTAB
  0
TABLE
  2
UCS
  5
7
330
0
100
AcDbSymbolTable
 70
     0
  0
ENDTAB
  0
TABLE
  2
APPID
  5
9
330
0
100
AcDbSymbolTable
 70
     1
  0
APPID
  5
12
330
9
100
AcDbSymbolTableRecord
100
AcDbRegAppTableRecord
  2
ACAD
 70
     0
  0
ENDTAB
  0
TABLE
  2
DIMSTYLE
  5
A
330
0
100
AcDbSymbolTable
 70
     1
100
AcDbDimStyleTable
  0
DIMSTYLE
105
27
330
A
100
AcDbSymbolTableRecord
100
AcDbDimStyleTableRecord
  2
Standard
 70
     0
178
     0
340
11
  0
ENDTAB
  0
TABLE
  2
BLOCK_RECORD
  5
1
330
0
100
AcDbSymbolTable
 70
     7
  0
BLOCK_RECORD
  5
1F
330
1
100
AcDbSymbolTableRecord
100
AcDbBlockTableRecord
  2
*Model_Space
340
22
 70
     0
280
     1
281
     0
  0
BLOCK_RECORD
  5
1B
330
1
100
AcDbSymbolTableRecord
100
AcDbBlockTableRecord
  2
*Paper_Space
340
1E
 70
     0
280
     1
281
     0
  0
BLOCK_RECORD
  5
23
330
1
100
AcDbSymbolTableRecord
100
AcDbBlockTableRecord
  2
*Paper_Space0
340
26
 70
     0
280
     1
281
     0
  0
BLOCK_RECORD
  5
C2
330
1
100
AcDbSymbolTableRecord
100
AcDbBlockTableRecord
  2
block 2
340
0
102
{BLKREFS
331
C3
102
}
 70
     0
280
     1
281
     0
  0
BLOCK_RECORD
  5
C8
330
1
100
AcDbSymbolTableRecord
100
AcDbBlockTableRecord
  2
block 3
340
0
102
{BLKREFS
331
C9
102
}
 70
     0
280
     1
281
     0
  0
BLOCK_RECORD
  5
D1
330
1
100
AcDbSymbolTableRecord
100
AcDbBlockTableRecord
  2
block 4
340
0
102
{BLKREFS
331
D2
102
}
 70
     0
280
     1
281
     0
  0
BLOCK_RECORD
  5
ED
330
1
100
AcDbSymbolTableRecord
100
AcDbBlockTableRecord
  2
block 5
340
0
102
{BLKREFS
331
EE
102
}
 70
     0
280
     1
281
     0
  0
BLOCK_RECORD
  5
F3
330
1
100
AcDbSymbolTableRecord
100
AcDbBlockTableRecord
  2
block 6
340
0
102
{BLKREFS
331
F4
102
}
 70
     0
280
     1
281
     0
  0
BLOCK_RECORD
  5
105
330
1
100
AcDbSymbolTableRecord
100
AcDbBlockTableRecord
  2
block 7
340
0
102
{BLKREFS
331
106
102
}
 70
     0
280
     1
281
     0
  0
ENDTAB
  0
ENDSEC
  0
SECTION
  2
BLOCKS
  0
BLOCK
  5
20
330
1F
100
AcDbEntity
  8
0
100
AcDbBlockBegin
  2
*Model_Space
 70
     0
 10
0.0
 20
0.0
 30
0.0
  3
*Model_Space
  1

  0
ENDBLK
  5
21
330
1F
100
AcDbEntity
  8
0
100
AcDbBlockEnd
  0
BLOCK
  5
1C
330
1B
100
AcDbEntity
 67
     1
  8
0
100
AcDbBlockBegin
  2
*Paper_Space
 70
     0
 10
0.0
 20
0.0
 30
0.0
  3
*Paper_Space
  1

  0
ENDBLK
  5
1D
330
1B
100
AcDbEntity
 67
     1
  8
0
100
AcDbBlockEnd
  0
BLOCK
  5
24
330
23
100
AcDbEntity
  8
0
100
AcDbBlockBegin
  2
*Paper_Space0
 70
     0
 10
0.0
 20
0.0
 30
0.0
  3
*Paper_Space0
  1

  0
ENDBLK
  5
25
330
23
100
AcDbEntity
  8
0
100
AcDbBlockEnd
  0
BLOCK
  5
C4
330
C2
100
AcDbEntity
  8
0
100
AcDbBlockBegin
  2
block 2
 70
     0
 10
0.0
 20
0.0
 30
0.0
  3
block 2
  1

  0
SPLINE
  5
C6
330
C2
100
AcDbEntity
  8
_U+30EC_U+30A4_U+30E4_U+30FC 1
370
     0
100
AcDbSpline
210
0.0
220
0.0
230
1.0
 70
    11
 71
     3
 72
    62
 73
    58
 74
     0
 42
0.0000000001
 43
0.0000000001
 12
1.0
 22
0.0
 32
0.0
 13
1.0
 23
0.0
 33
0.0
 40
0.0
 40
0.0
 40
0.0
 40
0.0
 40
1.0
 40
1.0
 40
1.0
 40
2.0
 40
2.0
 40
2.0
 40
3.0
 40
3.0
 40
3.0
 40
4.0
 40
4.0
 40
4.0
 40
5.0
 40
5.0
 40
5.0
 40
6.0
 40
6.0
 40
6.0
 40
7.0
 40
7.0
 40
7.0
 40
8.0
 40
8.0
 40
8.0
 40
9.0
 40
9.0
 40
9.0
 40
10.0
 40
10.0
 40
10.0
 40
11.0
 40
11.0
 40
11.0
 40
12.0
 40
12.0
 40
12.0
 40
13.0
 40
13.0
 40
13.0
 40
14.0
 40
14.0
 40
14.0
 40
15.0
 40
15.0
 40
15.0
 40
16.0
 40
16.0
 40
16.0
 40
17.0
 40
17.0
 40
17.0
 40
18.0
 40
18.0
 40
18.0
 40
19.0
 40
19.0
 40
19.0
 40
19.0
 10
117.7829915070126
 20
-138.8287353168553
 30
0.0
 10
117.7829915070126
 20
-138.9241644617967
 30
0.0
 10
117.7619764245526
 20
-139.1418944964645
 30
0.0
 10
117.5759412683491
 20
-139.2669514625791
 30
0.0
 10
117.4636311555299
 20
-139.341021015512
 30
0.0
 10
117.3644124055547
 20
-139.3451551300943
 30
0.0
 10
117.2796630566176
 20
-139.3492892446766
 30
0.0
 10
117.2796630566176
 20
-139.3492892446766
 30
0.0
 10
117.2796630566176
 20
-139.1291476431691
 30
0.0
 10
117.2796630566176
 20
-139.1291476431691
 30
0.0
 10
117.3537326095505
 20
-139.127080585878
 30
0.0
 10
117.588343612096
 20
-139.1167452994222
 30
0.0
 10
117.588343612096
 20
-138.8332139409862
 30
0.0
 10
117.588343612096
 20
-138.6957546311247
 30
0.0
 10
117.5187526832939
 20
-138.5431369011281
 30
0.0
 10
117.2903428526219
 20
-138.5431369011281
 30
0.0
 10
117.1738986252204
 20
-138.5431369011281
 30
0.0
 10
117.1253227788784
 20
-138.5813774610144
 30
0.0
 10
117.0936279004141
 20
-138.6130723394787
 30
0.0
 10
117.0195583474812
 20
-138.6871418924115
 30
0.0
 10
117.0068114941858
 20
-138.803586119813
 30
0.0
 10
117.0068114941858
 20
-138.8583631380285
 30
0.0
 10
117.0068114941858
 20
-138.8776556727459
 30
0.0
 10
117.008878551477
 20
-138.9134846657925
 30
0.0
 10
117.0130126660593
 20
-138.9410454296745
 30
0.0
 10
117.0130126660593
 20
-138.9410454296745
 30
0.0
 10
116.8183647711426
 20
-138.9410454296745
 30
0.0
 10
116.8183647711426
 20
-138.9410454296745
 30
0.0
 10
116.8249104525646
 20
-138.9028048697882
 30
0.0
 10
116.8269775098558
 20
-138.8607747048681
 30
0.0
 10
116.8269775098558
 20
-138.8542290234462
 30
0.0
 10
116.8269775098558
 20
-138.7887722092264
 30
0.0
 10
116.8056179178472
 20
-138.5899901997275
 30
0.0
 10
116.5689398580106
 20
-138.5899901997275
 30
0.0
 10
116.3911729309717
 20
-138.5899901997275
 30
0.0
 10
116.3360514032077
 20
-138.720903828167
 30
0.0
 10
116.3360514032077
 20
-138.831146883695
 30
0.0
 10
116.3360514032077
 20
-139.0953857074137
 30
0.0
 10
116.5689398580106
 20
-139.1039984461268
 30
0.0
 10
116.6405978441037
 20
-139.1081325607091
 30
0.0
 10
116.6405978441037
 20
-139.1081325607091
 30
0.0
 10
116.6405978441037
 20
-139.3113931943388
 30
0.0
 10
116.6405978441037
 20
-139.3113931943388
 30
0.0
 10
116.5158853875377
 20
-139.3027804556257
 30
0.0
 10
116.1393364509999
 20
-139.2752196917437
 30
0.0
 10
116.1393364509999
 20
-138.8184000303996
 30
0.0
 10
116.1393364509999
 20
-138.5941243143098
 30
0.0
 10
116.2664604744056
 20
-138.3529676303423
 30
0.0
 10
116.5623941765886
 20
-138.3529676303423
 30
0.0
 10
116.7487738423406
 20
-138.3529676303423
 30
0.0
 10
116.8311116244381
 20
-138.4480522657352
 30
0.0
 10
116.8924343240755
 20
-138.5476155252589
 30
0.0
 10
116.9199950879575
 20
-138.4862928256215
 30
0.0
 10
117.0002658127638
 20
-138.3043917840003
 30
0.0
 10
117.2775959993264
 20
-138.3043917840003
 30
0.0
 10
117.615904375978
 20
-138.3043917840003
 30
0.0
 10
117.7829915070126
 20
-138.5517496398412
 30
0.0
 10
117.7829915070126
 20
-138.8287353168553
 30
0.0
  0
HATCH
  5
C7
330
C2
100
AcDbEntity
  8
_U+30EC_U+30A4_U+30E4_U+30FC 1
 62
   179
420
  2234388
100
AcDbHatch
 10
0.0
 20
0.0
 30
0.0
210
0.0
220
0.0
230
1.0
  2
SOLID
 70
     1
 71
     0
 91
        1
 92
        1
 93
        1
 72
     4
 94
        3
 73
     0
 74
     1
 95
       62
 96
       58
 40
0.0
 40
0.0
 40
0.0
 40
0.0
 40
1.0
 40
1.0
 40
1.0
 40
2.0
 40
2.0
 40
2.0
 40
3.0
 40
3.0
 40
3.0
 40
4.0
 40
4.0
 40
4.0
 40
5.0
 40
5.0
 40
5.0
 40
6.0
 40
6.0
 40
6.0
 40
7.0
 40
7.0
 40
7.0
 40
8.0
 40
8.0
 40
8.0
 40
9.0
 40
9.0
 40
9.0
 40
10.0
 40
10.0
 40
10.0
 40
11.0
 40
11.0
 40
11.0
 40
12.0
 40
12.0
 40
12.0
 40
13.0
 40
13.0
 40
13.0
 40
14.0
 40
14.0
 40
14.0
 40
15.0
 40
15.0
 40
15.0
 40
16.0
 40
16.0
 40
16.0
 40
17.0
 40
17.0
 40
17.0
 40
18.0
 40
18.0
 40
18.0
 40
19.0
 40
19.0
 40
19.0
 40
19.0
 10
117.7829915070126
 20
-138.8287353168553
 10
117.7829915070126
 20
-138.9241644617967
 10
117.7619764245526
 20
-139.1418944964645
 10
117.5759412683491
 20
-139.2669514625791
 10
117.4636311555299
 20
-139.341021015512
 10
117.3644124055547
 20
-139.3451551300943
 10
117.2796630566176
 20
-139.3492892446766
 10
117.2796630566176
 20
-139.3492892446766
 10
117.2796630566176
 20
-139.1291476431691
 10
117.2796630566176
 20
-139.1291476431691
 10
117.3537326095505
 20
-139.127080585878
 10
117.588343612096
 20
-139.1167452994222
 10
117.588343612096
 20
-138.8332139409862
 10
117.588343612096
 20
-138.6957546311247
 10
117.5187526832939
 20
-138.5431369011281
 10
117.2903428526219
 20
-138.5431369011281
 10
117.1738986252204
 20
-138.5431369011281
 10
117.1253227788784
 20
-138.5813774610144
 10
117.0936279004141
 20
-138.6130723394787
 10
117.0195583474812
 20
-138.6871418924115
 10
117.0068114941858
 20
-138.803586119813
 10
117.0068114941858
 20
-138.8583631380285
 10
117.0068114941858
 20
-138.8776556727459
 10
117.008878551477
 20
-138.9134846657925
 10
117.0130126660593
 20
-138.9410454296745
 10
117.0130126660593
 20
-138.9410454296745
 10
116.8183647711426
 20
-138.9410454296745
 10
116.8183647711426
 20
-138.9410454296745
 10
116.8249104525646
 20
-138.9028048697882
 10
116.8269775098558
 20
-138.8607747048681
 10
116.8269775098558
 20
-138.8542290234462
 10
116.8269775098558
 20
-138.7887722092264
 10
116.8056179178472
 20
-138.5899901997275
 10
116.5689398580106
 20
-138.5899901997275
 10
116.3911729309717
 20
-138.5899901997275
 10
116.3360514032077
 20
-138.720903828167
 10
116.3360514032077
 20
-138.831146883695
 10
116.3360514032077
 20
-139.0953857074137
 10
116.5689398580106
 20
-139.1039984461268
 10
116.6405978441037
 20
-139.1081325607091
 10
116.6405978441037
 20
-139.1081325607091
 10
116.6405978441037
 20
-139.3113931943388
 10
116.6405978441037
 20
-139.3113931943388
 10
116.5158853875377
 20
-139.3027804556257
 10
116.1393364509999
 20
-139.2752196917437
 10
116.1393364509999
 20
-138.8184000303996
 10
116.1393364509999
 20
-138.5941243143098
 10
116.2664604744056
 20
-138.3529676303423
 10
116.5623941765886
 20
-138.3529676303423
 10
116.7487738423406
 20
-138.3529676303423
 10
116.8311116244381
 20
-138.4480522657352
 10
116.8924343240755
 20
-138.5476155252589
 10
116.9199950879575
 20
-138.4862928256215
 10
117.0002658127638
 20
-138.3043917840003
 10
117.2775959993264
 20
-138.3043917840003
 10
117.615904375978
 20
-138.3043917840003
 10
117.7829915070126
 20
-138.5517496398412
 10
117.7829915070126
 20
-138.8287353168553
 97
        0
 97
        0
 75
     2
 76
     1
 98
        0
  0
ENDBLK
  5
C5
330
C2
100
AcDbEntity
  8
0
100
AcDbBlockEnd
  0
BLOCK
  5
CA
330
C8
100
AcDbEntity
  8
0
100
AcDbBlockBegin
  2
block 3
 70
     0
 10
0.0
 20
0.0
 30
0.0
  3
block 3
  1

  0
SPLINE
  5
CC
330
C8
100
AcDbEntity
  8
_U+30EC_U+30A4_U+30E4_U+30FC 1
370
     0
100
AcDbSpline
210
0.0
220
0.0
230
1.0
 70
    11
 71
     3
 72
    26
 73
    22
 74
     0
 42
0.0000000001
 43
0.0000000001
 12
1.0
 22
0.0
 32
0.0
 13
1.0
 23
0.0
 33
0.0
 40
0.0
 40
0.0
 40
0.0
 40
0.0
 40
1.0
 40
1.0
 40
1.0
 40
2.0
 40
2.0
 40
2.0
 40
3.0
 40
3.0
 40
3.0
 40
4.0
 40
4.0
 40
4.0
 40
5.0
 40
5.0
 40
5.0
 40
6.0
 40
6.0
 40
6.0
 40
7.0
 40
7.0
 40
7.0
 40
7.0
 10
75.54956595333483
 20
-146.6480685397269
 30
0.0
 10
75.54956595333483
 20
-146.6480685397269
 30
0.0
 10
75.54956595333483
 20
-145.5435709271558
 30
0.0
 10
75.54956595333483
 20
-145.5435709271558
 30
0.0
 10
75.54956595333483
 20
-145.5435709271558
 30
0.0
 10
75.2195258058479
 20
-145.5435709271558
 30
0.0
 10
75.2195258058479
 20
-145.5435709271558
 30
0.0
 10
75.2195258058479
 20
-145.5435709271558
 30
0.0
 10
75.2195258058479
 20
-145.3957763308386
 30
0.0
 10
75.2195258058479
 20
-145.3957763308386
 30
0.0
 10
75.55163301062598
 20
-145.380962420252
 30
0.0
 10
75.59814179967685
 20
-145.2180094037997
 30
0.0
 10
75.62776962085
 20
-145.1039767432379
 30
0.0
 10
75.62776962085
 20
-145.1039767432379
 30
0.0
 10
75.7738416694246
 20
-145.1039767432379
 30
0.0
 10
75.7738416694246
 20
-145.1039767432379
 30
0.0
 10
75.7738416694246
 20
-145.1039767432379
 30
0.0
 10
75.7738416694246
 20
-146.6480685397269
 30
0.0
 10
75.7738416694246
 20
-146.6480685397269
 30
0.0
 10
75.7738416694246
 20
-146.6480685397269
 30
0.0
 10
75.54956595333483
 20
-146.6480685397269
 30
0.0
 10
75.54956595333483
 20
-146.6480685397269
 30
0.0
  0
HATCH
  5
CD
330
C8
100
AcDbEntity
  8
_U+30EC_U+30A4_U+30E4_U+30FC 1
 62
   179
420
  2234388
100
AcDbHatch
 10
0.0
 20
0.0
 30
0.0
210
0.0
220
0.0
230
1.0
  2
SOLID
 70
     1
 71
     0
 91
        1
 92
        1
 93
        1
 72
     4
 94
        3
 73
     0
 74
     1
 95
       26
 96
       22
 40
0.0
 40
0.0
 40
0.0
 40
0.0
 40
1.0
 40
1.0
 40
1.0
 40
2.0
 40
2.0
 40
2.0
 40
3.0
 40
3.0
 40
3.0
 40
4.0
 40
4.0
 40
4.0
 40
5.0
 40
5.0
 40
5.0
 40
6.0
 40
6.0
 40
6.0
 40
7.0
 40
7.0
 40
7.0
 40
7.0
 10
75.54956595333483
 20
-146.6480685397269
 10
75.54956595333483
 20
-146.6480685397269
 10
75.54956595333483
 20
-145.5435709271558
 10
75.54956595333483
 20
-145.5435709271558
 10
75.54956595333483
 20
-145.5435709271558
 10
75.2195258058479
 20
-145.5435709271558
 10
75.2195258058479
 20
-145.5435709271558
 10
75.2195258058479
 20
-145.5435709271558
 10
75.2195258058479
 20
-145.3957763308386
 10
75.2195258058479
 20
-145.3957763308386
 10
75.55163301062598
 20
-145.380962420252
 10
75.59814179967685
 20
-145.2180094037997
 10
75.62776962085
 20
-145.1039767432379
 10
75.62776962085
 20
-145.1039767432379
 10
75.7738416694246
 20
-145.1039767432379
 10
75.7738416694246
 20
-145.1039767432379
 10
75.7738416694246
 20
-145.1039767432379
 10
75.7738416694246
 20
-146.6480685397269
 10
75.7738416694246
 20
-146.6480685397269
 10
75.7738416694246
 20
-146.6480685397269
 10
75.54956595333483
 20
-146.6480685397269
 10
75.54956595333483
 20
-146.6480685397269
 97
        0
 97
        0
 75
     2
 76
     1
 98
        0
  0
SPLINE
  5
CE
330
C8
100
AcDbEntity
  8
_U+30EC_U+30A4_U+30E4_U+30FC 1
370
     0
100
AcDbSpline
210
0.0
220
0.0
230
1.0
 70
    11
 71
     3
 72
    29
 73
    25
 74
     0
 42
0.0000000001
 43
0.0000000001
 12
1.0
 22
0.0
 32
0.0
 13
1.0
 23
0.0
 33
0.0
 40
0.0
 40
0.0
 40
0.0
 40
0.0
 40
1.0
 40
1.0
 40
1.0
 40
2.0
 40
2.0
 40
2.0
 40
3.0
 40
3.0
 40
3.0
 40
4.0
 40
4.0
 40
4.0
 40
5.0
 40
5.0
 40
5.0
 40
6.0
 40
6.0
 40
6.0
 40
7.0
 40
7.0
 40
7.0
 40
8.0
 40
8.0
 40
8.0
 40
8.0
 10
77.17289494598455
 20
-146.470301612688
 30
0.0
 10
77.0647189477477
 20
-146.6797634181912
 30
0.0
 10
76.89143064483964
 20
-146.6990559529086
 30
0.0
 10
76.7749864174382
 20
-146.6990559529086
 30
0.0
 10
76.61410045827704
 20
-146.6990559529086
 30
0.0
 10
76.47250703383327
 20
-146.6522026543092
 30
0.0
 10
76.37742239844037
 20
-146.470301612688
 30
0.0
 10
76.27372502433435
 20
-146.2756537177714
 30
0.0
 10
76.25443248961695
 20
-146.0389756579347
 30
0.0
 10
76.25443248961695
 20
-145.8756781319339
 30
0.0
 10
76.25443248961695
 20
-145.7320176501989
 30
0.0
 10
76.2716579670432
 20
-145.4801811702272
 30
0.0
 10
76.37742239844037
 20
-145.2813991607283
 30
0.0
 10
76.48525388712869
 20
-145.078483036647
 30
0.0
 10
76.64613984628986
 20
-145.0550563873473
 30
0.0
 10
76.7749864174382
 20
-145.0550563873473
 30
0.0
 10
76.93380531930822
 20
-145.0550563873473
 30
0.0
 10
77.07746580104313
 20
-145.0994981191071
 30
0.0
 10
77.17289494598455
 20
-145.2813991607283
 30
0.0
 10
77.27211369595975
 20
-145.4739799983537
 30
0.0
 10
77.29554034525945
 20
-145.7023898290258
 30
0.0
 10
77.29554034525945
 20
-145.8756781319339
 30
0.0
 10
77.29554034525945
 20
-146.0472438870993
 30
0.0
 10
77.2741807532509
 20
-146.278065284611
 30
0.0
 10
77.17289494598455
 20
-146.470301612688
 30
0.0
  0
SPLINE
  5
CF
330
C8
100
AcDbEntity
  8
_U+30EC_U+30A4_U+30E4_U+30FC 1
370
     0
100
AcDbSpline
210
0.0
220
0.0
230
1.0
 70
    11
 71
     3
 72
    17
 73
    13
 74
     0
 42
0.0000000001
 43
0.0000000001
 12
1.0
 22
0.0
 32
0.0
 13
1.0
 23
0.0
 33
0.0
 40
0.0
 40
0.0
 40
0.0
 40
0.0
 40
1.0
 40
1.0
 40
1.0
 40
2.0
 40
2.0
 40
2.0
 40
3.0
 40
3.0
 40
3.0
 40
4.0
 40
4.0
 40
4.0
 40
4.0
 10
76.7749864174382
 20
-145.2476372249728
 30
0.0
 10
76.52521699475759
 20
-145.2476372249728
 30
0.0
 10
76.47870820570671
 20
-145.5311685834089
 30
0.0
 10
76.47870820570671
 20
-145.8756781319339
 30
0.0
 10
76.47870820570671
 20
-146.1953829929651
 30
0.0
 10
76.51488170830184
 20
-146.5040635484434
 30
0.0
 10
76.7749864174382
 20
-146.5040635484434
 30
0.0
 10
77.02268878282767
 20
-146.5040635484434
 30
0.0
 10
77.07126462916969
 20
-146.2229437568471
 30
0.0
 10
77.07126462916969
 20
-145.8756781319339
 30
0.0
 10
77.07126462916969
 20
-145.5566622899997
 30
0.0
 10
77.03302406928341
 20
-145.2476372249728
 30
0.0
 10
76.7749864174382
 20
-145.2476372249728
 30
0.0
  0
HATCH
  5
D0
330
C8
100
AcDbEntity
  8
_U+30EC_U+30A4_U+30E4_U+30FC 1
 62
   179
420
  2234388
100
AcDbHatch
 10
0.0
 20
0.0
 30
0.0
210
0.0
220
0.0
230
1.0
  2
SOLID
 70
     1
 71
     0
 91
        2
 92
        1
 93
        1
 72
     4
 94
        3
 73
     0
 74
     1
 95
       29
 96
       25
 40
0.0
 40
0.0
 40
0.0
 40
0.0
 40
1.0
 40
1.0
 40
1.0
 40
2.0
 40
2.0
 40
2.0
 40
3.0
 40
3.0
 40
3.0
 40
4.0
 40
4.0
 40
4.0
 40
5.0
 40
5.0
 40
5.0
 40
6.0
 40
6.0
 40
6.0
 40
7.0
 40
7.0
 40
7.0
 40
8.0
 40
8.0
 40
8.0
 40
8.0
 10
77.17289494598455
 20
-146.470301612688
 10
77.0647189477477
 20
-146.6797634181912
 10
76.89143064483964
 20
-146.6990559529086
 10
76.7749864174382
 20
-146.6990559529086
 10
76.61410045827704
 20
-146.6990559529086
 10
76.47250703383327
 20
-146.6522026543092
 10
76.37742239844037
 20
-146.470301612688
 10
76.27372502433435
 20
-146.2756537177714
 10
76.25443248961695
 20
-146.0389756579347
 10
76.25443248961695
 20
-145.8756781319339
 10
76.25443248961695
 20
-145.7320176501989
 10
76.2716579670432
 20
-145.4801811702272
 10
76.37742239844037
 20
-145.2813991607283
 10
76.48525388712869
 20
-145.078483036647
 10
76.64613984628986
 20
-145.0550563873473
 10
76.7749864174382
 20
-145.0550563873473
 10
76.93380531930822
 20
-145.0550563873473
 10
77.07746580104313
 20
-145.0994981191071
 10
77.17289494598455
 20
-145.2813991607283
 10
77.27211369595975
 20
-145.4739799983537
 10
77.29554034525945
 20
-145.7023898290258
 10
77.29554034525945
 20
-145.8756781319339
 10
77.29554034525945
 20
-146.0472438870993
 10
77.2741807532509
 20
-146.278065284611
 10
77.17289494598455
 20
-146.470301612688
 97
        0
 97
        0
 92
        1
 93
        1
 72
     4
 94
        3
 73
     0
 74
     1
 95
       17
 96
       13
 40
0.0
 40
0.0
 40
0.0
 40
0.0
 40
1.0
 40
1.0
 40
1.0
 40
2.0
 40
2.0
 40
2.0
 40
3.0
 40
3.0
 40
3.0
 40
4.0
 40
4.0
 40
4.0
 40
4.0
 10
76.7749864174382
 20
-145.2476372249728
 10
76.52521699475759
 20
-145.2476372249728
 10
76.47870820570671
 20
-145.5311685834089
 10
76.47870820570671
 20
-145.8756781319339
 10
76.47870820570671
 20
-146.1953829929651
 10
76.51488170830184
 20
-146.5040635484434
 10
76.7749864174382
 20
-146.5040635484434
 10
77.02268878282767
 20
-146.5040635484434
 10
77.07126462916969
 20
-146.2229437568471
 10
77.07126462916969
 20
-145.8756781319339
 10
77.07126462916969
 20
-145.5566622899997
 10
77.03302406928341
 20
-145.2476372249728
 10
76.7749864174382
 20
-145.2476372249728
 97
        0
 97
        0
 75
     2
 76
     1
 98
        0
  0
ENDBLK
  5
CB
330
C8
100
AcDbEntity
  8
0
100
AcDbBlockEnd
  0
BLOCK
  5
D3
330
D1
100
AcDbEntity
  8
0
100
AcDbBlockBegin
  2
block 4
 70
     0
 10
0.0
 20
0.0
 30
0.0
  3
block 4
  1

  0
POLYLINE
  5
D5
330
D1
100
AcDbEntity
  8
_U+30EC_U+30A4_U+30E4_U+30FC 1
370
     0
100
AcDb2dPolyline
 66
     1
 10
0.0
 20
0.0
 30
0.0
  0
VERTEX
  5
D6
330
D5
100
AcDbEntity
  8
_U+30EC_U+30A4_U+30E4_U+30FC 1
370
     0
100
AcDbVertex
100
AcDb2dVertex
 10
90.92916121858715
 20
-114.0336940904152
 30
0.0
  0
VERTEX
  5
D7
330
D5
100
AcDbEntity
  8
_U+30EC_U+30A4_U+30E4_U+30FC 1
370
     0
100
AcDbVertex
100
AcDb2dVertex
 10
90.92916121858715
 20
-114.3806152057798
 30
0.0
  0
VERTEX
  5
D8
330
D5
100
AcDbEntity
  8
_U+30EC_U+30A4_U+30E4_U+30FC 1
370
     0
100
AcDbVertex
100
AcDb2dVertex
 10
90.71143118391937
 20
-114.3806152057798
 30
0.0
  0
VERTEX
  5
D9
330
D5
100
AcDbEntity
  8
_U+30EC_U+30A4_U+30E4_U+30FC 1
370
     0
100
AcDbVertex
100
AcDb2dVertex
 10
90.71143118391937
 20
-114.0336940904152
 30
0.0
  0
VERTEX
  5
DA
330
D5
100
AcDbEntity
  8
_U+30EC_U+30A4_U+30E4_U+30FC 1
370
     0
100
AcDbVertex
100
AcDb2dVertex
 10
90.0554850035278
 20
-114.0336940904152
 30
0.0
  0
VERTEX
  5
DB
330
D5
100
AcDbEntity
  8
_U+30EC_U+30A4_U+30E4_U+30FC 1
370
     0
100
AcDbVertex
100
AcDb2dVertex
 10
90.0554850035278
 20
-113.8094183743254
 30
0.0
  0
VERTEX
  5
DC
330
D5
100
AcDbEntity
  8
_U+30EC_U+30A4_U+30E4_U+30FC 1
370
     0
100
AcDbVertex
100
AcDb2dVertex
 10
90.73451332367054
 20
-112.8361788997424
 30
0.0
  0
VERTEX
  5
DD
330
D5
100
AcDbEntity
  8
_U+30EC_U+30A4_U+30E4_U+30FC 1
370
     0
100
AcDbVertex
100
AcDb2dVertex
 10
90.92916121858715
 20
-112.8361788997424
 30
0.0
  0
VERTEX
  5
DE
330
D5
100
AcDbEntity
  8
_U+30EC_U+30A4_U+30E4_U+30FC 1
370
     0
100
AcDbVertex
100
AcDb2dVertex
 10
90.92916121858715
 20
-113.8349120809163
 30
0.0
  0
VERTEX
  5
DF
330
D5
100
AcDbEntity
  8
_U+30EC_U+30A4_U+30E4_U+30FC 1
370
     0
100
AcDbVertex
100
AcDb2dVertex
 10
91.1365559667992
 20
-113.8349120809163
 30
0.0
  0
VERTEX
  5
E0
330
D5
100
AcDbEntity
  8
_U+30EC_U+30A4_U+30E4_U+30FC 1
370
     0
100
AcDbVertex
100
AcDb2dVertex
 10
91.1365559667992
 20
-114.0336940904152
 30
0.0
  0
VERTEX
  5
E1
330
D5
100
AcDbEntity
  8
_U+30EC_U+30A4_U+30E4_U+30FC 1
370
     0
100
AcDbVertex
100
AcDb2dVertex
 10
90.92916121858715
 20
-114.0336940904152
 30
0.0
  0
SEQEND
  5
E2
330
D5
100
AcDbEntity
  8
_U+30EC_U+30A4_U+30E4_U+30FC 1
370
     0
  0
POLYLINE
  5
E3
330
D1
100
AcDbEntity
  8
_U+30EC_U+30A4_U+30E4_U+30FC 1
370
     0
100
AcDb2dPolyline
 66
     1
 10
0.0
 20
0.0
 30
0.0
  0
VERTEX
  5
E4
330
E3
100
AcDbEntity
  8
_U+30EC_U+30A4_U+30E4_U+30FC 1
370
     0
100
AcDbVertex
100
AcDb2dVertex
 10
90.71143118391937
 20
-113.1789659005247
 30
0.0
  0
VERTEX
  5
E5
330
E3
100
AcDbEntity
  8
_U+30EC_U+30A4_U+30E4_U+30FC 1
370
     0
100
AcDbVertex
100
AcDb2dVertex
 10
90.25426701302672
 20
-113.8349120809163
 30
0.0
  0
VERTEX
  5
E6
330
E3
100
AcDbEntity
  8
_U+30EC_U+30A4_U+30E4_U+30FC 1
370
     0
100
AcDbVertex
100
AcDb2dVertex
 10
90.71143118391937
 20
-113.8349120809163
 30
0.0
  0
VERTEX
  5
E7
330
E3
100
AcDbEntity
  8
_U+30EC_U+30A4_U+30E4_U+30FC 1
370
     0
100
AcDbVertex
100
AcDb2dVertex
 10
90.71143118391937
 20
-113.1789659005247
 30
0.0
  0
SEQEND
  5
E8
330
E3
100
AcDbEntity
  8
_U+30EC_U+30A4_U+30E4_U+30FC 1
370
     0
  0
HATCH
  5
E9
330
D1
100
AcDbEntity
  8
_U+30EC_U+30A4_U+30E4_U+30FC 1
 62
   179
420
  2234388
100
AcDbHatch
 10
0.0
 20
0.0
 30
0.0
210
0.0
220
0.0
230
1.0
  2
SOLID
 70
     1
 71
     0
 91
        2
 92
        1
 93
       11
 72
     1
 10
90.92916121858715
 20
-114.0336940904152
 11
90.92916121858715
 21
-114.3806152057798
 72
     1
 10
90.92916121858715
 20
-114.3806152057798
 11
90.71143118391937
 21
-114.3806152057798
 72
     1
 10
90.71143118391937
 20
-114.3806152057798
 11
90.71143118391937
 21
-114.0336940904152
 72
     1
 10
90.71143118391937
 20
-114.0336940904152
 11
90.0554850035278
 21
-114.0336940904152
 72
     1
 10
90.0554850035278
 20
-114.0336940904152
 11
90.0554850035278
 21
-113.8094183743254
 72
     1
 10
90.0554850035278
 20
-113.8094183743254
 11
90.73451332367054
 21
-112.8361788997424
 72
     1
 10
90.73451332367054
 20
-112.8361788997424
 11
90.92916121858715
 21
-112.8361788997424
 72
     1
 10
90.92916121858715
 20
-112.8361788997424
 11
90.92916121858715
 21
-113.8349120809163
 72
     1
 10
90.92916121858715
 20
-113.8349120809163
 11
91.1365559667992
 21
-113.8349120809163
 72
     1
 10
91.1365559667992
 20
-113.8349120809163
 11
91.1365559667992
 21
-114.0336940904152
 72
     1
 10
91.1365559667992
 20
-114.0336940904152
 11
90.92916121858715
 21
-114.0336940904152
 97
        0
 92
        1
 93
        3
 72
     1
 10
90.71143118391937
 20
-113.1789659005247
 11
90.25426701302672
 21
-113.8349120809163
 72
     1
 10
90.25426701302672
 20
-113.8349120809163
 11
90.71143118391937
 21
-113.8349120809163
 72
     1
 10
90.71143118391937
 20
-113.8349120809163
 11
90.71143118391937
 21
-113.1789659005247
 97
        0
 75
     2
 76
     1
 98
        0
  0
SPLINE
  5
EA
330
D1
100
AcDbEntity
  8
_U+30EC_U+30A4_U+30E4_U+30FC 1
370
     0
100
AcDbSpline
210
0.0
220
0.0
230
1.0
 70
    11
 71
     3
 72
    29
 73
    25
 74
     0
 42
0.0000000001
 43
0.0000000001
 12
1.0
 22
0.0
 32
0.0
 13
1.0
 23
0.0
 33
0.0
 40
0.0
 40
0.0
 40
0.0
 40
0.0
 40
1.0
 40
1.0
 40
1.0
 40
2.0
 40
2.0
 40
2.0
 40
3.0
 40
3.0
 40
3.0
 40
4.0
 40
4.0
 40
4.0
 40
5.0
 40
5.0
 40
5.0
 40
6.0
 40
6.0
 40
6.0
 40
7.0
 40
7.0
 40
7.0
 40
8.0
 40
8.0
 40
8.0
 40
8.0
 10
92.17180716011677
 20
-114.202848278741
 30
0.0
 10
92.06363116187993
 20
-114.4123100842442
 30
0.0
 10
91.89034285897186
 20
-114.431258109413
 30
0.0
 10
91.77389863157042
 20
-114.431258109413
 30
0.0
 10
91.61301267240925
 20
-114.431258109413
 30
0.0
 10
91.47141924796549
 20
-114.3847493203621
 30
0.0
 10
91.37633461257259
 20
-114.202848278741
 30
0.0
 10
91.27263723846657
 20
-114.0082003838243
 30
0.0
 10
91.25368921329769
 20
-113.7711778144392
 30
0.0
 10
91.25368921329769
 20
-113.6085693075354
 30
0.0
 10
91.25368921329769
 20
-113.4645643162519
 30
0.0
 10
91.27057018117542
 20
-113.2127278362802
 30
0.0
 10
91.37633461257259
 20
-113.0139458267812
 30
0.0
 10
91.48416610126091
 20
-112.8110297027
 30
0.0
 10
91.64505206042207
 20
-112.7876030534003
 30
0.0
 10
91.77389863157042
 20
-112.7876030534003
 30
0.0
 10
91.93271753344044
 20
-112.7876030534003
 30
0.0
 10
92.07637801517535
 20
-112.8320447851601
 30
0.0
 10
92.17180716011677
 20
-113.0139458267812
 30
0.0
 10
92.27102591009196
 20
-113.2065266644067
 30
0.0
 10
92.29445255939167
 20
-113.4349364950788
 30
0.0
 10
92.29445255939167
 20
-113.6085693075354
 30
0.0
 10
92.29445255939167
 20
-113.7797905531523
 30
0.0
 10
92.27309296738312
 20
-114.0102674411155
 30
0.0
 10
92.17180716011677
 20
-114.202848278741
 30
0.0
  0
SPLINE
  5
EB
330
D1
100
AcDbEntity
  8
_U+30EC_U+30A4_U+30E4_U+30FC 1
370
     0
100
AcDbSpline
210
0.0
220
0.0
230
1.0
 70
    11
 71
     3
 72
    17
 73
    13
 74
     0
 42
0.0000000001
 43
0.0000000001
 12
1.0
 22
0.0
 32
0.0
 13
1.0
 23
0.0
 33
0.0
 40
0.0
 40
0.0
 40
0.0
 40
0.0
 40
1.0
 40
1.0
 40
1.0
 40
2.0
 40
2.0
 40
2.0
 40
3.0
 40
3.0
 40
3.0
 40
4.0
 40
4.0
 40
4.0
 40
4.0
 10
91.77389863157042
 20
-112.9801838910258
 30
0.0
 10
91.52447371843833
 20
-112.9801838910258
 30
0.0
 10
91.47762041983893
 20
-113.2637152494619
 30
0.0
 10
91.47762041983893
 20
-113.6085693075354
 30
0.0
 10
91.47762041983893
 20
-113.927929659018
 30
0.0
 10
91.51379392243406
 20
-114.2366102144964
 30
0.0
 10
91.77389863157042
 20
-114.2366102144964
 30
0.0
 10
92.02160099695988
 20
-114.2366102144964
 30
0.0
 10
92.07017684330191
 20
-113.9554904229
 30
0.0
 10
92.07017684330191
 20
-113.6085693075354
 30
0.0
 10
92.07017684330191
 20
-113.2888644465042
 30
0.0
 10
92.03193628341563
 20
-112.9801838910258
 30
0.0
 10
91.77389863157042
 20
-112.9801838910258
 30
0.0
  0
HATCH
  5
EC
330
D1
100
AcDbEntity
  8
_U+30EC_U+30A4_U+30E4_U+30FC 1
 62
   179
420
  2234388
100
AcDbHatch
 10
0.0
 20
0.0
 30
0.0
210
0.0
220
0.0
230
1.0
  2
SOLID
 70
     1
 71
     0
 91
        2
 92
        1
 93
        1
 72
     4
 94
        3
 73
     0
 74
     1
 95
       29
 96
       25
 40
0.0
 40
0.0
 40
0.0
 40
0.0
 40
1.0
 40
1.0
 40
1.0
 40
2.0
 40
2.0
 40
2.0
 40
3.0
 40
3.0
 40
3.0
 40
4.0
 40
4.0
 40
4.0
 40
5.0
 40
5.0
 40
5.0
 40
6.0
 40
6.0
 40
6.0
 40
7.0
 40
7.0
 40
7.0
 40
8.0
 40
8.0
 40
8.0
 40
8.0
 10
92.17180716011677
 20
-114.202848278741
 10
92.06363116187993
 20
-114.4123100842442
 10
91.89034285897186
 20
-114.431258109413
 10
91.77389863157042
 20
-114.431258109413
 10
91.61301267240925
 20
-114.431258109413
 10
91.47141924796549
 20
-114.3847493203621
 10
91.37633461257259
 20
-114.202848278741
 10
91.27263723846657
 20
-114.0082003838243
 10
91.25368921329769
 20
-113.7711778144392
 10
91.25368921329769
 20
-113.6085693075354
 10
91.25368921329769
 20
-113.4645643162519
 10
91.27057018117542
 20
-113.2127278362802
 10
91.37633461257259
 20
-113.0139458267812
 10
91.48416610126091
 20
-112.8110297027
 10
91.64505206042207
 20
-112.7876030534003
 10
91.77389863157042
 20
-112.7876030534003
 10
91.93271753344044
 20
-112.7876030534003
 10
92.07637801517535
 20
-112.8320447851601
 10
92.17180716011677
 20
-113.0139458267812
 10
92.27102591009196
 20
-113.2065266644067
 10
92.29445255939167
 20
-113.4349364950788
 10
92.29445255939167
 20
-113.6085693075354
 10
92.29445255939167
 20
-113.7797905531523
 10
92.27309296738312
 20
-114.0102674411155
 10
92.17180716011677
 20
-114.202848278741
 97
        0
 97
        0
 92
        1
 93
        1
 72
     4
 94
        3
 73
     0
 74
     1
 95
       17
 96
       13
 40
0.0
 40
0.0
 40
0.0
 40
0.0
 40
1.0
 40
1.0
 40
1.0
 40
2.0
 40
2.0
 40
2.0
 40
3.0
 40
3.0
 40
3.0
 40
4.0
 40
4.0
 40
4.0
 40
4.0
 10
91.77389863157042
 20
-112.9801838910258
 10
91.52447371843833
 20
-112.9801838910258
 10
91.47762041983893
 20
-113.2637152494619
 10
91.47762041983893
 20
-113.6085693075354
 10
91.47762041983893
 20
-113.927929659018
 10
91.51379392243406
 20
-114.2366102144964
 10
91.77389863157042
 20
-114.2366102144964
 10
92.02160099695988
 20
-114.2366102144964
 10
92.07017684330191
 20
-113.9554904229
 10
92.07017684330191
 20
-113.6085693075354
 10
92.07017684330191
 20
-113.2888644465042
 10
92.03193628341563
 20
-112.9801838910258
 10
91.77389863157042
 20
-112.9801838910258
 97
        0
 97
        0
 75
     2
 76
     1
 98
        0
  0
ENDBLK
  5
D4
330
D1
100
AcDbEntity
  8
0
100
AcDbBlockEnd
  0
BLOCK
  5
EF
330
ED
100
AcDbEntity
  8
0
100
AcDbBlockBegin
  2
block 5
 70
     0
 10
0.0
 20
0.0
 30
0.0
  3
block 5
  1

  0
SPLINE
  5
F1
330
ED
100
AcDbEntity
  8
_U+30EC_U+30A4_U+30E4_U+30FC 1
370
     0
100
AcDbSpline
210
0.0
220
0.0
230
1.0
 70
    11
 71
     3
 72
    26
 73
    22
 74
     0
 42
0.0000000001
 43
0.0000000001
 12
1.0
 22
0.0
 32
0.0
 13
1.0
 23
0.0
 33
0.0
 40
0.0
 40
0.0
 40
0.0
 40
0.0
 40
1.0
 40
1.0
 40
1.0
 40
2.0
 40
2.0
 40
2.0
 40
3.0
 40
3.0
 40
3.0
 40
4.0
 40
4.0
 40
4.0
 40
5.0
 40
5.0
 40
5.0
 40
6.0
 40
6.0
 40
6.0
 40
7.0
 40
7.0
 40
7.0
 40
7.0
 10
71.66918265352368
 20
-111.7912814390661
 30
0.0
 10
71.66918265352368
 20
-111.7912814390661
 30
0.0
 10
71.66918265352368
 20
-110.6869560812692
 30
0.0
 10
71.66918265352368
 20
-110.6869560812692
 30
0.0
 10
71.66918265352368
 20
-110.6869560812692
 30
0.0
 10
71.33914250603675
 20
-110.6869560812692
 30
0.0
 10
71.33914250603675
 20
-110.6869560812692
 30
0.0
 10
71.33914250603675
 20
-110.6869560812692
 30
0.0
 10
71.33914250603675
 20
-110.5389892301778
 30
0.0
 10
71.33914250603675
 20
-110.5389892301778
 30
0.0
 10
71.67124971081483
 20
-110.5241753195912
 30
0.0
 10
71.71775849986571
 20
-110.3612223031389
 30
0.0
 10
71.74738632103885
 20
-110.2470173878028
 30
0.0
 10
71.74738632103885
 20
-110.2470173878028
 30
0.0
 10
71.89345836961344
 20
-110.2470173878028
 30
0.0
 10
71.89345836961344
 20
-110.2470173878028
 30
0.0
 10
71.89345836961344
 20
-110.2470173878028
 30
0.0
 10
71.89345836961344
 20
-111.7912814390661
 30
0.0
 10
71.89345836961344
 20
-111.7912814390661
 30
0.0
 10
71.89345836961344
 20
-111.7912814390661
 30
0.0
 10
71.66918265352368
 20
-111.7912814390661
 30
0.0
 10
71.66918265352368
 20
-111.7912814390661
 30
0.0
  0
HATCH
  5
F2
330
ED
100
AcDbEntity
  8
_U+30EC_U+30A4_U+30E4_U+30FC 1
 62
   179
420
  2234388
100
AcDbHatch
 10
0.0
 20
0.0
 30
0.0
210
0.0
220
0.0
230
1.0
  2
SOLID
 70
     1
 71
     0
 91
        1
 92
        1
 93
        1
 72
     4
 94
        3
 73
     0
 74
     1
 95
       26
 96
       22
 40
0.0
 40
0.0
 40
0.0
 40
0.0
 40
1.0
 40
1.0
 40
1.0
 40
2.0
 40
2.0
 40
2.0
 40
3.0
 40
3.0
 40
3.0
 40
4.0
 40
4.0
 40
4.0
 40
5.0
 40
5.0
 40
5.0
 40
6.0
 40
6.0
 40
6.0
 40
7.0
 40
7.0
 40
7.0
 40
7.0
 10
71.66918265352368
 20
-111.7912814390661
 10
71.66918265352368
 20
-111.7912814390661
 10
71.66918265352368
 20
-110.6869560812692
 10
71.66918265352368
 20
-110.6869560812692
 10
71.66918265352368
 20
-110.6869560812692
 10
71.33914250603675
 20
-110.6869560812692
 10
71.33914250603675
 20
-110.6869560812692
 10
71.33914250603675
 20
-110.6869560812692
 10
71.33914250603675
 20
-110.5389892301778
 10
71.33914250603675
 20
-110.5389892301778
 10
71.67124971081483
 20
-110.5241753195912
 10
71.71775849986571
 20
-110.3612223031389
 10
71.74738632103885
 20
-110.2470173878028
 10
71.74738632103885
 20
-110.2470173878028
 10
71.89345836961344
 20
-110.2470173878028
 10
71.89345836961344
 20
-110.2470173878028
 10
71.89345836961344
 20
-110.2470173878028
 10
71.89345836961344
 20
-111.7912814390661
 10
71.89345836961344
 20
-111.7912814390661
 10
71.89345836961344
 20
-111.7912814390661
 10
71.66918265352368
 20
-111.7912814390661
 10
71.66918265352368
 20
-111.7912814390661
 97
        0
 97
        0
 75
     2
 76
     1
 98
        0
  0
ENDBLK
  5
F0
330
ED
100
AcDbEntity
  8
0
100
AcDbBlockEnd
  0
BLOCK
  5
F5
330
F3
100
AcDbEntity
  8
0
100
AcDbBlockBegin
  2
block 6
 70
     0
 10
0.0
 20
0.0
 30
0.0
  3
block 6
  1

  0
SPLINE
  5
F7
330
F3
100
AcDbEntity
  8
_U+30EC_U+30A4_U+30E4_U+30FC 1
370
     0
100
AcDbSpline
210
0.0
220
0.0
230
1.0
 70
    11
 71
     3
 72
    26
 73
    22
 74
     0
 42
0.0000000001
 43
0.0000000001
 12
1.0
 22
0.0
 32
0.0
 13
1.0
 23
0.0
 33
0.0
 40
0.0
 40
0.0
 40
0.0
 40
0.0
 40
1.0
 40
1.0
 40
1.0
 40
2.0
 40
2.0
 40
2.0
 40
3.0
 40
3.0
 40
3.0
 40
4.0
 40
4.0
 40
4.0
 40
5.0
 40
5.0
 40
5.0
 40
6.0
 40
6.0
 40
6.0
 40
7.0
 40
7.0
 40
7.0
 40
7.0
 10
117.7285589983456
 20
-133.5835774405624
 30
0.0
 10
117.7285589983456
 20
-133.5835774405624
 30
0.0
 10
116.6240613857745
 20
-133.5835774405624
 30
0.0
 10
116.6240613857745
 20
-133.5835774405624
 30
0.0
 10
116.6240613857745
 20
-133.5835774405624
 30
0.0
 10
116.6240613857745
 20
-133.9136175880494
 30
0.0
 10
116.6240613857745
 20
-133.9136175880494
 30
0.0
 10
116.6240613857745
 20
-133.9136175880494
 30
0.0
 10
116.4759222799088
 20
-133.9136175880494
 30
0.0
 10
116.4759222799088
 20
-133.9136175880494
 30
0.0
 10
116.4614528788708
 20
-133.5815103832713
 30
0.0
 10
116.2984998624184
 20
-133.5353461037689
 30
0.0
 10
116.1844672018567
 20
-133.5057182825958
 30
0.0
 10
116.1844672018567
 20
-133.5057182825958
 30
0.0
 10
116.1844672018567
 20
-133.3596462340212
 30
0.0
 10
116.1844672018567
 20
-133.3596462340212
 30
0.0
 10
116.1844672018567
 20
-133.3596462340212
 30
0.0
 10
117.7285589983456
 20
-133.3596462340212
 30
0.0
 10
117.7285589983456
 20
-133.3596462340212
 30
0.0
 10
117.7285589983456
 20
-133.3596462340212
 30
0.0
 10
117.7285589983456
 20
-133.5835774405624
 30
0.0
 10
117.7285589983456
 20
-133.5835774405624
 30
0.0
  0
HATCH
  5
F8
330
F3
100
AcDbEntity
  8
_U+30EC_U+30A4_U+30E4_U+30FC 1
 62
   179
420
  2234388
100
AcDbHatch
 10
0.0
 20
0.0
 30
0.0
210
0.0
220
0.0
230
1.0
  2
SOLID
 70
     1
 71
     0
 91
        1
 92
        1
 93
        1
 72
     4
 94
        3
 73
     0
 74
     1
 95
       26
 96
       22
 40
0.0
 40
0.0
 40
0.0
 40
0.0
 40
1.0
 40
1.0
 40
1.0
 40
2.0
 40
2.0
 40
2.0
 40
3.0
 40
3.0
 40
3.0
 40
4.0
 40
4.0
 40
4.0
 40
5.0
 40
5.0
 40
5.0
 40
6.0
 40
6.0
 40
6.0
 40
7.0
 40
7.0
 40
7.0
 40
7.0
 10
117.7285589983456
 20
-133.5835774405624
 10
117.7285589983456
 20
-133.5835774405624
 10
116.6240613857745
 20
-133.5835774405624
 10
116.6240613857745
 20
-133.5835774405624
 10
116.6240613857745
 20
-133.5835774405624
 10
116.6240613857745
 20
-133.9136175880494
 10
116.6240613857745
 20
-133.9136175880494
 10
116.6240613857745
 20
-133.9136175880494
 10
116.4759222799088
 20
-133.9136175880494
 10
116.4759222799088
 20
-133.9136175880494
 10
116.4614528788708
 20
-133.5815103832713
 10
116.2984998624184
 20
-133.5353461037689
 10
116.1844672018567
 20
-133.5057182825958
 10
116.1844672018567
 20
-133.5057182825958
 10
116.1844672018567
 20
-133.3596462340212
 10
116.1844672018567
 20
-133.3596462340212
 10
116.1844672018567
 20
-133.3596462340212
 10
117.7285589983456
 20
-133.3596462340212
 10
117.7285589983456
 20
-133.3596462340212
 10
117.7285589983456
 20
-133.3596462340212
 10
117.7285589983456
 20
-133.5835774405624
 10
117.7285589983456
 20
-133.5835774405624
 97
        0
 97
        0
 75
     2
 76
     1
 98
        0
  0
SPLINE
  5
F9
330
F3
100
AcDbEntity
  8
_U+30EC_U+30A4_U+30E4_U+30FC 1
370
     0
100
AcDbSpline
210
0.0
220
0.0
230
1.0
 70
    11
 71
     3
 72
    44
 73
    40
 74
     0
 42
0.0000000001
 43
0.0000000001
 12
1.0
 22
0.0
 32
0.0
 13
1.0
 23
0.0
 33
0.0
 40
0.0
 40
0.0
 40
0.0
 40
0.0
 40
1.0
 40
1.0
 40
1.0
 40
2.0
 40
2.0
 40
2.0
 40
3.0
 40
3.0
 40
3.0
 40
4.0
 40
4.0
 40
4.0
 40
5.0
 40
5.0
 40
5.0
 40
6.0
 40
6.0
 40
6.0
 40
7.0
 40
7.0
 40
7.0
 40
8.0
 40
8.0
 40
8.0
 40
9.0
 40
9.0
 40
9.0
 40
10.0
 40
10.0
 40
10.0
 40
11.0
 40
11.0
 40
11.0
 40
12.0
 40
12.0
 40
12.0
 40
13.0
 40
13.0
 40
13.0
 40
13.0
 10
117.1470268804355
 20
-132.2651393983573
 30
0.0
 10
117.305501272757
 20
-132.4832139425737
 30
0.0
 10
117.3795708256898
 20
-132.5762315206754
 30
0.0
 10
117.5232313074248
 20
-132.6248073670174
 30
0.0
 10
117.5232313074248
 20
-132.6248073670174
 30
0.0
 10
117.5232313074248
 20
-131.8465602968995
 30
0.0
 10
117.5232313074248
 20
-131.8465602968995
 30
0.0
 10
117.5232313074248
 20
-131.8465602968995
 30
0.0
 10
117.7285589983456
 20
-131.8465602968995
 30
0.0
 10
117.7285589983456
 20
-131.8465602968995
 30
0.0
 10
117.7285589983456
 20
-131.8465602968995
 30
0.0
 10
117.7285589983456
 20
-132.874576789698
 30
0.0
 10
117.7285589983456
 20
-132.874576789698
 30
0.0
 10
117.3709580869767
 20
-132.8428819112337
 30
0.0
 10
117.2927544194615
 20
-132.7770805874655
 30
0.0
 10
116.9944091504389
 20
-132.3922634217631
 30
0.0
 10
116.79562714094
 20
-132.1359483176604
 30
0.0
 10
116.7281032694291
 20
-132.0704915034407
 30
0.0
 10
116.5902994500191
 20
-132.0704915034407
 30
0.0
 10
116.4717881653265
 20
-132.0704915034407
 30
0.0
 10
116.340874536887
 20
-132.1424939990824
 30
0.0
 10
116.340874536887
 20
-132.3392089512902
 30
0.0
 10
116.340874536887
 20
-132.5996581699751
 30
0.0
 10
116.5713514248502
 20
-132.6079263991397
 30
0.0
 10
116.6877956522517
 20
-132.612060513722
 30
0.0
 10
116.6877956522517
 20
-132.612060513722
 30
0.0
 10
116.6877956522517
 20
-132.8363362298118
 30
0.0
 10
116.6877956522517
 20
-132.8363362298118
 30
0.0
 10
116.560671628846
 20
-132.8277234910986
 30
0.0
 10
116.4487060255753
 20
-132.8173882046429
 30
0.0
 10
116.3301947408827
 20
-132.736772970288
 30
0.0
 10
116.1693087817216
 20
-132.6272189338571
 30
0.0
 10
116.1355468459661
 20
-132.4408392681051
 30
0.0
 10
116.1355468459661
 20
-132.3243950407036
 30
0.0
 10
116.1355468459661
 20
-132.047064854141
 30
0.0
 10
116.3195149448785
 20
-131.8400146154775
 30
0.0
 10
116.5923665073102
 20
-131.8400146154775
 30
0.0
 10
116.8211208475308
 20
-131.8400146154775
 30
0.0
 10
116.920339597506
 20
-131.9561143333304
 30
0.0
 10
117.1470268804355
 20
-132.2651393983573
 30
0.0
  0
HATCH
  5
FA
330
F3
100
AcDbEntity
  8
_U+30EC_U+30A4_U+30E4_U+30FC 1
 62
   179
420
  2234388
100
AcDbHatch
 10
0.0
 20
0.0
 30
0.0
210
0.0
220
0.0
230
1.0
  2
SOLID
 70
     1
 71
     0
 91
        1
 92
        1
 93
        1
 72
     4
 94
        3
 73
     0
 74
     1
 95
       44
 96
       40
 40
0.0
 40
0.0
 40
0.0
 40
0.0
 40
1.0
 40
1.0
 40
1.0
 40
2.0
 40
2.0
 40
2.0
 40
3.0
 40
3.0
 40
3.0
 40
4.0
 40
4.0
 40
4.0
 40
5.0
 40
5.0
 40
5.0
 40
6.0
 40
6.0
 40
6.0
 40
7.0
 40
7.0
 40
7.0
 40
8.0
 40
8.0
 40
8.0
 40
9.0
 40
9.0
 40
9.0
 40
10.0
 40
10.0
 40
10.0
 40
11.0
 40
11.0
 40
11.0
 40
12.0
 40
12.0
 40
12.0
 40
13.0
 40
13.0
 40
13.0
 40
13.0
 10
117.1470268804355
 20
-132.2651393983573
 10
117.305501272757
 20
-132.4832139425737
 10
117.3795708256898
 20
-132.5762315206754
 10
117.5232313074248
 20
-132.6248073670174
 10
117.5232313074248
 20
-132.6248073670174
 10
117.5232313074248
 20
-131.8465602968995
 10
117.5232313074248
 20
-131.8465602968995
 10
117.5232313074248
 20
-131.8465602968995
 10
117.7285589983456
 20
-131.8465602968995
 10
117.7285589983456
 20
-131.8465602968995
 10
117.7285589983456
 20
-131.8465602968995
 10
117.7285589983456
 20
-132.874576789698
 10
117.7285589983456
 20
-132.874576789698
 10
117.3709580869767
 20
-132.8428819112337
 10
117.2927544194615
 20
-132.7770805874655
 10
116.9944091504389
 20
-132.3922634217631
 10
116.79562714094
 20
-132.1359483176604
 10
116.7281032694291
 20
-132.0704915034407
 10
116.5902994500191
 20
-132.0704915034407
 10
116.4717881653265
 20
-132.0704915034407
 10
116.340874536887
 20
-132.1424939990824
 10
116.340874536887
 20
-132.3392089512902
 10
116.340874536887
 20
-132.5996581699751
 10
116.5713514248502
 20
-132.6079263991397
 10
116.6877956522517
 20
-132.612060513722
 10
116.6877956522517
 20
-132.612060513722
 10
116.6877956522517
 20
-132.8363362298118
 10
116.6877956522517
 20
-132.8363362298118
 10
116.560671628846
 20
-132.8277234910986
 10
116.4487060255753
 20
-132.8173882046429
 10
116.3301947408827
 20
-132.736772970288
 10
116.1693087817216
 20
-132.6272189338571
 10
116.1355468459661
 20
-132.4408392681051
 10
116.1355468459661
 20
-132.3243950407036
 10
116.1355468459661
 20
-132.047064854141
 10
116.3195149448785
 20
-131.8400146154775
 10
116.5923665073102
 20
-131.8400146154775
 10
116.8211208475308
 20
-131.8400146154775
 10
116.920339597506
 20
-131.9561143333304
 10
117.1470268804355
 20
-132.2651393983573
 97
        0
 97
        0
 75
     2
 76
     1
 98
        0
  0
POLYLINE
  5
FB
330
F3
100
AcDbEntity
  8
_U+30EC_U+30A4_U+30E4_U+30FC 1
370
     0
100
AcDb2dPolyline
 66
     1
 10
0.0
 20
0.0
 30
0.0
  0
VERTEX
  5
FC
330
FB
100
AcDbEntity
  8
_U+30EC_U+30A4_U+30E4_U+30FC 1
370
     0
100
AcDbVertex
100
AcDb2dVertex
 10
117.7285589983456
 20
-131.6212510521641
 30
0.0
  0
VERTEX
  5
FD
330
FB
100
AcDbEntity
  8
_U+30EC_U+30A4_U+30E4_U+30FC 1
370
     0
100
AcDbVertex
100
AcDb2dVertex
 10
117.4770670279224
 20
-131.6212510521641
 30
0.0
  0
VERTEX
  5
FE
330
FB
100
AcDbEntity
  8
_U+30EC_U+30A4_U+30E4_U+30FC 1
370
     0
100
AcDbVertex
100
AcDb2dVertex
 10
117.4770670279224
 20
-131.3697590817409
 30
0.0
  0
VERTEX
  5
FF
330
FB
100
AcDbEntity
  8
_U+30EC_U+30A4_U+30E4_U+30FC 1
370
     0
100
AcDbVertex
100
AcDb2dVertex
 10
117.7285589983456
 20
-131.3697590817409
 30
0.0
  0
VERTEX
  5
100
330
FB
100
AcDbEntity
  8
_U+30EC_U+30A4_U+30E4_U+30FC 1
370
     0
100
AcDbVertex
100
AcDb2dVertex
 10
117.7285589983456
 20
-131.6212510521641
 30
0.0
  0
SEQEND
  5
101
330
FB
100
AcDbEntity
  8
_U+30EC_U+30A4_U+30E4_U+30FC 1
370
     0
  0
HATCH
  5
102
330
F3
100
AcDbEntity
  8
_U+30EC_U+30A4_U+30E4_U+30FC 1
 62
   179
420
  2234388
100
AcDbHatch
 10
0.0
 20
0.0
 30
0.0
210
0.0
220
0.0
230
1.0
  2
SOLID
 70
     1
 71
     0
 91
        1
 92
        1
 93
        4
 72
     1
 10
117.7285589983456
 20
-131.6212510521641
 11
117.4770670279224
 21
-131.6212510521641
 72
     1
 10
117.4770670279224
 20
-131.6212510521641
 11
117.4770670279224
 21
-131.3697590817409
 72
     1
 10
117.4770670279224
 20
-131.3697590817409
 11
117.7285589983456
 21
-131.3697590817409
 72
     1
 10
117.7285589983456
 20
-131.3697590817409
 11
117.7285589983456
 21
-131.6212510521641
 97
        0
 75
     2
 76
     1
 98
        0
  0
SPLINE
  5
103
330
F3
100
AcDbEntity
  8
_U+30EC_U+30A4_U+30E4_U+30FC 1
370
     0
100
AcDbSpline
210
0.0
220
0.0
230
1.0
 70
    11
 71
     3
 72
    53
 73
    49
 74
     0
 42
0.0000000001
 43
0.0000000001
 12
1.0
 22
0.0
 32
0.0
 13
1.0
 23
0.0
 33
0.0
 40
0.0
 40
0.0
 40
0.0
 40
0.0
 40
1.0
 40
1.0
 40
1.0
 40
2.0
 40
2.0
 40
2.0
 40
3.0
 40
3.0
 40
3.0
 40
4.0
 40
4.0
 40
4.0
 40
5.0
 40
5.0
 40
5.0
 40
6.0
 40
6.0
 40
6.0
 40
7.0
 40
7.0
 40
7.0
 40
8.0
 40
8.0
 40
8.0
 40
9.0
 40
9.0
 40
9.0
 40
10.0
 40
10.0
 40
10.0
 40
11.0
 40
11.0
 40
11.0
 40
12.0
 40
12.0
 40
12.0
 40
13.0
 40
13.0
 40
13.0
 40
14.0
 40
14.0
 40
14.0
 40
15.0
 40
15.0
 40
15.0
 40
16.0
 40
16.0
 40
16.0
 40
16.0
 10
117.7795464115273
 20
-130.6521456921633
 30
0.0
 10
117.7795464115273
 20
-130.7303493596785
 30
0.0
 10
117.7623209341011
 20
-130.8319796764934
 30
0.0
 10
117.6989311771725
 20
-130.9336099933083
 30
0.0
 10
117.5886881216445
 20
-131.1068982962163
 30
0.0
 10
117.457774493205
 20
-131.1282578882249
 30
0.0
 10
117.3499430045167
 20
-131.1472059133937
 30
0.0
 10
117.3499430045167
 20
-131.1472059133937
 30
0.0
 10
117.3499430045167
 20
-130.9249972545952
 30
0.0
 10
117.3499430045167
 20
-130.9249972545952
 30
0.0
 10
117.5487250140156
 20
-130.8702202363797
 30
0.0
 10
117.5783528351888
 20
-130.743096212974
 30
0.0
 10
117.5783528351888
 20
-130.6500786348722
 30
0.0
 10
117.5783528351888
 20
-130.5105522677196
 30
0.0
 10
117.4791340852136
 20
-130.3582790472715
 30
0.0
 10
117.2462456304107
 20
-130.3582790472715
 30
0.0
 10
116.9902750358566
 20
-130.3582790472715
 30
0.0
 10
116.920339597506
 20
-130.5381130316016
 30
0.0
 10
116.920339597506
 20
-130.6586913735853
 30
0.0
 10
116.920339597506
 20
-130.6903862520496
 30
0.0
 10
116.920339597506
 20
-130.8319796764934
 30
0.0
 10
117.0495306782029
 20
-130.9208631400128
 30
0.0
 10
117.0495306782029
 20
-130.9208631400128
 30
0.0
 10
117.030582653034
 20
-131.0965630097606
 30
0.0
 10
117.030582653034
 20
-131.0965630097606
 30
0.0
 10
117.030582653034
 20
-131.0965630097606
 30
0.0
 10
116.1844672018567
 20
-130.9759846677769
 30
0.0
 10
116.1844672018567
 20
-130.9759846677769
 30
0.0
 10
116.1844672018567
 20
-130.9759846677769
 30
0.0
 10
116.1844672018567
 20
-130.1973930881104
 30
0.0
 10
116.1844672018567
 20
-130.1973930881104
 30
0.0
 10
116.1844672018567
 20
-130.1973930881104
 30
0.0
 10
116.3787705872248
 20
-130.1973930881104
 30
0.0
 10
116.3787705872248
 20
-130.1973930881104
 30
0.0
 10
116.3787705872248
 20
-130.1973930881104
 30
0.0
 10
116.3787705872248
 20
-130.8130316513245
 30
0.0
 10
116.3787705872248
 20
-130.8130316513245
 30
0.0
 10
116.3787705872248
 20
-130.8130316513245
 30
0.0
 10
116.8018283128134
 20
-130.8784884655443
 30
0.0
 10
116.8018283128134
 20
-130.8784884655443
 30
0.0
 10
116.768066377058
 20
-130.8171657659068
 30
0.0
 10
116.7281032694291
 20
-130.7348279838094
 30
0.0
 10
116.7281032694291
 20
-130.6163166991168
 30
0.0
 10
116.7281032694291
 20
-130.3624131618539
 30
0.0
 10
116.9141384256326
 20
-130.1253905924686
 30
0.0
 10
117.2269530956933
 20
-130.1253905924686
 30
0.0
 10
117.5445908994333
 20
-130.1253905924686
 30
0.0
 10
117.7795464115273
 20
-130.3496663085584
 30
0.0
 10
117.7795464115273
 20
-130.6521456921633
 30
0.0
  0
HATCH
  5
104
330
F3
100
AcDbEntity
  8
_U+30EC_U+30A4_U+30E4_U+30FC 1
 62
   179
420
  2234388
100
AcDbHatch
 10
0.0
 20
0.0
 30
0.0
210
0.0
220
0.0
230
1.0
  2
SOLID
 70
     1
 71
     0
 91
        1
 92
        1
 93
        1
 72
     4
 94
        3
 73
     0
 74
     1
 95
       53
 96
       49
 40
0.0
 40
0.0
 40
0.0
 40
0.0
 40
1.0
 40
1.0
 40
1.0
 40
2.0
 40
2.0
 40
2.0
 40
3.0
 40
3.0
 40
3.0
 40
4.0
 40
4.0
 40
4.0
 40
5.0
 40
5.0
 40
5.0
 40
6.0
 40
6.0
 40
6.0
 40
7.0
 40
7.0
 40
7.0
 40
8.0
 40
8.0
 40
8.0
 40
9.0
 40
9.0
 40
9.0
 40
10.0
 40
10.0
 40
10.0
 40
11.0
 40
11.0
 40
11.0
 40
12.0
 40
12.0
 40
12.0
 40
13.0
 40
13.0
 40
13.0
 40
14.0
 40
14.0
 40
14.0
 40
15.0
 40
15.0
 40
15.0
 40
16.0
 40
16.0
 40
16.0
 40
16.0
 10
117.7795464115273
 20
-130.6521456921633
 10
117.7795464115273
 20
-130.7303493596785
 10
117.7623209341011
 20
-130.8319796764934
 10
117.6989311771725
 20
-130.9336099933083
 10
117.5886881216445
 20
-131.1068982962163
 10
117.457774493205
 20
-131.1282578882249
 10
117.3499430045167
 20
-131.1472059133937
 10
117.3499430045167
 20
-131.1472059133937
 10
117.3499430045167
 20
-130.9249972545952
 10
117.3499430045167
 20
-130.9249972545952
 10
117.5487250140156
 20
-130.8702202363797
 10
117.5783528351888
 20
-130.743096212974
 10
117.5783528351888
 20
-130.6500786348722
 10
117.5783528351888
 20
-130.5105522677196
 10
117.4791340852136
 20
-130.3582790472715
 10
117.2462456304107
 20
-130.3582790472715
 10
116.9902750358566
 20
-130.3582790472715
 10
116.920339597506
 20
-130.5381130316016
 10
116.920339597506
 20
-130.6586913735853
 10
116.920339597506
 20
-130.6903862520496
 10
116.920339597506
 20
-130.8319796764934
 10
117.0495306782029
 20
-130.9208631400128
 10
117.0495306782029
 20
-130.9208631400128
 10
117.030582653034
 20
-131.0965630097606
 10
117.030582653034
 20
-131.0965630097606
 10
117.030582653034
 20
-131.0965630097606
 10
116.1844672018567
 20
-130.9759846677769
 10
116.1844672018567
 20
-130.9759846677769
 10
116.1844672018567
 20
-130.9759846677769
 10
116.1844672018567
 20
-130.1973930881104
 10
116.1844672018567
 20
-130.1973930881104
 10
116.1844672018567
 20
-130.1973930881104
 10
116.3787705872248
 20
-130.1973930881104
 10
116.3787705872248
 20
-130.1973930881104
 10
116.3787705872248
 20
-130.1973930881104
 10
116.3787705872248
 20
-130.8130316513245
 10
116.3787705872248
 20
-130.8130316513245
 10
116.3787705872248
 20
-130.8130316513245
 10
116.8018283128134
 20
-130.8784884655443
 10
116.8018283128134
 20
-130.8784884655443
 10
116.768066377058
 20
-130.8171657659068
 10
116.7281032694291
 20
-130.7348279838094
 10
116.7281032694291
 20
-130.6163166991168
 10
116.7281032694291
 20
-130.3624131618539
 10
116.9141384256326
 20
-130.1253905924686
 10
117.2269530956933
 20
-130.1253905924686
 10
117.5445908994333
 20
-130.1253905924686
 10
117.7795464115273
 20
-130.3496663085584
 10
117.7795464115273
 20
-130.6521456921633
 97
        0
 97
        0
 75
     2
 76
     1
 98
        0
  0
ENDBLK
  5
F6
330
F3
100
AcDbEntity
  8
0
100
AcDbBlockEnd
  0
BLOCK
  5
107
330
105
100
AcDbEntity
  8
0
100
AcDbBlockBegin
  2
block 7
 70
     0
 10
0.0
 20
0.0
 30
0.0
  3
block 7
  1

  0
SPLINE
  5
109
330
105
100
AcDbEntity
  8
_U+30EC_U+30A4_U+30E4_U+30FC 1
370
     0
100
AcDbSpline
210
0.0
220
0.0
230
1.0
 70
    11
 71
     3
 72
    44
 73
    40
 74
     0
 42
0.0000000001
 43
0.0000000001
 12
1.0
 22
0.0
 32
0.0
 13
1.0
 23
0.0
 33
0.0
 40
0.0
 40
0.0
 40
0.0
 40
0.0
 40
1.0
 40
1.0
 40
1.0
 40
2.0
 40
2.0
 40
2.0
 40
3.0
 40
3.0
 40
3.0
 40
4.0
 40
4.0
 40
4.0
 40
5.0
 40
5.0
 40
5.0
 40
6.0
 40
6.0
 40
6.0
 40
7.0
 40
7.0
 40
7.0
 40
8.0
 40
8.0
 40
8.0
 40
9.0
 40
9.0
 40
9.0
 40
10.0
 40
10.0
 40
10.0
 40
11.0
 40
11.0
 40
11.0
 40
12.0
 40
12.0
 40
12.0
 40
13.0
 40
13.0
 40
13.0
 40
13.0
 10
65.3842949597824
 20
-130.3982421549005
 30
0.0
 10
65.54311386165242
 20
-130.6159721895682
 30
0.0
 10
65.61718341458528
 20
-130.70898976767
 30
0.0
 10
65.76084389632021
 20
-130.7579101235605
 30
0.0
 10
65.76084389632021
 20
-130.7579101235605
 30
0.0
 10
65.76084389632021
 20
-129.9793185438941
 30
0.0
 10
65.76084389632021
 20
-129.9793185438941
 30
0.0
 10
65.76084389632021
 20
-129.9793185438941
 30
0.0
 10
65.96617158724109
 20
-129.9793185438941
 30
0.0
 10
65.96617158724109
 20
-129.9793185438941
 30
0.0
 10
65.96617158724109
 20
-129.9793185438941
 30
0.0
 10
65.96617158724109
 20
-131.0073350366926
 30
0.0
 10
65.96617158724109
 20
-131.0073350366926
 30
0.0
 10
65.60857067587217
 20
-130.9756401582283
 30
0.0
 10
65.53036700835699
 20
-130.9101833440086
 30
0.0
 10
65.23202173933436
 20
-130.5250216687576
 30
0.0
 10
65.03323972983544
 20
-130.2690510742036
 30
0.0
 10
64.96537134877602
 20
-130.2035942599838
 30
0.0
 10
64.82791203891455
 20
-130.2035942599838
 30
0.0
 10
64.70940075422196
 20
-130.2035942599838
 30
0.0
 10
64.57848712578246
 20
-130.2755967556255
 30
0.0
 10
64.57848712578246
 20
-130.4723117078333
 30
0.0
 10
64.57848712578246
 20
-130.7324164169697
 30
0.0
 10
64.80896401374568
 20
-130.7406846461343
 30
0.0
 10
64.92540824114712
 20
-130.7451632702651
 30
0.0
 10
64.92540824114712
 20
-130.7451632702651
 30
0.0
 10
64.92540824114712
 20
-130.9694389863549
 30
0.0
 10
64.92540824114712
 20
-130.9694389863549
 30
0.0
 10
64.7982842177414
 20
-130.9608262476417
 30
0.0
 10
64.68631861447078
 20
-130.9501464516375
 30
0.0
 10
64.56780732977819
 20
-130.8698757268311
 30
0.0
 10
64.40692137061703
 20
-130.7599771808517
 30
0.0
 10
64.37315943486158
 20
-130.5735975150997
 30
0.0
 10
64.37315943486158
 20
-130.4574977972467
 30
0.0
 10
64.37315943486158
 20
-130.1801676106841
 30
0.0
 10
64.55712753377392
 20
-129.9727728624721
 30
0.0
 10
64.8299790962057
 20
-129.9727728624721
 30
0.0
 10
65.0587334364263
 20
-129.9727728624721
 30
0.0
 10
65.15795218640149
 20
-130.0892170898735
 30
0.0
 10
65.3842949597824
 20
-130.3982421549005
 30
0.0
  0
HATCH
  5
10A
330
105
100
AcDbEntity
  8
_U+30EC_U+30A4_U+30E4_U+30FC 1
 62
   179
420
  2234388
100
AcDbHatch
 10
0.0
 20
0.0
 30
0.0
210
0.0
220
0.0
230
1.0
  2
SOLID
 70
     1
 71
     0
 91
        1
 92
        1
 93
        1
 72
     4
 94
        3
 73
     0
 74
     1
 95
       44
 96
       40
 40
0.0
 40
0.0
 40
0.0
 40
0.0
 40
1.0
 40
1.0
 40
1.0
 40
2.0
 40
2.0
 40
2.0
 40
3.0
 40
3.0
 40
3.0
 40
4.0
 40
4.0
 40
4.0
 40
5.0
 40
5.0
 40
5.0
 40
6.0
 40
6.0
 40
6.0
 40
7.0
 40
7.0
 40
7.0
 40
8.0
 40
8.0
 40
8.0
 40
9.0
 40
9.0
 40
9.0
 40
10.0
 40
10.0
 40
10.0
 40
11.0
 40
11.0
 40
11.0
 40
12.0
 40
12.0
 40
12.0
 40
13.0
 40
13.0
 40
13.0
 40
13.0
 10
65.3842949597824
 20
-130.3982421549005
 10
65.54311386165242
 20
-130.6159721895682
 10
65.61718341458528
 20
-130.70898976767
 10
65.76084389632021
 20
-130.7579101235605
 10
65.76084389632021
 20
-130.7579101235605
 10
65.76084389632021
 20
-129.9793185438941
 10
65.76084389632021
 20
-129.9793185438941
 10
65.76084389632021
 20
-129.9793185438941
 10
65.96617158724109
 20
-129.9793185438941
 10
65.96617158724109
 20
-129.9793185438941
 10
65.96617158724109
 20
-129.9793185438941
 10
65.96617158724109
 20
-131.0073350366926
 10
65.96617158724109
 20
-131.0073350366926
 10
65.60857067587217
 20
-130.9756401582283
 10
65.53036700835699
 20
-130.9101833440086
 10
65.23202173933436
 20
-130.5250216687576
 10
65.03323972983544
 20
-130.2690510742036
 10
64.96537134877602
 20
-130.2035942599838
 10
64.82791203891455
 20
-130.2035942599838
 10
64.70940075422196
 20
-130.2035942599838
 10
64.57848712578246
 20
-130.2755967556255
 10
64.57848712578246
 20
-130.4723117078333
 10
64.57848712578246
 20
-130.7324164169697
 10
64.80896401374568
 20
-130.7406846461343
 10
64.92540824114712
 20
-130.7451632702651
 10
64.92540824114712
 20
-130.7451632702651
 10
64.92540824114712
 20
-130.9694389863549
 10
64.92540824114712
 20
-130.9694389863549
 10
64.7982842177414
 20
-130.9608262476417
 10
64.68631861447078
 20
-130.9501464516375
 10
64.56780732977819
 20
-130.8698757268311
 10
64.40692137061703
 20
-130.7599771808517
 10
64.37315943486158
 20
-130.5735975150997
 10
64.37315943486158
 20
-130.4574977972467
 10
64.37315943486158
 20
-130.1801676106841
 10
64.55712753377392
 20
-129.9727728624721
 10
64.8299790962057
 20
-129.9727728624721
 10
65.0587334364263
 20
-129.9727728624721
 10
65.15795218640149
 20
-130.0892170898735
 10
65.3842949597824
 20
-130.3982421549005
 97
        0
 97
        0
 75
     2
 76
     1
 98
        0
  0
SPLINE
  5
10B
330
105
100
AcDbEntity
  8
_U+30EC_U+30A4_U+30E4_U+30FC 1
370
     0
100
AcDbSpline
210
0.0
220
0.0
230
1.0
 70
    11
 71
     3
 72
    26
 73
    22
 74
     0
 42
0.0000000001
 43
0.0000000001
 12
1.0
 22
0.0
 32
0.0
 13
1.0
 23
0.0
 33
0.0
 40
0.0
 40
0.0
 40
0.0
 40
0.0
 40
1.0
 40
1.0
 40
1.0
 40
2.0
 40
2.0
 40
2.0
 40
3.0
 40
3.0
 40
3.0
 40
4.0
 40
4.0
 40
4.0
 40
5.0
 40
5.0
 40
5.0
 40
6.0
 40
6.0
 40
6.0
 40
7.0
 40
7.0
 40
7.0
 40
7.0
 10
65.96617158724109
 20
-129.3629909615829
 30
0.0
 10
65.96617158724109
 20
-129.3629909615829
 30
0.0
 10
64.86201848421852
 20
-129.3629909615829
 30
0.0
 10
64.86201848421852
 20
-129.3629909615829
 30
0.0
 10
64.86201848421852
 20
-129.3629909615829
 30
0.0
 10
64.86201848421852
 20
-129.6930311090698
 30
0.0
 10
64.86201848421852
 20
-129.6930311090698
 30
0.0
 10
64.86201848421852
 20
-129.6930311090698
 30
0.0
 10
64.71387937835279
 20
-129.6930311090698
 30
0.0
 10
64.71387937835279
 20
-129.6930311090698
 30
0.0
 10
64.6990654677662
 20
-129.3609239042917
 30
0.0
 10
64.5361124513139
 20
-129.3144151152408
 30
0.0
 10
64.4217352812036
 20
-129.2847872940677
 30
0.0
 10
64.4217352812036
 20
-129.2847872940677
 30
0.0
 10
64.4217352812036
 20
-129.1387152454931
 30
0.0
 10
64.4217352812036
 20
-129.1387152454931
 30
0.0
 10
64.4217352812036
 20
-129.1387152454931
 30
0.0
 10
65.96617158724109
 20
-129.1387152454931
 30
0.0
 10
65.96617158724109
 20
-129.1387152454931
 30
0.0
 10
65.96617158724109
 20
-129.1387152454931
 30
0.0
 10
65.96617158724109
 20
-129.3629909615829
 30
0.0
 10
65.96617158724109
 20
-129.3629909615829
 30
0.0
  0
HATCH
  5
10C
330
105
100
AcDbEntity
  8
_U+30EC_U+30A4_U+30E4_U+30FC 1
 62
   179
420
  2234388
100
AcDbHatch
 10
0.0
 20
0.0
 30
0.0
210
0.0
220
0.0
230
1.0
  2
SOLID
 70
     1
 71
     0
 91
        1
 92
        1
 93
        1
 72
     4
 94
        3
 73
     0
 74
     1
 95
       26
 96
       22
 40
0.0
 40
0.0
 40
0.0
 40
0.0
 40
1.0
 40
1.0
 40
1.0
 40
2.0
 40
2.0
 40
2.0
 40
3.0
 40
3.0
 40
3.0
 40
4.0
 40
4.0
 40
4.0
 40
5.0
 40
5.0
 40
5.0
 40
6.0
 40
6.0
 40
6.0
 40
7.0
 40
7.0
 40
7.0
 40
7.0
 10
65.96617158724109
 20
-129.3629909615829
 10
65.96617158724109
 20
-129.3629909615829
 10
64.86201848421852
 20
-129.3629909615829
 10
64.86201848421852
 20
-129.3629909615829
 10
64.86201848421852
 20
-129.3629909615829
 10
64.86201848421852
 20
-129.6930311090698
 10
64.86201848421852
 20
-129.6930311090698
 10
64.86201848421852
 20
-129.6930311090698
 10
64.71387937835279
 20
-129.6930311090698
 10
64.71387937835279
 20
-129.6930311090698
 10
64.6990654677662
 20
-129.3609239042917
 10
64.5361124513139
 20
-129.3144151152408
 10
64.4217352812036
 20
-129.2847872940677
 10
64.4217352812036
 20
-129.2847872940677
 10
64.4217352812036
 20
-129.1387152454931
 10
64.4217352812036
 20
-129.1387152454931
 10
64.4217352812036
 20
-129.1387152454931
 10
65.96617158724109
 20
-129.1387152454931
 10
65.96617158724109
 20
-129.1387152454931
 10
65.96617158724109
 20
-129.1387152454931
 10
65.96617158724109
 20
-129.3629909615829
 10
65.96617158724109
 20
-129.3629909615829
 97
        0
 97
        0
 75
     2
 76
     1
 98
        0
  0
ENDBLK
  5
108
330
105
100
AcDbEntity
  8
0
100
AcDbBlockEnd
  0
ENDSEC
  0
SECTION
  2
ENTITIES
  0
POLYLINE
  5
41
330
1F
100
AcDbEntity
  8
_U+30EC_U+30A4_U+30E4_U+30FC 1
 62
   179
420
  2234388
370
    25
100
AcDb2dPolyline
 66
     1
 10
0.0
 20
0.0
 30
0.0
  0
VERTEX
  5
42
330
41
100
AcDbEntity
  8
_U+30EC_U+30A4_U+30E4_U+30FC 1
 62
   179
420
  2234388
370
    25
100
AcDbVertex
100
AcDb2dVertex
 10
81.26154764906742
 20
-140.3221941315859
 30
0.0
  0
VERTEX
  5
43
330
41
100
AcDbEntity
  8
_U+30EC_U+30A4_U+30E4_U+30FC 1
 62
   179
420
  2234388
370
    25
100
AcDbVertex
100
AcDb2dVertex
 10
71.25920429313736
 20
-140.3221941315859
 30
0.0
  0
SEQEND
  5
44
330
41
100
AcDbEntity
  8
_U+30EC_U+30A4_U+30E4_U+30FC 1
 62
   179
420
  2234388
370
    25
  0
POLYLINE
  5
45
330
1F
100
AcDbEntity
  8
_U+30EC_U+30A4_U+30E4_U+30FC 1
 62
   179
420
  2234388
370
    25
100
AcDb2dPolyline
 66
     1
 10
0.0
 20
0.0
 30
0.0
  0
VERTEX
  5
46
330
45
100
AcDbEntity
  8
_U+30EC_U+30A4_U+30E4_U+30FC 1
 62
   179
420
  2234388
370
    25
100
AcDbVertex
100
AcDb2dVertex
 10
111.2666021613525
 20
-124.8228671910164
 30
0.0
  0
VERTEX
  5
47
330
45
100
AcDbEntity
  8
_U+30EC_U+30A4_U+30E4_U+30FC 1
 62
   179
420
  2234388
370
    25
100
AcDbVertex
100
AcDb2dVertex
 10
111.2666021613525
 20
-123.8224246912665
 30
0.0
  0
SEQEND
  5
48
330
45
100
AcDbEntity
  8
_U+30EC_U+30A4_U+30E4_U+30FC 1
 62
   179
420
  2234388
370
    25
  0
POLYLINE
  5
49
330
1F
100
AcDbEntity
  8
_U+30EC_U+30A4_U+30E4_U+30FC 1
 62
   179
420
  2234388
370
    25
100
AcDb2dPolyline
 66
     1
 10
0.0
 20
0.0
 30
0.0
  0
VERTEX
  5
4A
330
49
100
AcDbEntity
  8
_U+30EC_U+30A4_U+30E4_U+30FC 1
 62
   179
420
  2234388
370
    25
100
AcDbVertex
100
AcDb2dVertex
 10
81.26154764906742
 20
-137.3222071878916
 30
0.0
  0
VERTEX
  5
4B
330
49
100
AcDbEntity
  8
_U+30EC_U+30A4_U+30E4_U+30FC 1
 62
   179
420
  2234388
370
    25
100
AcDbVertex
100
AcDb2dVertex
 10
78.26085522562147
 20
-137.3222071878916
 30
0.0
  0
SEQEND
  5
4C
330
49
100
AcDbEntity
  8
_U+30EC_U+30A4_U+30E4_U+30FC 1
 62
   179
420
  2234388
370
    25
  0
POLYLINE
  5
4D
330
1F
100
AcDbEntity
  8
_U+30EC_U+30A4_U+30E4_U+30FC 1
 62
   179
420
  2234388
370
    25
100
AcDb2dPolyline
 66
     1
 10
0.0
 20
0.0
 30
0.0
  0
VERTEX
  5
4E
330
4D
100
AcDbEntity
  8
_U+30EC_U+30A4_U+30E4_U+30FC 1
 62
   179
420
  2234388
370
    25
100
AcDbVertex
100
AcDb2dVertex
 10
111.2666021613525
 20
-124.8228671910164
 30
0.0
  0
VERTEX
  5
4F
330
4D
100
AcDbEntity
  8
_U+30EC_U+30A4_U+30E4_U+30FC 1
 62
   179
420
  2234388
370
    25
100
AcDbVertex
100
AcDb2dVertex
 10
72.25897648985327
 20
-124.8228671910164
 30
0.0
  0
SEQEND
  5
50
330
4D
100
AcDbEntity
  8
_U+30EC_U+30A4_U+30E4_U+30FC 1
 62
   179
420
  2234388
370
    25
  0
POLYLINE
  5
51
330
1F
100
AcDbEntity
  8
_U+30EC_U+30A4_U+30E4_U+30FC 1
 62
   179
420
  2234388
370
    25
100
AcDb2dPolyline
 66
     1
 10
0.0
 20
0.0
 30
0.0
  0
VERTEX
  5
52
330
51
100
AcDbEntity
  8
_U+30EC_U+30A4_U+30E4_U+30FC 1
 62
   179
420
  2234388
370
    25
100
AcDbVertex
100
AcDb2dVertex
 10
111.2666021613525
 20
-123.8224246912665
 30
0.0
  0
VERTEX
  5
53
330
51
100
AcDbEntity
  8
_U+30EC_U+30A4_U+30E4_U+30FC 1
 62
   179
420
  2234388
370
    25
100
AcDbVertex
100
AcDb2dVertex
 10
72.25897648985327
 20
-123.8224246912665
 30
0.0
  0
SEQEND
  5
54
330
51
100
AcDbEntity
  8
_U+30EC_U+30A4_U+30E4_U+30FC 1
 62
   179
420
  2234388
370
    25
  0
POLYLINE
  5
55
330
1F
100
AcDbEntity
  8
_U+30EC_U+30A4_U+30E4_U+30FC 1
 62
   179
420
  2234388
370
    25
100
AcDb2dPolyline
 66
     1
 10
0.0
 20
0.0
 30
0.0
  0
VERTEX
  5
56
330
55
100
AcDbEntity
  8
_U+30EC_U+30A4_U+30E4_U+30FC 1
 62
   179
420
  2234388
370
    25
100
AcDbVertex
100
AcDb2dVertex
 10
72.25897648985327
 20
-139.3224219096141
 30
0.0
  0
VERTEX
  5
57
330
55
100
AcDbEntity
  8
_U+30EC_U+30A4_U+30E4_U+30FC 1
 62
   179
420
  2234388
370
    25
100
AcDbVertex
100
AcDb2dVertex
 10
72.25897648985327
 20
-124.8228671910164
 30
0.0
  0
SEQEND
  5
58
330
55
100
AcDbEntity
  8
_U+30EC_U+30A4_U+30E4_U+30FC 1
 62
   179
420
  2234388
370
    25
  0
POLYLINE
  5
59
330
1F
100
AcDbEntity
  8
_U+30EC_U+30A4_U+30E4_U+30FC 1
 62
   179
420
  2234388
370
    25
100
AcDb2dPolyline
 66
     1
 10
0.0
 20
0.0
 30
0.0
  0
VERTEX
  5
5A
330
59
100
AcDbEntity
  8
_U+30EC_U+30A4_U+30E4_U+30FC 1
 62
   179
420
  2234388
370
    25
100
AcDbVertex
100
AcDb2dVertex
 10
80.26142267458273
 20
-139.3224219096141
 30
0.0
  0
VERTEX
  5
5B
330
59
100
AcDbEntity
  8
_U+30EC_U+30A4_U+30E4_U+30FC 1
 62
   179
420
  2234388
370
    25
100
AcDbVertex
100
AcDb2dVertex
 10
72.25897648985327
 20
-139.3224219096141
 30
0.0
  0
SEQEND
  5
5C
330
59
100
AcDbEntity
  8
_U+30EC_U+30A4_U+30E4_U+30FC 1
 62
   179
420
  2234388
370
    25
  0
POLYLINE
  5
5D
330
1F
100
AcDbEntity
  8
_U+30EC_U+30A4_U+30E4_U+30FC 1
 62
   179
420
  2234388
370
    25
100
AcDb2dPolyline
 66
     1
 10
0.0
 20
0.0
 30
0.0
  0
VERTEX
  5
5E
330
5D
100
AcDbEntity
  8
_U+30EC_U+30A4_U+30E4_U+30FC 1
 62
   179
420
  2234388
370
    25
100
AcDbVertex
100
AcDb2dVertex
 10
81.26154764906742
 20
-140.3221941315859
 30
0.0
  0
VERTEX
  5
5F
330
5D
100
AcDbEntity
  8
_U+30EC_U+30A4_U+30E4_U+30FC 1
 62
   179
420
  2234388
370
    25
100
AcDbVertex
100
AcDb2dVertex
 10
81.26154764906742
 20
-137.3222071878916
 30
0.0
  0
SEQEND
  5
60
330
5D
100
AcDbEntity
  8
_U+30EC_U+30A4_U+30E4_U+30FC 1
 62
   179
420
  2234388
370
    25
  0
POLYLINE
  5
61
330
1F
100
AcDbEntity
  8
_U+30EC_U+30A4_U+30E4_U+30FC 1
 62
   179
420
  2234388
370
    25
100
AcDb2dPolyline
 66
     1
 10
0.0
 20
0.0
 30
0.0
  0
VERTEX
  5
62
330
61
100
AcDbEntity
  8
_U+30EC_U+30A4_U+30E4_U+30FC 1
 62
   179
420
  2234388
370
    25
100
AcDbVertex
100
AcDb2dVertex
 10
80.26142267458273
 20
-139.3224219096141
 30
0.0
  0
VERTEX
  5
63
330
61
100
AcDbEntity
  8
_U+30EC_U+30A4_U+30E4_U+30FC 1
 62
   179
420
  2234388
370
    25
100
AcDbVertex
100
AcDb2dVertex
 10
80.26142267458273
 20
-138.3226496876415
 30
0.0
  0
SEQEND
  5
64
330
61
100
AcDbEntity
  8
_U+30EC_U+30A4_U+30E4_U+30FC 1
 62
   179
420
  2234388
370
    25
  0
POLYLINE
  5
65
330
1F
100
AcDbEntity
  8
_U+30EC_U+30A4_U+30E4_U+30FC 1
 62
   179
420
  2234388
370
    25
100
AcDb2dPolyline
 66
     1
 10
0.0
 20
0.0
 30
0.0
  0
VERTEX
  5
66
330
65
100
AcDbEntity
  8
_U+30EC_U+30A4_U+30E4_U+30FC 1
 62
   179
420
  2234388
370
    25
100
AcDbVertex
100
AcDb2dVertex
 10
80.26142267458273
 20
-138.3226496876415
 30
0.0
  0
VERTEX
  5
67
330
65
100
AcDbEntity
  8
_U+30EC_U+30A4_U+30E4_U+30FC 1
 62
   179
420
  2234388
370
    25
100
AcDbVertex
100
AcDb2dVertex
 10
78.26085522562147
 20
-138.3226496876415
 30
0.0
  0
SEQEND
  5
68
330
65
100
AcDbEntity
  8
_U+30EC_U+30A4_U+30E4_U+30FC 1
 62
   179
420
  2234388
370
    25
  0
POLYLINE
  5
69
330
1F
100
AcDbEntity
  8
_U+30EC_U+30A4_U+30E4_U+30FC 1
 62
   179
420
  2234388
370
    25
100
AcDb2dPolyline
 66
     1
 10
0.0
 20
0.0
 30
0.0
  0
VERTEX
  5
6A
330
69
100
AcDbEntity
  8
_U+30EC_U+30A4_U+30E4_U+30FC 1
 62
   179
420
  2234388
370
    25
100
AcDbVertex
100
AcDb2dVertex
 10
78.26085522562147
 20
-138.3226496876415
 30
0.0
  0
VERTEX
  5
6B
330
69
100
AcDbEntity
  8
_U+30EC_U+30A4_U+30E4_U+30FC 1
 62
   179
420
  2234388
370
    25
100
AcDbVertex
100
AcDb2dVertex
 10
78.26085522562147
 20
-137.3222071878916
 30
0.0
  0
SEQEND
  5
6C
330
69
100
AcDbEntity
  8
_U+30EC_U+30A4_U+30E4_U+30FC 1
 62
   179
420
  2234388
370
    25
  0
POLYLINE
  5
6D
330
1F
100
AcDbEntity
  8
_U+30EC_U+30A4_U+30E4_U+30FC 1
 62
   179
420
  2234388
370
    25
100
AcDb2dPolyline
 66
     1
 10
0.0
 20
0.0
 30
0.0
  0
VERTEX
  5
6E
330
6D
100
AcDbEntity
  8
_U+30EC_U+30A4_U+30E4_U+30FC 1
 62
   179
420
  2234388
370
    25
100
AcDbVertex
100
AcDb2dVertex
 10
72.25897648985327
 20
-123.8224246912665
 30
0.0
  0
VERTEX
  5
6F
330
6D
100
AcDbEntity
  8
_U+30EC_U+30A4_U+30E4_U+30FC 1
 62
   179
420
  2234388
370
    25
100
AcDbVertex
100
AcDb2dVertex
 10
72.25897648985327
 20
-119.3219327479471
 30
0.0
  0
VERTEX
  5
70
330
6D
100
AcDbEntity
  8
_U+30EC_U+30A4_U+30E4_U+30FC 1
 62
   179
420
  2234388
370
    25
100
AcDbVertex
100
AcDb2dVertex
 10
71.25920429313736
 20
-119.3222502479474
 30
0.0
  0
VERTEX
  5
71
330
6D
100
AcDbEntity
  8
_U+30EC_U+30A4_U+30E4_U+30FC 1
 62
   179
420
  2234388
370
    25
100
AcDbVertex
100
AcDb2dVertex
 10
71.25920429313736
 20
-140.3221941315859
 30
0.0
  0
SEQEND
  5
72
330
6D
100
AcDbEntity
  8
_U+30EC_U+30A4_U+30E4_U+30FC 1
 62
   179
420
  2234388
370
    25
  0
SPLINE
  5
73
330
1F
100
AcDbEntity
  8
_U+30EC_U+30A4_U+30E4_U+30FC 1
 62
   179
420
  2234388
370
     9
100
AcDbSpline
210
0.0
220
0.0
230
1.0
 70
    11
 71
     3
 72
    17
 73
    13
 74
     0
 42
0.0000000001
 43
0.0000000001
 12
1.0
 22
0.0
 32
0.0
 13
1.0
 23
0.0
 33
0.0
 40
0.0
 40
0.0
 40
0.0
 40
0.0
 40
1.0
 40
1.0
 40
1.0
 40
2.0
 40
2.0
 40
2.0
 40
3.0
 40
3.0
 40
3.0
 40
4.0
 40
4.0
 40
4.0
 40
4.0
 10
115.267737059275
 20
-137.22230052125
 30
0.0
 10
115.3228409467581
 20
-137.22230052125
 30
0.0
 10
115.3676437233929
 20
-137.2670680212385
 30
0.0
 10
115.3676437233929
 20
-137.3222071878916
 30
0.0
 10
115.3676437233929
 20
-137.378016632322
 30
0.0
 10
115.3228409467581
 20
-137.4221138545333
 30
0.0
 10
115.267737059275
 20
-137.4221138545333
 30
0.0
 10
115.2119305267523
 20
-137.4221138545333
 30
0.0
 10
115.1671277489862
 20
-137.378016632322
 30
0.0
 10
115.1671277489862
 20
-137.3222071878916
 30
0.0
 10
115.1671277489862
 20
-137.2670680212385
 30
0.0
 10
115.2119305267523
 20
-137.22230052125
 30
0.0
 10
115.267737059275
 20
-137.22230052125
 30
0.0
  0
SPLINE
  5
74
330
1F
100
AcDbEntity
  8
_U+30EC_U+30A4_U+30E4_U+30FC 1
 62
   179
420
  2234388
370
     9
100
AcDbSpline
210
0.0
220
0.0
230
1.0
 70
    11
 71
     3
 72
    17
 73
    13
 74
     0
 42
0.0000000001
 43
0.0000000001
 12
1.0
 22
0.0
 32
0.0
 13
1.0
 23
0.0
 33
0.0
 40
0.0
 40
0.0
 40
0.0
 40
0.0
 40
1.0
 40
1.0
 40
1.0
 40
2.0
 40
2.0
 40
2.0
 40
3.0
 40
3.0
 40
3.0
 40
4.0
 40
4.0
 40
4.0
 40
4.0
 10
115.267737059275
 20
-140.2222874649443
 30
0.0
 10
115.3228409467581
 20
-140.2222874649443
 30
0.0
 10
115.3676437233929
 20
-140.2670549649335
 30
0.0
 10
115.3676437233929
 20
-140.3221941315859
 30
0.0
 10
115.3676437233929
 20
-140.3780035760164
 30
0.0
 10
115.3228409467581
 20
-140.4227710760056
 30
0.0
 10
115.267737059275
 20
-140.4227710760056
 30
0.0
 10
115.2119305267523
 20
-140.4227710760056
 30
0.0
 10
115.1671277489862
 20
-140.3780035760164
 30
0.0
 10
115.1671277489862
 20
-140.3221941315859
 30
0.0
 10
115.1671277489862
 20
-140.2670549649335
 30
0.0
 10
115.2119305267523
 20
-140.2222874649443
 30
0.0
 10
115.267737059275
 20
-140.2222874649443
 30
0.0
  0
SPLINE
  5
75
330
1F
100
AcDbEntity
  8
_U+30EC_U+30A4_U+30E4_U+30FC 1
 62
   179
420
  2234388
370
     9
100
AcDbSpline
210
0.0
220
0.0
230
1.0
 70
    11
 71
     3
 72
    17
 73
    13
 74
     0
 42
0.0000000001
 43
0.0000000001
 12
1.0
 22
0.0
 32
0.0
 13
1.0
 23
0.0
 33
0.0
 40
0.0
 40
0.0
 40
0.0
 40
0.0
 40
1.0
 40
1.0
 40
1.0
 40
2.0
 40
2.0
 40
2.0
 40
3.0
 40
3.0
 40
3.0
 40
4.0
 40
4.0
 40
4.0
 40
4.0
 10
115.267737059275
 20
-124.7229605243748
 30
0.0
 10
115.3228409467581
 20
-124.7229605243748
 30
0.0
 10
115.3676437233929
 20
-124.7677633021415
 30
0.0
 10
115.3676437233929
 20
-124.8228671910164
 30
0.0
 10
115.3676437233929
 20
-124.8780063576695
 30
0.0
 10
115.3228409467581
 20
-124.9227738576581
 30
0.0
 10
115.267737059275
 20
-124.9227738576581
 30
0.0
 10
115.2119305267523
 20
-124.9227738576581
 30
0.0
 10
115.1671277489862
 20
-124.8780063576695
 30
0.0
 10
115.1671277489862
 20
-124.8228671910164
 30
0.0
 10
115.1671277489862
 20
-124.7677633021415
 30
0.0
 10
115.2119305267523
 20
-124.7229605243748
 30
0.0
 10
115.267737059275
 20
-124.7229605243748
 30
0.0
  0
SPLINE
  5
76
330
1F
100
AcDbEntity
  8
_U+30EC_U+30A4_U+30E4_U+30FC 1
 62
   179
420
  2234388
370
     9
100
AcDbSpline
210
0.0
220
0.0
230
1.0
 70
    11
 71
     3
 72
    17
 73
    13
 74
     0
 42
0.0000000001
 43
0.0000000001
 12
1.0
 22
0.0
 32
0.0
 13
1.0
 23
0.0
 33
0.0
 40
0.0
 40
0.0
 40
0.0
 40
0.0
 40
1.0
 40
1.0
 40
1.0
 40
2.0
 40
2.0
 40
2.0
 40
3.0
 40
3.0
 40
3.0
 40
4.0
 40
4.0
 40
4.0
 40
4.0
 10
111.2666021613525
 20
-115.2225844156389
 30
0.0
 10
111.3217060488356
 20
-115.2225844156389
 30
0.0
 10
111.3665088254703
 20
-115.2673871934053
 30
0.0
 10
111.3665088254703
 20
-115.3224910822805
 30
0.0
 10
111.3665088254703
 20
-115.3776302489333
 30
0.0
 10
111.3217060488356
 20
-115.4223977489222
 30
0.0
 10
111.2666021613525
 20
-115.4223977489222
 30
0.0
 10
111.2114629960925
 20
-115.4223977489222
 30
0.0
 10
111.1666954972347
 20
-115.3776302489333
 30
0.0
 10
111.1666954972347
 20
-115.3224910822805
 30
0.0
 10
111.1666954972347
 20
-115.2673871934053
 30
0.0
 10
111.2114629960925
 20
-115.2225844156389
 30
0.0
 10
111.2666021613525
 20
-115.2225844156389
 30
0.0
  0
SPLINE
  5
77
330
1F
100
AcDbEntity
  8
_U+30EC_U+30A4_U+30E4_U+30FC 1
 62
   179
420
  2234388
370
     9
100
AcDbSpline
210
0.0
220
0.0
230
1.0
 70
    11
 71
     3
 72
    17
 73
    13
 74
     0
 42
0.0000000001
 43
0.0000000001
 12
1.0
 22
0.0
 32
0.0
 13
1.0
 23
0.0
 33
0.0
 40
0.0
 40
0.0
 40
0.0
 40
0.0
 40
1.0
 40
1.0
 40
1.0
 40
2.0
 40
2.0
 40
2.0
 40
3.0
 40
3.0
 40
3.0
 40
4.0
 40
4.0
 40
4.0
 40
4.0
 10
71.25920429313736
 20
-115.2225844156389
 30
0.0
 10
71.3143434583973
 20
-115.2225844156389
 30
0.0
 10
71.35911095725518
 20
-115.2673871934053
 30
0.0
 10
71.35911095725518
 20
-115.3224910822805
 30
0.0
 10
71.35911095725518
 20
-115.3776302489333
 30
0.0
 10
71.3143434583973
 20
-115.4223977489222
 30
0.0
 10
71.25920429313736
 20
-115.4223977489222
 30
0.0
 10
71.20410040565429
 20
-115.4223977489222
 30
0.0
 10
71.15929762901952
 20
-115.3776302489333
 30
0.0
 10
71.15929762901952
 20
-115.3224910822805
 30
0.0
 10
71.15929762901952
 20
-115.2673871934053
 30
0.0
 10
71.20410040565429
 20
-115.2225844156389
 30
0.0
 10
71.25920429313736
 20
-115.2225844156389
 30
0.0
  0
SPLINE
  5
78
330
1F
100
AcDbEntity
  8
_U+30EC_U+30A4_U+30E4_U+30FC 1
 62
   179
420
  2234388
370
     9
100
AcDbSpline
210
0.0
220
0.0
230
1.0
 70
    11
 71
     3
 72
    17
 73
    13
 74
     0
 42
0.0000000001
 43
0.0000000001
 12
1.0
 22
0.0
 32
0.0
 13
1.0
 23
0.0
 33
0.0
 40
0.0
 40
0.0
 40
0.0
 40
0.0
 40
1.0
 40
1.0
 40
1.0
 40
2.0
 40
2.0
 40
2.0
 40
3.0
 40
3.0
 40
3.0
 40
4.0
 40
4.0
 40
4.0
 40
4.0
 10
67.25877495075237
 20
-119.2223435813054
 30
0.0
 10
67.3145860942825
 20
-119.2223435813054
 30
0.0
 10
67.35935189263088
 20
-119.2671463590722
 30
0.0
 10
67.35935189263088
 20
-119.3222502479474
 30
0.0
 10
67.35935189263088
 20
-119.3773894146001
 30
0.0
 10
67.3145860942825
 20
-119.422156914589
 30
0.0
 10
67.25877495075237
 20
-119.422156914589
 30
0.0
 10
67.20363578549241
 20
-119.422156914589
 30
0.0
 10
67.15886828663453
 20
-119.3773894146001
 30
0.0
 10
67.15886828663453
 20
-119.3222502479474
 30
0.0
 10
67.15886828663453
 20
-119.2671463590722
 30
0.0
 10
67.20363578549241
 20
-119.2223435813054
 30
0.0
 10
67.25877495075237
 20
-119.2223435813054
 30
0.0
  0
SPLINE
  5
79
330
1F
100
AcDbEntity
  8
_U+30EC_U+30A4_U+30E4_U+30FC 1
 62
   179
420
  2234388
370
     9
100
AcDbSpline
210
0.0
220
0.0
230
1.0
 70
    11
 71
     3
 72
    17
 73
    13
 74
     0
 42
0.0000000001
 43
0.0000000001
 12
1.0
 22
0.0
 32
0.0
 13
1.0
 23
0.0
 33
0.0
 40
0.0
 40
0.0
 40
0.0
 40
0.0
 40
1.0
 40
1.0
 40
1.0
 40
2.0
 40
2.0
 40
2.0
 40
3.0
 40
3.0
 40
3.0
 40
4.0
 40
4.0
 40
4.0
 40
4.0
 10
67.25877495075237
 20
-140.2222874649443
 30
0.0
 10
67.3145860942825
 20
-140.2222874649443
 30
0.0
 10
67.35935189263088
 20
-140.2670549649335
 30
0.0
 10
67.35935189263088
 20
-140.3221941315859
 30
0.0
 10
67.35935189263088
 20
-140.3780035760164
 30
0.0
 10
67.3145860942825
 20
-140.4227710760056
 30
0.0
 10
67.25877495075237
 20
-140.4227710760056
 30
0.0
 10
67.20363578549241
 20
-140.4227710760056
 30
0.0
 10
67.15886828663453
 20
-140.3780035760164
 30
0.0
 10
67.15886828663453
 20
-140.3221941315859
 30
0.0
 10
67.15886828663453
 20
-140.2670549649335
 30
0.0
 10
67.20363578549241
 20
-140.2222874649443
 30
0.0
 10
67.25877495075237
 20
-140.2222874649443
 30
0.0
  0
SPLINE
  5
7A
330
1F
100
AcDbEntity
  8
_U+30EC_U+30A4_U+30E4_U+30FC 1
 62
   179
420
  2234388
370
     9
100
AcDbSpline
210
0.0
220
0.0
230
1.0
 70
    11
 71
     3
 72
    17
 73
    13
 74
     0
 42
0.0000000001
 43
0.0000000001
 12
1.0
 22
0.0
 32
0.0
 13
1.0
 23
0.0
 33
0.0
 40
0.0
 40
0.0
 40
0.0
 40
0.0
 40
1.0
 40
1.0
 40
1.0
 40
2.0
 40
2.0
 40
2.0
 40
3.0
 40
3.0
 40
3.0
 40
4.0
 40
4.0
 40
4.0
 40
4.0
 10
71.25853401537668
 20
-112.7042449718239
 30
0.0
 10
71.3143434583973
 20
-112.7042449718239
 30
0.0
 10
71.35911095725518
 20
-112.7490124718128
 30
0.0
 10
71.35911095725518
 20
-112.8041516384656
 30
0.0
 10
71.35911095725518
 20
-112.859961082896
 30
0.0
 10
71.3143434583973
 20
-112.9047285828849
 30
0.0
 10
71.25853401537668
 20
-112.9047285828849
 30
0.0
 10
71.20339485011672
 20
-112.9047285828849
 30
0.0
 10
71.15862735125884
 20
-112.859961082896
 30
0.0
 10
71.15862735125884
 20
-112.8041516384656
 30
0.0
 10
71.15862735125884
 20
-112.7490124718128
 30
0.0
 10
71.20339485011672
 20
-112.7042449718239
 30
0.0
 10
71.25853401537668
 20
-112.7042449718239
 30
0.0
  0
SPLINE
  5
7B
330
1F
100
AcDbEntity
  8
_U+30EC_U+30A4_U+30E4_U+30FC 1
 62
   179
420
  2234388
370
     9
100
AcDbSpline
210
0.0
220
0.0
230
1.0
 70
    11
 71
     3
 72
    17
 73
    13
 74
     0
 42
0.0000000001
 43
0.0000000001
 12
1.0
 22
0.0
 32
0.0
 13
1.0
 23
0.0
 33
0.0
 40
0.0
 40
0.0
 40
0.0
 40
0.0
 40
1.0
 40
1.0
 40
1.0
 40
2.0
 40
2.0
 40
2.0
 40
3.0
 40
3.0
 40
3.0
 40
4.0
 40
4.0
 40
4.0
 40
4.0
 10
71.25920429313736
 20
-144.2227169083885
 30
0.0
 10
71.3143434583973
 20
-144.2227169083885
 30
0.0
 10
71.35911095725518
 20
-144.2675196861553
 30
0.0
 10
71.35911095725518
 20
-144.3226235750302
 30
0.0
 10
71.35911095725518
 20
-144.3777627416833
 30
0.0
 10
71.3143434583973
 20
-144.4225302416718
 30
0.0
 10
71.25920429313736
 20
-144.4225302416718
 30
0.0
 10
71.20410040565429
 20
-144.4225302416718
 30
0.0
 10
71.15929762901952
 20
-144.3777627416833
 30
0.0
 10
71.15929762901952
 20
-144.3226235750302
 30
0.0
 10
71.15929762901952
 20
-144.2675196861553
 30
0.0
 10
71.20410040565429
 20
-144.2227169083885
 30
0.0
 10
71.25920429313736
 20
-144.2227169083885
 30
0.0
  0
SPLINE
  5
7C
330
1F
100
AcDbEntity
  8
_U+30EC_U+30A4_U+30E4_U+30FC 1
 62
   179
420
  2234388
370
     9
100
AcDbSpline
210
0.0
220
0.0
230
1.0
 70
    11
 71
     3
 72
    17
 73
    13
 74
     0
 42
0.0000000001
 43
0.0000000001
 12
1.0
 22
0.0
 32
0.0
 13
1.0
 23
0.0
 33
0.0
 40
0.0
 40
0.0
 40
0.0
 40
0.0
 40
1.0
 40
1.0
 40
1.0
 40
2.0
 40
2.0
 40
2.0
 40
3.0
 40
3.0
 40
3.0
 40
4.0
 40
4.0
 40
4.0
 40
4.0
 10
81.26154764906742
 20
-144.2227169083885
 30
0.0
 10
81.3166515365505
 20
-144.2227169083885
 30
0.0
 10
81.36145431318526
 20
-144.2675196861553
 30
0.0
 10
81.36145431318526
 20
-144.3226235750302
 30
0.0
 10
81.36145431318526
 20
-144.3777627416833
 30
0.0
 10
81.3166515365505
 20
-144.4225302416718
 30
0.0
 10
81.26154764906742
 20
-144.4225302416718
 30
0.0
 10
81.2057382060468
 20
-144.4225302416718
 30
0.0
 10
81.16164098494959
 20
-144.3777627416833
 30
0.0
 10
81.16164098494959
 20
-144.3226235750302
 30
0.0
 10
81.16164098494959
 20
-144.2675196861553
 30
0.0
 10
81.2057382060468
 20
-144.2227169083885
 30
0.0
 10
81.26154764906742
 20
-144.2227169083885
 30
0.0
  0
POLYLINE
  5
7D
330
1F
100
AcDbEntity
  8
_U+30EC_U+30A4_U+30E4_U+30FC 1
 62
   179
420
  2234388
370
     9
100
AcDb2dPolyline
 66
     1
 10
0.0
 20
0.0
 30
0.0
  0
VERTEX
  5
7E
330
7D
100
AcDbEntity
  8
_U+30EC_U+30A4_U+30E4_U+30FC 1
 62
   179
420
  2234388
370
     9
100
AcDbVertex
100
AcDb2dVertex
 10
113.8073429298661
 20
-124.8228671910164
 30
0.0
  0
VERTEX
  5
7F
330
7D
100
AcDbEntity
  8
_U+30EC_U+30A4_U+30E4_U+30FC 1
 62
   179
420
  2234388
370
     9
100
AcDbVertex
100
AcDb2dVertex
 10
116.2674739782141
 20
-124.8228671910164
 30
0.0
  0
SEQEND
  5
80
330
7D
100
AcDbEntity
  8
_U+30EC_U+30A4_U+30E4_U+30FC 1
 62
   179
420
  2234388
370
     9
  0
POLYLINE
  5
81
330
1F
100
AcDbEntity
  8
_U+30EC_U+30A4_U+30E4_U+30FC 1
 62
   179
420
  2234388
370
     9
100
AcDb2dPolyline
 66
     1
 10
0.0
 20
0.0
 30
0.0
  0
VERTEX
  5
82
330
81
100
AcDbEntity
  8
_U+30EC_U+30A4_U+30E4_U+30FC 1
 62
   179
420
  2234388
370
     9
100
AcDbVertex
100
AcDb2dVertex
 10
115.267737059275
 20
-140.3221941315859
 30
0.0
  0
VERTEX
  5
83
330
81
100
AcDbEntity
  8
_U+30EC_U+30A4_U+30E4_U+30FC 1
 62
   179
420
  2234388
370
     9
100
AcDbVertex
100
AcDb2dVertex
 10
115.267737059275
 20
-137.3222071878916
 30
0.0
  0
SEQEND
  5
84
330
81
100
AcDbEntity
  8
_U+30EC_U+30A4_U+30E4_U+30FC 1
 62
   179
420
  2234388
370
     9
  0
POLYLINE
  5
85
330
1F
100
AcDbEntity
  8
_U+30EC_U+30A4_U+30E4_U+30FC 1
 62
   179
420
  2234388
370
     9
100
AcDb2dPolyline
 66
     1
 10
0.0
 20
0.0
 30
0.0
  0
VERTEX
  5
86
330
85
100
AcDbEntity
  8
_U+30EC_U+30A4_U+30E4_U+30FC 1
 62
   179
420
  2234388
370
     9
100
AcDbVertex
100
AcDb2dVertex
 10
83.80161813982039
 20
-140.3221941315859
 30
0.0
  0
VERTEX
  5
87
330
85
100
AcDbEntity
  8
_U+30EC_U+30A4_U+30E4_U+30FC 1
 62
   179
420
  2234388
370
     9
100
AcDbVertex
100
AcDb2dVertex
 10
116.2674739782141
 20
-140.3221941315859
 30
0.0
  0
SEQEND
  5
88
330
85
100
AcDbEntity
  8
_U+30EC_U+30A4_U+30E4_U+30FC 1
 62
   179
420
  2234388
370
     9
  0
POLYLINE
  5
89
330
1F
100
AcDbEntity
  8
_U+30EC_U+30A4_U+30E4_U+30FC 1
 62
   179
420
  2234388
370
     9
100
AcDb2dPolyline
 66
     1
 10
0.0
 20
0.0
 30
0.0
  0
VERTEX
  5
8A
330
89
100
AcDbEntity
  8
_U+30EC_U+30A4_U+30E4_U+30FC 1
 62
   179
420
  2234388
370
     9
100
AcDbVertex
100
AcDb2dVertex
 10
81.26154764906742
 20
-144.3226235750302
 30
0.0
  0
VERTEX
  5
8B
330
89
100
AcDbEntity
  8
_U+30EC_U+30A4_U+30E4_U+30FC 1
 62
   179
420
  2234388
370
     9
100
AcDbVertex
100
AcDb2dVertex
 10
71.25920429313736
 20
-144.3226235750302
 30
0.0
  0
SEQEND
  5
8C
330
89
100
AcDbEntity
  8
_U+30EC_U+30A4_U+30E4_U+30FC 1
 62
   179
420
  2234388
370
     9
  0
POLYLINE
  5
8D
330
1F
100
AcDbEntity
  8
_U+30EC_U+30A4_U+30E4_U+30FC 1
 62
   179
420
  2234388
370
     9
100
AcDb2dPolyline
 66
     1
 10
0.0
 20
0.0
 30
0.0
  0
VERTEX
  5
8E
330
8D
100
AcDbEntity
  8
_U+30EC_U+30A4_U+30E4_U+30FC 1
 62
   179
420
  2234388
370
     9
100
AcDbVertex
100
AcDb2dVertex
 10
81.26154764906742
 20
-142.8625821865065
 30
0.0
  0
VERTEX
  5
8F
330
8D
100
AcDbEntity
  8
_U+30EC_U+30A4_U+30E4_U+30FC 1
 62
   179
420
  2234388
370
     9
100
AcDbVertex
100
AcDb2dVertex
 10
81.26154764906742
 20
-145.3223957970027
 30
0.0
  0
SEQEND
  5
90
330
8D
100
AcDbEntity
  8
_U+30EC_U+30A4_U+30E4_U+30FC 1
 62
   179
420
  2234388
370
     9
  0
POLYLINE
  5
91
330
1F
100
AcDbEntity
  8
_U+30EC_U+30A4_U+30E4_U+30FC 1
 62
   179
420
  2234388
370
     9
100
AcDb2dPolyline
 66
     1
 10
0.0
 20
0.0
 30
0.0
  0
VERTEX
  5
92
330
91
100
AcDbEntity
  8
_U+30EC_U+30A4_U+30E4_U+30FC 1
 62
   179
420
  2234388
370
     9
100
AcDbVertex
100
AcDb2dVertex
 10
71.25920429313736
 20
-142.8625821865065
 30
0.0
  0
VERTEX
  5
93
330
91
100
AcDbEntity
  8
_U+30EC_U+30A4_U+30E4_U+30FC 1
 62
   179
420
  2234388
370
     9
100
AcDbVertex
100
AcDb2dVertex
 10
71.25920429313736
 20
-145.3223957970027
 30
0.0
  0
SEQEND
  5
94
330
91
100
AcDbEntity
  8
_U+30EC_U+30A4_U+30E4_U+30FC 1
 62
   179
420
  2234388
370
     9
  0
POLYLINE
  5
95
330
1F
100
AcDbEntity
  8
_U+30EC_U+30A4_U+30E4_U+30FC 1
 62
   179
420
  2234388
370
     9
100
AcDb2dPolyline
 66
     1
 10
0.0
 20
0.0
 30
0.0
  0
VERTEX
  5
96
330
95
100
AcDbEntity
  8
_U+30EC_U+30A4_U+30E4_U+30FC 1
 62
   179
420
  2234388
370
     9
100
AcDbVertex
100
AcDb2dVertex
 10
71.25920429313736
 20
-115.3224910822805
 30
0.0
  0
VERTEX
  5
97
330
95
100
AcDbEntity
  8
_U+30EC_U+30A4_U+30E4_U+30FC 1
 62
   179
420
  2234388
370
     9
100
AcDbVertex
100
AcDb2dVertex
 10
111.2666021613525
 20
-115.3224910822805
 30
0.0
  0
SEQEND
  5
98
330
95
100
AcDbEntity
  8
_U+30EC_U+30A4_U+30E4_U+30FC 1
 62
   179
420
  2234388
370
     9
  0
POLYLINE
  5
99
330
1F
100
AcDbEntity
  8
_U+30EC_U+30A4_U+30E4_U+30FC 1
 62
   179
420
  2234388
370
     9
100
AcDb2dPolyline
 66
     1
 10
0.0
 20
0.0
 30
0.0
  0
VERTEX
  5
9A
330
99
100
AcDbEntity
  8
_U+30EC_U+30A4_U+30E4_U+30FC 1
 62
   179
420
  2234388
370
     9
100
AcDbVertex
100
AcDb2dVertex
 10
71.25920429313736
 20
-116.7825324708042
 30
0.0
  0
VERTEX
  5
9B
330
99
100
AcDbEntity
  8
_U+30EC_U+30A4_U+30E4_U+30FC 1
 62
   179
420
  2234388
370
     9
100
AcDbVertex
100
AcDb2dVertex
 10
71.25920429313736
 20
-114.3220485825306
 30
0.0
  0
SEQEND
  5
9C
330
99
100
AcDbEntity
  8
_U+30EC_U+30A4_U+30E4_U+30FC 1
 62
   179
420
  2234388
370
     9
  0
POLYLINE
  5
9D
330
1F
100
AcDbEntity
  8
_U+30EC_U+30A4_U+30E4_U+30FC 1
 62
   179
420
  2234388
370
     9
100
AcDb2dPolyline
 66
     1
 10
0.0
 20
0.0
 30
0.0
  0
VERTEX
  5
9E
330
9D
100
AcDbEntity
  8
_U+30EC_U+30A4_U+30E4_U+30FC 1
 62
   179
420
  2234388
370
     9
100
AcDbVertex
100
AcDb2dVertex
 10
111.2666021613525
 20
-121.7824166362211
 30
0.0
  0
VERTEX
  5
9F
330
9D
100
AcDbEntity
  8
_U+30EC_U+30A4_U+30E4_U+30FC 1
 62
   179
420
  2234388
370
     9
100
AcDbVertex
100
AcDb2dVertex
 10
111.2666021613525
 20
-114.3220485825306
 30
0.0
  0
SEQEND
  5
A0
330
9D
100
AcDbEntity
  8
_U+30EC_U+30A4_U+30E4_U+30FC 1
 62
   179
420
  2234388
370
     9
  0
POLYLINE
  5
A1
330
1F
100
AcDbEntity
  8
_U+30EC_U+30A4_U+30E4_U+30FC 1
 62
   179
420
  2234388
370
     9
100
AcDb2dPolyline
 66
     1
 10
0.0
 20
0.0
 30
0.0
  0
VERTEX
  5
A2
330
A1
100
AcDbEntity
  8
_U+30EC_U+30A4_U+30E4_U+30FC 1
 62
   179
420
  2234388
370
     9
100
AcDbVertex
100
AcDb2dVertex
 10
115.267737059275
 20
-137.3222071878916
 30
0.0
  0
VERTEX
  5
A3
330
A1
100
AcDbEntity
  8
_U+30EC_U+30A4_U+30E4_U+30FC 1
 62
   179
420
  2234388
370
     9
100
AcDbVertex
100
AcDb2dVertex
 10
115.267737059275
 20
-124.8228671910164
 30
0.0
  0
SEQEND
  5
A4
330
A1
100
AcDbEntity
  8
_U+30EC_U+30A4_U+30E4_U+30FC 1
 62
   179
420
  2234388
370
     9
  0
POLYLINE
  5
A5
330
1F
100
AcDbEntity
  8
_U+30EC_U+30A4_U+30E4_U+30FC 1
 62
   179
420
  2234388
370
     9
100
AcDb2dPolyline
 66
     1
 10
0.0
 20
0.0
 30
0.0
  0
VERTEX
  5
A6
330
A5
100
AcDbEntity
  8
_U+30EC_U+30A4_U+30E4_U+30FC 1
 62
   179
420
  2234388
370
     9
100
AcDbVertex
100
AcDb2dVertex
 10
83.80161813982039
 20
-137.3222071878916
 30
0.0
  0
VERTEX
  5
A7
330
A5
100
AcDbEntity
  8
_U+30EC_U+30A4_U+30E4_U+30FC 1
 62
   179
420
  2234388
370
     9
100
AcDbVertex
100
AcDb2dVertex
 10
116.2674739782141
 20
-137.3222071878916
 30
0.0
  0
SEQEND
  5
A8
330
A5
100
AcDbEntity
  8
_U+30EC_U+30A4_U+30E4_U+30FC 1
 62
   179
420
  2234388
370
     9
  0
POLYLINE
  5
A9
330
1F
100
AcDbEntity
  8
_U+30EC_U+30A4_U+30E4_U+30FC 1
 62
   179
420
  2234388
370
     9
100
AcDb2dPolyline
 66
     1
 10
0.0
 20
0.0
 30
0.0
  0
VERTEX
  5
AA
330
A9
100
AcDbEntity
  8
_U+30EC_U+30A4_U+30E4_U+30FC 1
 62
   179
420
  2234388
370
     9
100
AcDbVertex
100
AcDb2dVertex
 10
67.25877495075237
 20
-140.3221941315859
 30
0.0
  0
VERTEX
  5
AB
330
A9
100
AcDbEntity
  8
_U+30EC_U+30A4_U+30E4_U+30FC 1
 62
   179
420
  2234388
370
     9
100
AcDbVertex
100
AcDb2dVertex
 10
67.25877495075237
 20
-119.3222502479474
 30
0.0
  0
SEQEND
  5
AC
330
A9
100
AcDbEntity
  8
_U+30EC_U+30A4_U+30E4_U+30FC 1
 62
   179
420
  2234388
370
     9
  0
POLYLINE
  5
AD
330
1F
100
AcDbEntity
  8
_U+30EC_U+30A4_U+30E4_U+30FC 1
 62
   179
420
  2234388
370
     9
100
AcDb2dPolyline
 66
     1
 10
0.0
 20
0.0
 30
0.0
  0
VERTEX
  5
AE
330
AD
100
AcDbEntity
  8
_U+30EC_U+30A4_U+30E4_U+30FC 1
 62
   179
420
  2234388
370
     9
100
AcDbVertex
100
AcDb2dVertex
 10
68.7188163023925
 20
-140.3221941315859
 30
0.0
  0
VERTEX
  5
AF
330
AD
100
AcDbEntity
  8
_U+30EC_U+30A4_U+30E4_U+30FC 1
 62
   179
420
  2234388
370
     9
100
AcDbVertex
100
AcDb2dVertex
 10
66.25900275403646
 20
-140.3221941315859
 30
0.0
  0
SEQEND
  5
B0
330
AD
100
AcDbEntity
  8
_U+30EC_U+30A4_U+30E4_U+30FC 1
 62
   179
420
  2234388
370
     9
  0
POLYLINE
  5
B1
330
1F
100
AcDbEntity
  8
_U+30EC_U+30A4_U+30E4_U+30FC 1
 62
   179
420
  2234388
370
     9
100
AcDb2dPolyline
 66
     1
 10
0.0
 20
0.0
 30
0.0
  0
VERTEX
  5
B2
330
B1
100
AcDbEntity
  8
_U+30EC_U+30A4_U+30E4_U+30FC 1
 62
   179
420
  2234388
370
     9
100
AcDbVertex
100
AcDb2dVertex
 10
68.7188163023925
 20
-119.3222502479474
 30
0.0
  0
VERTEX
  5
B3
330
B1
100
AcDbEntity
  8
_U+30EC_U+30A4_U+30E4_U+30FC 1
 62
   179
420
  2234388
370
     9
100
AcDbVertex
100
AcDb2dVertex
 10
66.25900275403646
 20
-119.3222502479474
 30
0.0
  0
SEQEND
  5
B4
330
B1
100
AcDbEntity
  8
_U+30EC_U+30A4_U+30E4_U+30FC 1
 62
   179
420
  2234388
370
     9
  0
POLYLINE
  5
B5
330
1F
100
AcDbEntity
  8
_U+30EC_U+30A4_U+30E4_U+30FC 1
 62
   179
420
  2234388
370
     9
100
AcDb2dPolyline
 66
     1
 10
0.0
 20
0.0
 30
0.0
  0
VERTEX
  5
B6
330
B5
100
AcDbEntity
  8
_U+30EC_U+30A4_U+30E4_U+30FC 1
 62
   179
420
  2234388
370
     9
100
AcDbVertex
100
AcDb2dVertex
 10
71.25920429313736
 20
-113.5097071938447
 30
0.0
  0
VERTEX
  5
B7
330
B5
100
AcDbEntity
  8
_U+30EC_U+30A4_U+30E4_U+30FC 1
 62
   179
420
  2234388
370
     9
100
AcDbVertex
100
AcDb2dVertex
 10
71.25920429313736
 20
-112.0985960830864
 30
0.0
  0
SEQEND
  5
B8
330
B5
100
AcDbEntity
  8
_U+30EC_U+30A4_U+30E4_U+30FC 1
 62
   179
420
  2234388
370
     9
  0
SPLINE
  5
B9
330
1F
100
AcDbEntity
  8
_U+30EC_U+30A4_U+30E4_U+30FC 1
 62
   179
420
  2234388
370
     9
100
AcDbSpline
210
0.0
220
0.0
230
1.0
 70
    11
 71
     3
 72
    17
 73
    13
 74
     0
 42
0.0000000001
 43
0.0000000001
 12
1.0
 22
0.0
 32
0.0
 13
1.0
 23
0.0
 33
0.0
 40
0.0
 40
0.0
 40
0.0
 40
0.0
 40
1.0
 40
1.0
 40
1.0
 40
2.0
 40
2.0
 40
2.0
 40
3.0
 40
3.0
 40
3.0
 40
4.0
 40
4.0
 40
4.0
 40
4.0
 10
72.2584473232001
 20
-112.7042449718239
 30
0.0
 10
72.3142920439976
 20
-112.7042449718239
 30
0.0
 10
72.35905954285549
 20
-112.7490124718128
 30
0.0
 10
72.35905954285549
 20
-112.8041516384656
 30
0.0
 10
72.35905954285549
 20
-112.859961082896
 30
0.0
 10
72.3142920439976
 20
-112.9047285828849
 30
0.0
 10
72.2584473232001
 20
-112.9047285828849
 30
0.0
 10
72.20334343571702
 20
-112.9047285828849
 30
0.0
 10
72.15854065908226
 20
-112.859961082896
 30
0.0
 10
72.15854065908226
 20
-112.8041516384656
 30
0.0
 10
72.15854065908226
 20
-112.7490124718128
 30
0.0
 10
72.20334343571702
 20
-112.7042449718239
 30
0.0
 10
72.2584473232001
 20
-112.7042449718239
 30
0.0
  0
POLYLINE
  5
BA
330
1F
100
AcDbEntity
  8
_U+30EC_U+30A4_U+30E4_U+30FC 1
 62
   179
420
  2234388
370
     9
100
AcDb2dPolyline
 66
     1
 10
0.0
 20
0.0
 30
0.0
  0
VERTEX
  5
BB
330
BA
100
AcDbEntity
  8
_U+30EC_U+30A4_U+30E4_U+30FC 1
 62
   179
420
  2234388
370
     9
100
AcDbVertex
100
AcDb2dVertex
 10
72.25915287873765
 20
-113.5097071938447
 30
0.0
  0
VERTEX
  5
BC
330
BA
100
AcDbEntity
  8
_U+30EC_U+30A4_U+30E4_U+30FC 1
 62
   179
420
  2234388
370
     9
100
AcDbVertex
100
AcDb2dVertex
 10
72.25915287873765
 20
-112.0985960830864
 30
0.0
  0
SEQEND
  5
BD
330
BA
100
AcDbEntity
  8
_U+30EC_U+30A4_U+30E4_U+30FC 1
 62
   179
420
  2234388
370
     9
  0
POLYLINE
  5
BE
330
1F
100
AcDbEntity
  8
_U+30EC_U+30A4_U+30E4_U+30FC 1
 62
   179
420
  2234388
370
     9
100
AcDb2dPolyline
 66
     1
 10
0.0
 20
0.0
 30
0.0
  0
VERTEX
  5
BF
330
BE
100
AcDbEntity
  8
_U+30EC_U+30A4_U+30E4_U+30FC 1
 62
   179
420
  2234388
370
     9
100
AcDbVertex
100
AcDb2dVertex
 10
70.07270682340743
 20
-112.8041516384656
 30
0.0
  0
VERTEX
  5
C0
330
BE
100
AcDbEntity
  8
_U+30EC_U+30A4_U+30E4_U+30FC 1
 62
   179
420
  2234388
370
     9
100
AcDbVertex
100
AcDb2dVertex
 10
73.44134645968849
 20
-112.8041516384656
 30
0.0
  0
SEQEND
  5
C1
330
BE
100
AcDbEntity
  8
_U+30EC_U+30A4_U+30E4_U+30FC 1
 62
   179
420
  2234388
370
     9
  0
INSERT
  5
C3
330
1F
100
AcDbEntity
  8
_U+30EC_U+30A4_U+30E4_U+30FC 1
100
AcDbBlockReference
  2
block 2
 10
0.0
 20
0.0
 30
0.0
  0
INSERT
  5
C9
330
1F
100
AcDbEntity
  8
_U+30EC_U+30A4_U+30E4_U+30FC 1
100
AcDbBlockReference
  2
block 3
 10
0.0
 20
0.0
 30
0.0
  0
INSERT
  5
D2
330
1F
100
AcDbEntity
  8
_U+30EC_U+30A4_U+30E4_U+30FC 1
100
AcDbBlockReference
  2
block 4
 10
0.0
 20
0.0
 30
0.0
  0
INSERT
  5
EE
330
1F
100
AcDbEntity
  8
_U+30EC_U+30A4_U+30E4_U+30FC 1
100
AcDbBlockReference
  2
block 5
 10
0.0
 20
0.0
 30
0.0
  0
INSERT
  5
F4
330
1F
100
AcDbEntity
  8
_U+30EC_U+30A4_U+30E4_U+30FC 1
100
AcDbBlockReference
  2
block 6
 10
0.0
 20
0.0
 30
0.0
  0
INSERT
  5
106
330
1F
100
AcDbEntity
  8
_U+30EC_U+30A4_U+30E4_U+30FC 1
100
AcDbBlockReference
  2
block 7
 10
0.0
 20
0.0
 30
0.0
  0
ENDSEC
  0
SECTION
  2
OBJECTS
  0
DICTIONARY
  5
C
330
0
100
AcDbDictionary
281
     1
  3
ACAD_GROUP
350
D
  3
ACAD_LAYOUT
350
1A
  3
ACAD_MATERIAL
350
3B
  3
ACAD_MLEADERSTYLE
350
10E
  3
ACAD_MLINESTYLE
350
17
  3
ACAD_PLOTSETTINGS
350
19
  3
ACAD_PLOTSTYLENAME
350
E
  3
ACAD_TABLESTYLE
350
10D
  3
ACAD_VISUALSTYLE
350
2A
  0
SUN
  5
3F
330
29
100
AcDbSun
 90
        1
290
     0
 63
     7
421
 16777215
 40
1.0
291
     1
 91
  2455826
 92
 54000000
292
     0
 70
     2
 71
   256
280
     1
  0
DICTIONARY
  5
D
102
{ACAD_REACTORS
330
C
102
}
330
C
100
AcDbDictionary
281
     1
  0
DICTIONARY
  5
1A
102
{ACAD_REACTORS
330
C
102
}
330
C
100
AcDbDictionary
281
     1
  3
Layout1
350
1E
  3
Layout2
350
26
  3
Model
350
22
  0
DICTIONARY
  5
3B
102
{ACAD_REACTORS
330
C
102
}
330
C
100
AcDbDictionary
281
     1
  3
ByBlock
350
3D
  3
ByLayer
350
3C
  3
Global
350
3E
  0
DICTIONARY
  5
10E
102
{ACAD_REACTORS
330
C
102
}
330
C
100
AcDbDictionary
281
     1
  0
DICTIONARY
  5
17
102
{ACAD_REACTORS
330
C
102
}
330
C
100
AcDbDictionary
281
     1
  3
Standard
350
18
  0
DICTIONARY
  5
19
102
{ACAD_REACTORS
330
C
102
}
330
C
100
AcDbDictionary
281
     1
  0
ACDBDICTIONARYWDFLT
  5
E
102
{ACAD_REACTORS
330
C
102
}
330
C
100
AcDbDictionary
281
     1
  3
Normal
350
F
100
AcDbDictionaryWithDefault
340
F
  0
DICTIONARY
  5
10D
102
{ACAD_REACTORS
330
C
102
}
330
C
100
AcDbDictionary
281
     1
  0
DICTIONARY
  5
2A
102
{ACAD_REACTORS
330
C
102
}
330
C
100
AcDbDictionary
281
     1
  3
2dWireframe
350
2F
  3
3D Hidden
350
31
  3
3dWireframe
350
30
  3
Basic
350
32
  3
Brighten
350
36
  3
ColorChange
350
3A
  3
Conceptual
350
34
  3
Dim
350
35
  3
Facepattern
350
39
  3
Flat
350
2B
  3
FlatWithEdges
350
2C
  3
Gouraud
350
2D
  3
GouraudWithEdges
350
2E
  3
Linepattern
350
38
  3
Realistic
350
33
  3
Thicken
350
37
  0
LAYOUT
  5
1E
102
{ACAD_REACTORS
330
1A
102
}
330
1A
100
AcDbPlotSettings
  1

  2
none_device
  4

  6

 40
0.0
 41
0.0
 42
0.0
 43
0.0
 44
0.0
 45
0.0
 46
0.0
 47
0.0
 48
0.0
 49
0.0
140
0.0
141
0.0
142
1.0
143
1.0
 70
   688
 72
     0
 73
     0
 74
     5
  7

 75
    16
 76
     0
 77
     2
 78
   300
147
1.0
148
0.0
149
0.0
100
AcDbLayout
  1
Layout1
 70
     1
 71
     1
 10
0.0
 20
0.0
 11
12.0
 21
9.0
 12
0.0
 22
0.0
 32
0.0
 14
1.000000000000000E+20
 24
1.000000000000000E+20
 34
1.000000000000000E+20
 15
-1.000000000000000E+20
 25
-1.000000000000000E+20
 35
-1.000000000000000E+20
146
0.0
 13
0.0
 23
0.0
 33
0.0
 16
1.0
 26
0.0
 36
0.0
 17
0.0
 27
1.0
 37
0.0
 76
     0
330
1B
  0
LAYOUT
  5
26
102
{ACAD_REACTORS
330
1A
102
}
330
1A
100
AcDbPlotSettings
  1

  2
none_device
  4

  6

 40
0.0
 41
0.0
 42
0.0
 43
0.0
 44
0.0
 45
0.0
 46
0.0
 47
0.0
 48
0.0
 49
0.0
140
0.0
141
0.0
142
1.0
143
1.0
 70
   688
 72
     0
 73
     0
 74
     5
  7

 75
    16
 76
     0
 77
     2
 78
   300
147
1.0
148
0.0
149
0.0
100
AcDbLayout
  1
Layout2
 70
     1
 71
     2
 10
0.0
 20
0.0
 11
0.0
 21
0.0
 12
0.0
 22
0.0
 32
0.0
 14
0.0
 24
0.0
 34
0.0
 15
0.0
 25
0.0
 35
0.0
146
0.0
 13
0.0
 23
0.0
 33
0.0
 16
1.0
 26
0.0
 36
0.0
 17
0.0
 27
1.0
 37
0.0
 76
     0
330
23
  0
LAYOUT
  5
22
102
{ACAD_REACTORS
330
1A
102
}
330
1A
100
AcDbPlotSettings
  1

  2
none_device
  4

  6

 40
0.0
 41
0.0
 42
0.0
 43
0.0
 44
0.0
 45
0.0
 46
0.0
 47
0.0
 48
0.0
 49
0.0
140
0.0
141
0.0
142
1.0
143
1.0
 70
  1712
 72
     0
 73
     0
 74
     0
  7

 75
     0
 76
     0
 77
     2
 78
   300
147
1.0
148
0.0
149
0.0
100
AcDbLayout
  1
Model
 70
     1
 71
     0
 10
0.0
 20
0.0
 11
12.0
 21
9.0
 12
0.0
 22
0.0
 32
0.0
 14
1.000000000000000E+20
 24
1.000000000000000E+20
 34
1.000000000000000E+20
 15
-1.000000000000000E+20
 25
-1.000000000000000E+20
 35
-1.000000000000000E+20
146
0.0
 13
0.0
 23
0.0
 33
0.0
 16
1.0
 26
0.0
 36
0.0
 17
0.0
 27
1.0
 37
0.0
 76
     0
330
1F
331
29
  0
MATERIAL
  5
3D
102
{ACAD_REACTORS
330
3B
102
}
330
3B
100
AcDbMaterial
  1
ByBlock
 72
     1
 94
      127
  0
MATERIAL
  5
3C
102
{ACAD_REACTORS
330
3B
102
}
330
3B
100
AcDbMaterial
  1
ByLayer
 72
     1
 94
      127
  0
MATERIAL
  5
3E
102
{ACAD_REACTORS
330
3B
102
}
330
3B
100
AcDbMaterial
  1
Global
 72
     1
 94
      127
  0
MLINESTYLE
  5
18
102
{ACAD_REACTORS
330
17
102
}
330
17
100
AcDbMlineStyle
  2
Standard
 70
     0
  3

 62
   256
 51
90.0
 52
90.0
 71
     2
 49
0.5
 62
   256
  6
BYLAYER
 49
-0.5
 62
   256
  6
BYLAYER
  0
ACDBPLACEHOLDER
  5
F
102
{ACAD_REACTORS
330
E
102
}
330
E
  0
VISUALSTYLE
  5
2F
102
{ACAD_REACTORS
330
2A
102
}
330
2A
100
AcDbVisualStyle
  2
2dWireframe
 70
     4
177
     2
291
     0
 71
     0
176
     1
 72
     2
176
     1
 73
     0
176
     1
 90
        0
176
     1
 40
-0.6
176
     1
 41
-30.0
176
     1
 62
     5
 63
     7
421
 16777215
176
     1
 74
     1
176
     1
 91
        4
176
     1
 64
     7
176
     1
 65
   257
176
     1
 75
     1
176
     1
175
     1
176
     1
 42
1.0
176
     1
 92
        0
176
     1
 66
   257
176
     1
 43
1.0
176
     1
 76
     1
176
     1
 77
     6
176
     1
 78
     2
176
     1
 67
     7
176
     1
 79
     5
176
     1
170
     0
176
     1
171
     0
176
     1
290
     0
176
     1
 93
        1
176
     1
 44
0.0
176
     1
173
     0
176
     1
  0
VISUALSTYLE
  5
31
102
{ACAD_REACTORS
330
2A
102
}
330
2A
100
AcDbVisualStyle
  2
3D Hidden
 70
     6
177
     2
291
     0
 71
     1
176
     1
 72
     2
176
     1
 73
     2
176
     1
 90
        0
176
     1
 40
-0.6
176
     1
 41
-30.0
176
     1
 62
     5
 63
     7
421
 16777215
176
     1
 74
     2
176
     1
 91
        2
176
     1
 64
     7
176
     1
 65
   257
176
     1
 75
     2
176
     1
175
     1
176
     1
 42
40.0
176
     1
 92
        0
176
     1
 66
   257
176
     1
 43
1.0
176
     1
 76
     1
176
     1
 77
     6
176
     1
 78
     2
176
     1
 67
     7
176
     1
 79
     3
176
     1
170
     0
176
     1
171
     0
176
     1
290
     0
176
     1
 93
        1
176
     1
 44
0.0
176
     1
173
     0
176
     1
  0
VISUALSTYLE
  5
30
102
{ACAD_REACTORS
330
2A
102
}
330
2A
100
AcDbVisualStyle
  2
3dWireframe
 70
     5
177
     2
291
     0
 71
     0
176
     1
 72
     2
176
     1
 73
     0
176
     1
 90
        0
176
     1
 40
-0.6
176
     1
 41
-30.0
176
     1
 62
     5
 63
     7
421
 16777215
176
     1
 74
     1
176
     1
 91
        4
176
     1
 64
     7
176
     1
 65
   257
176
     1
 75
     1
176
     1
175
     1
176
     1
 42
1.0
176
     1
 92
        0
176
     1
 66
   257
176
     1
 43
1.0
176
     1
 76
     1
176
     1
 77
     6
176
     1
 78
     2
176
     1
 67
     7
176
     1
 79
     5
176
     1
170
     0
176
     1
171
     0
176
     1
290
     0
176
     1
 93
        1
176
     1
 44
0.0
176
     1
173
     0
176
     1
  0
VISUALSTYLE
  5
32
102
{ACAD_REACTORS
330
2A
102
}
330
2A
100
AcDbVisualStyle
  2
Basic
 70
     7
177
     2
291
     1
 71
     1
176
     1
 72
     0
176
     1
 73
     1
176
     1
 90
        0
176
     1
 40
-0.6
176
     1
 41
-30.0
176
     1
 62
     5
 63
     7
421
 16777215
176
     1
 74
     0
176
     1
 91
        4
176
     1
 64
     7
176
     1
 65
   257
176
     1
 75
     1
176
     1
175
     1
176
     1
 42
1.0
176
     1
 92
        8
176
     1
 66
     7
176
     1
 43
1.0
176
     1
 76
     1
176
     1
 77
     6
176
     1
 78
     2
176
     1
 67
     7
176
     1
 79
     5
176
     1
170
     0
176
     1
171
     0
176
     1
290
     0
176
     1
 93
        1
176
     1
 44
0.0
176
     1
173
     0
176
     1
  0
VISUALSTYLE
  5
36
102
{ACAD_REACTORS
330
2A
102
}
330
2A
100
AcDbVisualStyle
  2
Brighten
 70
    12
177
     2
291
     1
 71
     2
176
     1
 72
     2
176
     1
 73
     0
176
     1
 90
        0
176
     1
 40
-0.6
176
     1
 41
-30.0
176
     1
 62
     5
 63
     7
421
 16777215
176
     1
 74
     1
176
     1
 91
        4
176
     1
 64
     7
176
     1
 65
   257
176
     1
 75
     1
176
     1
175
     1
176
     1
 42
1.0
176
     1
 92
        8
176
     1
 66
     7
176
     1
 43
1.0
176
     1
 76
     1
176
     1
 77
     6
176
     1
 78
     2
176
     1
 67
     7
176
     1
 79
     5
176
     1
170
     0
176
     1
171
     0
176
     1
290
     0
176
     1
 93
        1
176
     1
 44
50.0
176
     1
173
     0
176
     1
  0
VISUALSTYLE
  5
3A
102
{ACAD_REACTORS
330
2A
102
}
330
2A
100
AcDbVisualStyle
  2
ColorChange
 70
    16
177
     2
291
     1
 71
     2
176
     1
 72
     2
176
     1
 73
     3
176
     1
 90
        0
176
     1
 40
-0.6
176
     1
 41
-30.0
176
     1
 62
     5
 63
     8
421
  8421504
176
     1
 74
     1
176
     1
 91
        4
176
     1
 64
     7
176
     1
 65
   257
176
     1
 75
     1
176
     1
175
     1
176
     1
 42
1.0
176
     1
 92
        8
176
     1
 66
     8
424
  8421504
176
     1
 43
1.0
176
     1
 76
     1
176
     1
 77
     6
176
     1
 78
     2
176
     1
 67
     7
176
     1
 79
     5
176
     1
170
     0
176
     1
171
     0
176
     1
290
     0
176
     1
 93
        1
176
     1
 44
0.0
176
     1
173
     0
176
     1
  0
VISUALSTYLE
  5
34
102
{ACAD_REACTORS
330
2A
102
}
330
2A
100
AcDbVisualStyle
  2
Conceptual
 70
     9
177
     2
291
     0
 71
     3
176
     1
 72
     2
176
     1
 73
     0
176
     1
 90
        0
176
     1
 40
-0.6
176
     1
 41
-30.0
176
     1
 62
     5
 63
     7
421
 16777215
176
     1
 74
     2
176
     1
 91
        2
176
     1
 64
     7
176
     1
 65
   257
176
     1
 75
     1
176
     1
175
     1
176
     1
 42
40.0
176
     1
 92
        8
176
     1
 66
     7
176
     1
 43
1.0
176
     1
 76
     1
176
     1
 77
     6
176
     1
 78
     2
176
     1
 67
     7
176
     1
 79
     3
176
     1
170
     0
176
     1
171
     0
176
     1
290
     0
176
     1
 93
        1
176
     1
 44
0.0
176
     1
173
     0
176
     1
  0
VISUALSTYLE
  5
35
102
{ACAD_REACTORS
330
2A
102
}
330
2A
100
AcDbVisualStyle
  2
Dim
 70
    11
177
     2
291
     1
 71
     2
176
     1
 72
     2
176
     1
 73
     0
176
     1
 90
        0
176
     1
 40
-0.6
176
     1
 41
-30.0
176
     1
 62
     5
 63
     7
421
 16777215
176
     1
 74
     1
176
     1
 91
        4
176
     1
 64
     7
176
     1
 65
   257
176
     1
 75
     1
176
     1
175
     1
176
     1
 42
1.0
176
     1
 92
        8
176
     1
 66
     7
176
     1
 43
1.0
176
     1
 76
     1
176
     1
 77
     6
176
     1
 78
     2
176
     1
 67
     7
176
     1
 79
     5
176
     1
170
     0
176
     1
171
     0
176
     1
290
     0
176
     1
 93
        1
176
     1
 44
-50.0
176
     1
173
     0
176
     1
  0
VISUALSTYLE
  5
39
102
{ACAD_REACTORS
330
2A
102
}
330
2A
100
AcDbVisualStyle
  2
Facepattern
 70
    15
177
     2
291
     1
 71
     2
176
     1
 72
     2
176
     1
 73
     0
176
     1
 90
        0
176
     1
 40
-0.6
176
     1
 41
-30.0
176
     1
 62
     5
 63
     7
421
 16777215
176
     1
 74
     1
176
     1
 91
        4
176
     1
 64
     7
176
     1
 65
   257
176
     1
 75
     1
176
     1
175
     1
176
     1
 42
1.0
176
     1
 92
        8
176
     1
 66
     7
176
     1
 43
1.0
176
     1
 76
     1
176
     1
 77
     6
176
     1
 78
     2
176
     1
 67
     7
176
     1
 79
     5
176
     1
170
     0
176
     1
171
     0
176
     1
290
     0
176
     1
 93
        1
176
     1
 44
0.0
176
     1
173
     0
176
     1
  0
VISUALSTYLE
  5
2B
102
{ACAD_REACTORS
330
2A
102
}
330
2A
100
AcDbVisualStyle
  2
Flat
 70
     0
177
     2
291
     1
 71
     2
176
     1
 72
     1
176
     1
 73
     1
176
     1
 90
        2
176
     1
 40
-0.6
176
     1
 41
30.0
176
     1
 62
     5
 63
     7
421
 16777215
176
     1
 74
     0
176
     1
 91
        4
176
     1
 64
     7
176
     1
 65
   257
176
     1
 75
     1
176
     1
175
     1
176
     1
 42
1.0
176
     1
 92
        8
176
     1
 66
     7
176
     1
 43
1.0
176
     1
 76
     1
176
     1
 77
     6
176
     1
 78
     2
176
     1
 67
     7
176
     1
 79
     5
176
     1
170
     0
176
     1
171
     0
176
     1
290
     0
176
     1
 93
       13
176
     1
 44
0.0
176
     1
173
     0
176
     1
  0
VISUALSTYLE
  5
2C
102
{ACAD_REACTORS
330
2A
102
}
330
2A
100
AcDbVisualStyle
  2
FlatWithEdges
 70
     1
177
     2
291
     1
 71
     2
176
     1
 72
     1
176
     1
 73
     1
176
     1
 90
        2
176
     1
 40
-0.6
176
     1
 41
30.0
176
     1
 62
     5
 63
     7
421
 16777215
176
     1
 74
     1
176
     1
 91
        4
176
     1
 64
     7
176
     1
 65
   257
176
     1
 75
     1
176
     1
175
     1
176
     1
 42
1.0
176
     1
 92
        0
176
     1
 66
   257
176
     1
 43
1.0
176
     1
 76
     1
176
     1
 77
     6
176
     1
 78
     2
176
     1
 67
     7
176
     1
 79
     5
176
     1
170
     0
176
     1
171
     0
176
     1
290
     0
176
     1
 93
       13
176
     1
 44
0.0
176
     1
173
     0
176
     1
  0
VISUALSTYLE
  5
2D
102
{ACAD_REACTORS
330
2A
102
}
330
2A
100
AcDbVisualStyle
  2
Gouraud
 70
     2
177
     2
291
     1
 71
     2
176
     1
 72
     2
176
     1
 73
     1
176
     1
 90
        2
176
     1
 40
-0.6
176
     1
 41
30.0
176
     1
 62
     5
 63
     7
421
 16777215
176
     1
 74
     0
176
     1
 91
        4
176
     1
 64
     7
176
     1
 65
   257
176
     1
 75
     1
176
     1
175
     1
176
     1
 42
1.0
176
     1
 92
        0
176
     1
 66
     7
176
     1
 43
1.0
176
     1
 76
     1
176
     1
 77
     6
176
     1
 78
     2
176
     1
 67
     7
176
     1
 79
     5
176
     1
170
     0
176
     1
171
     0
176
     1
290
     0
176
     1
 93
       13
176
     1
 44
0.0
176
     1
173
     0
176
     1
  0
VISUALSTYLE
  5
2E
102
{ACAD_REACTORS
330
2A
102
}
330
2A
100
AcDbVisualStyle
  2
GouraudWithEdges
 70
     3
177
     2
291
     1
 71
     2
176
     1
 72
     2
176
     1
 73
     1
176
     1
 90
        2
176
     1
 40
-0.6
176
     1
 41
30.0
176
     1
 62
     5
 63
     7
421
 16777215
176
     1
 74
     1
176
     1
 91
        4
176
     1
 64
     7
176
     1
 65
   257
176
     1
 75
     1
176
     1
175
     1
176
     1
 42
1.0
176
     1
 92
        0
176
     1
 66
   257
176
     1
 43
1.0
176
     1
 76
     1
176
     1
 77
     6
176
     1
 78
     2
176
     1
 67
     7
176
     1
 79
     5
176
     1
170
     0
176
     1
171
     0
176
     1
290
     0
176
     1
 93
       13
176
     1
 44
0.0
176
     1
173
     0
176
     1
  0
VISUALSTYLE
  5
38
102
{ACAD_REACTORS
330
2A
102
}
330
2A
100
AcDbVisualStyle
  2
Linepattern
 70
    14
177
     2
291
     1
 71
     2
176
     1
 72
     2
176
     1
 73
     0
176
     1
 90
        0
176
     1
 40
-0.6
176
     1
 41
-30.0
176
     1
 62
     5
 63
     7
421
 16777215
176
     1
 74
     1
176
     1
 91
        4
176
     1
 64
     7
176
     1
 65
   257
176
     1
 75
     7
176
     1
175
     7
176
     1
 42
1.0
176
     1
 92
        8
176
     1
 66
     7
176
     1
 43
1.0
176
     1
 76
     1
176
     1
 77
     6
176
     1
 78
     2
176
     1
 67
     7
176
     1
 79
     5
176
     1
170
     0
176
     1
171
     0
176
     1
290
     0
176
     1
 93
        1
176
     1
 44
0.0
176
     1
173
     0
176
     1
  0
VISUALSTYLE
  5
33
102
{ACAD_REACTORS
330
2A
102
}
330
2A
100
AcDbVisualStyle
  2
Realistic
 70
     8
177
     2
291
     0
 71
     2
176
     1
 72
     2
176
     1
 73
     0
176
     1
 90
        0
176
     1
 40
-0.6
176
     1
 41
-30.0
176
     1
 62
     5
 63
     7
421
 16777215
176
     1
 74
     1
176
     1
 91
        0
176
     1
 64
     7
176
     1
 65
   257
176
     1
 75
     1
176
     1
175
     1
176
     1
 42
1.0
176
     1
 92
        8
176
     1
 66
     8
424
  7895160
176
     1
 43
1.0
176
     1
 76
     1
176
     1
 77
     6
176
     1
 78
     2
176
     1
 67
     7
176
     1
 79
     5
176
     1
170
     0
176
     1
171
     0
176
     1
290
     0
176
     1
 93
       13
176
     1
 44
0.0
176
     1
173
     0
176
     1
  0
VISUALSTYLE
  5
37
102
{ACAD_REACTORS
330
2A
102
}
330
2A
100
AcDbVisualStyle
  2
Thicken
 70
    13
177
     2
291
     1
 71
     2
176
     1
 72
     2
176
     1
 73
     0
176
     1
 90
        0
176
     1
 40
-0.6
176
     1
 41
-30.0
176
     1
 62
     5
 63
     7
421
 16777215
176
     1
 74
     1
176
     1
 91
        4
176
     1
 64
     7
176
     1
 65
   257
176
     1
 75
     1
176
     1
175
     1
176
     1
 42
1.0
176
     1
 92
       12
176
     1
 66
     7
176
     1
 43
1.0
176
     1
 76
     1
176
     1
 77
     6
176
     1
 78
     2
176
     1
 67
     7
176
     1
 79
     5
176
     1
170
     0
176
     1
171
     0
176
     1
290
     0
176
     1
 93
        1
176
     1
 44
0.0
176
     1
173
     0
176
     1
  0
ENDSEC
  0
EOF
