  0
SECTION
  2
HEADER
  9
$ACADVER
  1
AC1024
  9
$ACADMAINTVER
 70
     6
  9
$DWGCODEPAGE
  3
UNDEFINED
  9
$INSBASE
 10
0.0
 20
0.0
 30
0.0
  9
$EXTMIN
 10
1.000000000000000E+20
 20
1.000000000000000E+20
 30
1.000000000000000E+20
  9
$EXTMAX
 10
-1.000000000000000E+20
 20
-1.000000000000000E+20
 30
-1.000000000000000E+20
  9
$LIMMIN
 10
0.0
 20
0.0
  9
$LIMMAX
 10
12.0
 20
9.0
  9
$ORTHOMODE
 70
     0
  9
$REGENMODE
 70
     1
  9
$FILLMODE
 70
     1
  9
$QTEXTMODE
 70
     0
  9
$MIRRTEXT
 70
     1
  9
$LTSCALE
 40
1.0
  9
$ATTMODE
 70
     1
  9
$TEXTSIZE
 40
0.2
  9
$TRACEWID
 40
0.05
  9
$TEXTSTYLE
  7
Standard
  9
$CLAYER
  8
0
  9
$CELTYPE
  6
ByLayer
  9
$CECOLOR
 62
   256
  9
$CELTSCALE
 40
1.0
  9
$DISPSILH
 70
     0
  9
$DIMSCALE
 40
1.0
  9
$DIMASZ
 40
0.18
  9
$DIMEXO
 40
0.0625
  9
$DIMDLI
 40
0.38
  9
$DIMRND
 40
0.0
  9
$DIMDLE
 40
0.0
  9
$DIMEXE
 40
0.18
  9
$DIMTP
 40
0.0
  9
$DIMTM
 40
0.0
  9
$DIMTXT
 40
0.18
  9
$DIMCEN
 40
0.09
  9
$DIMTSZ
 40
0.0
  9
$DIMTOL
 70
     0
  9
$DIMLIM
 70
     0
  9
$DIMTIH
 70
     1
  9
$DIMTOH
 70
     1
  9
$DIMSE1
 70
     0
  9
$DIMSE2
 70
     0
  9
$DIMTAD
 70
     0
  9
$DIMZIN
 70
     0
  9
$DIMBLK
  1

  9
$DIMASO
 70
     1
  9
$DIMSHO
 70
     1
  9
$DIMPOST
  1

  9
$DIMAPOST
  1

  9
$DIMALT
 70
     0
  9
$DIMALTD
 70
     2
  9
$DIMALTF
 40
25.4
  9
$DIMLFAC
 40
1.0
  9
$DIMTOFL
 70
     0
  9
$DIMTVP
 40
0.0
  9
$DIMTIX
 70
     0
  9
$DIMSOXD
 70
     0
  9
$DIMSAH
 70
     0
  9
$DIMBLK1
  1

  9
$DIMBLK2
  1

  9
$DIMSTYLE
  2
Standard
  9
$DIMCLRD
 70
     0
  9
$DIMCLRE
 70
     0
  9
$DIMCLRT
 70
     0
  9
$DIMTFAC
 40
1.0
  9
$DIMGAP
 40
0.09
  9
$DIMJUST
 70
     0
  9
$DIMSD1
 70
     0
  9
$DIMSD2
 70
     0
  9
$DIMTOLJ
 70
     1
  9
$DIMTZIN
 70
     0
  9
$DIMALTZ
 70
     0
  9
$DIMALTTZ
 70
     0
  9
$DIMUPT
 70
     0
  9
$DIMDEC
 70
     4
  9
$DIMTDEC
 70
     4
  9
$DIMALTU
 70
     2
  9
$DIMALTTD
 70
     2
  9
$DIMTXSTY
  7
Standard
  9
$DIMAUNIT
 70
     0
  9
$DIMADEC
 70
     0
  9
$DIMALTRND
 40
0.0
  9
$DIMAZIN
 70
     0
  9
$DIMDSEP
 70
    46
  9
$DIMATFIT
 70
     3
  9
$DIMFRAC
 70
     0
  9
$DIMLDRBLK
  1

  9
$DIMLUNIT
 70
     2
  9
$DIMLWD
 70
    -2
  9
$DIMLWE
 70
    -2
  9
$DIMTMOVE
 70
     0
  9
$DIMFXL
 40
1.0
  9
$DIMFXLON
 70
     0
  9
$DIMJOGANG
 40
0.7853981633974483
  9
$DIMTFILL
 70
     0
  9
$DIMTFILLCLR
 70
     0
  9
$DIMARCSYM
 70
     0
  9
$DIMLTYPE
  6

  9
$DIMLTEX1
  6

  9
$DIMLTEX2
  6

  9
$DIMTXTDIRECTION
 70
     0
  9
$LUNITS
 70
     2
  9
$LUPREC
 70
     4
  9
$SKETCHINC
 40
0.1
  9
$FILLETRAD
 40
0.5
  9
$AUNITS
 70
     0
  9
$AUPREC
 70
     0
  9
$MENU
  1
.
  9
$ELEVATION
 40
0.0
  9
$PELEVATION
 40
0.0
  9
$THICKNESS
 40
0.0
  9
$LIMCHECK
 70
     0
  9
$CHAMFERA
 40
0.5
  9
$CHAMFERB
 40
0.5
  9
$CHAMFERC
 40
1.0
  9
$CHAMFERD
 40
0.0
  9
$SKPOLY
 70
     0
  9
$TDCREATE
 40
2457917.592905081
  9
$TDUCREATE
 40
2457917.217905093
  9
$TDUPDATE
 40
2457917.592905081
  9
$TDUUPDATE
 40
2457917.217905093
  9
$TDINDWG
 40
0.0000000116
  9
$TDUSRTIMER
 40
0.0000000116
  9
$USRTIMER
 70
     1
  9
$ANGBASE
 50
0.0
  9
$ANGDIR
 70
     0
  9
$PDMODE
 70
     0
  9
$PDSIZE
 40
0.0
  9
$PLINEWID
 40
0.0
  9
$SPLFRAME
 70
     0
  9
$SPLINETYPE
 70
     6
  9
$SPLINESEGS
 70
     8
  9
$HANDSEED
  5
110
  9
$SURFTAB1
 70
     6
  9
$SURFTAB2
 70
     6
  9
$SURFTYPE
 70
     6
  9
$SURFU
 70
     6
  9
$SURFV
 70
     6
  9
$UCSBASE
  2

  9
$UCSNAME
  2

  9
$UCSORG
 10
0.0
 20
0.0
 30
0.0
  9
$UCSXDIR
 10
1.0
 20
0.0
 30
0.0
  9
$UCSYDIR
 10
0.0
 20
1.0
 30
0.0
  9
$UCSORTHOREF
  2

  9
$UCSORTHOVIEW
 70
     0
  9
$UCSORGTOP
 10
0.0
 20
0.0
 30
0.0
  9
$UCSORGBOTTOM
 10
0.0
 20
0.0
 30
0.0
  9
$UCSORGLEFT
 10
0.0
 20
0.0
 30
0.0
  9
$UCSORGRIGHT
 10
0.0
 20
0.0
 30
0.0
  9
$UCSORGFRONT
 10
0.0
 20
0.0
 30
0.0
  9
$UCSORGBACK
 10
0.0
 20
0.0
 30
0.0
  9
$PUCSBASE
  2

  9
$PUCSNAME
  2

  9
$PUCSORG
 10
0.0
 20
0.0
 30
0.0
  9
$PUCSXDIR
 10
1.0
 20
0.0
 30
0.0
  9
$PUCSYDIR
 10
0.0
 20
1.0
 30
0.0
  9
$PUCSORTHOREF
  2

  9
$PUCSORTHOVIEW
 70
     0
  9
$PUCSORGTOP
 10
0.0
 20
0.0
 30
0.0
  9
$PUCSORGBOTTOM
 10
0.0
 20
0.0
 30
0.0
  9
$PUCSORGLEFT
 10
0.0
 20
0.0
 30
0.0
  9
$PUCSORGRIGHT
 10
0.0
 20
0.0
 30
0.0
  9
$PUCSORGFRONT
 10
0.0
 20
0.0
 30
0.0
  9
$PUCSORGBACK
 10
0.0
 20
0.0
 30
0.0
  9
$USERI1
 70
     0
  9
$USERI2
 70
     0
  9
$USERI3
 70
     0
  9
$USERI4
 70
     0
  9
$USERI5
 70
     0
  9
$USERR1
 40
0.0
  9
$USERR2
 40
0.0
  9
$USERR3
 40
0.0
  9
$USERR4
 40
0.0
  9
$USERR5
 40
0.0
  9
$WORLDVIEW
 70
     1
  9
$SHADEDGE
 70
     3
  9
$SHADEDIF
 70
    70
  9
$TILEMODE
 70
     1
  9
$MAXACTVP
 70
    64
  9
$PINSBASE
 10
0.0
 20
0.0
 30
0.0
  9
$PLIMCHECK
 70
     0
  9
$PEXTMIN
 10
1.000000000000000E+20
 20
1.000000000000000E+20
 30
1.000000000000000E+20
  9
$PEXTMAX
 10
-1.000000000000000E+20
 20
-1.000000000000000E+20
 30
-1.000000000000000E+20
  9
$PLIMMIN
 10
0.0
 20
0.0
  9
$PLIMMAX
 10
12.0
 20
9.0
  9
$UNITMODE
 70
     0
  9
$VISRETAIN
 70
     1
  9
$PLINEGEN
 70
     0
  9
$PSLTSCALE
 70
     1
  9
$TREEDEPTH
 70
  3020
  9
$CMLSTYLE
  2
Standard
  9
$CMLJUST
 70
     0
  9
$CMLSCALE
 40
1.0
  9
$PROXYGRAPHICS
 70
     1
  9
$MEASUREMENT
 70
     0
  9
$CELWEIGHT
370
    -1
  9
$ENDCAPS
280
     0
  9
$JOINSTYLE
280
     0
  9
$LWDISPLAY
290
     1
  9
$INSUNITS
 70
     1
  9
$HYPERLINKBASE
  1

  9
$STYLESHEET
  1

  9
$XEDIT
290
     1
  9
$CEPSNTYPE
380
     0
  9
$PSTYLEMODE
290
     1
  9
$FINGERPRINTGUID
  2
{8A75C786-A7D9-4462-16D6-7E318C84559C}
  9
$VERSIONGUID
  2
{FAEB1C32-E019-11D5-929B-00C0DF256EC4}
  9
$EXTNAMES
290
     1
  9
$PSVPSCALE
 40
0.0
  9
$OLESTARTUP
290
     0
  9
$SORTENTS
280
   127
  9
$INDEXCTL
280
     0
  9
$HIDETEXT
280
     1
  9
$XCLIPFRAME
280
     2
  9
$HALOGAP
280
     0
  9
$OBSCOLOR
 70
   257
  9
$OBSLTYPE
280
     0
  9
$INTERSECTIONDISPLAY
280
     0
  9
$INTERSECTIONCOLOR
 70
   257
  9
$DIMASSOC
280
     2
  9
$PROJECTNAME
  1

  9
$CAMERADISPLAY
290
     0
  9
$LENSLENGTH
 40
50.0
  9
$CAMERAHEIGHT
 40
0.0
  9
$STEPSPERSEC
 40
2.0
  9
$STEPSIZE
 40
6.0
  9
$3DDWFPREC
 40
2.0
  9
$PSOLWIDTH
 40
0.25
  9
$PSOLHEIGHT
 40
4.0
  9
$LOFTANG1
 40
1.570796326794897
  9
$LOFTANG2
 40
1.570796326794897
  9
$LOFTMAG1
 40
0.0
  9
$LOFTMAG2
 40
0.0
  9
$LOFTPARAM
 70
     7
  9
$LOFTNORMALS
280
     1
  9
$LATITUDE
 40
37.795
  9
$LONGITUDE
 40
-122.394
  9
$NORTHDIRECTION
 40
0.0
  9
$TIMEZONE
 70
 -8000
  9
$LIGHTGLYPHDISPLAY
280
     1
  9
$TILEMODELIGHTSYNCH
280
     1
  9
$CMATERIAL
347
3C
  9
$SOLIDHIST
280
     1
  9
$SHOWHIST
280
     1
  9
$DWFFRAME
280
     2
  9
$DGNFRAME
280
     2
  9
$REALWORLDSCALE
290
     1
  9
$INTERFERECOLOR
 62
   256
  9
$CSHADOW
280
     0
  9
$SHADOWPLANELOCATION
 40
0.0
  0
ENDSEC
  0
SECTION
  2
CLASSES
  0
CLASS
  1
ACDBDICTIONARYWDFLT
  2
AcDbDictionaryWithDefault
  3
ObjectDBX Classes
 90
        0
 91
        4
280
     0
281
     0
  0
CLASS
  1
VISUALSTYLE
  2
AcDbVisualStyle
  3
ObjectDBX Classes
 90
     4095
 91
        4
280
     0
281
     0
  0
CLASS
  1
MATERIAL
  2
AcDbMaterial
  3
ObjectDBX Classes
 90
     1153
 91
        4
280
     0
281
     0
  0
CLASS
  1
SUN
  2
AcDbSun
  3
SCENEOE
 90
     1024
 91
        4
280
     0
281
     0
  0
ENDSEC
  0
SECTION
  2
TABLES
  0
TABLE
  2
VPORT
  5
8
330
0
100
AcDbSymbolTable
 70
     1
  0
VPORT
  5
29
330
8
100
AcDbSymbolTableRecord
100
AcDbViewportTableRecord
  2
*Active
 70
     0
 10
0.0
 20
0.0
 11
1.0
 21
1.0
 12
0.0
 22
0.0
 13
0.0
 23
0.0
 14
0.5
 24
0.5
 15
0.5
 25
0.5
 16
0.0
 26
0.0
 36
1.0
 17
91.00082462281999
 27
-128.4993055234307
 37
0.0
 40
256.9986110468615
 41
0.7081814508812795
 42
50.0
 43
0.0
 44
0.0
 50
0.0
 51
0.0
 71
     0
 72
   100
 73
     1
 74
     3
 75
     0
 76
     0
 77
     0
 78
     0
281
     0
 65
     1
110
0.0
120
0.0
130
0.0
111
1.0
121
0.0
131
0.0
112
0.0
122
1.0
132
0.0
 79
     0
146
0.0
 60
     3
 61
     5
292
     1
282
     1
141
0.0
142
0.0
 63
   250
361
3F
  0
ENDTAB
  0
TABLE
  2
LTYPE
  5
5
330
0
100
AcDbSymbolTable
 70
     1
  0
LTYPE
  5
14
330
5
100
AcDbSymbolTableRecord
100
AcDbLinetypeTableRecord
  2
ByBlock
 70
     0
  3

 72
    65
 73
     0
 40
0.0
  0
LTYPE
  5
15
330
5
100
AcDbSymbolTableRecord
100
AcDbLinetypeTableRecord
  2
ByLayer
 70
     0
  3

 72
    65
 73
     0
 40
0.0
  0
LTYPE
  5
16
330
5
100
AcDbSymbolTableRecord
100
AcDbLinetypeTableRecord
  2
Continuous
 70
     0
  3
Solid line
 72
    65
 73
     0
 40
0.0
  0
ENDTAB
  0
TABLE
  2
LAYER
  5
2
330
0
100
AcDbSymbolTable
 70
     2
  0
LAYER
  5
10
330
2
100
AcDbSymbolTableRecord
100
AcDbLayerTableRecord
  2
0
 70
     0
 62
     7
  6
Continuous
370
    -3
390
F
347
3E
  0
LAYER
  5
40
330
2
100
AcDbSymbolTableRecord
100
AcDbLayerTableRecord
  2
_U+30EC_U+30A4_U+30E4_U+30FC 1
 70
     0
 62
     7
  6
Continuous
370
    -3
390
F
347
3E
  0
ENDTAB
  0
TABLE
  2
STYLE
  5
3
330
0
100
AcDbSymbolTable
 70
     1
  0
STYLE
  5
11
330
3
100
AcDbSymbolTableRecord
100
AcDbTextStyleTableRecord
  2
Standard
 70
     0
 40
0.0
 41
1.0
 50
0.0
 71
     0
 42
0.2
  3
txt
  4

  0
ENDTAB
  0
TABLE
  2
VIEW
  5
6
330
0
100
AcDbSymbolTable
 70
     0
  0
ENDTAB
  0
TABLE
  2
UCS
  5
7
330
0
100
AcDbSymbolTable
 70
     0
  0
ENDTAB
  0
TABLE
  2
APPID
  5
9
330
0
100
AcDbSymbolTable
 70
     1
  0
APPID
  5
12
330
9
100
AcDbSymbolTableRecord
100
AcDbRegAppTableRecord
  2
ACAD
 70
     0
  0
ENDTAB
  0
TABLE
  2
DIMSTYLE
  5
A
330
0
100
AcDbSymbolTable
 70
     1
100
AcDbDimStyleTable
  0
DIMSTYLE
105
27
330
A
100
AcDbSymbolTableRecord
100
AcDbDimStyleTableRecord
  2
Standard
 70
     0
178
     0
340
11
  0
ENDTAB
  0
TABLE
  2
BLOCK_RECORD
  5
1
330
0
100
AcDbSymbolTable
 70
     7
  0
BLOCK_RECORD
  5
1F
330
1
100
AcDbSymbolTableRecord
100
AcDbBlockTableRecord
  2
*Model_Space
340
22
 70
     0
280
     1
281
     0
  0
BLOCK_RECORD
  5
1B
330
1
100
AcDbSymbolTableRecord
100
AcDbBlockTableRecord
  2
*Paper_Space
340
1E
 70
     0
280
     1
281
     0
  0
BLOCK_RECORD
  5
23
330
1
100
AcDbSymbolTableRecord
100
AcDbBlockTableRecord
  2
*Paper_Space0
340
26
 70
     0
280
     1
281
     0
  0
BLOCK_RECORD
  5
C2
330
1
100
AcDbSymbolTableRecord
100
AcDbBlockTableRecord
  2
block 2
340
0
102
{BLKREFS
331
C3
102
}
 70
     0
280
     1
281
     0
  0
BLOCK_RECORD
  5
C8
330
1
100
AcDbSymbolTableRecord
100
AcDbBlockTableRecord
  2
block 3
340
0
102
{BLKREFS
331
C9
102
}
 70
     0
280
     1
281
     0
  0
BLOCK_RECORD
  5
D1
330
1
100
AcDbSymbolTableRecord
100
AcDbBlockTableRecord
  2
block 4
340
0
102
{BLKREFS
331
D2
102
}
 70
     0
280
     1
281
     0
  0
BLOCK_RECORD
  5
ED
330
1
100
AcDbSymbolTableRecord
100
AcDbBlockTableRecord
  2
block 5
340
0
102
{BLKREFS
331
EE
102
}
 70
     0
280
     1
281
     0
  0
BLOCK_RECORD
  5
F3
330
1
100
AcDbSymbolTableRecord
100
AcDbBlockTableRecord
  2
block 6
340
0
102
{BLKREFS
331
F4
102
}
 70
     0
280
     1
281
     0
  0
BLOCK_RECORD
  5
104
330
1
100
AcDbSymbolTableRecord
100
AcDbBlockTableRecord
  2
block 7
340
0
102
{BLKREFS
331
105
102
}
 70
     0
280
     1
281
     0
  0
ENDTAB
  0
ENDSEC
  0
SECTION
  2
BLOCKS
  0
BLOCK
  5
20
330
1F
100
AcDbEntity
  8
0
100
AcDbBlockBegin
  2
*Model_Space
 70
     0
 10
0.0
 20
0.0
 30
0.0
  3
*Model_Space
  1

  0
ENDBLK
  5
21
330
1F
100
AcDbEntity
  8
0
100
AcDbBlockEnd
  0
BLOCK
  5
1C
330
1B
100
AcDbEntity
 67
     1
  8
0
100
AcDbBlockBegin
  2
*Paper_Space
 70
     0
 10
0.0
 20
0.0
 30
0.0
  3
*Paper_Space
  1

  0
ENDBLK
  5
1D
330
1B
100
AcDbEntity
 67
     1
  8
0
100
AcDbBlockEnd
  0
BLOCK
  5
24
330
23
100
AcDbEntity
  8
0
100
AcDbBlockBegin
  2
*Paper_Space0
 70
     0
 10
0.0
 20
0.0
 30
0.0
  3
*Paper_Space0
  1

  0
ENDBLK
  5
25
330
23
100
AcDbEntity
  8
0
100
AcDbBlockEnd
  0
BLOCK
  5
C4
330
C2
100
AcDbEntity
  8
0
100
AcDbBlockBegin
  2
block 2
 70
     0
 10
0.0
 20
0.0
 30
0.0
  3
block 2
  1

  0
SPLINE
  5
C6
330
C2
100
AcDbEntity
  8
_U+30EC_U+30A4_U+30E4_U+30FC 1
370
     0
100
AcDbSpline
210
0.0
220
0.0
230
1.0
 70
    11
 71
     3
 72
    62
 73
    58
 74
     0
 42
0.0000000001
 43
0.0000000001
 12
1.0
 22
0.0
 32
0.0
 13
1.0
 23
0.0
 33
0.0
 40
0.0
 40
0.0
 40
0.0
 40
0.0
 40
1.0
 40
1.0
 40
1.0
 40
2.0
 40
2.0
 40
2.0
 40
3.0
 40
3.0
 40
3.0
 40
4.0
 40
4.0
 40
4.0
 40
5.0
 40
5.0
 40
5.0
 40
6.0
 40
6.0
 40
6.0
 40
7.0
 40
7.0
 40
7.0
 40
8.0
 40
8.0
 40
8.0
 40
9.0
 40
9.0
 40
9.0
 40
10.0
 40
10.0
 40
10.0
 40
11.0
 40
11.0
 40
11.0
 40
12.0
 40
12.0
 40
12.0
 40
13.0
 40
13.0
 40
13.0
 40
14.0
 40
14.0
 40
14.0
 40
15.0
 40
15.0
 40
15.0
 40
16.0
 40
16.0
 40
16.0
 40
17.0
 40
17.0
 40
17.0
 40
18.0
 40
18.0
 40
18.0
 40
19.0
 40
19.0
 40
19.0
 40
19.0
 10
117.581797930674
 20
-137.0817273962851
 30
0.0
 10
117.581797930674
 20
-137.1833577131
 30
0.0
 10
117.560782848214
 20
-137.4162461679029
 30
0.0
 10
117.3747476920105
 20
-137.5495713631821
 30
0.0
 10
117.2624375791913
 20
-137.6288085593428
 30
0.0
 10
117.1632188292161
 20
-137.6332871834736
 30
0.0
 10
117.078469480279
 20
-137.6377658076045
 30
0.0
 10
117.078469480279
 20
-137.6377658076045
 30
0.0
 10
117.078469480279
 20
-137.4028102955104
 30
0.0
 10
117.078469480279
 20
-137.4028102955104
 30
0.0
 10
117.1525390332119
 20
-137.4003987286708
 30
0.0
 10
117.3871500357574
 20
-137.3890299135694
 30
0.0
 10
117.3871500357574
 20
-137.0862060204159
 30
0.0
 10
117.3871500357574
 20
-136.9391004431958
 30
0.0
 10
117.3175591069553
 20
-136.776491936292
 30
0.0
 10
117.0891492762833
 20
-136.776491936292
 30
0.0
 10
116.9727050488818
 20
-136.776491936292
 30
0.0
 10
116.9241292025398
 20
-136.8171440630179
 30
0.0
 10
116.8924343240755
 20
-136.8509059987734
 30
0.0
 10
116.8183647711426
 20
-136.9301431949341
 30
0.0
 10
116.8056179178472
 20
-137.0545111419517
 30
0.0
 10
116.8056179178472
 20
-137.1134222747494
 30
0.0
 10
116.8056179178472
 20
-137.1337483381124
 30
0.0
 10
116.8076849751384
 20
-137.1719888979987
 30
0.0
 10
116.8118190897207
 20
-137.2016167191718
 30
0.0
 10
116.8118190897207
 20
-137.2016167191718
 30
0.0
 10
116.617171194804
 20
-137.2016167191718
 30
0.0
 10
116.617171194804
 20
-137.2016167191718
 30
0.0
 10
116.623716876226
 20
-137.1609645924459
 30
0.0
 10
116.6257839335172
 20
-137.1154893320406
 30
0.0
 10
116.6257839335172
 20
-137.1089436506186
 30
0.0
 10
116.6257839335172
 20
-137.0386637027195
 30
0.0
 10
116.6044243415086
 20
-136.8261013112796
 30
0.0
 10
116.367746281672
 20
-136.8261013112796
 30
0.0
 10
116.1899793546331
 20
-136.8261013112796
 30
0.0
 10
116.1348578268691
 20
-136.9663166975293
 30
0.0
 10
116.1348578268691
 20
-137.0837944535763
 30
0.0
 10
116.1348578268691
 20
-137.3666367929153
 30
0.0
 10
116.367746281672
 20
-137.375594041177
 30
0.0
 10
116.4394042677652
 20
-137.3800726653078
 30
0.0
 10
116.4394042677652
 20
-137.3800726653078
 30
0.0
 10
116.4394042677652
 20
-137.5971136808785
 30
0.0
 10
116.4394042677652
 20
-137.5971136808785
 30
0.0
 10
116.3146918111991
 20
-137.5881564326169
 30
0.0
 10
115.9381428746613
 20
-137.5588731209922
 30
0.0
 10
115.9381428746613
 20
-137.0703585811838
 30
0.0
 10
115.9381428746613
 20
-136.8305799354104
 30
0.0
 10
116.065266898067
 20
-136.5728867931137
 30
0.0
 10
116.36120060025
 20
-136.5728867931137
 30
0.0
 10
116.547580266002
 20
-136.5728867931137
 30
0.0
 10
116.6299180480995
 20
-136.6748616194771
 30
0.0
 10
116.6912407477369
 20
-136.7809705604228
 30
0.0
 10
116.7188015116189
 20
-136.7155137462031
 30
0.0
 10
116.7990722364252
 20
-136.5208658512865
 30
0.0
 10
117.0764024229879
 20
-136.5208658512865
 30
0.0
 10
117.4147107996394
 20
-136.5208658512865
 30
0.0
 10
117.581797930674
 20
-136.7854491845536
 30
0.0
 10
117.581797930674
 20
-137.0817273962851
 30
0.0
  0
HATCH
  5
C7
330
C2
100
AcDbEntity
  8
_U+30EC_U+30A4_U+30E4_U+30FC 1
 62
   179
420
  2234388
100
AcDbHatch
 10
0.0
 20
0.0
 30
0.0
210
0.0
220
0.0
230
1.0
  2
SOLID
 70
     1
 71
     0
 91
        1
 92
        1
 93
        1
 72
     4
 94
        3
 73
     0
 74
     1
 95
       62
 96
       58
 40
0.0
 40
0.0
 40
0.0
 40
0.0
 40
1.0
 40
1.0
 40
1.0
 40
2.0
 40
2.0
 40
2.0
 40
3.0
 40
3.0
 40
3.0
 40
4.0
 40
4.0
 40
4.0
 40
5.0
 40
5.0
 40
5.0
 40
6.0
 40
6.0
 40
6.0
 40
7.0
 40
7.0
 40
7.0
 40
8.0
 40
8.0
 40
8.0
 40
9.0
 40
9.0
 40
9.0
 40
10.0
 40
10.0
 40
10.0
 40
11.0
 40
11.0
 40
11.0
 40
12.0
 40
12.0
 40
12.0
 40
13.0
 40
13.0
 40
13.0
 40
14.0
 40
14.0
 40
14.0
 40
15.0
 40
15.0
 40
15.0
 40
16.0
 40
16.0
 40
16.0
 40
17.0
 40
17.0
 40
17.0
 40
18.0
 40
18.0
 40
18.0
 40
19.0
 40
19.0
 40
19.0
 40
19.0
 10
117.581797930674
 20
-137.0817273962851
 10
117.581797930674
 20
-137.1833577131
 10
117.560782848214
 20
-137.4162461679029
 10
117.3747476920105
 20
-137.5495713631821
 10
117.2624375791913
 20
-137.6288085593428
 10
117.1632188292161
 20
-137.6332871834736
 10
117.078469480279
 20
-137.6377658076045
 10
117.078469480279
 20
-137.6377658076045
 10
117.078469480279
 20
-137.4028102955104
 10
117.078469480279
 20
-137.4028102955104
 10
117.1525390332119
 20
-137.4003987286708
 10
117.3871500357574
 20
-137.3890299135694
 10
117.3871500357574
 20
-137.0862060204159
 10
117.3871500357574
 20
-136.9391004431958
 10
117.3175591069553
 20
-136.776491936292
 10
117.0891492762833
 20
-136.776491936292
 10
116.9727050488818
 20
-136.776491936292
 10
116.9241292025398
 20
-136.8171440630179
 10
116.8924343240755
 20
-136.8509059987734
 10
116.8183647711426
 20
-136.9301431949341
 10
116.8056179178472
 20
-137.0545111419517
 10
116.8056179178472
 20
-137.1134222747494
 10
116.8056179178472
 20
-137.1337483381124
 10
116.8076849751384
 20
-137.1719888979987
 10
116.8118190897207
 20
-137.2016167191718
 10
116.8118190897207
 20
-137.2016167191718
 10
116.617171194804
 20
-137.2016167191718
 10
116.617171194804
 20
-137.2016167191718
 10
116.623716876226
 20
-137.1609645924459
 10
116.6257839335172
 20
-137.1154893320406
 10
116.6257839335172
 20
-137.1089436506186
 10
116.6257839335172
 20
-137.0386637027195
 10
116.6044243415086
 20
-136.8261013112796
 10
116.367746281672
 20
-136.8261013112796
 10
116.1899793546331
 20
-136.8261013112796
 10
116.1348578268691
 20
-136.9663166975293
 10
116.1348578268691
 20
-137.0837944535763
 10
116.1348578268691
 20
-137.3666367929153
 10
116.367746281672
 20
-137.375594041177
 10
116.4394042677652
 20
-137.3800726653078
 10
116.4394042677652
 20
-137.3800726653078
 10
116.4394042677652
 20
-137.5971136808785
 10
116.4394042677652
 20
-137.5971136808785
 10
116.3146918111991
 20
-137.5881564326169
 10
115.9381428746613
 20
-137.5588731209922
 10
115.9381428746613
 20
-137.0703585811838
 10
115.9381428746613
 20
-136.8305799354104
 10
116.065266898067
 20
-136.5728867931137
 10
116.36120060025
 20
-136.5728867931137
 10
116.547580266002
 20
-136.5728867931137
 10
116.6299180480995
 20
-136.6748616194771
 10
116.6912407477369
 20
-136.7809705604228
 10
116.7188015116189
 20
-136.7155137462031
 10
116.7990722364252
 20
-136.5208658512865
 10
117.0764024229879
 20
-136.5208658512865
 10
117.4147107996394
 20
-136.5208658512865
 10
117.581797930674
 20
-136.7854491845536
 10
117.581797930674
 20
-137.0817273962851
 97
        0
 97
        0
 75
     2
 76
     1
 98
        0
  0
ENDBLK
  5
C5
330
C2
100
AcDbEntity
  8
0
100
AcDbBlockEnd
  0
BLOCK
  5
CA
330
C8
100
AcDbEntity
  8
0
100
AcDbBlockBegin
  2
block 3
 70
     0
 10
0.0
 20
0.0
 30
0.0
  3
block 3
  1

  0
SPLINE
  5
CC
330
C8
100
AcDbEntity
  8
_U+30EC_U+30A4_U+30E4_U+30FC 1
370
     0
100
AcDbSpline
210
0.0
220
0.0
230
1.0
 70
    11
 71
     3
 72
    26
 73
    22
 74
     0
 42
0.0000000001
 43
0.0000000001
 12
1.0
 22
0.0
 32
0.0
 13
1.0
 23
0.0
 33
0.0
 40
0.0
 40
0.0
 40
0.0
 40
0.0
 40
1.0
 40
1.0
 40
1.0
 40
2.0
 40
2.0
 40
2.0
 40
3.0
 40
3.0
 40
3.0
 40
4.0
 40
4.0
 40
4.0
 40
5.0
 40
5.0
 40
5.0
 40
6.0
 40
6.0
 40
6.0
 40
7.0
 40
7.0
 40
7.0
 40
7.0
 10
75.38592391778546
 20
-144.9410237267856
 30
0.0
 10
75.38592391778546
 20
-144.9410237267856
 30
0.0
 10
75.38592391778546
 20
-143.836870623763
 30
0.0
 10
75.38592391778546
 20
-143.836870623763
 30
0.0
 10
75.38592391778546
 20
-143.836870623763
 30
0.0
 10
75.0334906496444
 20
-143.836870623763
 30
0.0
 10
75.0334906496444
 20
-143.836870623763
 30
0.0
 10
75.0334906496444
 20
-143.836870623763
 30
0.0
 10
75.0334906496444
 20
-143.6887315178973
 30
0.0
 10
75.0334906496444
 20
-143.6887315178973
 30
0.0
 10
75.38833548462514
 20
-143.6739176073107
 30
0.0
 10
75.43794485961274
 20
-143.5109645908584
 30
0.0
 10
75.46963973807703
 20
-143.3969319302966
 30
0.0
 10
75.46963973807703
 20
-143.3969319302966
 30
0.0
 10
75.62570256355886
 20
-143.3969319302966
 30
0.0
 10
75.62570256355886
 20
-143.3969319302966
 30
0.0
 10
75.62570256355886
 20
-143.3969319302966
 30
0.0
 10
75.62570256355886
 20
-144.9410237267856
 30
0.0
 10
75.62570256355886
 20
-144.9410237267856
 30
0.0
 10
75.62570256355886
 20
-144.9410237267856
 30
0.0
 10
75.38592391778546
 20
-144.9410237267856
 30
0.0
 10
75.38592391778546
 20
-144.9410237267856
 30
0.0
  0
HATCH
  5
CD
330
C8
100
AcDbEntity
  8
_U+30EC_U+30A4_U+30E4_U+30FC 1
 62
   179
420
  2234388
100
AcDbHatch
 10
0.0
 20
0.0
 30
0.0
210
0.0
220
0.0
230
1.0
  2
SOLID
 70
     1
 71
     0
 91
        1
 92
        1
 93
        1
 72
     4
 94
        3
 73
     0
 74
     1
 95
       26
 96
       22
 40
0.0
 40
0.0
 40
0.0
 40
0.0
 40
1.0
 40
1.0
 40
1.0
 40
2.0
 40
2.0
 40
2.0
 40
3.0
 40
3.0
 40
3.0
 40
4.0
 40
4.0
 40
4.0
 40
5.0
 40
5.0
 40
5.0
 40
6.0
 40
6.0
 40
6.0
 40
7.0
 40
7.0
 40
7.0
 40
7.0
 10
75.38592391778546
 20
-144.9410237267856
 10
75.38592391778546
 20
-144.9410237267856
 10
75.38592391778546
 20
-143.836870623763
 10
75.38592391778546
 20
-143.836870623763
 10
75.38592391778546
 20
-143.836870623763
 10
75.0334906496444
 20
-143.836870623763
 10
75.0334906496444
 20
-143.836870623763
 10
75.0334906496444
 20
-143.836870623763
 10
75.0334906496444
 20
-143.6887315178973
 10
75.0334906496444
 20
-143.6887315178973
 10
75.38833548462514
 20
-143.6739176073107
 10
75.43794485961274
 20
-143.5109645908584
 10
75.46963973807703
 20
-143.3969319302966
 10
75.46963973807703
 20
-143.3969319302966
 10
75.62570256355886
 20
-143.3969319302966
 10
75.62570256355886
 20
-143.3969319302966
 10
75.62570256355886
 20
-143.3969319302966
 10
75.62570256355886
 20
-144.9410237267856
 10
75.62570256355886
 20
-144.9410237267856
 10
75.62570256355886
 20
-144.9410237267856
 10
75.38592391778546
 20
-144.9410237267856
 10
75.38592391778546
 20
-144.9410237267856
 97
        0
 97
        0
 75
     2
 76
     1
 98
        0
  0
SPLINE
  5
CE
330
C8
100
AcDbEntity
  8
_U+30EC_U+30A4_U+30E4_U+30FC 1
370
     0
100
AcDbSpline
210
0.0
220
0.0
230
1.0
 70
    11
 71
     3
 72
    29
 73
    25
 74
     0
 42
0.0000000001
 43
0.0000000001
 12
1.0
 22
0.0
 32
0.0
 13
1.0
 23
0.0
 33
0.0
 40
0.0
 40
0.0
 40
0.0
 40
0.0
 40
1.0
 40
1.0
 40
1.0
 40
2.0
 40
2.0
 40
2.0
 40
3.0
 40
3.0
 40
3.0
 40
4.0
 40
4.0
 40
4.0
 40
5.0
 40
5.0
 40
5.0
 40
6.0
 40
6.0
 40
6.0
 40
7.0
 40
7.0
 40
7.0
 40
8.0
 40
8.0
 40
8.0
 40
8.0
 10
77.12087400415729
 20
-144.7632567997467
 30
0.0
 10
77.00546330540142
 20
-144.9727186052499
 30
0.0
 10
76.82011716829497
 20
-144.9920111399673
 30
0.0
 10
76.69574922127745
 20
-144.9920111399673
 30
0.0
 10
76.524183466112
 20
-144.9920111399673
 30
0.0
 10
76.37259926476102
 20
-144.9455023509164
 30
0.0
 10
76.27096894794614
 20
-144.7632567997467
 30
0.0
 10
76.1600368733211
 20
-144.5686089048301
 30
0.0
 10
76.13971080995813
 20
-144.3319308449934
 30
0.0
 10
76.13971080995813
 20
-144.1689778285411
 30
0.0
 10
76.13971080995813
 20
-144.0249728372576
 30
0.0
 10
76.15796981602996
 20
-143.7734808668344
 30
0.0
 10
76.27096894794614
 20
-143.574354347787
 30
0.0
 10
76.3860351371535
 20
-143.3714382237058
 30
0.0
 10
76.55794540186746
 20
-143.3480115744061
 30
0.0
 10
76.69574922127745
 20
-143.3480115744061
 30
0.0
 10
76.86559242870027
 20
-143.3480115744061
 30
0.0
 10
77.01924368734241
 20
-143.3924533061658
 30
0.0
 10
77.12087400415729
 20
-143.574354347787
 30
0.0
 10
77.2273274546515
 20
-143.7669351854124
 30
0.0
 10
77.2521321421453
 20
-143.9953450160845
 30
0.0
 10
77.2521321421453
 20
-144.1689778285411
 30
0.0
 10
77.2521321421453
 20
-144.340199074158
 30
0.0
 10
77.22939451194266
 20
-144.5710204716698
 30
0.0
 10
77.12087400415729
 20
-144.7632567997467
 30
0.0
  0
SPLINE
  5
CF
330
C8
100
AcDbEntity
  8
_U+30EC_U+30A4_U+30E4_U+30FC 1
370
     0
100
AcDbSpline
210
0.0
220
0.0
230
1.0
 70
    11
 71
     3
 72
    17
 73
    13
 74
     0
 42
0.0000000001
 43
0.0000000001
 12
1.0
 22
0.0
 32
0.0
 13
1.0
 23
0.0
 33
0.0
 40
0.0
 40
0.0
 40
0.0
 40
0.0
 40
1.0
 40
1.0
 40
1.0
 40
2.0
 40
2.0
 40
2.0
 40
3.0
 40
3.0
 40
3.0
 40
4.0
 40
4.0
 40
4.0
 40
4.0
 10
76.69574922127745
 20
-143.5405924120315
 30
0.0
 10
76.42909883071911
 20
-143.5405924120315
 30
0.0
 10
76.37948945573152
 20
-143.8241237704676
 30
0.0
 10
76.37948945573152
 20
-144.1689778285411
 30
0.0
 10
76.37948945573152
 20
-144.4883381800238
 30
0.0
 10
76.41773001561779
 20
-144.7973632450507
 30
0.0
 10
76.69574922127745
 20
-144.7973632450507
 30
0.0
 10
76.96033255454465
 20
-144.7973632450507
 30
0.0
 10
77.01235349637192
 20
-144.5158989439058
 30
0.0
 10
77.01235349637192
 20
-144.1689778285411
 30
0.0
 10
77.01235349637192
 20
-143.8496174770584
 30
0.0
 10
76.97170136964597
 20
-143.5405924120315
 30
0.0
 10
76.69574922127745
 20
-143.5405924120315
 30
0.0
  0
HATCH
  5
D0
330
C8
100
AcDbEntity
  8
_U+30EC_U+30A4_U+30E4_U+30FC 1
 62
   179
420
  2234388
100
AcDbHatch
 10
0.0
 20
0.0
 30
0.0
210
0.0
220
0.0
230
1.0
  2
SOLID
 70
     1
 71
     0
 91
        2
 92
        1
 93
        1
 72
     4
 94
        3
 73
     0
 74
     1
 95
       29
 96
       25
 40
0.0
 40
0.0
 40
0.0
 40
0.0
 40
1.0
 40
1.0
 40
1.0
 40
2.0
 40
2.0
 40
2.0
 40
3.0
 40
3.0
 40
3.0
 40
4.0
 40
4.0
 40
4.0
 40
5.0
 40
5.0
 40
5.0
 40
6.0
 40
6.0
 40
6.0
 40
7.0
 40
7.0
 40
7.0
 40
8.0
 40
8.0
 40
8.0
 40
8.0
 10
77.12087400415729
 20
-144.7632567997467
 10
77.00546330540142
 20
-144.9727186052499
 10
76.82011716829497
 20
-144.9920111399673
 10
76.69574922127745
 20
-144.9920111399673
 10
76.524183466112
 20
-144.9920111399673
 10
76.37259926476102
 20
-144.9455023509164
 10
76.27096894794614
 20
-144.7632567997467
 10
76.1600368733211
 20
-144.5686089048301
 10
76.13971080995813
 20
-144.3319308449934
 10
76.13971080995813
 20
-144.1689778285411
 10
76.13971080995813
 20
-144.0249728372576
 10
76.15796981602996
 20
-143.7734808668344
 10
76.27096894794614
 20
-143.574354347787
 10
76.3860351371535
 20
-143.3714382237058
 10
76.55794540186746
 20
-143.3480115744061
 10
76.69574922127745
 20
-143.3480115744061
 10
76.86559242870027
 20
-143.3480115744061
 10
77.01924368734241
 20
-143.3924533061658
 10
77.12087400415729
 20
-143.574354347787
 10
77.2273274546515
 20
-143.7669351854124
 10
77.2521321421453
 20
-143.9953450160845
 10
77.2521321421453
 20
-144.1689778285411
 10
77.2521321421453
 20
-144.340199074158
 10
77.22939451194266
 20
-144.5710204716698
 10
77.12087400415729
 20
-144.7632567997467
 97
        0
 97
        0
 92
        1
 93
        1
 72
     4
 94
        3
 73
     0
 74
     1
 95
       17
 96
       13
 40
0.0
 40
0.0
 40
0.0
 40
0.0
 40
1.0
 40
1.0
 40
1.0
 40
2.0
 40
2.0
 40
2.0
 40
3.0
 40
3.0
 40
3.0
 40
4.0
 40
4.0
 40
4.0
 40
4.0
 10
76.69574922127745
 20
-143.5405924120315
 10
76.42909883071911
 20
-143.5405924120315
 10
76.37948945573152
 20
-143.8241237704676
 10
76.37948945573152
 20
-144.1689778285411
 10
76.37948945573152
 20
-144.4883381800238
 10
76.41773001561779
 20
-144.7973632450507
 10
76.69574922127745
 20
-144.7973632450507
 10
76.96033255454465
 20
-144.7973632450507
 10
77.01235349637192
 20
-144.5158989439058
 10
77.01235349637192
 20
-144.1689778285411
 10
77.01235349637192
 20
-143.8496174770584
 10
76.97170136964597
 20
-143.5405924120315
 10
76.69574922127745
 20
-143.5405924120315
 97
        0
 97
        0
 75
     2
 76
     1
 98
        0
  0
ENDBLK
  5
CB
330
C8
100
AcDbEntity
  8
0
100
AcDbBlockEnd
  0
BLOCK
  5
D3
330
D1
100
AcDbEntity
  8
0
100
AcDbBlockBegin
  2
block 4
 70
     0
 10
0.0
 20
0.0
 30
0.0
  3
block 4
  1

  0
POLYLINE
  5
D5
330
D1
100
AcDbEntity
  8
_U+30EC_U+30A4_U+30E4_U+30FC 1
370
     0
100
AcDb2dPolyline
 66
     1
 10
0.0
 20
0.0
 30
0.0
  0
VERTEX
  5
D6
330
D5
100
AcDbEntity
  8
_U+30EC_U+30A4_U+30E4_U+30FC 1
370
     0
100
AcDbVertex
100
AcDb2dVertex
 10
90.79204641827421
 20
-115.3262939164809
 30
0.0
  0
VERTEX
  5
D7
330
D5
100
AcDbEntity
  8
_U+30EC_U+30A4_U+30E4_U+30FC 1
370
     0
100
AcDbVertex
100
AcDb2dVertex
 10
90.79204641827421
 20
-115.6732150318456
 30
0.0
  0
VERTEX
  5
D8
330
D5
100
AcDbEntity
  8
_U+30EC_U+30A4_U+30E4_U+30FC 1
370
     0
100
AcDbVertex
100
AcDb2dVertex
 10
90.55915796347132
 20
-115.6732150318456
 30
0.0
  0
VERTEX
  5
D9
330
D5
100
AcDbEntity
  8
_U+30EC_U+30A4_U+30E4_U+30FC 1
370
     0
100
AcDbVertex
100
AcDb2dVertex
 10
90.55915796347132
 20
-115.3262939164809
 30
0.0
  0
VERTEX
  5
DA
330
D5
100
AcDbEntity
  8
_U+30EC_U+30A4_U+30E4_U+30FC 1
370
     0
100
AcDbVertex
100
AcDb2dVertex
 10
89.85808103222298
 20
-115.3262939164809
 30
0.0
  0
VERTEX
  5
DB
330
D5
100
AcDbEntity
  8
_U+30EC_U+30A4_U+30E4_U+30FC 1
370
     0
100
AcDbVertex
100
AcDb2dVertex
 10
89.85808103222298
 20
-115.1020182003912
 30
0.0
  0
VERTEX
  5
DC
330
D5
100
AcDbEntity
  8
_U+30EC_U+30A4_U+30E4_U+30FC 1
370
     0
100
AcDbVertex
100
AcDb2dVertex
 10
90.58396265096512
 20
-114.1287787258081
 30
0.0
  0
VERTEX
  5
DD
330
D5
100
AcDbEntity
  8
_U+30EC_U+30A4_U+30E4_U+30FC 1
370
     0
100
AcDbVertex
100
AcDb2dVertex
 10
90.79204641827421
 20
-114.1287787258081
 30
0.0
  0
VERTEX
  5
DE
330
D5
100
AcDbEntity
  8
_U+30EC_U+30A4_U+30E4_U+30FC 1
370
     0
100
AcDbVertex
100
AcDb2dVertex
 10
90.79204641827421
 20
-115.127511906982
 30
0.0
  0
VERTEX
  5
DF
330
D5
100
AcDbEntity
  8
_U+30EC_U+30A4_U+30E4_U+30FC 1
370
     0
100
AcDbVertex
100
AcDb2dVertex
 10
91.01356605797578
 20
-115.127511906982
 30
0.0
  0
VERTEX
  5
E0
330
D5
100
AcDbEntity
  8
_U+30EC_U+30A4_U+30E4_U+30FC 1
370
     0
100
AcDbVertex
100
AcDb2dVertex
 10
91.01356605797578
 20
-115.3262939164809
 30
0.0
  0
VERTEX
  5
E1
330
D5
100
AcDbEntity
  8
_U+30EC_U+30A4_U+30E4_U+30FC 1
370
     0
100
AcDbVertex
100
AcDb2dVertex
 10
90.79204641827421
 20
-115.3262939164809
 30
0.0
  0
SEQEND
  5
E2
330
D5
100
AcDbEntity
  8
_U+30EC_U+30A4_U+30E4_U+30FC 1
370
     0
  0
POLYLINE
  5
E3
330
D1
100
AcDbEntity
  8
_U+30EC_U+30A4_U+30E4_U+30FC 1
370
     0
100
AcDb2dPolyline
 66
     1
 10
0.0
 20
0.0
 30
0.0
  0
VERTEX
  5
E4
330
E3
100
AcDbEntity
  8
_U+30EC_U+30A4_U+30E4_U+30FC 1
370
     0
100
AcDbVertex
100
AcDb2dVertex
 10
90.55915796347132
 20
-114.4715657265904
 30
0.0
  0
VERTEX
  5
E5
330
E3
100
AcDbEntity
  8
_U+30EC_U+30A4_U+30E4_U+30FC 1
370
     0
100
AcDbVertex
100
AcDb2dVertex
 10
90.0706434236629
 20
-115.127511906982
 30
0.0
  0
VERTEX
  5
E6
330
E3
100
AcDbEntity
  8
_U+30EC_U+30A4_U+30E4_U+30FC 1
370
     0
100
AcDbVertex
100
AcDb2dVertex
 10
90.55915796347132
 20
-115.127511906982
 30
0.0
  0
VERTEX
  5
E7
330
E3
100
AcDbEntity
  8
_U+30EC_U+30A4_U+30E4_U+30FC 1
370
     0
100
AcDbVertex
100
AcDb2dVertex
 10
90.55915796347132
 20
-114.4715657265904
 30
0.0
  0
SEQEND
  5
E8
330
E3
100
AcDbEntity
  8
_U+30EC_U+30A4_U+30E4_U+30FC 1
370
     0
  0
HATCH
  5
E9
330
D1
100
AcDbEntity
  8
_U+30EC_U+30A4_U+30E4_U+30FC 1
 62
   179
420
  2234388
100
AcDbHatch
 10
0.0
 20
0.0
 30
0.0
210
0.0
220
0.0
230
1.0
  2
SOLID
 70
     1
 71
     0
 91
        2
 92
        1
 93
       11
 72
     1
 10
90.79204641827421
 20
-115.3262939164809
 11
90.79204641827421
 21
-115.6732150318456
 72
     1
 10
90.79204641827421
 20
-115.6732150318456
 11
90.55915796347132
 21
-115.6732150318456
 72
     1
 10
90.55915796347132
 20
-115.6732150318456
 11
90.55915796347132
 21
-115.3262939164809
 72
     1
 10
90.55915796347132
 20
-115.3262939164809
 11
89.85808103222298
 21
-115.3262939164809
 72
     1
 10
89.85808103222298
 20
-115.3262939164809
 11
89.85808103222298
 21
-115.1020182003912
 72
     1
 10
89.85808103222298
 20
-115.1020182003912
 11
90.58396265096512
 21
-114.1287787258081
 72
     1
 10
90.58396265096512
 20
-114.1287787258081
 11
90.79204641827421
 21
-114.1287787258081
 72
     1
 10
90.79204641827421
 20
-114.1287787258081
 11
90.79204641827421
 21
-115.127511906982
 72
     1
 10
90.79204641827421
 20
-115.127511906982
 11
91.01356605797578
 21
-115.127511906982
 72
     1
 10
91.01356605797578
 20
-115.127511906982
 11
91.01356605797578
 21
-115.3262939164809
 72
     1
 10
91.01356605797578
 20
-115.3262939164809
 11
90.79204641827421
 21
-115.3262939164809
 97
        0
 92
        1
 93
        3
 72
     1
 10
90.55915796347132
 20
-114.4715657265904
 11
90.0706434236629
 21
-115.127511906982
 72
     1
 10
90.0706434236629
 20
-115.127511906982
 11
90.55915796347132
 21
-115.127511906982
 72
     1
 10
90.55915796347132
 20
-115.127511906982
 11
90.55915796347132
 21
-114.4715657265904
 97
        0
 75
     2
 76
     1
 98
        0
  0
SPLINE
  5
EA
330
D1
100
AcDbEntity
  8
_U+30EC_U+30A4_U+30E4_U+30FC 1
370
     0
100
AcDbSpline
210
0.0
220
0.0
230
1.0
 70
    11
 71
     3
 72
    29
 73
    25
 74
     0
 42
0.0000000001
 43
0.0000000001
 12
1.0
 22
0.0
 32
0.0
 13
1.0
 23
0.0
 33
0.0
 40
0.0
 40
0.0
 40
0.0
 40
0.0
 40
1.0
 40
1.0
 40
1.0
 40
2.0
 40
2.0
 40
2.0
 40
3.0
 40
3.0
 40
3.0
 40
4.0
 40
4.0
 40
4.0
 40
5.0
 40
5.0
 40
5.0
 40
6.0
 40
6.0
 40
6.0
 40
7.0
 40
7.0
 40
7.0
 40
8.0
 40
8.0
 40
8.0
 40
8.0
 10
92.1197862182895
 20
-115.4954481048067
 30
0.0
 10
92.00437551953364
 20
-115.7049099103099
 30
0.0
 10
91.81902938242719
 20
-115.7238579354788
 30
0.0
 10
91.69466143540967
 20
-115.7238579354788
 30
0.0
 10
91.52309568024423
 20
-115.7238579354788
 30
0.0
 10
91.37151147889324
 20
-115.6773491464279
 30
0.0
 10
91.26988116207836
 20
-115.4954481048067
 30
0.0
 10
91.15894908745332
 20
-115.3008002098901
 30
0.0
 10
91.13862302409035
 20
-115.0637776405049
 30
0.0
 10
91.13862302409035
 20
-114.9011691336011
 30
0.0
 10
91.13862302409035
 20
-114.7571641423177
 30
0.0
 10
91.15653752061365
 20
-114.5053276623459
 30
0.0
 10
91.26988116207836
 20
-114.306545652847
 30
0.0
 10
91.38494735128572
 20
-114.1036295287658
 30
0.0
 10
91.55685761599968
 20
-114.0802028794661
 30
0.0
 10
91.69466143540967
 20
-114.0802028794661
 30
0.0
 10
91.86450464283249
 20
-114.0802028794661
 30
0.0
 10
92.01815590147463
 20
-114.1246446112258
 30
0.0
 10
92.1197862182895
 20
-114.306545652847
 30
0.0
 10
92.22623966878372
 20
-114.4991264904724
 30
0.0
 10
92.25104435627752
 20
-114.7275363211445
 30
0.0
 10
92.25104435627752
 20
-114.9011691336011
 30
0.0
 10
92.25104435627752
 20
-115.072390379218
 30
0.0
 10
92.22830672607488
 20
-115.3028672671812
 30
0.0
 10
92.1197862182895
 20
-115.4954481048067
 30
0.0
  0
SPLINE
  5
EB
330
D1
100
AcDbEntity
  8
_U+30EC_U+30A4_U+30E4_U+30FC 1
370
     0
100
AcDbSpline
210
0.0
220
0.0
230
1.0
 70
    11
 71
     3
 72
    17
 73
    13
 74
     0
 42
0.0000000001
 43
0.0000000001
 12
1.0
 22
0.0
 32
0.0
 13
1.0
 23
0.0
 33
0.0
 40
0.0
 40
0.0
 40
0.0
 40
0.0
 40
1.0
 40
1.0
 40
1.0
 40
2.0
 40
2.0
 40
2.0
 40
3.0
 40
3.0
 40
3.0
 40
4.0
 40
4.0
 40
4.0
 40
4.0
 10
91.69466143540967
 20
-114.2727837170915
 30
0.0
 10
91.42801104485133
 20
-114.2727837170915
 30
0.0
 10
91.37840166986373
 20
-114.5563150755276
 30
0.0
 10
91.37840166986373
 20
-114.9011691336011
 30
0.0
 10
91.37840166986373
 20
-115.2205294850838
 30
0.0
 10
91.41664222975001
 20
-115.5292100405621
 30
0.0
 10
91.69466143540967
 20
-115.5292100405621
 30
0.0
 10
91.95924476867685
 20
-115.5292100405621
 30
0.0
 10
92.01126571050413
 20
-115.2480902489658
 30
0.0
 10
92.01126571050413
 20
-114.9011691336011
 30
0.0
 10
92.01126571050413
 20
-114.5814642725699
 30
0.0
 10
91.97061358377819
 20
-114.2727837170915
 30
0.0
 10
91.69466143540967
 20
-114.2727837170915
 30
0.0
  0
HATCH
  5
EC
330
D1
100
AcDbEntity
  8
_U+30EC_U+30A4_U+30E4_U+30FC 1
 62
   179
420
  2234388
100
AcDbHatch
 10
0.0
 20
0.0
 30
0.0
210
0.0
220
0.0
230
1.0
  2
SOLID
 70
     1
 71
     0
 91
        2
 92
        1
 93
        1
 72
     4
 94
        3
 73
     0
 74
     1
 95
       29
 96
       25
 40
0.0
 40
0.0
 40
0.0
 40
0.0
 40
1.0
 40
1.0
 40
1.0
 40
2.0
 40
2.0
 40
2.0
 40
3.0
 40
3.0
 40
3.0
 40
4.0
 40
4.0
 40
4.0
 40
5.0
 40
5.0
 40
5.0
 40
6.0
 40
6.0
 40
6.0
 40
7.0
 40
7.0
 40
7.0
 40
8.0
 40
8.0
 40
8.0
 40
8.0
 10
92.1197862182895
 20
-115.4954481048067
 10
92.00437551953364
 20
-115.7049099103099
 10
91.81902938242719
 20
-115.7238579354788
 10
91.69466143540967
 20
-115.7238579354788
 10
91.52309568024423
 20
-115.7238579354788
 10
91.37151147889324
 20
-115.6773491464279
 10
91.26988116207836
 20
-115.4954481048067
 10
91.15894908745332
 20
-115.3008002098901
 10
91.13862302409035
 20
-115.0637776405049
 10
91.13862302409035
 20
-114.9011691336011
 10
91.13862302409035
 20
-114.7571641423177
 10
91.15653752061365
 20
-114.5053276623459
 10
91.26988116207836
 20
-114.306545652847
 10
91.38494735128572
 20
-114.1036295287658
 10
91.55685761599968
 20
-114.0802028794661
 10
91.69466143540967
 20
-114.0802028794661
 10
91.86450464283249
 20
-114.0802028794661
 10
92.01815590147463
 20
-114.1246446112258
 10
92.1197862182895
 20
-114.306545652847
 10
92.22623966878372
 20
-114.4991264904724
 10
92.25104435627752
 20
-114.7275363211445
 10
92.25104435627752
 20
-114.9011691336011
 10
92.25104435627752
 20
-115.072390379218
 10
92.22830672607488
 20
-115.3028672671812
 10
92.1197862182895
 20
-115.4954481048067
 97
        0
 97
        0
 92
        1
 93
        1
 72
     4
 94
        3
 73
     0
 74
     1
 95
       17
 96
       13
 40
0.0
 40
0.0
 40
0.0
 40
0.0
 40
1.0
 40
1.0
 40
1.0
 40
2.0
 40
2.0
 40
2.0
 40
3.0
 40
3.0
 40
3.0
 40
4.0
 40
4.0
 40
4.0
 40
4.0
 10
91.69466143540967
 20
-114.2727837170915
 10
91.42801104485133
 20
-114.2727837170915
 10
91.37840166986373
 20
-114.5563150755276
 10
91.37840166986373
 20
-114.9011691336011
 10
91.37840166986373
 20
-115.2205294850838
 10
91.41664222975001
 20
-115.5292100405621
 10
91.69466143540967
 20
-115.5292100405621
 10
91.95924476867685
 20
-115.5292100405621
 10
92.01126571050413
 20
-115.2480902489658
 10
92.01126571050413
 20
-114.9011691336011
 10
92.01126571050413
 20
-114.5814642725699
 10
91.97061358377819
 20
-114.2727837170915
 10
91.69466143540967
 20
-114.2727837170915
 97
        0
 97
        0
 75
     2
 76
     1
 98
        0
  0
ENDBLK
  5
D4
330
D1
100
AcDbEntity
  8
0
100
AcDbBlockEnd
  0
BLOCK
  5
EF
330
ED
100
AcDbEntity
  8
0
100
AcDbBlockBegin
  2
block 5
 70
     0
 10
0.0
 20
0.0
 30
0.0
  3
block 5
  1

  0
SPLINE
  5
F1
330
ED
100
AcDbEntity
  8
_U+30EC_U+30A4_U+30E4_U+30FC 1
370
     0
100
AcDbSpline
210
0.0
220
0.0
230
1.0
 70
    11
 71
     3
 72
    26
 73
    22
 74
     0
 42
0.0000000001
 43
0.0000000001
 12
1.0
 22
0.0
 32
0.0
 13
1.0
 23
0.0
 33
0.0
 40
0.0
 40
0.0
 40
0.0
 40
0.0
 40
1.0
 40
1.0
 40
1.0
 40
2.0
 40
2.0
 40
2.0
 40
3.0
 40
3.0
 40
3.0
 40
4.0
 40
4.0
 40
4.0
 40
5.0
 40
5.0
 40
5.0
 40
6.0
 40
6.0
 40
6.0
 40
7.0
 40
7.0
 40
7.0
 40
7.0
 10
71.50674640139415
 20
-113.0840535199061
 30
0.0
 10
71.50674640139415
 20
-113.0840535199061
 30
0.0
 10
71.50674640139415
 20
-111.9797281621092
 30
0.0
 10
71.50674640139415
 20
-111.9797281621092
 30
0.0
 10
71.50674640139415
 20
-111.9797281621092
 30
0.0
 10
71.15396862370457
 20
-111.9797281621092
 30
0.0
 10
71.15396862370457
 20
-111.9797281621092
 30
0.0
 10
71.15396862370457
 20
-111.9797281621092
 30
0.0
 10
71.15396862370457
 20
-111.8315890562435
 30
0.0
 10
71.15396862370457
 20
-111.8315890562435
 30
0.0
 10
71.50898571345957
 20
-111.8169474004312
 30
0.0
 10
71.55876734322142
 20
-111.6539943839789
 30
0.0
 10
71.59046222168573
 20
-111.5397894686428
 30
0.0
 10
71.59046222168573
 20
-111.5397894686428
 30
0.0
 10
71.74635279239328
 20
-111.5397894686428
 30
0.0
 10
71.74635279239328
 20
-111.5397894686428
 30
0.0
 10
71.74635279239328
 20
-111.5397894686428
 30
0.0
 10
71.74635279239328
 20
-113.0840535199061
 30
0.0
 10
71.74635279239328
 20
-113.0840535199061
 30
0.0
 10
71.74635279239328
 20
-113.0840535199061
 30
0.0
 10
71.50674640139415
 20
-113.0840535199061
 30
0.0
 10
71.50674640139415
 20
-113.0840535199061
 30
0.0
  0
HATCH
  5
F2
330
ED
100
AcDbEntity
  8
_U+30EC_U+30A4_U+30E4_U+30FC 1
 62
   179
420
  2234388
100
AcDbHatch
 10
0.0
 20
0.0
 30
0.0
210
0.0
220
0.0
230
1.0
  2
SOLID
 70
     1
 71
     0
 91
        1
 92
        1
 93
        1
 72
     4
 94
        3
 73
     0
 74
     1
 95
       26
 96
       22
 40
0.0
 40
0.0
 40
0.0
 40
0.0
 40
1.0
 40
1.0
 40
1.0
 40
2.0
 40
2.0
 40
2.0
 40
3.0
 40
3.0
 40
3.0
 40
4.0
 40
4.0
 40
4.0
 40
5.0
 40
5.0
 40
5.0
 40
6.0
 40
6.0
 40
6.0
 40
7.0
 40
7.0
 40
7.0
 40
7.0
 10
71.50674640139415
 20
-113.0840535199061
 10
71.50674640139415
 20
-113.0840535199061
 10
71.50674640139415
 20
-111.9797281621092
 10
71.50674640139415
 20
-111.9797281621092
 10
71.50674640139415
 20
-111.9797281621092
 10
71.15396862370457
 20
-111.9797281621092
 10
71.15396862370457
 20
-111.9797281621092
 10
71.15396862370457
 20
-111.9797281621092
 10
71.15396862370457
 20
-111.8315890562435
 10
71.15396862370457
 20
-111.8315890562435
 10
71.50898571345957
 20
-111.8169474004312
 10
71.55876734322142
 20
-111.6539943839789
 10
71.59046222168573
 20
-111.5397894686428
 10
71.59046222168573
 20
-111.5397894686428
 10
71.74635279239328
 20
-111.5397894686428
 10
71.74635279239328
 20
-111.5397894686428
 10
71.74635279239328
 20
-111.5397894686428
 10
71.74635279239328
 20
-113.0840535199061
 10
71.74635279239328
 20
-113.0840535199061
 10
71.74635279239328
 20
-113.0840535199061
 10
71.50674640139415
 20
-113.0840535199061
 10
71.50674640139415
 20
-113.0840535199061
 97
        0
 97
        0
 75
     2
 76
     1
 98
        0
  0
ENDBLK
  5
F0
330
ED
100
AcDbEntity
  8
0
100
AcDbBlockEnd
  0
BLOCK
  5
F5
330
F3
100
AcDbEntity
  8
0
100
AcDbBlockBegin
  2
block 6
 70
     0
 10
0.0
 20
0.0
 30
0.0
  3
block 6
  1

  0
SPLINE
  5
F7
330
F3
100
AcDbEntity
  8
_U+30EC_U+30A4_U+30E4_U+30FC 1
370
     0
100
AcDbSpline
210
0.0
220
0.0
230
1.0
 70
    11
 71
     3
 72
    32
 73
    28
 74
     0
 42
0.0000000001
 43
0.0000000001
 12
1.0
 22
0.0
 32
0.0
 13
1.0
 23
0.0
 33
0.0
 40
0.0
 40
0.0
 40
0.0
 40
0.0
 40
1.0
 40
1.0
 40
1.0
 40
2.0
 40
2.0
 40
2.0
 40
3.0
 40
3.0
 40
3.0
 40
4.0
 40
4.0
 40
4.0
 40
5.0
 40
5.0
 40
5.0
 40
6.0
 40
6.0
 40
6.0
 40
7.0
 40
7.0
 40
7.0
 40
8.0
 40
8.0
 40
8.0
 40
9.0
 40
9.0
 40
9.0
 40
9.0
 10
117.5790418542858
 20
-131.8327799149585
 30
0.0
 10
117.5790418542858
 20
-132.0181260520649
 30
0.0
 10
117.5094509254837
 20
-132.2802978184924
 30
0.0
 10
117.1773437207057
 20
-132.3209499452184
 30
0.0
 10
117.1773437207057
 20
-132.3209499452184
 30
0.0
 10
117.1773437207057
 20
-132.0925401145463
 30
0.0
 10
117.1773437207057
 20
-132.0925401145463
 30
0.0
 10
117.236599363052
 20
-132.081171299445
 30
0.0
 10
117.3847384689177
 20
-132.0474093636896
 30
0.0
 10
117.3847384689177
 20
-131.8303683481188
 30
0.0
 10
117.3847384689177
 20
-131.5182426971552
 30
0.0
 10
117.0546983214308
 20
-131.4775905704292
 30
0.0
 10
116.8493706305099
 20
-131.4641546980367
 30
0.0
 10
116.9296413553162
 20
-131.5613063907208
 30
0.0
 10
116.9868299403714
 20
-131.633653395911
 30
0.0
 10
116.9868299403714
 20
-131.8279567812791
 30
0.0
 10
116.9868299403714
 20
-132.0201931093561
 30
0.0
 10
116.8810655089742
 20
-132.3433430658725
 30
0.0
 10
116.4748887512632
 20
-132.3433430658725
 30
0.0
 10
116.1555283997806
 20
-132.3433430658725
 30
0.0
 10
115.9353867982731
 20
-132.1311251839811
 30
0.0
 10
115.9353867982731
 20
-131.791783278684
 30
0.0
 10
115.9353867982731
 20
-131.2422905487867
 30
0.0
 10
116.4897026618498
 20
-131.2312662432338
 30
0.0
 10
116.7032985819353
 20
-131.2312662432338
 30
0.0
 10
116.934119979447
 20
-131.2312662432338
 30
0.0
 10
117.5790418542858
 20
-131.2515923065968
 30
0.0
 10
117.5790418542858
 20
-131.8327799149585
 30
0.0
  0
SPLINE
  5
F8
330
F3
100
AcDbEntity
  8
_U+30EC_U+30A4_U+30E4_U+30FC 1
370
     0
100
AcDbSpline
210
0.0
220
0.0
230
1.0
 70
    11
 71
     3
 72
    17
 73
    13
 74
     0
 42
0.0000000001
 43
0.0000000001
 12
1.0
 22
0.0
 32
0.0
 13
1.0
 23
0.0
 33
0.0
 40
0.0
 40
0.0
 40
0.0
 40
0.0
 40
1.0
 40
1.0
 40
1.0
 40
2.0
 40
2.0
 40
2.0
 40
3.0
 40
3.0
 40
3.0
 40
4.0
 40
4.0
 40
4.0
 40
4.0
 10
116.1279676358986
 20
-131.7893717118443
 30
0.0
 10
116.1279676358986
 20
-131.9161512257015
 30
0.0
 10
116.1851562209537
 20
-132.1039089296476
 30
0.0
 10
116.4704101271324
 20
-132.1039089296476
 30
0.0
 10
116.6970974100618
 20
-132.1039089296476
 30
0.0
 10
116.7921820454547
 20
-131.9547362951363
 30
0.0
 10
116.7921820454547
 20
-131.8100422847558
 30
0.0
 10
116.7921820454547
 20
-131.5296115122565
 30
0.0
 10
116.5827202399515
 20
-131.4889593855305
 30
0.0
 10
116.4662760125501
 20
-131.4889593855305
 30
0.0
 10
116.2905761428024
 20
-131.4889593855305
 30
0.0
 10
116.1279676358986
 20
-131.5905897023454
 30
0.0
 10
116.1279676358986
 20
-131.7893717118443
 30
0.0
  0
HATCH
  5
F9
330
F3
100
AcDbEntity
  8
_U+30EC_U+30A4_U+30E4_U+30FC 1
 62
   179
420
  2234388
100
AcDbHatch
 10
0.0
 20
0.0
 30
0.0
210
0.0
220
0.0
230
1.0
  2
SOLID
 70
     1
 71
     0
 91
        2
 92
        1
 93
        1
 72
     4
 94
        3
 73
     0
 74
     1
 95
       32
 96
       28
 40
0.0
 40
0.0
 40
0.0
 40
0.0
 40
1.0
 40
1.0
 40
1.0
 40
2.0
 40
2.0
 40
2.0
 40
3.0
 40
3.0
 40
3.0
 40
4.0
 40
4.0
 40
4.0
 40
5.0
 40
5.0
 40
5.0
 40
6.0
 40
6.0
 40
6.0
 40
7.0
 40
7.0
 40
7.0
 40
8.0
 40
8.0
 40
8.0
 40
9.0
 40
9.0
 40
9.0
 40
9.0
 10
117.5790418542858
 20
-131.8327799149585
 10
117.5790418542858
 20
-132.0181260520649
 10
117.5094509254837
 20
-132.2802978184924
 10
117.1773437207057
 20
-132.3209499452184
 10
117.1773437207057
 20
-132.3209499452184
 10
117.1773437207057
 20
-132.0925401145463
 10
117.1773437207057
 20
-132.0925401145463
 10
117.236599363052
 20
-132.081171299445
 10
117.3847384689177
 20
-132.0474093636896
 10
117.3847384689177
 20
-131.8303683481188
 10
117.3847384689177
 20
-131.5182426971552
 10
117.0546983214308
 20
-131.4775905704292
 10
116.8493706305099
 20
-131.4641546980367
 10
116.9296413553162
 20
-131.5613063907208
 10
116.9868299403714
 20
-131.633653395911
 10
116.9868299403714
 20
-131.8279567812791
 10
116.9868299403714
 20
-132.0201931093561
 10
116.8810655089742
 20
-132.3433430658725
 10
116.4748887512632
 20
-132.3433430658725
 10
116.1555283997806
 20
-132.3433430658725
 10
115.9353867982731
 20
-132.1311251839811
 10
115.9353867982731
 20
-131.791783278684
 10
115.9353867982731
 20
-131.2422905487867
 10
116.4897026618498
 20
-131.2312662432338
 10
116.7032985819353
 20
-131.2312662432338
 10
116.934119979447
 20
-131.2312662432338
 10
117.5790418542858
 20
-131.2515923065968
 10
117.5790418542858
 20
-131.8327799149585
 97
        0
 97
        0
 92
        1
 93
        1
 72
     4
 94
        3
 73
     0
 74
     1
 95
       17
 96
       13
 40
0.0
 40
0.0
 40
0.0
 40
0.0
 40
1.0
 40
1.0
 40
1.0
 40
2.0
 40
2.0
 40
2.0
 40
3.0
 40
3.0
 40
3.0
 40
4.0
 40
4.0
 40
4.0
 40
4.0
 10
116.1279676358986
 20
-131.7893717118443
 10
116.1279676358986
 20
-131.9161512257015
 10
116.1851562209537
 20
-132.1039089296476
 10
116.4704101271324
 20
-132.1039089296476
 10
116.6970974100618
 20
-132.1039089296476
 10
116.7921820454547
 20
-131.9547362951363
 10
116.7921820454547
 20
-131.8100422847558
 10
116.7921820454547
 20
-131.5296115122565
 10
116.5827202399515
 20
-131.4889593855305
 10
116.4662760125501
 20
-131.4889593855305
 10
116.2905761428024
 20
-131.4889593855305
 10
116.1279676358986
 20
-131.5905897023454
 10
116.1279676358986
 20
-131.7893717118443
 97
        0
 97
        0
 75
     2
 76
     1
 98
        0
  0
POLYLINE
  5
FA
330
F3
100
AcDbEntity
  8
_U+30EC_U+30A4_U+30E4_U+30FC 1
370
     0
100
AcDb2dPolyline
 66
     1
 10
0.0
 20
0.0
 30
0.0
  0
VERTEX
  5
FB
330
FA
100
AcDbEntity
  8
_U+30EC_U+30A4_U+30E4_U+30FC 1
370
     0
100
AcDbVertex
100
AcDb2dVertex
 10
117.5283989506526
 20
-130.9997558266251
 30
0.0
  0
VERTEX
  5
FC
330
FA
100
AcDbEntity
  8
_U+30EC_U+30A4_U+30E4_U+30FC 1
370
     0
100
AcDbVertex
100
AcDb2dVertex
 10
117.2765624706809
 20
-130.9997558266251
 30
0.0
  0
VERTEX
  5
FD
330
FA
100
AcDbEntity
  8
_U+30EC_U+30A4_U+30E4_U+30FC 1
370
     0
100
AcDbVertex
100
AcDb2dVertex
 10
117.2765624706809
 20
-130.7306938692271
 30
0.0
  0
VERTEX
  5
FE
330
FA
100
AcDbEntity
  8
_U+30EC_U+30A4_U+30E4_U+30FC 1
370
     0
100
AcDbVertex
100
AcDb2dVertex
 10
117.5283989506526
 20
-130.7306938692271
 30
0.0
  0
VERTEX
  5
FF
330
FA
100
AcDbEntity
  8
_U+30EC_U+30A4_U+30E4_U+30FC 1
370
     0
100
AcDbVertex
100
AcDb2dVertex
 10
117.5283989506526
 20
-130.9997558266251
 30
0.0
  0
SEQEND
  5
100
330
FA
100
AcDbEntity
  8
_U+30EC_U+30A4_U+30E4_U+30FC 1
370
     0
  0
HATCH
  5
101
330
F3
100
AcDbEntity
  8
_U+30EC_U+30A4_U+30E4_U+30FC 1
 62
   179
420
  2234388
100
AcDbHatch
 10
0.0
 20
0.0
 30
0.0
210
0.0
220
0.0
230
1.0
  2
SOLID
 70
     1
 71
     0
 91
        1
 92
        1
 93
        4
 72
     1
 10
117.5283989506526
 20
-130.9997558266251
 11
117.2765624706809
 21
-130.9997558266251
 72
     1
 10
117.2765624706809
 20
-130.9997558266251
 11
117.2765624706809
 21
-130.7306938692271
 72
     1
 10
117.2765624706809
 20
-130.7306938692271
 11
117.5283989506526
 21
-130.7306938692271
 72
     1
 10
117.5283989506526
 20
-130.7306938692271
 11
117.5283989506526
 21
-130.9997558266251
 97
        0
 75
     2
 76
     1
 98
        0
  0
SPLINE
  5
102
330
F3
100
AcDbEntity
  8
_U+30EC_U+30A4_U+30E4_U+30FC 1
370
     0
100
AcDbSpline
210
0.0
220
0.0
230
1.0
 70
    11
 71
     3
 72
    53
 73
    49
 74
     0
 42
0.0000000001
 43
0.0000000001
 12
1.0
 22
0.0
 32
0.0
 13
1.0
 23
0.0
 33
0.0
 40
0.0
 40
0.0
 40
0.0
 40
0.0
 40
1.0
 40
1.0
 40
1.0
 40
2.0
 40
2.0
 40
2.0
 40
3.0
 40
3.0
 40
3.0
 40
4.0
 40
4.0
 40
4.0
 40
5.0
 40
5.0
 40
5.0
 40
6.0
 40
6.0
 40
6.0
 40
7.0
 40
7.0
 40
7.0
 40
8.0
 40
8.0
 40
8.0
 40
9.0
 40
9.0
 40
9.0
 40
10.0
 40
10.0
 40
10.0
 40
11.0
 40
11.0
 40
11.0
 40
12.0
 40
12.0
 40
12.0
 40
13.0
 40
13.0
 40
13.0
 40
14.0
 40
14.0
 40
14.0
 40
15.0
 40
15.0
 40
15.0
 40
16.0
 40
16.0
 40
16.0
 40
16.0
 10
117.5790418542858
 20
-129.9638156142104
 30
0.0
 10
117.5790418542858
 20
-130.047531434502
 30
0.0
 10
117.5625053959566
 20
-130.1560519422874
 30
0.0
 10
117.4987711294795
 20
-130.2645724500728
 30
0.0
 10
117.3888725835
 20
-130.4499185871792
 30
0.0
 10
117.257614445512
 20
-130.4726562173819
 30
0.0
 10
117.1497829568237
 20
-130.4929822807448
 30
0.0
 10
117.1497829568237
 20
-130.4929822807448
 30
0.0
 10
117.1497829568237
 20
-130.2556152018111
 30
0.0
 10
117.1497829568237
 20
-130.2556152018111
 30
0.0
 10
117.3485649663226
 20
-130.1967040690133
 30
0.0
 10
117.3781927874957
 20
-130.061311816443
 30
0.0
 10
117.3781927874957
 20
-129.9614040473708
 30
0.0
 10
117.3781927874957
 20
-129.812575922408
 30
0.0
 10
117.278629527972
 20
-129.6496229059557
 30
0.0
 10
117.0460855827177
 20
-129.6496229059557
 30
0.0
 10
116.7901149881636
 20
-129.6496229059557
 30
0.0
 10
116.7205240593615
 20
-129.8418592340326
 30
0.0
 10
116.7205240593615
 20
-129.9707058051809
 30
0.0
 10
116.7205240593615
 20
-130.0048122504849
 30
0.0
 10
116.7205240593615
 20
-130.1560519422874
 30
0.0
 10
116.8493706305099
 20
-130.2507920681317
 30
0.0
 10
116.8493706305099
 20
-130.2507920681317
 30
0.0
 10
116.8300780957925
 20
-130.4388942816264
 30
0.0
 10
116.8300780957925
 20
-130.4388942816264
 30
0.0
 10
116.8300780957925
 20
-130.4388942816264
 30
0.0
 10
115.9839626446151
 20
-130.3097032009295
 30
0.0
 10
115.9839626446151
 20
-130.3097032009295
 30
0.0
 10
115.9839626446151
 20
-130.3097032009295
 30
0.0
 10
115.9839626446151
 20
-129.4777126412417
 30
0.0
 10
115.9839626446151
 20
-129.4777126412417
 30
0.0
 10
115.9839626446151
 20
-129.4777126412417
 30
0.0
 10
116.1789550490803
 20
-129.4777126412417
 30
0.0
 10
116.1789550490803
 20
-129.4777126412417
 30
0.0
 10
116.1789550490803
 20
-129.4777126412417
 30
0.0
 10
116.1789550490803
 20
-130.1357258789244
 30
0.0
 10
116.1789550490803
 20
-130.1357258789244
 30
0.0
 10
116.1789550490803
 20
-130.1357258789244
 30
0.0
 10
116.6020127746689
 20
-130.2060058268235
 30
0.0
 10
116.6020127746689
 20
-130.2060058268235
 30
0.0
 10
116.567906329365
 20
-130.1402045030552
 30
0.0
 10
116.5275987121876
 20
-130.0520100586328
 30
0.0
 10
116.5275987121876
 20
-129.9255750543242
 30
0.0
 10
116.5275987121876
 20
-129.6541015300865
 30
0.0
 10
116.7139783779396
 20
-129.4008870119206
 30
0.0
 10
117.0271375575488
 20
-129.4008870119206
 30
0.0
 10
117.3444308517403
 20
-129.4008870119206
 30
0.0
 10
117.5790418542858
 20
-129.640665657694
 30
0.0
 10
117.5790418542858
 20
-129.9638156142104
 30
0.0
  0
HATCH
  5
103
330
F3
100
AcDbEntity
  8
_U+30EC_U+30A4_U+30E4_U+30FC 1
 62
   179
420
  2234388
100
AcDbHatch
 10
0.0
 20
0.0
 30
0.0
210
0.0
220
0.0
230
1.0
  2
SOLID
 70
     1
 71
     0
 91
        1
 92
        1
 93
        1
 72
     4
 94
        3
 73
     0
 74
     1
 95
       53
 96
       49
 40
0.0
 40
0.0
 40
0.0
 40
0.0
 40
1.0
 40
1.0
 40
1.0
 40
2.0
 40
2.0
 40
2.0
 40
3.0
 40
3.0
 40
3.0
 40
4.0
 40
4.0
 40
4.0
 40
5.0
 40
5.0
 40
5.0
 40
6.0
 40
6.0
 40
6.0
 40
7.0
 40
7.0
 40
7.0
 40
8.0
 40
8.0
 40
8.0
 40
9.0
 40
9.0
 40
9.0
 40
10.0
 40
10.0
 40
10.0
 40
11.0
 40
11.0
 40
11.0
 40
12.0
 40
12.0
 40
12.0
 40
13.0
 40
13.0
 40
13.0
 40
14.0
 40
14.0
 40
14.0
 40
15.0
 40
15.0
 40
15.0
 40
16.0
 40
16.0
 40
16.0
 40
16.0
 10
117.5790418542858
 20
-129.9638156142104
 10
117.5790418542858
 20
-130.047531434502
 10
117.5625053959566
 20
-130.1560519422874
 10
117.4987711294795
 20
-130.2645724500728
 10
117.3888725835
 20
-130.4499185871792
 10
117.257614445512
 20
-130.4726562173819
 10
117.1497829568237
 20
-130.4929822807448
 10
117.1497829568237
 20
-130.4929822807448
 10
117.1497829568237
 20
-130.2556152018111
 10
117.1497829568237
 20
-130.2556152018111
 10
117.3485649663226
 20
-130.1967040690133
 10
117.3781927874957
 20
-130.061311816443
 10
117.3781927874957
 20
-129.9614040473708
 10
117.3781927874957
 20
-129.812575922408
 10
117.278629527972
 20
-129.6496229059557
 10
117.0460855827177
 20
-129.6496229059557
 10
116.7901149881636
 20
-129.6496229059557
 10
116.7205240593615
 20
-129.8418592340326
 10
116.7205240593615
 20
-129.9707058051809
 10
116.7205240593615
 20
-130.0048122504849
 10
116.7205240593615
 20
-130.1560519422874
 10
116.8493706305099
 20
-130.2507920681317
 10
116.8493706305099
 20
-130.2507920681317
 10
116.8300780957925
 20
-130.4388942816264
 10
116.8300780957925
 20
-130.4388942816264
 10
116.8300780957925
 20
-130.4388942816264
 10
115.9839626446151
 20
-130.3097032009295
 10
115.9839626446151
 20
-130.3097032009295
 10
115.9839626446151
 20
-130.3097032009295
 10
115.9839626446151
 20
-129.4777126412417
 10
115.9839626446151
 20
-129.4777126412417
 10
115.9839626446151
 20
-129.4777126412417
 10
116.1789550490803
 20
-129.4777126412417
 10
116.1789550490803
 20
-129.4777126412417
 10
116.1789550490803
 20
-129.4777126412417
 10
116.1789550490803
 20
-130.1357258789244
 10
116.1789550490803
 20
-130.1357258789244
 10
116.1789550490803
 20
-130.1357258789244
 10
116.6020127746689
 20
-130.2060058268235
 10
116.6020127746689
 20
-130.2060058268235
 10
116.567906329365
 20
-130.1402045030552
 10
116.5275987121876
 20
-130.0520100586328
 10
116.5275987121876
 20
-129.9255750543242
 10
116.5275987121876
 20
-129.6541015300865
 10
116.7139783779396
 20
-129.4008870119206
 10
117.0271375575488
 20
-129.4008870119206
 10
117.3444308517403
 20
-129.4008870119206
 10
117.5790418542858
 20
-129.640665657694
 10
117.5790418542858
 20
-129.9638156142104
 97
        0
 97
        0
 75
     2
 76
     1
 98
        0
  0
ENDBLK
  5
F6
330
F3
100
AcDbEntity
  8
0
100
AcDbBlockEnd
  0
BLOCK
  5
106
330
104
100
AcDbEntity
  8
0
100
AcDbBlockBegin
  2
block 7
 70
     0
 10
0.0
 20
0.0
 30
0.0
  3
block 7
  1

  0
SPLINE
  5
108
330
104
100
AcDbEntity
  8
_U+30EC_U+30A4_U+30E4_U+30FC 1
370
     0
100
AcDbSpline
210
0.0
220
0.0
230
1.0
 70
    11
 71
     3
 72
    26
 73
    22
 74
     0
 42
0.0000000001
 43
0.0000000001
 12
1.0
 22
0.0
 32
0.0
 13
1.0
 23
0.0
 33
0.0
 40
0.0
 40
0.0
 40
0.0
 40
0.0
 40
1.0
 40
1.0
 40
1.0
 40
2.0
 40
2.0
 40
2.0
 40
3.0
 40
3.0
 40
3.0
 40
4.0
 40
4.0
 40
4.0
 40
5.0
 40
5.0
 40
5.0
 40
6.0
 40
6.0
 40
6.0
 40
7.0
 40
7.0
 40
7.0
 40
7.0
 10
65.76601153954809
 20
-130.2962673285371
 30
0.0
 10
65.76601153954809
 20
-130.2962673285371
 30
0.0
 10
64.6618584365255
 20
-130.2962673285371
 30
0.0
 10
64.6618584365255
 20
-130.2962673285371
 30
0.0
 10
64.6618584365255
 20
-130.2962673285371
 30
0.0
 10
64.6618584365255
 20
-130.6487005966781
 30
0.0
 10
64.6618584365255
 20
-130.6487005966781
 30
0.0
 10
64.6618584365255
 20
-130.6487005966781
 30
0.0
 10
64.51371933065977
 20
-130.6487005966781
 30
0.0
 10
64.51371933065977
 20
-130.6487005966781
 30
0.0
 10
64.4989054200732
 20
-130.2938557616974
 30
0.0
 10
64.33595240362088
 20
-130.2442463867098
 30
0.0
 10
64.22157523351058
 20
-130.2125515082455
 30
0.0
 10
64.22157523351058
 20
-130.2125515082455
 30
0.0
 10
64.22157523351058
 20
-130.0564886827637
 30
0.0
 10
64.22157523351058
 20
-130.0564886827637
 30
0.0
 10
64.22157523351058
 20
-130.0564886827637
 30
0.0
 10
65.76601153954809
 20
-130.0564886827637
 30
0.0
 10
65.76601153954809
 20
-130.0564886827637
 30
0.0
 10
65.76601153954809
 20
-130.0564886827637
 30
0.0
 10
65.76601153954809
 20
-130.2962673285371
 30
0.0
 10
65.76601153954809
 20
-130.2962673285371
 30
0.0
  0
HATCH
  5
109
330
104
100
AcDbEntity
  8
_U+30EC_U+30A4_U+30E4_U+30FC 1
 62
   179
420
  2234388
100
AcDbHatch
 10
0.0
 20
0.0
 30
0.0
210
0.0
220
0.0
230
1.0
  2
SOLID
 70
     1
 71
     0
 91
        1
 92
        1
 93
        1
 72
     4
 94
        3
 73
     0
 74
     1
 95
       26
 96
       22
 40
0.0
 40
0.0
 40
0.0
 40
0.0
 40
1.0
 40
1.0
 40
1.0
 40
2.0
 40
2.0
 40
2.0
 40
3.0
 40
3.0
 40
3.0
 40
4.0
 40
4.0
 40
4.0
 40
5.0
 40
5.0
 40
5.0
 40
6.0
 40
6.0
 40
6.0
 40
7.0
 40
7.0
 40
7.0
 40
7.0
 10
65.76601153954809
 20
-130.2962673285371
 10
65.76601153954809
 20
-130.2962673285371
 10
64.6618584365255
 20
-130.2962673285371
 10
64.6618584365255
 20
-130.2962673285371
 10
64.6618584365255
 20
-130.2962673285371
 10
64.6618584365255
 20
-130.6487005966781
 10
64.6618584365255
 20
-130.6487005966781
 10
64.6618584365255
 20
-130.6487005966781
 10
64.51371933065977
 20
-130.6487005966781
 10
64.51371933065977
 20
-130.6487005966781
 10
64.4989054200732
 20
-130.2938557616974
 10
64.33595240362088
 20
-130.2442463867098
 10
64.22157523351058
 20
-130.2125515082455
 10
64.22157523351058
 20
-130.2125515082455
 10
64.22157523351058
 20
-130.0564886827637
 10
64.22157523351058
 20
-130.0564886827637
 10
64.22157523351058
 20
-130.0564886827637
 10
65.76601153954809
 20
-130.0564886827637
 10
65.76601153954809
 20
-130.0564886827637
 10
65.76601153954809
 20
-130.0564886827637
 10
65.76601153954809
 20
-130.2962673285371
 10
65.76601153954809
 20
-130.2962673285371
 97
        0
 97
        0
 75
     2
 76
     1
 98
        0
  0
SPLINE
  5
10A
330
104
100
AcDbEntity
  8
_U+30EC_U+30A4_U+30E4_U+30FC 1
370
     0
100
AcDbSpline
210
0.0
220
0.0
230
1.0
 70
    11
 71
     3
 72
    29
 73
    25
 74
     0
 42
0.0000000001
 43
0.0000000001
 12
1.0
 22
0.0
 32
0.0
 13
1.0
 23
0.0
 33
0.0
 40
0.0
 40
0.0
 40
0.0
 40
0.0
 40
1.0
 40
1.0
 40
1.0
 40
2.0
 40
2.0
 40
2.0
 40
3.0
 40
3.0
 40
3.0
 40
4.0
 40
4.0
 40
4.0
 40
5.0
 40
5.0
 40
5.0
 40
6.0
 40
6.0
 40
6.0
 40
7.0
 40
7.0
 40
7.0
 40
8.0
 40
8.0
 40
8.0
 40
8.0
 10
65.81665444318125
 20
-128.9864420250451
 30
0.0
 10
65.81665444318125
 20
-129.2710069121267
 30
0.0
 10
65.6791951333198
 20
-129.5424804363644
 30
0.0
 10
65.33020696066397
 20
-129.5424804363644
 30
0.0
 10
65.07423636610991
 20
-129.5424804363644
 30
0.0
 10
64.97915173071702
 20
-129.3908962350134
 30
0.0
 10
64.91782903107958
 20
-129.2778971030972
 30
0.0
 10
64.85857338873328
 20
-129.4112222983764
 30
0.0
 10
64.74419621862299
 20
-129.4928710613768
 30
0.0
 10
64.58331025946181
 20
-129.4928710613768
 30
0.0
 10
64.30839163973887
 20
-129.4928710613768
 30
0.0
 10
64.17299938716856
 20
-129.2803086699369
 30
0.0
 10
64.17299938716856
 20
-128.9864420250451
 30
0.0
 10
64.17299938716856
 20
-128.6832736223431
 30
0.0
 10
64.317004378452
 20
-128.4800129887133
 30
0.0
 10
64.58331025946181
 20
-128.4800129887133
 30
0.0
 10
64.74419621862299
 20
-128.4800129887133
 30
0.0
 10
64.85857338873328
 20
-128.5633842994564
 30
0.0
 10
64.91782903107958
 20
-128.6970540042841
 30
0.0
 10
64.96847193471275
 20
-128.6019693688912
 30
0.0
 10
65.06355657010565
 20
-128.4324706710169
 30
0.0
 10
65.32607284608167
 20
-128.4324706710169
 30
0.0
 10
65.70055472532833
 20
-128.4324706710169
 30
0.0
 10
65.81665444318125
 20
-128.7308159400395
 30
0.0
 10
65.81665444318125
 20
-128.9864420250451
 30
0.0
  0
SPLINE
  5
10B
330
104
100
AcDbEntity
  8
_U+30EC_U+30A4_U+30E4_U+30FC 1
370
     0
100
AcDbSpline
210
0.0
220
0.0
230
1.0
 70
    11
 71
     3
 72
    17
 73
    13
 74
     0
 42
0.0000000001
 43
0.0000000001
 12
1.0
 22
0.0
 32
0.0
 13
1.0
 23
0.0
 33
0.0
 40
0.0
 40
0.0
 40
0.0
 40
0.0
 40
1.0
 40
1.0
 40
1.0
 40
2.0
 40
2.0
 40
2.0
 40
3.0
 40
3.0
 40
3.0
 40
4.0
 40
4.0
 40
4.0
 40
4.0
 10
64.36558022479403
 20
-128.9864420250451
 30
0.0
 10
64.36558022479403
 20
-129.1628309138898
 30
0.0
 10
64.46066486018692
 20
-129.2530924156034
 30
0.0
 10
64.59605711275724
 20
-129.2530924156034
 30
0.0
 10
64.71870251203214
 20
-129.2530924156034
 30
0.0
 10
64.83721379672473
 20
-129.1762667862823
 30
0.0
 10
64.83721379672473
 20
-128.9864420250451
 30
0.0
 10
64.83721379672473
 20
-128.7962727542593
 30
0.0
 10
64.71870251203214
 20
-128.7194471249382
 30
0.0
 10
64.59605711275724
 20
-128.7194471249382
 30
0.0
 10
64.46066486018692
 20
-128.7194471249382
 30
0.0
 10
64.36558022479403
 20
-128.8121201934914
 30
0.0
 10
64.36558022479403
 20
-128.9864420250451
 30
0.0
  0
SPLINE
  5
10C
330
104
100
AcDbEntity
  8
_U+30EC_U+30A4_U+30E4_U+30FC 1
370
     0
100
AcDbSpline
210
0.0
220
0.0
230
1.0
 70
    11
 71
     3
 72
    17
 73
    13
 74
     0
 42
0.0000000001
 43
0.0000000001
 12
1.0
 22
0.0
 32
0.0
 13
1.0
 23
0.0
 33
0.0
 40
0.0
 40
0.0
 40
0.0
 40
0.0
 40
1.0
 40
1.0
 40
1.0
 40
2.0
 40
2.0
 40
2.0
 40
3.0
 40
3.0
 40
3.0
 40
4.0
 40
4.0
 40
4.0
 40
4.0
 10
65.0256605197679
 20
-128.9864420250451
 30
0.0
 10
65.0256605197679
 20
-129.1400932836872
 30
0.0
 10
65.11247692599619
 20
-129.302701790591
 30
0.0
 10
65.3153930500774
 20
-129.302701790591
 30
0.0
 10
65.5207207409983
 20
-129.302701790591
 30
0.0
 10
65.62200654826464
 20
-129.1673095380207
 30
0.0
 10
65.62200654826464
 20
-128.9864420250451
 30
0.0
 10
65.62200654826464
 20
-128.7873155059976
 30
0.0
 10
65.49936114898975
 20
-128.6698377499506
 30
0.0
 10
65.32159422195086
 20
-128.6698377499506
 30
0.0
 10
65.09973007270077
 20
-128.6698377499506
 30
0.0
 10
65.0256605197679
 20
-128.8438150719557
 30
0.0
 10
65.0256605197679
 20
-128.9864420250451
 30
0.0
  0
HATCH
  5
10D
330
104
100
AcDbEntity
  8
_U+30EC_U+30A4_U+30E4_U+30FC 1
 62
   179
420
  2234388
100
AcDbHatch
 10
0.0
 20
0.0
 30
0.0
210
0.0
220
0.0
230
1.0
  2
SOLID
 70
     1
 71
     0
 91
        3
 92
        1
 93
        1
 72
     4
 94
        3
 73
     0
 74
     1
 95
       29
 96
       25
 40
0.0
 40
0.0
 40
0.0
 40
0.0
 40
1.0
 40
1.0
 40
1.0
 40
2.0
 40
2.0
 40
2.0
 40
3.0
 40
3.0
 40
3.0
 40
4.0
 40
4.0
 40
4.0
 40
5.0
 40
5.0
 40
5.0
 40
6.0
 40
6.0
 40
6.0
 40
7.0
 40
7.0
 40
7.0
 40
8.0
 40
8.0
 40
8.0
 40
8.0
 10
65.81665444318125
 20
-128.9864420250451
 10
65.81665444318125
 20
-129.2710069121267
 10
65.6791951333198
 20
-129.5424804363644
 10
65.33020696066397
 20
-129.5424804363644
 10
65.07423636610991
 20
-129.5424804363644
 10
64.97915173071702
 20
-129.3908962350134
 10
64.91782903107958
 20
-129.2778971030972
 10
64.85857338873328
 20
-129.4112222983764
 10
64.74419621862299
 20
-129.4928710613768
 10
64.58331025946181
 20
-129.4928710613768
 10
64.30839163973887
 20
-129.4928710613768
 10
64.17299938716856
 20
-129.2803086699369
 10
64.17299938716856
 20
-128.9864420250451
 10
64.17299938716856
 20
-128.6832736223431
 10
64.317004378452
 20
-128.4800129887133
 10
64.58331025946181
 20
-128.4800129887133
 10
64.74419621862299
 20
-128.4800129887133
 10
64.85857338873328
 20
-128.5633842994564
 10
64.91782903107958
 20
-128.6970540042841
 10
64.96847193471275
 20
-128.6019693688912
 10
65.06355657010565
 20
-128.4324706710169
 10
65.32607284608167
 20
-128.4324706710169
 10
65.70055472532833
 20
-128.4324706710169
 10
65.81665444318125
 20
-128.7308159400395
 10
65.81665444318125
 20
-128.9864420250451
 97
        0
 97
        0
 92
        1
 93
        1
 72
     4
 94
        3
 73
     0
 74
     1
 95
       17
 96
       13
 40
0.0
 40
0.0
 40
0.0
 40
0.0
 40
1.0
 40
1.0
 40
1.0
 40
2.0
 40
2.0
 40
2.0
 40
3.0
 40
3.0
 40
3.0
 40
4.0
 40
4.0
 40
4.0
 40
4.0
 10
64.36558022479403
 20
-128.9864420250451
 10
64.36558022479403
 20
-129.1628309138898
 10
64.46066486018692
 20
-129.2530924156034
 10
64.59605711275724
 20
-129.2530924156034
 10
64.71870251203214
 20
-129.2530924156034
 10
64.83721379672473
 20
-129.1762667862823
 10
64.83721379672473
 20
-128.9864420250451
 10
64.83721379672473
 20
-128.7962727542593
 10
64.71870251203214
 20
-128.7194471249382
 10
64.59605711275724
 20
-128.7194471249382
 10
64.46066486018692
 20
-128.7194471249382
 10
64.36558022479403
 20
-128.8121201934914
 10
64.36558022479403
 20
-128.9864420250451
 97
        0
 97
        0
 92
        1
 93
        1
 72
     4
 94
        3
 73
     0
 74
     1
 95
       17
 96
       13
 40
0.0
 40
0.0
 40
0.0
 40
0.0
 40
1.0
 40
1.0
 40
1.0
 40
2.0
 40
2.0
 40
2.0
 40
3.0
 40
3.0
 40
3.0
 40
4.0
 40
4.0
 40
4.0
 40
4.0
 10
65.0256605197679
 20
-128.9864420250451
 10
65.0256605197679
 20
-129.1400932836872
 10
65.11247692599619
 20
-129.302701790591
 10
65.3153930500774
 20
-129.302701790591
 10
65.5207207409983
 20
-129.302701790591
 10
65.62200654826464
 20
-129.1673095380207
 10
65.62200654826464
 20
-128.9864420250451
 10
65.62200654826464
 20
-128.7873155059976
 10
65.49936114898975
 20
-128.6698377499506
 10
65.32159422195086
 20
-128.6698377499506
 10
65.09973007270077
 20
-128.6698377499506
 10
65.0256605197679
 20
-128.8438150719557
 10
65.0256605197679
 20
-128.9864420250451
 97
        0
 97
        0
 75
     2
 76
     1
 98
        0
  0
ENDBLK
  5
107
330
104
100
AcDbEntity
  8
0
100
AcDbBlockEnd
  0
ENDSEC
  0
SECTION
  2
ENTITIES
  0
POLYLINE
  5
41
330
1F
100
AcDbEntity
  8
_U+30EC_U+30A4_U+30E4_U+30FC 1
 62
   179
420
  2234388
370
    25
100
AcDb2dPolyline
 66
     1
 10
0.0
 20
0.0
 30
0.0
  0
VERTEX
  5
42
330
41
100
AcDbEntity
  8
_U+30EC_U+30A4_U+30E4_U+30FC 1
 62
   179
420
  2234388
370
    25
100
AcDbVertex
100
AcDb2dVertex
 10
81.06032320975665
 20
-138.6147849653465
 30
0.0
  0
VERTEX
  5
43
330
41
100
AcDbEntity
  8
_U+30EC_U+30A4_U+30E4_U+30FC 1
 62
   179
420
  2234388
370
    25
100
AcDbVertex
100
AcDb2dVertex
 10
71.05974374267046
 20
-138.6147849653465
 30
0.0
  0
SEQEND
  5
44
330
41
100
AcDbEntity
  8
_U+30EC_U+30A4_U+30E4_U+30FC 1
 62
   179
420
  2234388
370
    25
  0
POLYLINE
  5
45
330
1F
100
AcDbEntity
  8
_U+30EC_U+30A4_U+30E4_U+30FC 1
 62
   179
420
  2234388
370
    25
100
AcDb2dPolyline
 66
     1
 10
0.0
 20
0.0
 30
0.0
  0
VERTEX
  5
46
330
45
100
AcDbEntity
  8
_U+30EC_U+30A4_U+30E4_U+30FC 1
 62
   179
420
  2234388
370
    25
100
AcDbVertex
100
AcDb2dVertex
 10
111.0654129998186
 20
-126.1156566351377
 30
0.0
  0
VERTEX
  5
47
330
45
100
AcDbEntity
  8
_U+30EC_U+30A4_U+30E4_U+30FC 1
 62
   179
420
  2234388
370
    25
100
AcDbVertex
100
AcDb2dVertex
 10
111.0654129998186
 20
-125.11517885761
 30
0.0
  0
SEQEND
  5
48
330
45
100
AcDbEntity
  8
_U+30EC_U+30A4_U+30E4_U+30FC 1
 62
   179
420
  2234388
370
    25
  0
POLYLINE
  5
49
330
1F
100
AcDbEntity
  8
_U+30EC_U+30A4_U+30E4_U+30FC 1
 62
   179
420
  2234388
370
    25
100
AcDb2dPolyline
 66
     1
 10
0.0
 20
0.0
 30
0.0
  0
VERTEX
  5
4A
330
49
100
AcDbEntity
  8
_U+30EC_U+30A4_U+30E4_U+30FC 1
 62
   179
420
  2234388
370
    25
100
AcDbVertex
100
AcDb2dVertex
 10
81.06032320975665
 20
-135.6147980216521
 30
0.0
  0
VERTEX
  5
4B
330
49
100
AcDbEntity
  8
_U+30EC_U+30A4_U+30E4_U+30FC 1
 62
   179
420
  2234388
370
    25
100
AcDbVertex
100
AcDb2dVertex
 10
78.06001884185635
 20
-135.6147980216521
 30
0.0
  0
SEQEND
  5
4C
330
49
100
AcDbEntity
  8
_U+30EC_U+30A4_U+30E4_U+30FC 1
 62
   179
420
  2234388
370
    25
  0
POLYLINE
  5
4D
330
1F
100
AcDbEntity
  8
_U+30EC_U+30A4_U+30E4_U+30FC 1
 62
   179
420
  2234388
370
    25
100
AcDb2dPolyline
 66
     1
 10
0.0
 20
0.0
 30
0.0
  0
VERTEX
  5
4E
330
4D
100
AcDbEntity
  8
_U+30EC_U+30A4_U+30E4_U+30FC 1
 62
   179
420
  2234388
370
    25
100
AcDbVertex
100
AcDb2dVertex
 10
111.0654129998186
 20
-126.1156566351377
 30
0.0
  0
VERTEX
  5
4F
330
4D
100
AcDbEntity
  8
_U+30EC_U+30A4_U+30E4_U+30FC 1
 62
   179
420
  2234388
370
    25
100
AcDbVertex
100
AcDb2dVertex
 10
72.05951593938637
 20
-126.1156566351377
 30
0.0
  0
SEQEND
  5
50
330
4D
100
AcDbEntity
  8
_U+30EC_U+30A4_U+30E4_U+30FC 1
 62
   179
420
  2234388
370
    25
  0
POLYLINE
  5
51
330
1F
100
AcDbEntity
  8
_U+30EC_U+30A4_U+30E4_U+30FC 1
 62
   179
420
  2234388
370
    25
100
AcDb2dPolyline
 66
     1
 10
0.0
 20
0.0
 30
0.0
  0
VERTEX
  5
52
330
51
100
AcDbEntity
  8
_U+30EC_U+30A4_U+30E4_U+30FC 1
 62
   179
420
  2234388
370
    25
100
AcDbVertex
100
AcDb2dVertex
 10
111.0654129998186
 20
-125.11517885761
 30
0.0
  0
VERTEX
  5
53
330
51
100
AcDbEntity
  8
_U+30EC_U+30A4_U+30E4_U+30FC 1
 62
   179
420
  2234388
370
    25
100
AcDbVertex
100
AcDb2dVertex
 10
72.05951593938637
 20
-125.11517885761
 30
0.0
  0
SEQEND
  5
54
330
51
100
AcDbEntity
  8
_U+30EC_U+30A4_U+30E4_U+30FC 1
 62
   179
420
  2234388
370
    25
  0
POLYLINE
  5
55
330
1F
100
AcDbEntity
  8
_U+30EC_U+30A4_U+30E4_U+30FC 1
 62
   179
420
  2234388
370
    25
100
AcDb2dPolyline
 66
     1
 10
0.0
 20
0.0
 30
0.0
  0
VERTEX
  5
56
330
55
100
AcDbEntity
  8
_U+30EC_U+30A4_U+30E4_U+30FC 1
 62
   179
420
  2234388
370
    25
100
AcDbVertex
100
AcDb2dVertex
 10
72.05951593938637
 20
-137.6150127433739
 30
0.0
  0
VERTEX
  5
57
330
55
100
AcDbEntity
  8
_U+30EC_U+30A4_U+30E4_U+30FC 1
 62
   179
420
  2234388
370
    25
100
AcDbVertex
100
AcDb2dVertex
 10
72.05951593938637
 20
-126.1156566351377
 30
0.0
  0
SEQEND
  5
58
330
55
100
AcDbEntity
  8
_U+30EC_U+30A4_U+30E4_U+30FC 1
 62
   179
420
  2234388
370
    25
  0
POLYLINE
  5
59
330
1F
100
AcDbEntity
  8
_U+30EC_U+30A4_U+30E4_U+30FC 1
 62
   179
420
  2234388
370
    25
100
AcDb2dPolyline
 66
     1
 10
0.0
 20
0.0
 30
0.0
  0
VERTEX
  5
5A
330
59
100
AcDbEntity
  8
_U+30EC_U+30A4_U+30E4_U+30FC 1
 62
   179
420
  2234388
370
    25
100
AcDbVertex
100
AcDb2dVertex
 10
80.06058629081761
 20
-137.6150127433739
 30
0.0
  0
VERTEX
  5
5B
330
59
100
AcDbEntity
  8
_U+30EC_U+30A4_U+30E4_U+30FC 1
 62
   179
420
  2234388
370
    25
100
AcDbVertex
100
AcDb2dVertex
 10
72.05951593938637
 20
-137.6150127433739
 30
0.0
  0
SEQEND
  5
5C
330
59
100
AcDbEntity
  8
_U+30EC_U+30A4_U+30E4_U+30FC 1
 62
   179
420
  2234388
370
    25
  0
POLYLINE
  5
5D
330
1F
100
AcDbEntity
  8
_U+30EC_U+30A4_U+30E4_U+30FC 1
 62
   179
420
  2234388
370
    25
100
AcDb2dPolyline
 66
     1
 10
0.0
 20
0.0
 30
0.0
  0
VERTEX
  5
5E
330
5D
100
AcDbEntity
  8
_U+30EC_U+30A4_U+30E4_U+30FC 1
 62
   179
420
  2234388
370
    25
100
AcDbVertex
100
AcDb2dVertex
 10
81.06032320975665
 20
-138.6147849653465
 30
0.0
  0
VERTEX
  5
5F
330
5D
100
AcDbEntity
  8
_U+30EC_U+30A4_U+30E4_U+30FC 1
 62
   179
420
  2234388
370
    25
100
AcDbVertex
100
AcDb2dVertex
 10
81.06032320975665
 20
-135.6147980216521
 30
0.0
  0
SEQEND
  5
60
330
5D
100
AcDbEntity
  8
_U+30EC_U+30A4_U+30E4_U+30FC 1
 62
   179
420
  2234388
370
    25
  0
POLYLINE
  5
61
330
1F
100
AcDbEntity
  8
_U+30EC_U+30A4_U+30E4_U+30FC 1
 62
   179
420
  2234388
370
    25
100
AcDb2dPolyline
 66
     1
 10
0.0
 20
0.0
 30
0.0
  0
VERTEX
  5
62
330
61
100
AcDbEntity
  8
_U+30EC_U+30A4_U+30E4_U+30FC 1
 62
   179
420
  2234388
370
    25
100
AcDbVertex
100
AcDb2dVertex
 10
80.06058629081761
 20
-137.6150127433739
 30
0.0
  0
VERTEX
  5
63
330
61
100
AcDbEntity
  8
_U+30EC_U+30A4_U+30E4_U+30FC 1
 62
   179
420
  2234388
370
    25
100
AcDbVertex
100
AcDb2dVertex
 10
80.06058629081761
 20
-136.6152757991796
 30
0.0
  0
SEQEND
  5
64
330
61
100
AcDbEntity
  8
_U+30EC_U+30A4_U+30E4_U+30FC 1
 62
   179
420
  2234388
370
    25
  0
POLYLINE
  5
65
330
1F
100
AcDbEntity
  8
_U+30EC_U+30A4_U+30E4_U+30FC 1
 62
   179
420
  2234388
370
    25
100
AcDb2dPolyline
 66
     1
 10
0.0
 20
0.0
 30
0.0
  0
VERTEX
  5
66
330
65
100
AcDbEntity
  8
_U+30EC_U+30A4_U+30E4_U+30FC 1
 62
   179
420
  2234388
370
    25
100
AcDbVertex
100
AcDb2dVertex
 10
80.06058629081761
 20
-136.6152757991796
 30
0.0
  0
VERTEX
  5
67
330
65
100
AcDbEntity
  8
_U+30EC_U+30A4_U+30E4_U+30FC 1
 62
   179
420
  2234388
370
    25
100
AcDbVertex
100
AcDb2dVertex
 10
78.06001884185635
 20
-136.6152757991796
 30
0.0
  0
SEQEND
  5
68
330
65
100
AcDbEntity
  8
_U+30EC_U+30A4_U+30E4_U+30FC 1
 62
   179
420
  2234388
370
    25
  0
POLYLINE
  5
69
330
1F
100
AcDbEntity
  8
_U+30EC_U+30A4_U+30E4_U+30FC 1
 62
   179
420
  2234388
370
    25
100
AcDb2dPolyline
 66
     1
 10
0.0
 20
0.0
 30
0.0
  0
VERTEX
  5
6A
330
69
100
AcDbEntity
  8
_U+30EC_U+30A4_U+30E4_U+30FC 1
 62
   179
420
  2234388
370
    25
100
AcDbVertex
100
AcDb2dVertex
 10
78.06001884185635
 20
-136.6152757991796
 30
0.0
  0
VERTEX
  5
6B
330
69
100
AcDbEntity
  8
_U+30EC_U+30A4_U+30E4_U+30FC 1
 62
   179
420
  2234388
370
    25
100
AcDbVertex
100
AcDb2dVertex
 10
78.06001884185635
 20
-135.6147980216521
 30
0.0
  0
SEQEND
  5
6C
330
69
100
AcDbEntity
  8
_U+30EC_U+30A4_U+30E4_U+30FC 1
 62
   179
420
  2234388
370
    25
  0
POLYLINE
  5
6D
330
1F
100
AcDbEntity
  8
_U+30EC_U+30A4_U+30E4_U+30FC 1
 62
   179
420
  2234388
370
    25
100
AcDb2dPolyline
 66
     1
 10
0.0
 20
0.0
 30
0.0
  0
VERTEX
  5
6E
330
6D
100
AcDbEntity
  8
_U+30EC_U+30A4_U+30E4_U+30FC 1
 62
   179
420
  2234388
370
    25
100
AcDbVertex
100
AcDb2dVertex
 10
72.05951593938637
 20
-125.11517885761
 30
0.0
  0
VERTEX
  5
6F
330
6D
100
AcDbEntity
  8
_U+30EC_U+30A4_U+30E4_U+30FC 1
 62
   179
420
  2234388
370
    25
100
AcDbVertex
100
AcDb2dVertex
 10
72.05951593938637
 20
-120.6146869142909
 30
0.0
  0
VERTEX
  5
70
330
6D
100
AcDbEntity
  8
_U+30EC_U+30A4_U+30E4_U+30FC 1
 62
   179
420
  2234388
370
    25
100
AcDbVertex
100
AcDb2dVertex
 10
71.05974374267046
 20
-120.6150396920683
 30
0.0
  0
VERTEX
  5
71
330
6D
100
AcDbEntity
  8
_U+30EC_U+30A4_U+30E4_U+30FC 1
 62
   179
420
  2234388
370
    25
100
AcDbVertex
100
AcDb2dVertex
 10
71.05974374267046
 20
-138.6147849653465
 30
0.0
  0
SEQEND
  5
72
330
6D
100
AcDbEntity
  8
_U+30EC_U+30A4_U+30E4_U+30FC 1
 62
   179
420
  2234388
370
    25
  0
SPLINE
  5
73
330
1F
100
AcDbEntity
  8
_U+30EC_U+30A4_U+30E4_U+30FC 1
 62
   179
420
  2234388
370
     9
100
AcDbSpline
210
0.0
220
0.0
230
1.0
 70
    11
 71
     3
 72
    17
 73
    13
 74
     0
 42
0.0000000001
 43
0.0000000001
 12
1.0
 22
0.0
 32
0.0
 13
1.0
 23
0.0
 33
0.0
 40
0.0
 40
0.0
 40
0.0
 40
0.0
 40
1.0
 40
1.0
 40
1.0
 40
2.0
 40
2.0
 40
2.0
 40
3.0
 40
3.0
 40
3.0
 40
4.0
 40
4.0
 40
4.0
 40
4.0
 10
115.0665478977411
 20
-135.5148913550099
 30
0.0
 10
115.1216517852242
 20
-135.5148913550099
 30
0.0
 10
115.166454561859
 20
-135.5596941327766
 30
0.0
 10
115.166454561859
 20
-135.6147980216521
 30
0.0
 10
115.166454561859
 20
-135.6706074660826
 30
0.0
 10
115.1216517852242
 20
-135.7147046882938
 30
0.0
 10
115.0665478977411
 20
-135.7147046882938
 30
0.0
 10
115.0107031769436
 20
-135.7147046882938
 30
0.0
 10
114.9659356780857
 20
-135.6706074660826
 30
0.0
 10
114.9659356780857
 20
-135.6147980216521
 30
0.0
 10
114.9659356780857
 20
-135.5596941327766
 30
0.0
 10
115.0107031769436
 20
-135.5148913550099
 30
0.0
 10
115.0665478977411
 20
-135.5148913550099
 30
0.0
  0
SPLINE
  5
74
330
1F
100
AcDbEntity
  8
_U+30EC_U+30A4_U+30E4_U+30FC 1
 62
   179
420
  2234388
370
     9
100
AcDbSpline
210
0.0
220
0.0
230
1.0
 70
    11
 71
     3
 72
    17
 73
    13
 74
     0
 42
0.0000000001
 43
0.0000000001
 12
1.0
 22
0.0
 32
0.0
 13
1.0
 23
0.0
 33
0.0
 40
0.0
 40
0.0
 40
0.0
 40
0.0
 40
1.0
 40
1.0
 40
1.0
 40
2.0
 40
2.0
 40
2.0
 40
3.0
 40
3.0
 40
3.0
 40
4.0
 40
4.0
 40
4.0
 40
4.0
 10
115.0665478977411
 20
-138.5148782987048
 30
0.0
 10
115.1216517852242
 20
-138.5148782987048
 30
0.0
 10
115.166454561859
 20
-138.5596810764709
 30
0.0
 10
115.166454561859
 20
-138.6147849653465
 30
0.0
 10
115.166454561859
 20
-138.6705944097769
 30
0.0
 10
115.1216517852242
 20
-138.7153971875436
 30
0.0
 10
115.0665478977411
 20
-138.7153971875436
 30
0.0
 10
115.0107031769436
 20
-138.7153971875436
 30
0.0
 10
114.9659356780857
 20
-138.6705944097769
 30
0.0
 10
114.9659356780857
 20
-138.6147849653465
 30
0.0
 10
114.9659356780857
 20
-138.5596810764709
 30
0.0
 10
115.0107031769436
 20
-138.5148782987048
 30
0.0
 10
115.0665478977411
 20
-138.5148782987048
 30
0.0
  0
SPLINE
  5
75
330
1F
100
AcDbEntity
  8
_U+30EC_U+30A4_U+30E4_U+30FC 1
 62
   179
420
  2234388
370
     9
100
AcDbSpline
210
0.0
220
0.0
230
1.0
 70
    11
 71
     3
 72
    17
 73
    13
 74
     0
 42
0.0000000001
 43
0.0000000001
 12
1.0
 22
0.0
 32
0.0
 13
1.0
 23
0.0
 33
0.0
 40
0.0
 40
0.0
 40
0.0
 40
0.0
 40
1.0
 40
1.0
 40
1.0
 40
2.0
 40
2.0
 40
2.0
 40
3.0
 40
3.0
 40
3.0
 40
4.0
 40
4.0
 40
4.0
 40
4.0
 10
115.0665478977411
 20
-126.0157499684961
 30
0.0
 10
115.1216517852242
 20
-126.0157499684961
 30
0.0
 10
115.166454561859
 20
-126.060517468485
 30
0.0
 10
115.166454561859
 20
-126.1156566351377
 30
0.0
 10
115.166454561859
 20
-126.170760524013
 30
0.0
 10
115.1216517852242
 20
-126.2155633017794
 30
0.0
 10
115.0665478977411
 20
-126.2155633017794
 30
0.0
 10
115.0107031769436
 20
-126.2155633017794
 30
0.0
 10
114.9659356780857
 20
-126.170760524013
 30
0.0
 10
114.9659356780857
 20
-126.1156566351377
 30
0.0
 10
114.9659356780857
 20
-126.060517468485
 30
0.0
 10
115.0107031769436
 20
-126.0157499684961
 30
0.0
 10
115.0665478977411
 20
-126.0157499684961
 30
0.0
  0
SPLINE
  5
76
330
1F
100
AcDbEntity
  8
_U+30EC_U+30A4_U+30E4_U+30FC 1
 62
   179
420
  2234388
370
     9
100
AcDbSpline
210
0.0
220
0.0
230
1.0
 70
    11
 71
     3
 72
    17
 73
    13
 74
     0
 42
0.0000000001
 43
0.0000000001
 12
1.0
 22
0.0
 32
0.0
 13
1.0
 23
0.0
 33
0.0
 40
0.0
 40
0.0
 40
0.0
 40
0.0
 40
1.0
 40
1.0
 40
1.0
 40
2.0
 40
2.0
 40
2.0
 40
3.0
 40
3.0
 40
3.0
 40
4.0
 40
4.0
 40
4.0
 40
4.0
 10
111.0654129998186
 20
-116.5153738597601
 30
0.0
 10
111.1205168873017
 20
-116.5153738597601
 30
0.0
 10
111.1653196639364
 20
-116.5601413597487
 30
0.0
 10
111.1653196639364
 20
-116.6152805264018
 30
0.0
 10
111.1653196639364
 20
-116.6703844152767
 30
0.0
 10
111.1205168873017
 20
-116.7151871930434
 30
0.0
 10
111.0654129998186
 20
-116.7151871930434
 30
0.0
 10
111.0102738345586
 20
-116.7151871930434
 30
0.0
 10
110.9655063357008
 20
-116.6703844152767
 30
0.0
 10
110.9655063357008
 20
-116.6152805264018
 30
0.0
 10
110.9655063357008
 20
-116.5601413597487
 30
0.0
 10
111.0102738345586
 20
-116.5153738597601
 30
0.0
 10
111.0654129998186
 20
-116.5153738597601
 30
0.0
  0
SPLINE
  5
77
330
1F
100
AcDbEntity
  8
_U+30EC_U+30A4_U+30E4_U+30FC 1
 62
   179
420
  2234388
370
     9
100
AcDbSpline
210
0.0
220
0.0
230
1.0
 70
    11
 71
     3
 72
    17
 73
    13
 74
     0
 42
0.0000000001
 43
0.0000000001
 12
1.0
 22
0.0
 32
0.0
 13
1.0
 23
0.0
 33
0.0
 40
0.0
 40
0.0
 40
0.0
 40
0.0
 40
1.0
 40
1.0
 40
1.0
 40
2.0
 40
2.0
 40
2.0
 40
3.0
 40
3.0
 40
3.0
 40
4.0
 40
4.0
 40
4.0
 40
4.0
 10
71.05974374267046
 20
-116.5153738597601
 30
0.0
 10
71.11484763015353
 20
-116.5153738597601
 30
0.0
 10
71.1596504067883
 20
-116.5601413597487
 30
0.0
 10
71.1596504067883
 20
-116.6152805264018
 30
0.0
 10
71.1596504067883
 20
-116.6703844152767
 30
0.0
 10
71.11484763015353
 20
-116.7151871930434
 30
0.0
 10
71.05974374267046
 20
-116.7151871930434
 30
0.0
 10
71.0046045774105
 20
-116.7151871930434
 30
0.0
 10
70.95983887114883
 20
-116.6703844152767
 30
0.0
 10
70.95983887114883
 20
-116.6152805264018
 30
0.0
 10
70.95983887114883
 20
-116.5601413597487
 30
0.0
 10
71.0046045774105
 20
-116.5153738597601
 30
0.0
 10
71.05974374267046
 20
-116.5153738597601
 30
0.0
  0
SPLINE
  5
78
330
1F
100
AcDbEntity
  8
_U+30EC_U+30A4_U+30E4_U+30FC 1
 62
   179
420
  2234388
370
     9
100
AcDbSpline
210
0.0
220
0.0
230
1.0
 70
    11
 71
     3
 72
    17
 73
    13
 74
     0
 42
0.0000000001
 43
0.0000000001
 12
1.0
 22
0.0
 32
0.0
 13
1.0
 23
0.0
 33
0.0
 40
0.0
 40
0.0
 40
0.0
 40
0.0
 40
1.0
 40
1.0
 40
1.0
 40
2.0
 40
2.0
 40
2.0
 40
3.0
 40
3.0
 40
3.0
 40
4.0
 40
4.0
 40
4.0
 40
4.0
 10
67.05931440028547
 20
-120.5151330254267
 30
0.0
 10
67.1151238433061
 20
-120.5151330254267
 30
0.0
 10
67.15989134216399
 20
-120.5599005254156
 30
0.0
 10
67.15989134216399
 20
-120.6150396920683
 30
0.0
 10
67.15989134216399
 20
-120.6701435809436
 30
0.0
 10
67.1151238433061
 20
-120.7149463587103
 30
0.0
 10
67.05931440028547
 20
-120.7149463587103
 30
0.0
 10
67.00417523502553
 20
-120.7149463587103
 30
0.0
 10
66.95940773616763
 20
-120.6701435809436
 30
0.0
 10
66.95940773616763
 20
-120.6150396920683
 30
0.0
 10
66.95940773616763
 20
-120.5599005254156
 30
0.0
 10
67.00417523502553
 20
-120.5151330254267
 30
0.0
 10
67.05931440028547
 20
-120.5151330254267
 30
0.0
  0
SPLINE
  5
79
330
1F
100
AcDbEntity
  8
_U+30EC_U+30A4_U+30E4_U+30FC 1
 62
   179
420
  2234388
370
     9
100
AcDbSpline
210
0.0
220
0.0
230
1.0
 70
    11
 71
     3
 72
    17
 73
    13
 74
     0
 42
0.0000000001
 43
0.0000000001
 12
1.0
 22
0.0
 32
0.0
 13
1.0
 23
0.0
 33
0.0
 40
0.0
 40
0.0
 40
0.0
 40
0.0
 40
1.0
 40
1.0
 40
1.0
 40
2.0
 40
2.0
 40
2.0
 40
3.0
 40
3.0
 40
3.0
 40
4.0
 40
4.0
 40
4.0
 40
4.0
 10
67.05931440028547
 20
-138.5148782987048
 30
0.0
 10
67.1151238433061
 20
-138.5148782987048
 30
0.0
 10
67.15989134216399
 20
-138.5596810764709
 30
0.0
 10
67.15989134216399
 20
-138.6147849653465
 30
0.0
 10
67.15989134216399
 20
-138.6705944097769
 30
0.0
 10
67.1151238433061
 20
-138.7153971875436
 30
0.0
 10
67.05931440028547
 20
-138.7153971875436
 30
0.0
 10
67.00417523502553
 20
-138.7153971875436
 30
0.0
 10
66.95940773616763
 20
-138.6705944097769
 30
0.0
 10
66.95940773616763
 20
-138.6147849653465
 30
0.0
 10
66.95940773616763
 20
-138.5596810764709
 30
0.0
 10
67.00417523502553
 20
-138.5148782987048
 30
0.0
 10
67.05931440028547
 20
-138.5148782987048
 30
0.0
  0
SPLINE
  5
7A
330
1F
100
AcDbEntity
  8
_U+30EC_U+30A4_U+30E4_U+30FC 1
 62
   179
420
  2234388
370
     9
100
AcDbSpline
210
0.0
220
0.0
230
1.0
 70
    11
 71
     3
 72
    17
 73
    13
 74
     0
 42
0.0000000001
 43
0.0000000001
 12
1.0
 22
0.0
 32
0.0
 13
1.0
 23
0.0
 33
0.0
 40
0.0
 40
0.0
 40
0.0
 40
0.0
 40
1.0
 40
1.0
 40
1.0
 40
2.0
 40
2.0
 40
2.0
 40
3.0
 40
3.0
 40
3.0
 40
4.0
 40
4.0
 40
4.0
 40
4.0
 10
71.13449735187444
 20
-113.9966463603896
 30
0.0
 10
71.19030679489508
 20
-113.9966463603896
 30
0.0
 10
71.23510957152983
 20
-114.0414491381563
 30
0.0
 10
71.23510957152983
 20
-114.0965530270316
 30
0.0
 10
71.23510957152983
 20
-114.152362471462
 30
0.0
 10
71.19030679489508
 20
-114.1971652492284
 30
0.0
 10
71.13449735187444
 20
-114.1971652492284
 30
0.0
 10
71.07939346439137
 20
-114.1971652492284
 30
0.0
 10
71.0345906877566
 20
-114.152362471462
 30
0.0
 10
71.0345906877566
 20
-114.0965530270316
 30
0.0
 10
71.0345906877566
 20
-114.0414491381563
 30
0.0
 10
71.07939346439137
 20
-113.9966463603896
 30
0.0
 10
71.13449735187444
 20
-113.9966463603896
 30
0.0
  0
SPLINE
  5
7B
330
1F
100
AcDbEntity
  8
_U+30EC_U+30A4_U+30E4_U+30FC 1
 62
   179
420
  2234388
370
     9
100
AcDbSpline
210
0.0
220
0.0
230
1.0
 70
    11
 71
     3
 72
    17
 73
    13
 74
     0
 42
0.0000000001
 43
0.0000000001
 12
1.0
 22
0.0
 32
0.0
 13
1.0
 23
0.0
 33
0.0
 40
0.0
 40
0.0
 40
0.0
 40
0.0
 40
1.0
 40
1.0
 40
1.0
 40
2.0
 40
2.0
 40
2.0
 40
3.0
 40
3.0
 40
3.0
 40
4.0
 40
4.0
 40
4.0
 40
4.0
 10
72.13289371529213
 20
-113.9969991381674
 30
0.0
 10
72.18870315831275
 20
-113.9969991381674
 30
0.0
 10
72.23347065717064
 20
-114.0418019159341
 30
0.0
 10
72.23347065717064
 20
-114.096905804809
 30
0.0
 10
72.23347065717064
 20
-114.1520449714621
 30
0.0
 10
72.18870315831275
 20
-114.196812471451
 30
0.0
 10
72.13289371529213
 20
-114.196812471451
 30
0.0
 10
72.07775455003217
 20
-114.196812471451
 30
0.0
 10
72.03298887088069
 20
-114.1520449714621
 30
0.0
 10
72.03298887088069
 20
-114.096905804809
 30
0.0
 10
72.03298887088069
 20
-114.0418019159341
 30
0.0
 10
72.07775455003217
 20
-113.9969991381674
 30
0.0
 10
72.13289371529213
 20
-113.9969991381674
 30
0.0
  0
SPLINE
  5
7C
330
1F
100
AcDbEntity
  8
_U+30EC_U+30A4_U+30E4_U+30FC 1
 62
   179
420
  2234388
370
     9
100
AcDbSpline
210
0.0
220
0.0
230
1.0
 70
    11
 71
     3
 72
    17
 73
    13
 74
     0
 42
0.0000000001
 43
0.0000000001
 12
1.0
 22
0.0
 32
0.0
 13
1.0
 23
0.0
 33
0.0
 40
0.0
 40
0.0
 40
0.0
 40
0.0
 40
1.0
 40
1.0
 40
1.0
 40
2.0
 40
2.0
 40
2.0
 40
3.0
 40
3.0
 40
3.0
 40
4.0
 40
4.0
 40
4.0
 40
4.0
 10
71.05974374267046
 20
-142.5153430199266
 30
0.0
 10
71.11484763015353
 20
-142.5153430199266
 30
0.0
 10
71.1596504067883
 20
-142.5601105199158
 30
0.0
 10
71.1596504067883
 20
-142.6152496865682
 30
0.0
 10
71.1596504067883
 20
-142.6703535754438
 30
0.0
 10
71.11484763015353
 20
-142.7151563532099
 30
0.0
 10
71.05974374267046
 20
-142.7151563532099
 30
0.0
 10
71.0046045774105
 20
-142.7151563532099
 30
0.0
 10
70.95983887114883
 20
-142.6703535754438
 30
0.0
 10
70.95983887114883
 20
-142.6152496865682
 30
0.0
 10
70.95983887114883
 20
-142.5601105199158
 30
0.0
 10
71.0046045774105
 20
-142.5153430199266
 30
0.0
 10
71.05974374267046
 20
-142.5153430199266
 30
0.0
  0
SPLINE
  5
7D
330
1F
100
AcDbEntity
  8
_U+30EC_U+30A4_U+30E4_U+30FC 1
 62
   179
420
  2234388
370
     9
100
AcDbSpline
210
0.0
220
0.0
230
1.0
 70
    11
 71
     3
 72
    17
 73
    13
 74
     0
 42
0.0000000001
 43
0.0000000001
 12
1.0
 22
0.0
 32
0.0
 13
1.0
 23
0.0
 33
0.0
 40
0.0
 40
0.0
 40
0.0
 40
0.0
 40
1.0
 40
1.0
 40
1.0
 40
2.0
 40
2.0
 40
2.0
 40
3.0
 40
3.0
 40
3.0
 40
4.0
 40
4.0
 40
4.0
 40
4.0
 10
81.06032320975665
 20
-142.5153430199266
 30
0.0
 10
81.11546237501659
 20
-142.5153430199266
 30
0.0
 10
81.16022987387448
 20
-142.5601105199158
 30
0.0
 10
81.16022987387448
 20
-142.6152496865682
 30
0.0
 10
81.16022987387448
 20
-142.6703535754438
 30
0.0
 10
81.11546237501659
 20
-142.7151563532099
 30
0.0
 10
81.06032320975665
 20
-142.7151563532099
 30
0.0
 10
81.00451376673601
 20
-142.7151563532099
 30
0.0
 10
80.96041654563881
 20
-142.6703535754438
 30
0.0
 10
80.96041654563881
 20
-142.6152496865682
 30
0.0
 10
80.96041654563881
 20
-142.5601105199158
 30
0.0
 10
81.00451376673601
 20
-142.5153430199266
 30
0.0
 10
81.06032320975665
 20
-142.5153430199266
 30
0.0
  0
POLYLINE
  5
7E
330
1F
100
AcDbEntity
  8
_U+30EC_U+30A4_U+30E4_U+30FC 1
 62
   179
420
  2234388
370
     9
100
AcDb2dPolyline
 66
     1
 10
0.0
 20
0.0
 30
0.0
  0
VERTEX
  5
7F
330
7E
100
AcDbEntity
  8
_U+30EC_U+30A4_U+30E4_U+30FC 1
 62
   179
420
  2234388
370
     9
100
AcDbVertex
100
AcDb2dVertex
 10
113.6061537683322
 20
-126.1156566351377
 30
0.0
  0
VERTEX
  5
80
330
7E
100
AcDbEntity
  8
_U+30EC_U+30A4_U+30E4_U+30FC 1
 62
   179
420
  2234388
370
     9
100
AcDbVertex
100
AcDb2dVertex
 10
116.0666375944489
 20
-126.1156566351377
 30
0.0
  0
SEQEND
  5
81
330
7E
100
AcDbEntity
  8
_U+30EC_U+30A4_U+30E4_U+30FC 1
 62
   179
420
  2234388
370
     9
  0
POLYLINE
  5
82
330
1F
100
AcDbEntity
  8
_U+30EC_U+30A4_U+30E4_U+30FC 1
 62
   179
420
  2234388
370
     9
100
AcDb2dPolyline
 66
     1
 10
0.0
 20
0.0
 30
0.0
  0
VERTEX
  5
83
330
82
100
AcDbEntity
  8
_U+30EC_U+30A4_U+30E4_U+30FC 1
 62
   179
420
  2234388
370
     9
100
AcDbVertex
100
AcDb2dVertex
 10
115.0665478977411
 20
-138.6147849653465
 30
0.0
  0
VERTEX
  5
84
330
82
100
AcDbEntity
  8
_U+30EC_U+30A4_U+30E4_U+30FC 1
 62
   179
420
  2234388
370
     9
100
AcDbVertex
100
AcDb2dVertex
 10
115.0665478977411
 20
-135.6147980216521
 30
0.0
  0
SEQEND
  5
85
330
82
100
AcDbEntity
  8
_U+30EC_U+30A4_U+30E4_U+30FC 1
 62
   179
420
  2234388
370
     9
  0
POLYLINE
  5
86
330
1F
100
AcDbEntity
  8
_U+30EC_U+30A4_U+30E4_U+30FC 1
 62
   179
420
  2234388
370
     9
100
AcDb2dPolyline
 66
     1
 10
0.0
 20
0.0
 30
0.0
  0
VERTEX
  5
87
330
86
100
AcDbEntity
  8
_U+30EC_U+30A4_U+30E4_U+30FC 1
 62
   179
420
  2234388
370
     9
100
AcDbVertex
100
AcDb2dVertex
 10
83.6003937005096
 20
-138.6147849653465
 30
0.0
  0
VERTEX
  5
88
330
86
100
AcDbEntity
  8
_U+30EC_U+30A4_U+30E4_U+30FC 1
 62
   179
420
  2234388
370
     9
100
AcDbVertex
100
AcDb2dVertex
 10
116.0666375944489
 20
-138.6147849653465
 30
0.0
  0
SEQEND
  5
89
330
86
100
AcDbEntity
  8
_U+30EC_U+30A4_U+30E4_U+30FC 1
 62
   179
420
  2234388
370
     9
  0
POLYLINE
  5
8A
330
1F
100
AcDbEntity
  8
_U+30EC_U+30A4_U+30E4_U+30FC 1
 62
   179
420
  2234388
370
     9
100
AcDb2dPolyline
 66
     1
 10
0.0
 20
0.0
 30
0.0
  0
VERTEX
  5
8B
330
8A
100
AcDbEntity
  8
_U+30EC_U+30A4_U+30E4_U+30FC 1
 62
   179
420
  2234388
370
     9
100
AcDbVertex
100
AcDb2dVertex
 10
81.06032320975665
 20
-142.6152496865682
 30
0.0
  0
VERTEX
  5
8C
330
8A
100
AcDbEntity
  8
_U+30EC_U+30A4_U+30E4_U+30FC 1
 62
   179
420
  2234388
370
     9
100
AcDbVertex
100
AcDb2dVertex
 10
71.05974374267046
 20
-142.6152496865682
 30
0.0
  0
SEQEND
  5
8D
330
8A
100
AcDbEntity
  8
_U+30EC_U+30A4_U+30E4_U+30FC 1
 62
   179
420
  2234388
370
     9
  0
POLYLINE
  5
8E
330
1F
100
AcDbEntity
  8
_U+30EC_U+30A4_U+30E4_U+30FC 1
 62
   179
420
  2234388
370
     9
100
AcDb2dPolyline
 66
     1
 10
0.0
 20
0.0
 30
0.0
  0
VERTEX
  5
8F
330
8E
100
AcDbEntity
  8
_U+30EC_U+30A4_U+30E4_U+30FC 1
 62
   179
420
  2234388
370
     9
100
AcDbVertex
100
AcDb2dVertex
 10
81.06032320975665
 20
-141.1552082980445
 30
0.0
  0
VERTEX
  5
90
330
8E
100
AcDbEntity
  8
_U+30EC_U+30A4_U+30E4_U+30FC 1
 62
   179
420
  2234388
370
     9
100
AcDbVertex
100
AcDb2dVertex
 10
81.06032320975665
 20
-143.6150219085408
 30
0.0
  0
SEQEND
  5
91
330
8E
100
AcDbEntity
  8
_U+30EC_U+30A4_U+30E4_U+30FC 1
 62
   179
420
  2234388
370
     9
  0
POLYLINE
  5
92
330
1F
100
AcDbEntity
  8
_U+30EC_U+30A4_U+30E4_U+30FC 1
 62
   179
420
  2234388
370
     9
100
AcDb2dPolyline
 66
     1
 10
0.0
 20
0.0
 30
0.0
  0
VERTEX
  5
93
330
92
100
AcDbEntity
  8
_U+30EC_U+30A4_U+30E4_U+30FC 1
 62
   179
420
  2234388
370
     9
100
AcDbVertex
100
AcDb2dVertex
 10
71.05974374267046
 20
-141.1552082980445
 30
0.0
  0
VERTEX
  5
94
330
92
100
AcDbEntity
  8
_U+30EC_U+30A4_U+30E4_U+30FC 1
 62
   179
420
  2234388
370
     9
100
AcDbVertex
100
AcDb2dVertex
 10
71.05974374267046
 20
-143.6150219085408
 30
0.0
  0
SEQEND
  5
95
330
92
100
AcDbEntity
  8
_U+30EC_U+30A4_U+30E4_U+30FC 1
 62
   179
420
  2234388
370
     9
  0
POLYLINE
  5
96
330
1F
100
AcDbEntity
  8
_U+30EC_U+30A4_U+30E4_U+30FC 1
 62
   179
420
  2234388
370
     9
100
AcDb2dPolyline
 66
     1
 10
0.0
 20
0.0
 30
0.0
  0
VERTEX
  5
97
330
96
100
AcDbEntity
  8
_U+30EC_U+30A4_U+30E4_U+30FC 1
 62
   179
420
  2234388
370
     9
100
AcDbVertex
100
AcDb2dVertex
 10
71.05974374267046
 20
-116.6152805264018
 30
0.0
  0
VERTEX
  5
98
330
96
100
AcDbEntity
  8
_U+30EC_U+30A4_U+30E4_U+30FC 1
 62
   179
420
  2234388
370
     9
100
AcDbVertex
100
AcDb2dVertex
 10
111.0654129998186
 20
-116.6152805264018
 30
0.0
  0
SEQEND
  5
99
330
96
100
AcDbEntity
  8
_U+30EC_U+30A4_U+30E4_U+30FC 1
 62
   179
420
  2234388
370
     9
  0
POLYLINE
  5
9A
330
1F
100
AcDbEntity
  8
_U+30EC_U+30A4_U+30E4_U+30FC 1
 62
   179
420
  2234388
370
     9
100
AcDb2dPolyline
 66
     1
 10
0.0
 20
0.0
 30
0.0
  0
VERTEX
  5
9B
330
9A
100
AcDbEntity
  8
_U+30EC_U+30A4_U+30E4_U+30FC 1
 62
   179
420
  2234388
370
     9
100
AcDbVertex
100
AcDb2dVertex
 10
71.05974374267046
 20
-118.0753219149255
 30
0.0
  0
VERTEX
  5
9C
330
9A
100
AcDbEntity
  8
_U+30EC_U+30A4_U+30E4_U+30FC 1
 62
   179
420
  2234388
370
     9
100
AcDbVertex
100
AcDb2dVertex
 10
71.05974374267046
 20
-115.6148380266519
 30
0.0
  0
SEQEND
  5
9D
330
9A
100
AcDbEntity
  8
_U+30EC_U+30A4_U+30E4_U+30FC 1
 62
   179
420
  2234388
370
     9
  0
POLYLINE
  5
9E
330
1F
100
AcDbEntity
  8
_U+30EC_U+30A4_U+30E4_U+30FC 1
 62
   179
420
  2234388
370
     9
100
AcDb2dPolyline
 66
     1
 10
0.0
 20
0.0
 30
0.0
  0
VERTEX
  5
9F
330
9E
100
AcDbEntity
  8
_U+30EC_U+30A4_U+30E4_U+30FC 1
 62
   179
420
  2234388
370
     9
100
AcDbVertex
100
AcDb2dVertex
 10
111.0654129998186
 20
-123.0751708025645
 30
0.0
  0
VERTEX
  5
A0
330
9E
100
AcDbEntity
  8
_U+30EC_U+30A4_U+30E4_U+30FC 1
 62
   179
420
  2234388
370
     9
100
AcDbVertex
100
AcDb2dVertex
 10
111.0654129998186
 20
-115.6148380266519
 30
0.0
  0
SEQEND
  5
A1
330
9E
100
AcDbEntity
  8
_U+30EC_U+30A4_U+30E4_U+30FC 1
 62
   179
420
  2234388
370
     9
  0
POLYLINE
  5
A2
330
1F
100
AcDbEntity
  8
_U+30EC_U+30A4_U+30E4_U+30FC 1
 62
   179
420
  2234388
370
     9
100
AcDb2dPolyline
 66
     1
 10
0.0
 20
0.0
 30
0.0
  0
VERTEX
  5
A3
330
A2
100
AcDbEntity
  8
_U+30EC_U+30A4_U+30E4_U+30FC 1
 62
   179
420
  2234388
370
     9
100
AcDbVertex
100
AcDb2dVertex
 10
115.0665478977411
 20
-135.6147980216521
 30
0.0
  0
VERTEX
  5
A4
330
A2
100
AcDbEntity
  8
_U+30EC_U+30A4_U+30E4_U+30FC 1
 62
   179
420
  2234388
370
     9
100
AcDbVertex
100
AcDb2dVertex
 10
115.0665478977411
 20
-126.1156566351377
 30
0.0
  0
SEQEND
  5
A5
330
A2
100
AcDbEntity
  8
_U+30EC_U+30A4_U+30E4_U+30FC 1
 62
   179
420
  2234388
370
     9
  0
POLYLINE
  5
A6
330
1F
100
AcDbEntity
  8
_U+30EC_U+30A4_U+30E4_U+30FC 1
 62
   179
420
  2234388
370
     9
100
AcDb2dPolyline
 66
     1
 10
0.0
 20
0.0
 30
0.0
  0
VERTEX
  5
A7
330
A6
100
AcDbEntity
  8
_U+30EC_U+30A4_U+30E4_U+30FC 1
 62
   179
420
  2234388
370
     9
100
AcDbVertex
100
AcDb2dVertex
 10
83.6003937005096
 20
-135.6147980216521
 30
0.0
  0
VERTEX
  5
A8
330
A6
100
AcDbEntity
  8
_U+30EC_U+30A4_U+30E4_U+30FC 1
 62
   179
420
  2234388
370
     9
100
AcDbVertex
100
AcDb2dVertex
 10
116.0666375944489
 20
-135.6147980216521
 30
0.0
  0
SEQEND
  5
A9
330
A6
100
AcDbEntity
  8
_U+30EC_U+30A4_U+30E4_U+30FC 1
 62
   179
420
  2234388
370
     9
  0
POLYLINE
  5
AA
330
1F
100
AcDbEntity
  8
_U+30EC_U+30A4_U+30E4_U+30FC 1
 62
   179
420
  2234388
370
     9
100
AcDb2dPolyline
 66
     1
 10
0.0
 20
0.0
 30
0.0
  0
VERTEX
  5
AB
330
AA
100
AcDbEntity
  8
_U+30EC_U+30A4_U+30E4_U+30FC 1
 62
   179
420
  2234388
370
     9
100
AcDbVertex
100
AcDb2dVertex
 10
67.05931440028547
 20
-138.6147849653465
 30
0.0
  0
VERTEX
  5
AC
330
AA
100
AcDbEntity
  8
_U+30EC_U+30A4_U+30E4_U+30FC 1
 62
   179
420
  2234388
370
     9
100
AcDbVertex
100
AcDb2dVertex
 10
67.05931440028547
 20
-120.6150396920683
 30
0.0
  0
SEQEND
  5
AD
330
AA
100
AcDbEntity
  8
_U+30EC_U+30A4_U+30E4_U+30FC 1
 62
   179
420
  2234388
370
     9
  0
POLYLINE
  5
AE
330
1F
100
AcDbEntity
  8
_U+30EC_U+30A4_U+30E4_U+30FC 1
 62
   179
420
  2234388
370
     9
100
AcDb2dPolyline
 66
     1
 10
0.0
 20
0.0
 30
0.0
  0
VERTEX
  5
AF
330
AE
100
AcDbEntity
  8
_U+30EC_U+30A4_U+30E4_U+30FC 1
 62
   179
420
  2234388
370
     9
100
AcDbVertex
100
AcDb2dVertex
 10
68.51932220509242
 20
-138.6147849653465
 30
0.0
  0
VERTEX
  5
B0
330
AE
100
AcDbEntity
  8
_U+30EC_U+30A4_U+30E4_U+30FC 1
 62
   179
420
  2234388
370
     9
100
AcDbVertex
100
AcDb2dVertex
 10
66.05954220356956
 20
-138.6147849653465
 30
0.0
  0
SEQEND
  5
B1
330
AE
100
AcDbEntity
  8
_U+30EC_U+30A4_U+30E4_U+30FC 1
 62
   179
420
  2234388
370
     9
  0
POLYLINE
  5
B2
330
1F
100
AcDbEntity
  8
_U+30EC_U+30A4_U+30E4_U+30FC 1
 62
   179
420
  2234388
370
     9
100
AcDb2dPolyline
 66
     1
 10
0.0
 20
0.0
 30
0.0
  0
VERTEX
  5
B3
330
B2
100
AcDbEntity
  8
_U+30EC_U+30A4_U+30E4_U+30FC 1
 62
   179
420
  2234388
370
     9
100
AcDbVertex
100
AcDb2dVertex
 10
68.51932220509242
 20
-120.6150396920683
 30
0.0
  0
VERTEX
  5
B4
330
B2
100
AcDbEntity
  8
_U+30EC_U+30A4_U+30E4_U+30FC 1
 62
   179
420
  2234388
370
     9
100
AcDbVertex
100
AcDb2dVertex
 10
66.05954220356956
 20
-120.6150396920683
 30
0.0
  0
SEQEND
  5
B5
330
B2
100
AcDbEntity
  8
_U+30EC_U+30A4_U+30E4_U+30FC 1
 62
   179
420
  2234388
370
     9
  0
POLYLINE
  5
B6
330
1F
100
AcDbEntity
  8
_U+30EC_U+30A4_U+30E4_U+30FC 1
 62
   179
420
  2234388
370
     9
100
AcDb2dPolyline
 66
     1
 10
0.0
 20
0.0
 30
0.0
  0
VERTEX
  5
B7
330
B6
100
AcDbEntity
  8
_U+30EC_U+30A4_U+30E4_U+30FC 1
 62
   179
420
  2234388
370
     9
100
AcDbVertex
100
AcDb2dVertex
 10
72.1332464930609
 20
-114.8024613601882
 30
0.0
  0
VERTEX
  5
B8
330
B6
100
AcDbEntity
  8
_U+30EC_U+30A4_U+30E4_U+30FC 1
 62
   179
420
  2234388
370
     9
100
AcDbVertex
100
AcDb2dVertex
 10
72.1332464930609
 20
-113.3913502494298
 30
0.0
  0
SEQEND
  5
B9
330
B6
100
AcDbEntity
  8
_U+30EC_U+30A4_U+30E4_U+30FC 1
 62
   179
420
  2234388
370
     9
  0
POLYLINE
  5
BA
330
1F
100
AcDbEntity
  8
_U+30EC_U+30A4_U+30E4_U+30FC 1
 62
   179
420
  2234388
370
     9
100
AcDb2dPolyline
 66
     1
 10
0.0
 20
0.0
 30
0.0
  0
VERTEX
  5
BB
330
BA
100
AcDbEntity
  8
_U+30EC_U+30A4_U+30E4_U+30FC 1
 62
   179
420
  2234388
370
     9
100
AcDbVertex
100
AcDb2dVertex
 10
71.13485012964323
 20
-114.8024613601882
 30
0.0
  0
VERTEX
  5
BC
330
BA
100
AcDbEntity
  8
_U+30EC_U+30A4_U+30E4_U+30FC 1
 62
   179
420
  2234388
370
     9
100
AcDbVertex
100
AcDb2dVertex
 10
71.13485012964323
 20
-113.3913502494298
 30
0.0
  0
SEQEND
  5
BD
330
BA
100
AcDbEntity
  8
_U+30EC_U+30A4_U+30E4_U+30FC 1
 62
   179
420
  2234388
370
     9
  0
POLYLINE
  5
BE
330
1F
100
AcDbEntity
  8
_U+30EC_U+30A4_U+30E4_U+30FC 1
 62
   179
420
  2234388
370
     9
100
AcDb2dPolyline
 66
     1
 10
0.0
 20
0.0
 30
0.0
  0
VERTEX
  5
BF
330
BE
100
AcDbEntity
  8
_U+30EC_U+30A4_U+30E4_U+30FC 1
 62
   179
420
  2234388
370
     9
100
AcDbVertex
100
AcDb2dVertex
 10
69.87324627294053
 20
-114.096905804809
 30
0.0
  0
VERTEX
  5
C0
330
BE
100
AcDbEntity
  8
_U+30EC_U+30A4_U+30E4_U+30FC 1
 62
   179
420
  2234388
370
     9
100
AcDbVertex
100
AcDb2dVertex
 10
73.24185063144472
 20
-114.096905804809
 30
0.0
  0
SEQEND
  5
C1
330
BE
100
AcDbEntity
  8
_U+30EC_U+30A4_U+30E4_U+30FC 1
 62
   179
420
  2234388
370
     9
  0
INSERT
  5
C3
330
1F
100
AcDbEntity
  8
_U+30EC_U+30A4_U+30E4_U+30FC 1
100
AcDbBlockReference
  2
block 2
 10
0.0
 20
0.0
 30
0.0
  0
INSERT
  5
C9
330
1F
100
AcDbEntity
  8
_U+30EC_U+30A4_U+30E4_U+30FC 1
100
AcDbBlockReference
  2
block 3
 10
0.0
 20
0.0
 30
0.0
  0
INSERT
  5
D2
330
1F
100
AcDbEntity
  8
_U+30EC_U+30A4_U+30E4_U+30FC 1
100
AcDbBlockReference
  2
block 4
 10
0.0
 20
0.0
 30
0.0
  0
INSERT
  5
EE
330
1F
100
AcDbEntity
  8
_U+30EC_U+30A4_U+30E4_U+30FC 1
100
AcDbBlockReference
  2
block 5
 10
0.0
 20
0.0
 30
0.0
  0
INSERT
  5
F4
330
1F
100
AcDbEntity
  8
_U+30EC_U+30A4_U+30E4_U+30FC 1
100
AcDbBlockReference
  2
block 6
 10
0.0
 20
0.0
 30
0.0
  0
INSERT
  5
105
330
1F
100
AcDbEntity
  8
_U+30EC_U+30A4_U+30E4_U+30FC 1
100
AcDbBlockReference
  2
block 7
 10
0.0
 20
0.0
 30
0.0
  0
ENDSEC
  0
SECTION
  2
OBJECTS
  0
DICTIONARY
  5
C
330
0
100
AcDbDictionary
281
     1
  3
ACAD_GROUP
350
D
  3
ACAD_LAYOUT
350
1A
  3
ACAD_MATERIAL
350
3B
  3
ACAD_MLEADERSTYLE
350
10F
  3
ACAD_MLINESTYLE
350
17
  3
ACAD_PLOTSETTINGS
350
19
  3
ACAD_PLOTSTYLENAME
350
E
  3
ACAD_TABLESTYLE
350
10E
  3
ACAD_VISUALSTYLE
350
2A
  0
SUN
  5
3F
330
29
100
AcDbSun
 90
        1
290
     0
 63
     7
421
 16777215
 40
1.0
291
     1
 91
  2455826
 92
 54000000
292
     0
 70
     2
 71
   256
280
     1
  0
DICTIONARY
  5
D
102
{ACAD_REACTORS
330
C
102
}
330
C
100
AcDbDictionary
281
     1
  0
DICTIONARY
  5
1A
102
{ACAD_REACTORS
330
C
102
}
330
C
100
AcDbDictionary
281
     1
  3
Layout1
350
1E
  3
Layout2
350
26
  3
Model
350
22
  0
DICTIONARY
  5
3B
102
{ACAD_REACTORS
330
C
102
}
330
C
100
AcDbDictionary
281
     1
  3
ByBlock
350
3D
  3
ByLayer
350
3C
  3
Global
350
3E
  0
DICTIONARY
  5
10F
102
{ACAD_REACTORS
330
C
102
}
330
C
100
AcDbDictionary
281
     1
  0
DICTIONARY
  5
17
102
{ACAD_REACTORS
330
C
102
}
330
C
100
AcDbDictionary
281
     1
  3
Standard
350
18
  0
DICTIONARY
  5
19
102
{ACAD_REACTORS
330
C
102
}
330
C
100
AcDbDictionary
281
     1
  0
ACDBDICTIONARYWDFLT
  5
E
102
{ACAD_REACTORS
330
C
102
}
330
C
100
AcDbDictionary
281
     1
  3
Normal
350
F
100
AcDbDictionaryWithDefault
340
F
  0
DICTIONARY
  5
10E
102
{ACAD_REACTORS
330
C
102
}
330
C
100
AcDbDictionary
281
     1
  0
DICTIONARY
  5
2A
102
{ACAD_REACTORS
330
C
102
}
330
C
100
AcDbDictionary
281
     1
  3
2dWireframe
350
2F
  3
3D Hidden
350
31
  3
3dWireframe
350
30
  3
Basic
350
32
  3
Brighten
350
36
  3
ColorChange
350
3A
  3
Conceptual
350
34
  3
Dim
350
35
  3
Facepattern
350
39
  3
Flat
350
2B
  3
FlatWithEdges
350
2C
  3
Gouraud
350
2D
  3
GouraudWithEdges
350
2E
  3
Linepattern
350
38
  3
Realistic
350
33
  3
Thicken
350
37
  0
LAYOUT
  5
1E
102
{ACAD_REACTORS
330
1A
102
}
330
1A
100
AcDbPlotSettings
  1

  2
none_device
  4

  6

 40
0.0
 41
0.0
 42
0.0
 43
0.0
 44
0.0
 45
0.0
 46
0.0
 47
0.0
 48
0.0
 49
0.0
140
0.0
141
0.0
142
1.0
143
1.0
 70
   688
 72
     0
 73
     0
 74
     5
  7

 75
    16
 76
     0
 77
     2
 78
   300
147
1.0
148
0.0
149
0.0
100
AcDbLayout
  1
Layout1
 70
     1
 71
     1
 10
0.0
 20
0.0
 11
12.0
 21
9.0
 12
0.0
 22
0.0
 32
0.0
 14
1.000000000000000E+20
 24
1.000000000000000E+20
 34
1.000000000000000E+20
 15
-1.000000000000000E+20
 25
-1.000000000000000E+20
 35
-1.000000000000000E+20
146
0.0
 13
0.0
 23
0.0
 33
0.0
 16
1.0
 26
0.0
 36
0.0
 17
0.0
 27
1.0
 37
0.0
 76
     0
330
1B
  0
LAYOUT
  5
26
102
{ACAD_REACTORS
330
1A
102
}
330
1A
100
AcDbPlotSettings
  1

  2
none_device
  4

  6

 40
0.0
 41
0.0
 42
0.0
 43
0.0
 44
0.0
 45
0.0
 46
0.0
 47
0.0
 48
0.0
 49
0.0
140
0.0
141
0.0
142
1.0
143
1.0
 70
   688
 72
     0
 73
     0
 74
     5
  7

 75
    16
 76
     0
 77
     2
 78
   300
147
1.0
148
0.0
149
0.0
100
AcDbLayout
  1
Layout2
 70
     1
 71
     2
 10
0.0
 20
0.0
 11
0.0
 21
0.0
 12
0.0
 22
0.0
 32
0.0
 14
0.0
 24
0.0
 34
0.0
 15
0.0
 25
0.0
 35
0.0
146
0.0
 13
0.0
 23
0.0
 33
0.0
 16
1.0
 26
0.0
 36
0.0
 17
0.0
 27
1.0
 37
0.0
 76
     0
330
23
  0
LAYOUT
  5
22
102
{ACAD_REACTORS
330
1A
102
}
330
1A
100
AcDbPlotSettings
  1

  2
none_device
  4

  6

 40
0.0
 41
0.0
 42
0.0
 43
0.0
 44
0.0
 45
0.0
 46
0.0
 47
0.0
 48
0.0
 49
0.0
140
0.0
141
0.0
142
1.0
143
1.0
 70
  1712
 72
     0
 73
     0
 74
     0
  7

 75
     0
 76
     0
 77
     2
 78
   300
147
1.0
148
0.0
149
0.0
100
AcDbLayout
  1
Model
 70
     1
 71
     0
 10
0.0
 20
0.0
 11
12.0
 21
9.0
 12
0.0
 22
0.0
 32
0.0
 14
1.000000000000000E+20
 24
1.000000000000000E+20
 34
1.000000000000000E+20
 15
-1.000000000000000E+20
 25
-1.000000000000000E+20
 35
-1.000000000000000E+20
146
0.0
 13
0.0
 23
0.0
 33
0.0
 16
1.0
 26
0.0
 36
0.0
 17
0.0
 27
1.0
 37
0.0
 76
     0
330
1F
331
29
  0
MATERIAL
  5
3D
102
{ACAD_REACTORS
330
3B
102
}
330
3B
100
AcDbMaterial
  1
ByBlock
 72
     1
 94
      127
  0
MATERIAL
  5
3C
102
{ACAD_REACTORS
330
3B
102
}
330
3B
100
AcDbMaterial
  1
ByLayer
 72
     1
 94
      127
  0
MATERIAL
  5
3E
102
{ACAD_REACTORS
330
3B
102
}
330
3B
100
AcDbMaterial
  1
Global
 72
     1
 94
      127
  0
MLINESTYLE
  5
18
102
{ACAD_REACTORS
330
17
102
}
330
17
100
AcDbMlineStyle
  2
Standard
 70
     0
  3

 62
   256
 51
90.0
 52
90.0
 71
     2
 49
0.5
 62
   256
  6
BYLAYER
 49
-0.5
 62
   256
  6
BYLAYER
  0
ACDBPLACEHOLDER
  5
F
102
{ACAD_REACTORS
330
E
102
}
330
E
  0
VISUALSTYLE
  5
2F
102
{ACAD_REACTORS
330
2A
102
}
330
2A
100
AcDbVisualStyle
  2
2dWireframe
 70
     4
177
     2
291
     0
 71
     0
176
     1
 72
     2
176
     1
 73
     0
176
     1
 90
        0
176
     1
 40
-0.6
176
     1
 41
-30.0
176
     1
 62
     5
 63
     7
421
 16777215
176
     1
 74
     1
176
     1
 91
        4
176
     1
 64
     7
176
     1
 65
   257
176
     1
 75
     1
176
     1
175
     1
176
     1
 42
1.0
176
     1
 92
        0
176
     1
 66
   257
176
     1
 43
1.0
176
     1
 76
     1
176
     1
 77
     6
176
     1
 78
     2
176
     1
 67
     7
176
     1
 79
     5
176
     1
170
     0
176
     1
171
     0
176
     1
290
     0
176
     1
 93
        1
176
     1
 44
0.0
176
     1
173
     0
176
     1
  0
VISUALSTYLE
  5
31
102
{ACAD_REACTORS
330
2A
102
}
330
2A
100
AcDbVisualStyle
  2
3D Hidden
 70
     6
177
     2
291
     0
 71
     1
176
     1
 72
     2
176
     1
 73
     2
176
     1
 90
        0
176
     1
 40
-0.6
176
     1
 41
-30.0
176
     1
 62
     5
 63
     7
421
 16777215
176
     1
 74
     2
176
     1
 91
        2
176
     1
 64
     7
176
     1
 65
   257
176
     1
 75
     2
176
     1
175
     1
176
     1
 42
40.0
176
     1
 92
        0
176
     1
 66
   257
176
     1
 43
1.0
176
     1
 76
     1
176
     1
 77
     6
176
     1
 78
     2
176
     1
 67
     7
176
     1
 79
     3
176
     1
170
     0
176
     1
171
     0
176
     1
290
     0
176
     1
 93
        1
176
     1
 44
0.0
176
     1
173
     0
176
     1
  0
VISUALSTYLE
  5
30
102
{ACAD_REACTORS
330
2A
102
}
330
2A
100
AcDbVisualStyle
  2
3dWireframe
 70
     5
177
     2
291
     0
 71
     0
176
     1
 72
     2
176
     1
 73
     0
176
     1
 90
        0
176
     1
 40
-0.6
176
     1
 41
-30.0
176
     1
 62
     5
 63
     7
421
 16777215
176
     1
 74
     1
176
     1
 91
        4
176
     1
 64
     7
176
     1
 65
   257
176
     1
 75
     1
176
     1
175
     1
176
     1
 42
1.0
176
     1
 92
        0
176
     1
 66
   257
176
     1
 43
1.0
176
     1
 76
     1
176
     1
 77
     6
176
     1
 78
     2
176
     1
 67
     7
176
     1
 79
     5
176
     1
170
     0
176
     1
171
     0
176
     1
290
     0
176
     1
 93
        1
176
     1
 44
0.0
176
     1
173
     0
176
     1
  0
VISUALSTYLE
  5
32
102
{ACAD_REACTORS
330
2A
102
}
330
2A
100
AcDbVisualStyle
  2
Basic
 70
     7
177
     2
291
     1
 71
     1
176
     1
 72
     0
176
     1
 73
     1
176
     1
 90
        0
176
     1
 40
-0.6
176
     1
 41
-30.0
176
     1
 62
     5
 63
     7
421
 16777215
176
     1
 74
     0
176
     1
 91
        4
176
     1
 64
     7
176
     1
 65
   257
176
     1
 75
     1
176
     1
175
     1
176
     1
 42
1.0
176
     1
 92
        8
176
     1
 66
     7
176
     1
 43
1.0
176
     1
 76
     1
176
     1
 77
     6
176
     1
 78
     2
176
     1
 67
     7
176
     1
 79
     5
176
     1
170
     0
176
     1
171
     0
176
     1
290
     0
176
     1
 93
        1
176
     1
 44
0.0
176
     1
173
     0
176
     1
  0
VISUALSTYLE
  5
36
102
{ACAD_REACTORS
330
2A
102
}
330
2A
100
AcDbVisualStyle
  2
Brighten
 70
    12
177
     2
291
     1
 71
     2
176
     1
 72
     2
176
     1
 73
     0
176
     1
 90
        0
176
     1
 40
-0.6
176
     1
 41
-30.0
176
     1
 62
     5
 63
     7
421
 16777215
176
     1
 74
     1
176
     1
 91
        4
176
     1
 64
     7
176
     1
 65
   257
176
     1
 75
     1
176
     1
175
     1
176
     1
 42
1.0
176
     1
 92
        8
176
     1
 66
     7
176
     1
 43
1.0
176
     1
 76
     1
176
     1
 77
     6
176
     1
 78
     2
176
     1
 67
     7
176
     1
 79
     5
176
     1
170
     0
176
     1
171
     0
176
     1
290
     0
176
     1
 93
        1
176
     1
 44
50.0
176
     1
173
     0
176
     1
  0
VISUALSTYLE
  5
3A
102
{ACAD_REACTORS
330
2A
102
}
330
2A
100
AcDbVisualStyle
  2
ColorChange
 70
    16
177
     2
291
     1
 71
     2
176
     1
 72
     2
176
     1
 73
     3
176
     1
 90
        0
176
     1
 40
-0.6
176
     1
 41
-30.0
176
     1
 62
     5
 63
     8
421
  8421504
176
     1
 74
     1
176
     1
 91
        4
176
     1
 64
     7
176
     1
 65
   257
176
     1
 75
     1
176
     1
175
     1
176
     1
 42
1.0
176
     1
 92
        8
176
     1
 66
     8
424
  8421504
176
     1
 43
1.0
176
     1
 76
     1
176
     1
 77
     6
176
     1
 78
     2
176
     1
 67
     7
176
     1
 79
     5
176
     1
170
     0
176
     1
171
     0
176
     1
290
     0
176
     1
 93
        1
176
     1
 44
0.0
176
     1
173
     0
176
     1
  0
VISUALSTYLE
  5
34
102
{ACAD_REACTORS
330
2A
102
}
330
2A
100
AcDbVisualStyle
  2
Conceptual
 70
     9
177
     2
291
     0
 71
     3
176
     1
 72
     2
176
     1
 73
     0
176
     1
 90
        0
176
     1
 40
-0.6
176
     1
 41
-30.0
176
     1
 62
     5
 63
     7
421
 16777215
176
     1
 74
     2
176
     1
 91
        2
176
     1
 64
     7
176
     1
 65
   257
176
     1
 75
     1
176
     1
175
     1
176
     1
 42
40.0
176
     1
 92
        8
176
     1
 66
     7
176
     1
 43
1.0
176
     1
 76
     1
176
     1
 77
     6
176
     1
 78
     2
176
     1
 67
     7
176
     1
 79
     3
176
     1
170
     0
176
     1
171
     0
176
     1
290
     0
176
     1
 93
        1
176
     1
 44
0.0
176
     1
173
     0
176
     1
  0
VISUALSTYLE
  5
35
102
{ACAD_REACTORS
330
2A
102
}
330
2A
100
AcDbVisualStyle
  2
Dim
 70
    11
177
     2
291
     1
 71
     2
176
     1
 72
     2
176
     1
 73
     0
176
     1
 90
        0
176
     1
 40
-0.6
176
     1
 41
-30.0
176
     1
 62
     5
 63
     7
421
 16777215
176
     1
 74
     1
176
     1
 91
        4
176
     1
 64
     7
176
     1
 65
   257
176
     1
 75
     1
176
     1
175
     1
176
     1
 42
1.0
176
     1
 92
        8
176
     1
 66
     7
176
     1
 43
1.0
176
     1
 76
     1
176
     1
 77
     6
176
     1
 78
     2
176
     1
 67
     7
176
     1
 79
     5
176
     1
170
     0
176
     1
171
     0
176
     1
290
     0
176
     1
 93
        1
176
     1
 44
-50.0
176
     1
173
     0
176
     1
  0
VISUALSTYLE
  5
39
102
{ACAD_REACTORS
330
2A
102
}
330
2A
100
AcDbVisualStyle
  2
Facepattern
 70
    15
177
     2
291
     1
 71
     2
176
     1
 72
     2
176
     1
 73
     0
176
     1
 90
        0
176
     1
 40
-0.6
176
     1
 41
-30.0
176
     1
 62
     5
 63
     7
421
 16777215
176
     1
 74
     1
176
     1
 91
        4
176
     1
 64
     7
176
     1
 65
   257
176
     1
 75
     1
176
     1
175
     1
176
     1
 42
1.0
176
     1
 92
        8
176
     1
 66
     7
176
     1
 43
1.0
176
     1
 76
     1
176
     1
 77
     6
176
     1
 78
     2
176
     1
 67
     7
176
     1
 79
     5
176
     1
170
     0
176
     1
171
     0
176
     1
290
     0
176
     1
 93
        1
176
     1
 44
0.0
176
     1
173
     0
176
     1
  0
VISUALSTYLE
  5
2B
102
{ACAD_REACTORS
330
2A
102
}
330
2A
100
AcDbVisualStyle
  2
Flat
 70
     0
177
     2
291
     1
 71
     2
176
     1
 72
     1
176
     1
 73
     1
176
     1
 90
        2
176
     1
 40
-0.6
176
     1
 41
30.0
176
     1
 62
     5
 63
     7
421
 16777215
176
     1
 74
     0
176
     1
 91
        4
176
     1
 64
     7
176
     1
 65
   257
176
     1
 75
     1
176
     1
175
     1
176
     1
 42
1.0
176
     1
 92
        8
176
     1
 66
     7
176
     1
 43
1.0
176
     1
 76
     1
176
     1
 77
     6
176
     1
 78
     2
176
     1
 67
     7
176
     1
 79
     5
176
     1
170
     0
176
     1
171
     0
176
     1
290
     0
176
     1
 93
       13
176
     1
 44
0.0
176
     1
173
     0
176
     1
  0
VISUALSTYLE
  5
2C
102
{ACAD_REACTORS
330
2A
102
}
330
2A
100
AcDbVisualStyle
  2
FlatWithEdges
 70
     1
177
     2
291
     1
 71
     2
176
     1
 72
     1
176
     1
 73
     1
176
     1
 90
        2
176
     1
 40
-0.6
176
     1
 41
30.0
176
     1
 62
     5
 63
     7
421
 16777215
176
     1
 74
     1
176
     1
 91
        4
176
     1
 64
     7
176
     1
 65
   257
176
     1
 75
     1
176
     1
175
     1
176
     1
 42
1.0
176
     1
 92
        0
176
     1
 66
   257
176
     1
 43
1.0
176
     1
 76
     1
176
     1
 77
     6
176
     1
 78
     2
176
     1
 67
     7
176
     1
 79
     5
176
     1
170
     0
176
     1
171
     0
176
     1
290
     0
176
     1
 93
       13
176
     1
 44
0.0
176
     1
173
     0
176
     1
  0
VISUALSTYLE
  5
2D
102
{ACAD_REACTORS
330
2A
102
}
330
2A
100
AcDbVisualStyle
  2
Gouraud
 70
     2
177
     2
291
     1
 71
     2
176
     1
 72
     2
176
     1
 73
     1
176
     1
 90
        2
176
     1
 40
-0.6
176
     1
 41
30.0
176
     1
 62
     5
 63
     7
421
 16777215
176
     1
 74
     0
176
     1
 91
        4
176
     1
 64
     7
176
     1
 65
   257
176
     1
 75
     1
176
     1
175
     1
176
     1
 42
1.0
176
     1
 92
        0
176
     1
 66
     7
176
     1
 43
1.0
176
     1
 76
     1
176
     1
 77
     6
176
     1
 78
     2
176
     1
 67
     7
176
     1
 79
     5
176
     1
170
     0
176
     1
171
     0
176
     1
290
     0
176
     1
 93
       13
176
     1
 44
0.0
176
     1
173
     0
176
     1
  0
VISUALSTYLE
  5
2E
102
{ACAD_REACTORS
330
2A
102
}
330
2A
100
AcDbVisualStyle
  2
GouraudWithEdges
 70
     3
177
     2
291
     1
 71
     2
176
     1
 72
     2
176
     1
 73
     1
176
     1
 90
        2
176
     1
 40
-0.6
176
     1
 41
30.0
176
     1
 62
     5
 63
     7
421
 16777215
176
     1
 74
     1
176
     1
 91
        4
176
     1
 64
     7
176
     1
 65
   257
176
     1
 75
     1
176
     1
175
     1
176
     1
 42
1.0
176
     1
 92
        0
176
     1
 66
   257
176
     1
 43
1.0
176
     1
 76
     1
176
     1
 77
     6
176
     1
 78
     2
176
     1
 67
     7
176
     1
 79
     5
176
     1
170
     0
176
     1
171
     0
176
     1
290
     0
176
     1
 93
       13
176
     1
 44
0.0
176
     1
173
     0
176
     1
  0
VISUALSTYLE
  5
38
102
{ACAD_REACTORS
330
2A
102
}
330
2A
100
AcDbVisualStyle
  2
Linepattern
 70
    14
177
     2
291
     1
 71
     2
176
     1
 72
     2
176
     1
 73
     0
176
     1
 90
        0
176
     1
 40
-0.6
176
     1
 41
-30.0
176
     1
 62
     5
 63
     7
421
 16777215
176
     1
 74
     1
176
     1
 91
        4
176
     1
 64
     7
176
     1
 65
   257
176
     1
 75
     7
176
     1
175
     7
176
     1
 42
1.0
176
     1
 92
        8
176
     1
 66
     7
176
     1
 43
1.0
176
     1
 76
     1
176
     1
 77
     6
176
     1
 78
     2
176
     1
 67
     7
176
     1
 79
     5
176
     1
170
     0
176
     1
171
     0
176
     1
290
     0
176
     1
 93
        1
176
     1
 44
0.0
176
     1
173
     0
176
     1
  0
VISUALSTYLE
  5
33
102
{ACAD_REACTORS
330
2A
102
}
330
2A
100
AcDbVisualStyle
  2
Realistic
 70
     8
177
     2
291
     0
 71
     2
176
     1
 72
     2
176
     1
 73
     0
176
     1
 90
        0
176
     1
 40
-0.6
176
     1
 41
-30.0
176
     1
 62
     5
 63
     7
421
 16777215
176
     1
 74
     1
176
     1
 91
        0
176
     1
 64
     7
176
     1
 65
   257
176
     1
 75
     1
176
     1
175
     1
176
     1
 42
1.0
176
     1
 92
        8
176
     1
 66
     8
424
  7895160
176
     1
 43
1.0
176
     1
 76
     1
176
     1
 77
     6
176
     1
 78
     2
176
     1
 67
     7
176
     1
 79
     5
176
     1
170
     0
176
     1
171
     0
176
     1
290
     0
176
     1
 93
       13
176
     1
 44
0.0
176
     1
173
     0
176
     1
  0
VISUALSTYLE
  5
37
102
{ACAD_REACTORS
330
2A
102
}
330
2A
100
AcDbVisualStyle
  2
Thicken
 70
    13
177
     2
291
     1
 71
     2
176
     1
 72
     2
176
     1
 73
     0
176
     1
 90
        0
176
     1
 40
-0.6
176
     1
 41
-30.0
176
     1
 62
     5
 63
     7
421
 16777215
176
     1
 74
     1
176
     1
 91
        4
176
     1
 64
     7
176
     1
 65
   257
176
     1
 75
     1
176
     1
175
     1
176
     1
 42
1.0
176
     1
 92
       12
176
     1
 66
     7
176
     1
 43
1.0
176
     1
 76
     1
176
     1
 77
     6
176
     1
 78
     2
176
     1
 67
     7
176
     1
 79
     5
176
     1
170
     0
176
     1
171
     0
176
     1
290
     0
176
     1
 93
        1
176
     1
 44
0.0
176
     1
173
     0
176
     1
  0
ENDSEC
  0
EOF
