  0
SECTION
  2
HEADER
  9
$ACADVER
  1
AC1024
  9
$ACADMAINTVER
 70
     6
  9
$DWGCODEPAGE
  3
UNDEFINED
  9
$INSBASE
 10
0.0
 20
0.0
 30
0.0
  9
$EXTMIN
 10
1.000000000000000E+20
 20
1.000000000000000E+20
 30
1.000000000000000E+20
  9
$EXTMAX
 10
-1.000000000000000E+20
 20
-1.000000000000000E+20
 30
-1.000000000000000E+20
  9
$LIMMIN
 10
0.0
 20
0.0
  9
$LIMMAX
 10
12.0
 20
9.0
  9
$ORTHOMODE
 70
     0
  9
$REGENMODE
 70
     1
  9
$FILLMODE
 70
     1
  9
$QTEXTMODE
 70
     0
  9
$MIRRTEXT
 70
     1
  9
$LTSCALE
 40
1.0
  9
$ATTMODE
 70
     1
  9
$TEXTSIZE
 40
0.2
  9
$TRACEWID
 40
0.05
  9
$TEXTSTYLE
  7
Standard
  9
$CLAYER
  8
0
  9
$CELTYPE
  6
ByLayer
  9
$CECOLOR
 62
   256
  9
$CELTSCALE
 40
1.0
  9
$DISPSILH
 70
     0
  9
$DIMSCALE
 40
1.0
  9
$DIMASZ
 40
0.18
  9
$DIMEXO
 40
0.0625
  9
$DIMDLI
 40
0.38
  9
$DIMRND
 40
0.0
  9
$DIMDLE
 40
0.0
  9
$DIMEXE
 40
0.18
  9
$DIMTP
 40
0.0
  9
$DIMTM
 40
0.0
  9
$DIMTXT
 40
0.18
  9
$DIMCEN
 40
0.09
  9
$DIMTSZ
 40
0.0
  9
$DIMTOL
 70
     0
  9
$DIMLIM
 70
     0
  9
$DIMTIH
 70
     1
  9
$DIMTOH
 70
     1
  9
$DIMSE1
 70
     0
  9
$DIMSE2
 70
     0
  9
$DIMTAD
 70
     0
  9
$DIMZIN
 70
     0
  9
$DIMBLK
  1

  9
$DIMASO
 70
     1
  9
$DIMSHO
 70
     1
  9
$DIMPOST
  1

  9
$DIMAPOST
  1

  9
$DIMALT
 70
     0
  9
$DIMALTD
 70
     2
  9
$DIMALTF
 40
25.4
  9
$DIMLFAC
 40
1.0
  9
$DIMTOFL
 70
     0
  9
$DIMTVP
 40
0.0
  9
$DIMTIX
 70
     0
  9
$DIMSOXD
 70
     0
  9
$DIMSAH
 70
     0
  9
$DIMBLK1
  1

  9
$DIMBLK2
  1

  9
$DIMSTYLE
  2
Standard
  9
$DIMCLRD
 70
     0
  9
$DIMCLRE
 70
     0
  9
$DIMCLRT
 70
     0
  9
$DIMTFAC
 40
1.0
  9
$DIMGAP
 40
0.09
  9
$DIMJUST
 70
     0
  9
$DIMSD1
 70
     0
  9
$DIMSD2
 70
     0
  9
$DIMTOLJ
 70
     1
  9
$DIMTZIN
 70
     0
  9
$DIMALTZ
 70
     0
  9
$DIMALTTZ
 70
     0
  9
$DIMUPT
 70
     0
  9
$DIMDEC
 70
     4
  9
$DIMTDEC
 70
     4
  9
$DIMALTU
 70
     2
  9
$DIMALTTD
 70
     2
  9
$DIMTXSTY
  7
Standard
  9
$DIMAUNIT
 70
     0
  9
$DIMADEC
 70
     0
  9
$DIMALTRND
 40
0.0
  9
$DIMAZIN
 70
     0
  9
$DIMDSEP
 70
    46
  9
$DIMATFIT
 70
     3
  9
$DIMFRAC
 70
     0
  9
$DIMLDRBLK
  1

  9
$DIMLUNIT
 70
     2
  9
$DIMLWD
 70
    -2
  9
$DIMLWE
 70
    -2
  9
$DIMTMOVE
 70
     0
  9
$DIMFXL
 40
1.0
  9
$DIMFXLON
 70
     0
  9
$DIMJOGANG
 40
0.7853981633974483
  9
$DIMTFILL
 70
     0
  9
$DIMTFILLCLR
 70
     0
  9
$DIMARCSYM
 70
     0
  9
$DIMLTYPE
  6

  9
$DIMLTEX1
  6

  9
$DIMLTEX2
  6

  9
$DIMTXTDIRECTION
 70
     0
  9
$LUNITS
 70
     2
  9
$LUPREC
 70
     4
  9
$SKETCHINC
 40
0.1
  9
$FILLETRAD
 40
0.5
  9
$AUNITS
 70
     0
  9
$AUPREC
 70
     0
  9
$MENU
  1
.
  9
$ELEVATION
 40
0.0
  9
$PELEVATION
 40
0.0
  9
$THICKNESS
 40
0.0
  9
$LIMCHECK
 70
     0
  9
$CHAMFERA
 40
0.5
  9
$CHAMFERB
 40
0.5
  9
$CHAMFERC
 40
1.0
  9
$CHAMFERD
 40
0.0
  9
$SKPOLY
 70
     0
  9
$TDCREATE
 40
2457917.592881944
  9
$TDUCREATE
 40
2457917.217881944
  9
$TDUPDATE
 40
2457917.592881944
  9
$TDUUPDATE
 40
2457917.217881944
  9
$TDINDWG
 40
0.0000000116
  9
$TDUSRTIMER
 40
0.0000000116
  9
$USRTIMER
 70
     1
  9
$ANGBASE
 50
0.0
  9
$ANGDIR
 70
     0
  9
$PDMODE
 70
     0
  9
$PDSIZE
 40
0.0
  9
$PLINEWID
 40
0.0
  9
$SPLFRAME
 70
     0
  9
$SPLINETYPE
 70
     6
  9
$SPLINESEGS
 70
     8
  9
$HANDSEED
  5
110
  9
$SURFTAB1
 70
     6
  9
$SURFTAB2
 70
     6
  9
$SURFTYPE
 70
     6
  9
$SURFU
 70
     6
  9
$SURFV
 70
     6
  9
$UCSBASE
  2

  9
$UCSNAME
  2

  9
$UCSORG
 10
0.0
 20
0.0
 30
0.0
  9
$UCSXDIR
 10
1.0
 20
0.0
 30
0.0
  9
$UCSYDIR
 10
0.0
 20
1.0
 30
0.0
  9
$UCSORTHOREF
  2

  9
$UCSORTHOVIEW
 70
     0
  9
$UCSORGTOP
 10
0.0
 20
0.0
 30
0.0
  9
$UCSORGBOTTOM
 10
0.0
 20
0.0
 30
0.0
  9
$UCSORGLEFT
 10
0.0
 20
0.0
 30
0.0
  9
$UCSORGRIGHT
 10
0.0
 20
0.0
 30
0.0
  9
$UCSORGFRONT
 10
0.0
 20
0.0
 30
0.0
  9
$UCSORGBACK
 10
0.0
 20
0.0
 30
0.0
  9
$PUCSBASE
  2

  9
$PUCSNAME
  2

  9
$PUCSORG
 10
0.0
 20
0.0
 30
0.0
  9
$PUCSXDIR
 10
1.0
 20
0.0
 30
0.0
  9
$PUCSYDIR
 10
0.0
 20
1.0
 30
0.0
  9
$PUCSORTHOREF
  2

  9
$PUCSORTHOVIEW
 70
     0
  9
$PUCSORGTOP
 10
0.0
 20
0.0
 30
0.0
  9
$PUCSORGBOTTOM
 10
0.0
 20
0.0
 30
0.0
  9
$PUCSORGLEFT
 10
0.0
 20
0.0
 30
0.0
  9
$PUCSORGRIGHT
 10
0.0
 20
0.0
 30
0.0
  9
$PUCSORGFRONT
 10
0.0
 20
0.0
 30
0.0
  9
$PUCSORGBACK
 10
0.0
 20
0.0
 30
0.0
  9
$USERI1
 70
     0
  9
$USERI2
 70
     0
  9
$USERI3
 70
     0
  9
$USERI4
 70
     0
  9
$USERI5
 70
     0
  9
$USERR1
 40
0.0
  9
$USERR2
 40
0.0
  9
$USERR3
 40
0.0
  9
$USERR4
 40
0.0
  9
$USERR5
 40
0.0
  9
$WORLDVIEW
 70
     1
  9
$SHADEDGE
 70
     3
  9
$SHADEDIF
 70
    70
  9
$TILEMODE
 70
     1
  9
$MAXACTVP
 70
    64
  9
$PINSBASE
 10
0.0
 20
0.0
 30
0.0
  9
$PLIMCHECK
 70
     0
  9
$PEXTMIN
 10
1.000000000000000E+20
 20
1.000000000000000E+20
 30
1.000000000000000E+20
  9
$PEXTMAX
 10
-1.000000000000000E+20
 20
-1.000000000000000E+20
 30
-1.000000000000000E+20
  9
$PLIMMIN
 10
0.0
 20
0.0
  9
$PLIMMAX
 10
12.0
 20
9.0
  9
$UNITMODE
 70
     0
  9
$VISRETAIN
 70
     1
  9
$PLINEGEN
 70
     0
  9
$PSLTSCALE
 70
     1
  9
$TREEDEPTH
 70
  3020
  9
$CMLSTYLE
  2
Standard
  9
$CMLJUST
 70
     0
  9
$CMLSCALE
 40
1.0
  9
$PROXYGRAPHICS
 70
     1
  9
$MEASUREMENT
 70
     0
  9
$CELWEIGHT
370
    -1
  9
$ENDCAPS
280
     0
  9
$JOINSTYLE
280
     0
  9
$LWDISPLAY
290
     1
  9
$INSUNITS
 70
     1
  9
$HYPERLINKBASE
  1

  9
$STYLESHEET
  1

  9
$XEDIT
290
     1
  9
$CEPSNTYPE
380
     0
  9
$PSTYLEMODE
290
     1
  9
$FINGERPRINTGUID
  2
{B1873E18-E978-BBF0-AFD8-8874A7DFAEF5}
  9
$VERSIONGUID
  2
{FAEB1C32-E019-11D5-929B-00C0DF256EC4}
  9
$EXTNAMES
290
     1
  9
$PSVPSCALE
 40
0.0
  9
$OLESTARTUP
290
     0
  9
$SORTENTS
280
   127
  9
$INDEXCTL
280
     0
  9
$HIDETEXT
280
     1
  9
$XCLIPFRAME
280
     2
  9
$HALOGAP
280
     0
  9
$OBSCOLOR
 70
   257
  9
$OBSLTYPE
280
     0
  9
$INTERSECTIONDISPLAY
280
     0
  9
$INTERSECTIONCOLOR
 70
   257
  9
$DIMASSOC
280
     2
  9
$PROJECTNAME
  1

  9
$CAMERADISPLAY
290
     0
  9
$LENSLENGTH
 40
50.0
  9
$CAMERAHEIGHT
 40
0.0
  9
$STEPSPERSEC
 40
2.0
  9
$STEPSIZE
 40
6.0
  9
$3DDWFPREC
 40
2.0
  9
$PSOLWIDTH
 40
0.25
  9
$PSOLHEIGHT
 40
4.0
  9
$LOFTANG1
 40
1.570796326794897
  9
$LOFTANG2
 40
1.570796326794897
  9
$LOFTMAG1
 40
0.0
  9
$LOFTMAG2
 40
0.0
  9
$LOFTPARAM
 70
     7
  9
$LOFTNORMALS
280
     1
  9
$LATITUDE
 40
37.795
  9
$LONGITUDE
 40
-122.394
  9
$NORTHDIRECTION
 40
0.0
  9
$TIMEZONE
 70
 -8000
  9
$LIGHTGLYPHDISPLAY
280
     1
  9
$TILEMODELIGHTSYNCH
280
     1
  9
$CMATERIAL
347
3C
  9
$SOLIDHIST
280
     1
  9
$SHOWHIST
280
     1
  9
$DWFFRAME
280
     2
  9
$DGNFRAME
280
     2
  9
$REALWORLDSCALE
290
     1
  9
$INTERFERECOLOR
 62
   256
  9
$CSHADOW
280
     0
  9
$SHADOWPLANELOCATION
 40
0.0
  0
ENDSEC
  0
SECTION
  2
CLASSES
  0
CLASS
  1
ACDBDICTIONARYWDFLT
  2
AcDbDictionaryWithDefault
  3
ObjectDBX Classes
 90
        0
 91
        4
280
     0
281
     0
  0
CLASS
  1
VISUALSTYLE
  2
AcDbVisualStyle
  3
ObjectDBX Classes
 90
     4095
 91
        4
280
     0
281
     0
  0
CLASS
  1
MATERIAL
  2
AcDbMaterial
  3
ObjectDBX Classes
 90
     1153
 91
        4
280
     0
281
     0
  0
CLASS
  1
SUN
  2
AcDbSun
  3
SCENEOE
 90
     1024
 91
        4
280
     0
281
     0
  0
ENDSEC
  0
SECTION
  2
TABLES
  0
TABLE
  2
VPORT
  5
8
330
0
100
AcDbSymbolTable
 70
     1
  0
VPORT
  5
29
330
8
100
AcDbSymbolTableRecord
100
AcDbViewportTableRecord
  2
*Active
 70
     0
 10
0.0
 20
0.0
 11
1.0
 21
1.0
 12
0.0
 22
0.0
 13
0.0
 23
0.0
 14
0.5
 24
0.5
 15
0.5
 25
0.5
 16
0.0
 26
0.0
 36
1.0
 17
63.499999984125
 27
-89.00059456108309
 37
0.0
 40
178.0011891221662
 41
0.7134783795241226
 42
50.0
 43
0.0
 44
0.0
 50
0.0
 51
0.0
 71
     0
 72
   100
 73
     1
 74
     3
 75
     0
 76
     0
 77
     0
 78
     0
281
     0
 65
     1
110
0.0
120
0.0
130
0.0
111
1.0
121
0.0
131
0.0
112
0.0
122
1.0
132
0.0
 79
     0
146
0.0
 60
     3
 61
     5
292
     1
282
     1
141
0.0
142
0.0
 63
   250
361
3F
  0
ENDTAB
  0
TABLE
  2
LTYPE
  5
5
330
0
100
AcDbSymbolTable
 70
     3
  0
LTYPE
  5
14
330
5
100
AcDbSymbolTableRecord
100
AcDbLinetypeTableRecord
  2
ByBlock
 70
     0
  3

 72
    65
 73
     0
 40
0.0
  0
LTYPE
  5
15
330
5
100
AcDbSymbolTableRecord
100
AcDbLinetypeTableRecord
  2
ByLayer
 70
     0
  3

 72
    65
 73
     0
 40
0.0
  0
LTYPE
  5
16
330
5
100
AcDbSymbolTableRecord
100
AcDbLinetypeTableRecord
  2
Continuous
 70
     0
  3
Solid line
 72
    65
 73
     0
 40
0.0
  0
LTYPE
  5
44
330
5
100
AcDbSymbolTableRecord
100
AcDbLinetypeTableRecord
  2
AI-Linetype-1
 70
     0
  3
Adobe Illustrator Linetype No. 1
 72
    65
 73
     2
 40
1.411111110758333
 49
0.7055555553791667
 74
     0
 49
-0.7055555553791667
 74
     0
  0
LTYPE
  5
49
330
5
100
AcDbSymbolTableRecord
100
AcDbLinetypeTableRecord
  2
AI-Linetype-2
 70
     0
  3
Adobe Illustrator Linetype No. 2
 72
    65
 73
     2
 40
1.411111110758333
 49
0.7055555553791667
 74
     0
 49
-0.7055555553791667
 74
     0
  0
ENDTAB
  0
TABLE
  2
LAYER
  5
2
330
0
100
AcDbSymbolTable
 70
     2
  0
LAYER
  5
10
330
2
100
AcDbSymbolTableRecord
100
AcDbLayerTableRecord
  2
0
 70
     0
 62
     7
  6
Continuous
370
    -3
390
F
347
3E
  0
LAYER
  5
40
330
2
100
AcDbSymbolTableRecord
100
AcDbLayerTableRecord
  2
_U+30EC_U+30A4_U+30E4_U+30FC 1
 70
     0
 62
     7
  6
Continuous
370
    -3
390
F
347
3E
  0
ENDTAB
  0
TABLE
  2
STYLE
  5
3
330
0
100
AcDbSymbolTable
 70
     1
  0
STYLE
  5
11
330
3
100
AcDbSymbolTableRecord
100
AcDbTextStyleTableRecord
  2
Standard
 70
     0
 40
0.0
 41
1.0
 50
0.0
 71
     0
 42
0.2
  3
txt
  4

  0
ENDTAB
  0
TABLE
  2
VIEW
  5
6
330
0
100
AcDbSymbolTable
 70
     0
  0
ENDTAB
  0
TABLE
  2
UCS
  5
7
330
0
100
AcDbSymbolTable
 70
     0
  0
ENDTAB
  0
TABLE
  2
APPID
  5
9
330
0
100
AcDbSymbolTable
 70
     1
  0
APPID
  5
12
330
9
100
AcDbSymbolTableRecord
100
AcDbRegAppTableRecord
  2
ACAD
 70
     0
  0
ENDTAB
  0
TABLE
  2
DIMSTYLE
  5
A
330
0
100
AcDbSymbolTable
 70
     1
100
AcDbDimStyleTable
  0
DIMSTYLE
105
27
330
A
100
AcDbSymbolTableRecord
100
AcDbDimStyleTableRecord
  2
Standard
 70
     0
178
     0
340
11
  0
ENDTAB
  0
TABLE
  2
BLOCK_RECORD
  5
1
330
0
100
AcDbSymbolTable
 70
     7
  0
BLOCK_RECORD
  5
1F
330
1
100
AcDbSymbolTableRecord
100
AcDbBlockTableRecord
  2
*Model_Space
340
22
 70
     0
280
     1
281
     0
  0
BLOCK_RECORD
  5
1B
330
1
100
AcDbSymbolTableRecord
100
AcDbBlockTableRecord
  2
*Paper_Space
340
1E
 70
     0
280
     1
281
     0
  0
BLOCK_RECORD
  5
23
330
1
100
AcDbSymbolTableRecord
100
AcDbBlockTableRecord
  2
*Paper_Space0
340
26
 70
     0
280
     1
281
     0
  0
BLOCK_RECORD
  5
4B
330
1
100
AcDbSymbolTableRecord
100
AcDbBlockTableRecord
  2
block 2
340
0
102
{BLKREFS
331
4C
102
}
 70
     0
280
     1
281
     0
  0
BLOCK_RECORD
  5
A7
330
1
100
AcDbSymbolTableRecord
100
AcDbBlockTableRecord
  2
block 3
340
0
102
{BLKREFS
331
A8
102
}
 70
     0
280
     1
281
     0
  0
BLOCK_RECORD
  5
B9
330
1
100
AcDbSymbolTableRecord
100
AcDbBlockTableRecord
  2
block 4
340
0
102
{BLKREFS
331
BA
102
}
 70
     0
280
     1
281
     0
  0
BLOCK_RECORD
  5
CC
330
1
100
AcDbSymbolTableRecord
100
AcDbBlockTableRecord
  2
block 5
340
0
102
{BLKREFS
331
CD
102
}
 70
     0
280
     1
281
     0
  0
BLOCK_RECORD
  5
DE
330
1
100
AcDbSymbolTableRecord
100
AcDbBlockTableRecord
  2
block 6
340
0
102
{BLKREFS
331
DF
102
}
 70
     0
280
     1
281
     0
  0
BLOCK_RECORD
  5
106
330
1
100
AcDbSymbolTableRecord
100
AcDbBlockTableRecord
  2
block 7
340
0
102
{BLKREFS
331
107
102
}
 70
     0
280
     1
281
     0
  0
ENDTAB
  0
ENDSEC
  0
SECTION
  2
BLOCKS
  0
BLOCK
  5
20
330
1F
100
AcDbEntity
  8
0
100
AcDbBlockBegin
  2
*Model_Space
 70
     0
 10
0.0
 20
0.0
 30
0.0
  3
*Model_Space
  1

  0
ENDBLK
  5
21
330
1F
100
AcDbEntity
  8
0
100
AcDbBlockEnd
  0
BLOCK
  5
1C
330
1B
100
AcDbEntity
 67
     1
  8
0
100
AcDbBlockBegin
  2
*Paper_Space
 70
     0
 10
0.0
 20
0.0
 30
0.0
  3
*Paper_Space
  1

  0
ENDBLK
  5
1D
330
1B
100
AcDbEntity
 67
     1
  8
0
100
AcDbBlockEnd
  0
BLOCK
  5
24
330
23
100
AcDbEntity
  8
0
100
AcDbBlockBegin
  2
*Paper_Space0
 70
     0
 10
0.0
 20
0.0
 30
0.0
  3
*Paper_Space0
  1

  0
ENDBLK
  5
25
330
23
100
AcDbEntity
  8
0
100
AcDbBlockEnd
  0
BLOCK
  5
4D
330
4B
100
AcDbEntity
  8
0
100
AcDbBlockBegin
  2
block 2
 70
     0
 10
0.0
 20
0.0
 30
0.0
  3
block 2
  1

  0
SPLINE
  5
4F
330
4B
100
AcDbEntity
  8
_U+30EC_U+30A4_U+30E4_U+30FC 1
370
     0
100
AcDbSpline
210
0.0
220
0.0
230
1.0
 70
    11
 71
     3
 72
    17
 73
    13
 74
     0
 42
0.0000000001
 43
0.0000000001
 12
1.0
 22
0.0
 32
0.0
 13
1.0
 23
0.0
 33
0.0
 40
0.0
 40
0.0
 40
0.0
 40
0.0
 40
1.0
 40
1.0
 40
1.0
 40
2.0
 40
2.0
 40
2.0
 40
3.0
 40
3.0
 40
3.0
 40
4.0
 40
4.0
 40
4.0
 40
4.0
 10
49.2555636812625
 20
-105.8512478033983
 30
0.0
 10
49.16306286748354
 20
-105.7589192443936
 30
0.0
 10
49.09261066481018
 20
-105.7255018181867
 30
0.0
 10
49.01113415658403
 20
-105.6975965447562
 30
0.0
 10
49.01113415658403
 20
-105.6975965447562
 30
0.0
 10
49.10742457539676
 20
-105.5532470439242
 30
0.0
 10
49.10742457539676
 20
-105.5532470439242
 30
0.0
 10
49.19269068865669
 20
-105.5904540751649
 30
0.0
 10
49.2982828652796
 20
-105.6586669657728
 30
0.0
 10
49.34444714478195
 20
-105.7068983025663
 30
0.0
 10
49.34444714478195
 20
-105.7068983025663
 30
0.0
 10
49.2555636812625
 20
-105.8512478033983
 30
0.0
 10
49.2555636812625
 20
-105.8512478033983
 30
0.0
  0
SPLINE
  5
50
330
4B
100
AcDbEntity
  8
_U+30EC_U+30A4_U+30E4_U+30FC 1
370
     0
100
AcDbSpline
210
0.0
220
0.0
230
1.0
 70
    11
 71
     3
 72
   182
 73
   178
 74
     0
 42
0.0000000001
 43
0.0000000001
 12
1.0
 22
0.0
 32
0.0
 13
1.0
 23
0.0
 33
0.0
 40
0.0
 40
0.0
 40
0.0
 40
0.0
 40
1.0
 40
1.0
 40
1.0
 40
2.0
 40
2.0
 40
2.0
 40
3.0
 40
3.0
 40
3.0
 40
4.0
 40
4.0
 40
4.0
 40
5.0
 40
5.0
 40
5.0
 40
6.0
 40
6.0
 40
6.0
 40
7.0
 40
7.0
 40
7.0
 40
8.0
 40
8.0
 40
8.0
 40
9.0
 40
9.0
 40
9.0
 40
10.0
 40
10.0
 40
10.0
 40
11.0
 40
11.0
 40
11.0
 40
12.0
 40
12.0
 40
12.0
 40
13.0
 40
13.0
 40
13.0
 40
14.0
 40
14.0
 40
14.0
 40
15.0
 40
15.0
 40
15.0
 40
16.0
 40
16.0
 40
16.0
 40
17.0
 40
17.0
 40
17.0
 40
18.0
 40
18.0
 40
18.0
 40
19.0
 40
19.0
 40
19.0
 40
20.0
 40
20.0
 40
20.0
 40
21.0
 40
21.0
 40
21.0
 40
22.0
 40
22.0
 40
22.0
 40
23.0
 40
23.0
 40
23.0
 40
24.0
 40
24.0
 40
24.0
 40
25.0
 40
25.0
 40
25.0
 40
26.0
 40
26.0
 40
26.0
 40
27.0
 40
27.0
 40
27.0
 40
28.0
 40
28.0
 40
28.0
 40
29.0
 40
29.0
 40
29.0
 40
30.0
 40
30.0
 40
30.0
 40
31.0
 40
31.0
 40
31.0
 40
32.0
 40
32.0
 40
32.0
 40
33.0
 40
33.0
 40
33.0
 40
34.0
 40
34.0
 40
34.0
 40
35.0
 40
35.0
 40
35.0
 40
36.0
 40
36.0
 40
36.0
 40
37.0
 40
37.0
 40
37.0
 40
38.0
 40
38.0
 40
38.0
 40
39.0
 40
39.0
 40
39.0
 40
40.0
 40
40.0
 40
40.0
 40
41.0
 40
41.0
 40
41.0
 40
42.0
 40
42.0
 40
42.0
 40
43.0
 40
43.0
 40
43.0
 40
44.0
 40
44.0
 40
44.0
 40
45.0
 40
45.0
 40
45.0
 40
46.0
 40
46.0
 40
46.0
 40
47.0
 40
47.0
 40
47.0
 40
48.0
 40
48.0
 40
48.0
 40
49.0
 40
49.0
 40
49.0
 40
50.0
 40
50.0
 40
50.0
 40
51.0
 40
51.0
 40
51.0
 40
52.0
 40
52.0
 40
52.0
 40
53.0
 40
53.0
 40
53.0
 40
54.0
 40
54.0
 40
54.0
 40
55.0
 40
55.0
 40
55.0
 40
56.0
 40
56.0
 40
56.0
 40
57.0
 40
57.0
 40
57.0
 40
58.0
 40
58.0
 40
58.0
 40
59.0
 40
59.0
 40
59.0
 40
59.0
 10
50.1704087873706
 20
-106.8827093916821
 30
0.0
 10
50.1704087873706
 20
-106.8827093916821
 30
0.0
 10
49.61299233785717
 20
-106.8827093916821
 30
0.0
 10
49.61299233785717
 20
-106.8827093916821
 30
0.0
 10
49.42592365300811
 20
-106.8827093916821
 30
0.0
 10
49.23713242041642
 20
-106.8864989967159
 30
0.0
 10
49.05006373556735
 20
-106.8975233022687
 30
0.0
 10
49.05006373556735
 20
-106.8975233022687
 30
0.0
 10
49.05006373556735
 20
-106.7163112797445
 30
0.0
 10
49.05006373556735
 20
-106.7163112797445
 30
0.0
 10
49.2445393757097
 20
-106.7273355852973
 30
0.0
 10
49.52772622459724
 20
-106.7307806807826
 30
0.0
 10
49.61299233785717
 20
-106.7307806807826
 30
0.0
 10
49.61299233785717
 20
-106.7307806807826
 30
0.0
 10
49.80557317548264
 20
-106.7307806807826
 30
0.0
 10
49.80557317548264
 20
-106.7307806807826
 30
0.0
 10
49.80557317548264
 20
-106.7307806807826
 30
0.0
 10
49.80557317548264
 20
-106.6067572433136
 30
0.0
 10
49.80557317548264
 20
-106.6067572433136
 30
0.0
 10
49.80557317548264
 20
-106.6067572433136
 30
0.0
 10
49.66484102491018
 20
-106.6067572433136
 30
0.0
 10
49.66484102491018
 20
-106.6067572433136
 30
0.0
 10
49.52049152407821
 20
-106.6067572433136
 30
0.0
 10
49.37596976847198
 20
-106.6105468483474
 30
0.0
 10
49.23144801286575
 20
-106.6236382111913
 30
0.0
 10
49.23144801286575
 20
-106.6236382111913
 30
0.0
 10
49.23144801286575
 20
-106.440359131376
 30
0.0
 10
49.23144801286575
 20
-106.440359131376
 30
0.0
 10
49.38148192124838
 20
-106.4531059846715
 30
0.0
 10
49.5981784272706
 20
-106.4568955897052
 30
0.0
 10
49.66484102491018
 20
-106.4568955897052
 30
0.0
 10
49.66484102491018
 20
-106.4568955897052
 30
0.0
 10
49.80557317548264
 20
-106.4568955897052
 30
0.0
 10
49.80557317548264
 20
-106.4568955897052
 30
0.0
 10
49.80195582522312
 20
-106.3938503423252
 30
0.0
 10
49.80195582522312
 20
-106.3883381895487
 30
0.0
 10
49.79627141767246
 20
-106.3421739100464
 30
0.0
 10
49.79627141767246
 20
-106.3421739100464
 30
0.0
 10
49.91857230739883
 20
-106.3549207633418
 30
0.0
 10
49.91857230739883
 20
-106.3549207633418
 30
0.0
 10
49.91857230739883
 20
-106.3549207633418
 30
0.0
 10
49.83158364639628
 20
-106.2050591097335
 30
0.0
 10
49.83158364639628
 20
-106.2050591097335
 30
0.0
 10
49.87223577312222
 20
-106.2105712625099
 30
0.0
 10
49.93700356824492
 20
-106.2181504725774
 30
0.0
 10
49.95181747883149
 20
-106.2181504725774
 30
0.0
 10
49.99625921059121
 20
-106.2181504725774
 30
0.0
 10
50.01107312117779
 20
-106.1995469569571
 30
0.0
 10
50.01107312117779
 20
-106.1495930724209
 30
0.0
 10
50.01107312117779
 20
-106.1495930724209
 30
0.0
 10
50.01107312117779
 20
-106.0290147304372
 30
0.0
 10
50.01107312117779
 20
-106.0290147304372
 30
0.0
 10
50.01107312117779
 20
-106.0290147304372
 30
0.0
 10
49.91857230739883
 20
-106.0290147304372
 30
0.0
 10
49.91857230739883
 20
-106.0290147304372
 30
0.0
 10
49.80195582522312
 20
-106.0290147304372
 30
0.0
 10
49.66484102491018
 20
-106.0290147304372
 30
0.0
 10
49.55735404577039
 20
-106.0403835455385
 30
0.0
 10
49.55735404577039
 20
-106.0403835455385
 30
0.0
 10
49.55735404577039
 20
-105.8736409240524
 30
0.0
 10
49.55735404577039
 20
-105.8736409240524
 30
0.0
 10
49.7037706038935
 20
-105.888454834639
 30
0.0
 10
49.90565319932914
 20
-105.8901773823816
 30
0.0
 10
49.91857230739883
 20
-105.8901773823816
 30
0.0
 10
49.91857230739883
 20
-105.8901773823816
 30
0.0
 10
50.01107312117779
 20
-105.8901773823816
 30
0.0
 10
50.01107312117779
 20
-105.8901773823816
 30
0.0
 10
50.01107312117779
 20
-105.8901773823816
 30
0.0
 10
50.01107312117779
 20
-105.7754557027228
 30
0.0
 10
50.01107312117779
 20
-105.7754557027228
 30
0.0
 10
50.01107312117779
 20
-105.7754557027228
 30
0.0
 10
49.97782794974513
 20
-105.7754557027228
 30
0.0
 10
49.97782794974513
 20
-105.7754557027228
 30
0.0
 10
49.93889837076181
 20
-105.7754557027228
 30
0.0
 10
49.82968884387939
 20
-105.7792453077566
 30
0.0
 10
49.75182968591274
 20
-105.7864800082756
 30
0.0
 10
49.75182968591274
 20
-105.7864800082756
 30
0.0
 10
49.75182968591274
 20
-105.7162000603765
 30
0.0
 10
49.75182968591274
 20
-105.7162000603765
 30
0.0
 10
49.70549315163613
 20
-105.7496174865834
 30
0.0
 10
49.68344454053053
 20
-105.7623643398789
 30
0.0
 10
49.64623750928983
 20
-105.7826904032418
 30
0.0
 10
49.64623750928983
 20
-105.7826904032418
 30
0.0
 10
49.48156194509489
 20
-105.6700357808742
 30
0.0
 10
49.48156194509489
 20
-105.6700357808742
 30
0.0
 10
49.55011934525136
 20
-105.640407959701
 30
0.0
 10
49.68706189079004
 20
-105.58459741284
 30
0.0
 10
49.82400443632872
 20
-105.4588514276283
 30
0.0
 10
49.89635144151897
 20
-105.3902940274719
 30
0.0
 10
49.96490884167545
 20
-105.316224474539
 30
0.0
 10
50.01107312117779
 20
-105.2273410110196
 30
0.0
 10
50.01107312117779
 20
-105.2273410110196
 30
0.0
 10
50.19624700350997
 20
-105.2810845005895
 30
0.0
 10
50.19624700350997
 20
-105.2810845005895
 30
0.0
 10
50.21295571661343
 20
-105.2865966533659
 30
0.0
 10
50.22225747442361
 20
-105.2941758634334
 30
0.0
 10
50.22225747442361
 20
-105.3052001689862
 30
0.0
 10
50.22225747442361
 20
-105.3200140795728
 30
0.0
 10
50.21106091409654
 20
-105.3255262323492
 30
0.0
 10
50.18884004821668
 20
-105.336550537902
 30
0.0
 10
50.25929225089004
 20
-105.4216443963876
 30
0.0
 10
50.40174694920512
 20
-105.5070827644218
 30
0.0
 10
50.43137477037827
 20
-105.5236192227511
 30
0.0
 10
50.56297741791482
 20
-105.6014783807177
 30
0.0
 10
50.66288518698706
 20
-105.6255940491144
 30
0.0
 10
50.73144258714353
 20
-105.6421305074436
 30
0.0
 10
50.73144258714353
 20
-105.6421305074436
 30
0.0
 10
50.62774521303751
 20
-105.7902696133094
 30
0.0
 10
50.62774521303751
 20
-105.7902696133094
 30
0.0
 10
50.55367566010464
 20
-105.76443139717
 30
0.0
 10
50.50923392834492
 20
-105.7475504292923
 30
0.0
 10
50.40553655423889
 20
-105.6903618442371
 30
0.0
 10
50.40553655423889
 20
-105.6903618442371
 30
0.0
 10
50.40553655423889
 20
-105.7864800082756
 30
0.0
 10
50.40553655423889
 20
-105.7864800082756
 30
0.0
 10
50.33336180382291
 20
-105.7792453077566
 30
0.0
 10
50.22225747442361
 20
-105.7754557027228
 30
0.0
 10
50.17592094014699
 20
-105.7754557027228
 30
0.0
 10
50.17592094014699
 20
-105.7754557027228
 30
0.0
 10
50.17592094014699
 20
-105.8901773823816
 30
0.0
 10
50.17592094014699
 20
-105.8901773823816
 30
0.0
 10
50.17592094014699
 20
-105.8901773823816
 30
0.0
 10
50.2815131167699
 20
-105.8901773823816
 30
0.0
 10
50.2815131167699
 20
-105.8901773823816
 30
0.0
 10
50.28323566451252
 20
-105.8901773823816
 30
0.0
 10
50.48701306246505
 20
-105.888454834639
 30
0.0
 10
50.64255912362408
 20
-105.8736409240524
 30
0.0
 10
50.64255912362408
 20
-105.8736409240524
 30
0.0
 10
50.64255912362408
 20
-106.0403835455385
 30
0.0
 10
50.64255912362408
 20
-106.0403835455385
 30
0.0
 10
50.52955999170789
 20
-106.0290147304372
 30
0.0
 10
50.39261744616921
 20
-106.0290147304372
 30
0.0
 10
50.2815131167699
 20
-106.0290147304372
 30
0.0
 10
50.2815131167699
 20
-106.0290147304372
 30
0.0
 10
50.17592094014699
 20
-106.0290147304372
 30
0.0
 10
50.17592094014699
 20
-106.0290147304372
 30
0.0
 10
50.17592094014699
 20
-106.0290147304372
 30
0.0
 10
50.17592094014699
 20
-106.2271077208391
 30
0.0
 10
50.17592094014699
 20
-106.2271077208391
 30
0.0
 10
50.17592094014699
 20
-106.3311496044936
 30
0.0
 10
50.15370007426714
 20
-106.3624999734094
 30
0.0
 10
50.01296792369467
 20
-106.3752468267048
 30
0.0
 10
50.01658527395419
 20
-106.3921277945825
 30
0.0
 10
50.01107312117779
 20
-106.4014295523927
 30
0.0
 10
49.97782794974513
 20
-106.4217556157557
 30
0.0
 10
49.97593314722824
 20
-106.4382920740849
 30
0.0
 10
49.97593314722824
 20
-106.4438042268613
 30
0.0
 10
49.97403834471135
 20
-106.4568955897052
 30
0.0
 10
49.97403834471135
 20
-106.4568955897052
 30
0.0
 10
50.09444443192083
 20
-106.4568955897052
 30
0.0
 10
50.09444443192083
 20
-106.4568955897052
 30
0.0
 10
50.23879393275281
 20
-106.4568955897052
 30
0.0
 10
50.38521049087592
 20
-106.4531059846715
 30
0.0
 10
50.53145479422478
 20
-106.440359131376
 30
0.0
 10
50.53145479422478
 20
-106.440359131376
 30
0.0
 10
50.53145479422478
 20
-106.6215711539002
 30
0.0
 10
50.53145479422478
 20
-106.6215711539002
 30
0.0
 10
50.34249130685883
 20
-106.6067572433136
 30
0.0
 10
50.1111531450243
 20
-106.6067572433136
 30
0.0
 10
50.09444443192083
 20
-106.6067572433136
 30
0.0
 10
50.09444443192083
 20
-106.6067572433136
 30
0.0
 10
49.97214354219447
 20
-106.6067572433136
 30
0.0
 10
49.97214354219447
 20
-106.6067572433136
 30
0.0
 10
49.97214354219447
 20
-106.6067572433136
 30
0.0
 10
49.97214354219447
 20
-106.7307806807826
 30
0.0
 10
49.97214354219447
 20
-106.7307806807826
 30
0.0
 10
49.97214354219447
 20
-106.7307806807826
 30
0.0
 10
50.1704087873706
 20
-106.7307806807826
 30
0.0
 10
50.1704087873706
 20
-106.7307806807826
 30
0.0
 10
50.35920001996229
 20
-106.7307806807826
 30
0.0
 10
50.54988605507086
 20
-106.7273355852973
 30
0.0
 10
50.73884954243682
 20
-106.7163112797445
 30
0.0
 10
50.73884954243682
 20
-106.7163112797445
 30
0.0
 10
50.73884954243682
 20
-106.8975233022687
 30
0.0
 10
50.73884954243682
 20
-106.8975233022687
 30
0.0
 10
50.49252521524146
 20
-106.8827093916821
 30
0.0
 10
50.19073485073357
 20
-106.8827093916821
 30
0.0
 10
50.1704087873706
 20
-106.8827093916821
 30
0.0
  0
SPLINE
  5
51
330
4B
100
AcDbEntity
  8
_U+30EC_U+30A4_U+30E4_U+30FC 1
370
     0
100
AcDbSpline
210
0.0
220
0.0
230
1.0
 70
    11
 71
     3
 72
    23
 73
    19
 74
     0
 42
0.0000000001
 43
0.0000000001
 12
1.0
 22
0.0
 32
0.0
 13
1.0
 23
0.0
 33
0.0
 40
0.0
 40
0.0
 40
0.0
 40
0.0
 40
1.0
 40
1.0
 40
1.0
 40
2.0
 40
2.0
 40
2.0
 40
3.0
 40
3.0
 40
3.0
 40
4.0
 40
4.0
 40
4.0
 40
5.0
 40
5.0
 40
5.0
 40
6.0
 40
6.0
 40
6.0
 40
6.0
 10
49.1907958861398
 20
-106.3328721522362
 30
0.0
 10
49.1907958861398
 20
-106.3514756678566
 30
0.0
 10
49.19269068865669
 20
-106.384548584515
 30
0.0
 10
49.17046982277683
 20
-106.384548584515
 30
0.0
 10
49.16116806496665
 20
-106.384548584515
 30
0.0
 10
49.15376110967337
 20
-106.3790364317386
 30
0.0
 10
49.14445935186319
 20
-106.364222521152
 30
0.0
 10
49.14445935186319
 20
-106.364222521152
 30
0.0
 10
49.05368108582686
 20
-106.2050591097335
 30
0.0
 10
49.05368108582686
 20
-106.2050591097335
 30
0.0
 10
49.24264457319281
 20
-106.0920599778173
 30
0.0
 10
49.4148993474553
 20
-105.8495252556557
 30
0.0
 10
49.45555147418126
 20
-105.7864800082756
 30
0.0
 10
49.45555147418126
 20
-105.7864800082756
 30
0.0
 10
49.51859672156132
 20
-105.9439208719515
 30
0.0
 10
49.51859672156132
 20
-105.9439208719515
 30
0.0
 10
49.40198023938562
 20
-106.116175646214
 30
0.0
 10
49.24815672596921
 20
-106.2774061149237
 30
0.0
 10
49.1907958861398
 20
-106.3328721522362
 30
0.0
  0
SPLINE
  5
52
330
4B
100
AcDbEntity
  8
_U+30EC_U+30A4_U+30E4_U+30FC 1
370
     0
100
AcDbSpline
210
0.0
220
0.0
230
1.0
 70
    11
 71
     3
 72
    17
 73
    13
 74
     0
 42
0.0000000001
 43
0.0000000001
 12
1.0
 22
0.0
 32
0.0
 13
1.0
 23
0.0
 33
0.0
 40
0.0
 40
0.0
 40
0.0
 40
0.0
 40
1.0
 40
1.0
 40
1.0
 40
2.0
 40
2.0
 40
2.0
 40
3.0
 40
3.0
 40
3.0
 40
4.0
 40
4.0
 40
4.0
 40
4.0
 10
49.41300454493842
 20
-105.5494574388904
 30
0.0
 10
49.35926105536852
 20
-105.4829670960251
 30
0.0
 10
49.24626192345232
 20
-105.4161322436112
 30
0.0
 10
49.15565591219026
 20
-105.3902940274719
 30
0.0
 10
49.15565591219026
 20
-105.3902940274719
 30
0.0
 10
49.2390272229333
 20
-105.2459445266399
 30
0.0
 10
49.2390272229333
 20
-105.2459445266399
 30
0.0
 10
49.32791068645275
 20
-105.2772948955557
 30
0.0
 10
49.42041150023171
 20
-105.3272487800918
 30
0.0
 10
49.49809840342409
 20
-105.3975287279909
 30
0.0
 10
49.49809840342409
 20
-105.3975287279909
 30
0.0
 10
49.41300454493842
 20
-105.5494574388904
 30
0.0
 10
49.41300454493842
 20
-105.5494574388904
 30
0.0
  0
SPLINE
  5
53
330
4B
100
AcDbEntity
  8
_U+30EC_U+30A4_U+30E4_U+30FC 1
370
     0
100
AcDbSpline
210
0.0
220
0.0
230
1.0
 70
    11
 71
     3
 72
    23
 73
    19
 74
     0
 42
0.0000000001
 43
0.0000000001
 12
1.0
 22
0.0
 32
0.0
 13
1.0
 23
0.0
 33
0.0
 40
0.0
 40
0.0
 40
0.0
 40
0.0
 40
1.0
 40
1.0
 40
1.0
 40
2.0
 40
2.0
 40
2.0
 40
3.0
 40
3.0
 40
3.0
 40
4.0
 40
4.0
 40
4.0
 40
5.0
 40
5.0
 40
5.0
 40
6.0
 40
6.0
 40
6.0
 40
6.0
 10
49.80919052574215
 20
-106.1661295307501
 30
0.0
 10
49.79075926489606
 20
-106.1864555941131
 30
0.0
 10
49.70549315163613
 20
-106.2846408154427
 30
0.0
 10
49.58336451668402
 20
-106.3549207633418
 30
0.0
 10
49.58336451668402
 20
-106.3549207633418
 30
0.0
 10
49.43712021333517
 20
-106.2495008414932
 30
0.0
 10
49.43712021333517
 20
-106.2495008414932
 30
0.0
 10
49.56855060609745
 20
-106.1830104986279
 30
0.0
 10
49.6555392671
 20
-106.0996391878848
 30
0.0
 10
49.69825845111711
 20
-106.0531303988339
 30
0.0
 10
49.69825845111711
 20
-106.0531303988339
 30
0.0
 10
49.85001490724236
 20
-106.1254774040242
 30
0.0
 10
49.85001490724236
 20
-106.1254774040242
 30
0.0
 10
49.85742186253565
 20
-106.129267009058
 30
0.0
 10
49.86482881782894
 20
-106.1347791618344
 30
0.0
 10
49.86482881782894
 20
-106.1440809196445
 30
0.0
 10
49.86482881782894
 20
-106.1661295307501
 30
0.0
 10
49.8333061941389
 20
-106.1661295307501
 30
0.0
 10
49.80919052574215
 20
-106.1661295307501
 30
0.0
  0
SPLINE
  5
54
330
4B
100
AcDbEntity
  8
_U+30EC_U+30A4_U+30E4_U+30FC 1
370
     0
100
AcDbSpline
210
0.0
220
0.0
230
1.0
 70
    11
 71
     3
 72
    20
 73
    16
 74
     0
 42
0.0000000001
 43
0.0000000001
 12
1.0
 22
0.0
 32
0.0
 13
1.0
 23
0.0
 33
0.0
 40
0.0
 40
0.0
 40
0.0
 40
0.0
 40
1.0
 40
1.0
 40
1.0
 40
2.0
 40
2.0
 40
2.0
 40
3.0
 40
3.0
 40
3.0
 40
4.0
 40
4.0
 40
4.0
 40
5.0
 40
5.0
 40
5.0
 40
5.0
 10
50.07032876352409
 20
-105.4292236064552
 30
0.0
 10
50.03708359209143
 20
-105.4719427904723
 30
0.0
 10
49.98334010252153
 20
-105.5401556810803
 30
0.0
 10
49.86121146756942
 20
-105.6366183546672
 30
0.0
 10
49.93149141546852
 20
-105.640407959701
 30
0.0
 10
49.95732963160789
 20
-105.640407959701
 30
0.0
 10
49.97782794974513
 20
-105.640407959701
 30
0.0
 10
49.97782794974513
 20
-105.640407959701
 30
0.0
 10
50.17781574266388
 20
-105.640407959701
 30
0.0
 10
50.17781574266388
 20
-105.640407959701
 30
0.0
 10
50.20554876132014
 20
-105.640407959701
 30
0.0
 10
50.24809569056298
 20
-105.6383409024099
 30
0.0
 10
50.31286348568567
 20
-105.6366183546672
 30
0.0
 10
50.21485051913032
 20
-105.5718505595445
 30
0.0
 10
50.17230358988748
 20
-105.5311984328186
 30
0.0
 10
50.07032876352409
 20
-105.4292236064552
 30
0.0
  0
SPLINE
  5
55
330
4B
100
AcDbEntity
  8
_U+30EC_U+30A4_U+30E4_U+30FC 1
370
     0
100
AcDbSpline
210
0.0
220
0.0
230
1.0
 70
    11
 71
     3
 72
    17
 73
    13
 74
     0
 42
0.0000000001
 43
0.0000000001
 12
1.0
 22
0.0
 32
0.0
 13
1.0
 23
0.0
 33
0.0
 40
0.0
 40
0.0
 40
0.0
 40
0.0
 40
1.0
 40
1.0
 40
1.0
 40
2.0
 40
2.0
 40
2.0
 40
3.0
 40
3.0
 40
3.0
 40
4.0
 40
4.0
 40
4.0
 40
4.0
 10
50.56108261539793
 20
-106.3531982155992
 30
0.0
 10
50.44257133070533
 20
-106.2550129942696
 30
0.0
 10
50.35007051692637
 20
-106.1995469569571
 30
0.0
 10
50.24637314282035
 20
-106.1440809196445
 30
0.0
 10
50.24637314282035
 20
-106.1440809196445
 30
0.0
 10
50.3573052174454
 20
-106.0458956983149
 30
0.0
 10
50.3573052174454
 20
-106.0458956983149
 30
0.0
 10
50.47219915187848
 20
-106.0865478250409
 30
0.0
 10
50.56848957069121
 20
-106.136501709577
 30
0.0
 10
50.67769909757363
 20
-106.2253851730964
 30
0.0
 10
50.67769909757363
 20
-106.2253851730964
 30
0.0
 10
50.56108261539793
 20
-106.3531982155992
 30
0.0
 10
50.56108261539793
 20
-106.3531982155992
 30
0.0
  0
HATCH
  5
56
330
4B
100
AcDbEntity
  8
_U+30EC_U+30A4_U+30E4_U+30FC 1
 62
   179
420
  2234388
100
AcDbHatch
 10
0.0
 20
0.0
 30
0.0
210
0.0
220
0.0
230
1.0
  2
SOLID
 70
     1
 71
     0
 91
        7
 92
        1
 93
        1
 72
     4
 94
        3
 73
     0
 74
     1
 95
       17
 96
       13
 40
0.0
 40
0.0
 40
0.0
 40
0.0
 40
1.0
 40
1.0
 40
1.0
 40
2.0
 40
2.0
 40
2.0
 40
3.0
 40
3.0
 40
3.0
 40
4.0
 40
4.0
 40
4.0
 40
4.0
 10
49.2555636812625
 20
-105.8512478033983
 10
49.16306286748354
 20
-105.7589192443936
 10
49.09261066481018
 20
-105.7255018181867
 10
49.01113415658403
 20
-105.6975965447562
 10
49.01113415658403
 20
-105.6975965447562
 10
49.10742457539676
 20
-105.5532470439242
 10
49.10742457539676
 20
-105.5532470439242
 10
49.19269068865669
 20
-105.5904540751649
 10
49.2982828652796
 20
-105.6586669657728
 10
49.34444714478195
 20
-105.7068983025663
 10
49.34444714478195
 20
-105.7068983025663
 10
49.2555636812625
 20
-105.8512478033983
 10
49.2555636812625
 20
-105.8512478033983
 97
        0
 97
        0
 92
        1
 93
        1
 72
     4
 94
        3
 73
     0
 74
     1
 95
      182
 96
      178
 40
0.0
 40
0.0
 40
0.0
 40
0.0
 40
1.0
 40
1.0
 40
1.0
 40
2.0
 40
2.0
 40
2.0
 40
3.0
 40
3.0
 40
3.0
 40
4.0
 40
4.0
 40
4.0
 40
5.0
 40
5.0
 40
5.0
 40
6.0
 40
6.0
 40
6.0
 40
7.0
 40
7.0
 40
7.0
 40
8.0
 40
8.0
 40
8.0
 40
9.0
 40
9.0
 40
9.0
 40
10.0
 40
10.0
 40
10.0
 40
11.0
 40
11.0
 40
11.0
 40
12.0
 40
12.0
 40
12.0
 40
13.0
 40
13.0
 40
13.0
 40
14.0
 40
14.0
 40
14.0
 40
15.0
 40
15.0
 40
15.0
 40
16.0
 40
16.0
 40
16.0
 40
17.0
 40
17.0
 40
17.0
 40
18.0
 40
18.0
 40
18.0
 40
19.0
 40
19.0
 40
19.0
 40
20.0
 40
20.0
 40
20.0
 40
21.0
 40
21.0
 40
21.0
 40
22.0
 40
22.0
 40
22.0
 40
23.0
 40
23.0
 40
23.0
 40
24.0
 40
24.0
 40
24.0
 40
25.0
 40
25.0
 40
25.0
 40
26.0
 40
26.0
 40
26.0
 40
27.0
 40
27.0
 40
27.0
 40
28.0
 40
28.0
 40
28.0
 40
29.0
 40
29.0
 40
29.0
 40
30.0
 40
30.0
 40
30.0
 40
31.0
 40
31.0
 40
31.0
 40
32.0
 40
32.0
 40
32.0
 40
33.0
 40
33.0
 40
33.0
 40
34.0
 40
34.0
 40
34.0
 40
35.0
 40
35.0
 40
35.0
 40
36.0
 40
36.0
 40
36.0
 40
37.0
 40
37.0
 40
37.0
 40
38.0
 40
38.0
 40
38.0
 40
39.0
 40
39.0
 40
39.0
 40
40.0
 40
40.0
 40
40.0
 40
41.0
 40
41.0
 40
41.0
 40
42.0
 40
42.0
 40
42.0
 40
43.0
 40
43.0
 40
43.0
 40
44.0
 40
44.0
 40
44.0
 40
45.0
 40
45.0
 40
45.0
 40
46.0
 40
46.0
 40
46.0
 40
47.0
 40
47.0
 40
47.0
 40
48.0
 40
48.0
 40
48.0
 40
49.0
 40
49.0
 40
49.0
 40
50.0
 40
50.0
 40
50.0
 40
51.0
 40
51.0
 40
51.0
 40
52.0
 40
52.0
 40
52.0
 40
53.0
 40
53.0
 40
53.0
 40
54.0
 40
54.0
 40
54.0
 40
55.0
 40
55.0
 40
55.0
 40
56.0
 40
56.0
 40
56.0
 40
57.0
 40
57.0
 40
57.0
 40
58.0
 40
58.0
 40
58.0
 40
59.0
 40
59.0
 40
59.0
 40
59.0
 10
50.1704087873706
 20
-106.8827093916821
 10
50.1704087873706
 20
-106.8827093916821
 10
49.61299233785717
 20
-106.8827093916821
 10
49.61299233785717
 20
-106.8827093916821
 10
49.42592365300811
 20
-106.8827093916821
 10
49.23713242041642
 20
-106.8864989967159
 10
49.05006373556735
 20
-106.8975233022687
 10
49.05006373556735
 20
-106.8975233022687
 10
49.05006373556735
 20
-106.7163112797445
 10
49.05006373556735
 20
-106.7163112797445
 10
49.2445393757097
 20
-106.7273355852973
 10
49.52772622459724
 20
-106.7307806807826
 10
49.61299233785717
 20
-106.7307806807826
 10
49.61299233785717
 20
-106.7307806807826
 10
49.80557317548264
 20
-106.7307806807826
 10
49.80557317548264
 20
-106.7307806807826
 10
49.80557317548264
 20
-106.7307806807826
 10
49.80557317548264
 20
-106.6067572433136
 10
49.80557317548264
 20
-106.6067572433136
 10
49.80557317548264
 20
-106.6067572433136
 10
49.66484102491018
 20
-106.6067572433136
 10
49.66484102491018
 20
-106.6067572433136
 10
49.52049152407821
 20
-106.6067572433136
 10
49.37596976847198
 20
-106.6105468483474
 10
49.23144801286575
 20
-106.6236382111913
 10
49.23144801286575
 20
-106.6236382111913
 10
49.23144801286575
 20
-106.440359131376
 10
49.23144801286575
 20
-106.440359131376
 10
49.38148192124838
 20
-106.4531059846715
 10
49.5981784272706
 20
-106.4568955897052
 10
49.66484102491018
 20
-106.4568955897052
 10
49.66484102491018
 20
-106.4568955897052
 10
49.80557317548264
 20
-106.4568955897052
 10
49.80557317548264
 20
-106.4568955897052
 10
49.80195582522312
 20
-106.3938503423252
 10
49.80195582522312
 20
-106.3883381895487
 10
49.79627141767246
 20
-106.3421739100464
 10
49.79627141767246
 20
-106.3421739100464
 10
49.91857230739883
 20
-106.3549207633418
 10
49.91857230739883
 20
-106.3549207633418
 10
49.91857230739883
 20
-106.3549207633418
 10
49.83158364639628
 20
-106.2050591097335
 10
49.83158364639628
 20
-106.2050591097335
 10
49.87223577312222
 20
-106.2105712625099
 10
49.93700356824492
 20
-106.2181504725774
 10
49.95181747883149
 20
-106.2181504725774
 10
49.99625921059121
 20
-106.2181504725774
 10
50.01107312117779
 20
-106.1995469569571
 10
50.01107312117779
 20
-106.1495930724209
 10
50.01107312117779
 20
-106.1495930724209
 10
50.01107312117779
 20
-106.0290147304372
 10
50.01107312117779
 20
-106.0290147304372
 10
50.01107312117779
 20
-106.0290147304372
 10
49.91857230739883
 20
-106.0290147304372
 10
49.91857230739883
 20
-106.0290147304372
 10
49.80195582522312
 20
-106.0290147304372
 10
49.66484102491018
 20
-106.0290147304372
 10
49.55735404577039
 20
-106.0403835455385
 10
49.55735404577039
 20
-106.0403835455385
 10
49.55735404577039
 20
-105.8736409240524
 10
49.55735404577039
 20
-105.8736409240524
 10
49.7037706038935
 20
-105.888454834639
 10
49.90565319932914
 20
-105.8901773823816
 10
49.91857230739883
 20
-105.8901773823816
 10
49.91857230739883
 20
-105.8901773823816
 10
50.01107312117779
 20
-105.8901773823816
 10
50.01107312117779
 20
-105.8901773823816
 10
50.01107312117779
 20
-105.8901773823816
 10
50.01107312117779
 20
-105.7754557027228
 10
50.01107312117779
 20
-105.7754557027228
 10
50.01107312117779
 20
-105.7754557027228
 10
49.97782794974513
 20
-105.7754557027228
 10
49.97782794974513
 20
-105.7754557027228
 10
49.93889837076181
 20
-105.7754557027228
 10
49.82968884387939
 20
-105.7792453077566
 10
49.75182968591274
 20
-105.7864800082756
 10
49.75182968591274
 20
-105.7864800082756
 10
49.75182968591274
 20
-105.7162000603765
 10
49.75182968591274
 20
-105.7162000603765
 10
49.70549315163613
 20
-105.7496174865834
 10
49.68344454053053
 20
-105.7623643398789
 10
49.64623750928983
 20
-105.7826904032418
 10
49.64623750928983
 20
-105.7826904032418
 10
49.48156194509489
 20
-105.6700357808742
 10
49.48156194509489
 20
-105.6700357808742
 10
49.55011934525136
 20
-105.640407959701
 10
49.68706189079004
 20
-105.58459741284
 10
49.82400443632872
 20
-105.4588514276283
 10
49.89635144151897
 20
-105.3902940274719
 10
49.96490884167545
 20
-105.316224474539
 10
50.01107312117779
 20
-105.2273410110196
 10
50.01107312117779
 20
-105.2273410110196
 10
50.19624700350997
 20
-105.2810845005895
 10
50.19624700350997
 20
-105.2810845005895
 10
50.21295571661343
 20
-105.2865966533659
 10
50.22225747442361
 20
-105.2941758634334
 10
50.22225747442361
 20
-105.3052001689862
 10
50.22225747442361
 20
-105.3200140795728
 10
50.21106091409654
 20
-105.3255262323492
 10
50.18884004821668
 20
-105.336550537902
 10
50.25929225089004
 20
-105.4216443963876
 10
50.40174694920512
 20
-105.5070827644218
 10
50.43137477037827
 20
-105.5236192227511
 10
50.56297741791482
 20
-105.6014783807177
 10
50.66288518698706
 20
-105.6255940491144
 10
50.73144258714353
 20
-105.6421305074436
 10
50.73144258714353
 20
-105.6421305074436
 10
50.62774521303751
 20
-105.7902696133094
 10
50.62774521303751
 20
-105.7902696133094
 10
50.55367566010464
 20
-105.76443139717
 10
50.50923392834492
 20
-105.7475504292923
 10
50.40553655423889
 20
-105.6903618442371
 10
50.40553655423889
 20
-105.6903618442371
 10
50.40553655423889
 20
-105.7864800082756
 10
50.40553655423889
 20
-105.7864800082756
 10
50.33336180382291
 20
-105.7792453077566
 10
50.22225747442361
 20
-105.7754557027228
 10
50.17592094014699
 20
-105.7754557027228
 10
50.17592094014699
 20
-105.7754557027228
 10
50.17592094014699
 20
-105.8901773823816
 10
50.17592094014699
 20
-105.8901773823816
 10
50.17592094014699
 20
-105.8901773823816
 10
50.2815131167699
 20
-105.8901773823816
 10
50.2815131167699
 20
-105.8901773823816
 10
50.28323566451252
 20
-105.8901773823816
 10
50.48701306246505
 20
-105.888454834639
 10
50.64255912362408
 20
-105.8736409240524
 10
50.64255912362408
 20
-105.8736409240524
 10
50.64255912362408
 20
-106.0403835455385
 10
50.64255912362408
 20
-106.0403835455385
 10
50.52955999170789
 20
-106.0290147304372
 10
50.39261744616921
 20
-106.0290147304372
 10
50.2815131167699
 20
-106.0290147304372
 10
50.2815131167699
 20
-106.0290147304372
 10
50.17592094014699
 20
-106.0290147304372
 10
50.17592094014699
 20
-106.0290147304372
 10
50.17592094014699
 20
-106.0290147304372
 10
50.17592094014699
 20
-106.2271077208391
 10
50.17592094014699
 20
-106.2271077208391
 10
50.17592094014699
 20
-106.3311496044936
 10
50.15370007426714
 20
-106.3624999734094
 10
50.01296792369467
 20
-106.3752468267048
 10
50.01658527395419
 20
-106.3921277945825
 10
50.01107312117779
 20
-106.4014295523927
 10
49.97782794974513
 20
-106.4217556157557
 10
49.97593314722824
 20
-106.4382920740849
 10
49.97593314722824
 20
-106.4438042268613
 10
49.97403834471135
 20
-106.4568955897052
 10
49.97403834471135
 20
-106.4568955897052
 10
50.09444443192083
 20
-106.4568955897052
 10
50.09444443192083
 20
-106.4568955897052
 10
50.23879393275281
 20
-106.4568955897052
 10
50.38521049087592
 20
-106.4531059846715
 10
50.53145479422478
 20
-106.440359131376
 10
50.53145479422478
 20
-106.440359131376
 10
50.53145479422478
 20
-106.6215711539002
 10
50.53145479422478
 20
-106.6215711539002
 10
50.34249130685883
 20
-106.6067572433136
 10
50.1111531450243
 20
-106.6067572433136
 10
50.09444443192083
 20
-106.6067572433136
 10
50.09444443192083
 20
-106.6067572433136
 10
49.97214354219447
 20
-106.6067572433136
 10
49.97214354219447
 20
-106.6067572433136
 10
49.97214354219447
 20
-106.6067572433136
 10
49.97214354219447
 20
-106.7307806807826
 10
49.97214354219447
 20
-106.7307806807826
 10
49.97214354219447
 20
-106.7307806807826
 10
50.1704087873706
 20
-106.7307806807826
 10
50.1704087873706
 20
-106.7307806807826
 10
50.35920001996229
 20
-106.7307806807826
 10
50.54988605507086
 20
-106.7273355852973
 10
50.73884954243682
 20
-106.7163112797445
 10
50.73884954243682
 20
-106.7163112797445
 10
50.73884954243682
 20
-106.8975233022687
 10
50.73884954243682
 20
-106.8975233022687
 10
50.49252521524146
 20
-106.8827093916821
 10
50.19073485073357
 20
-106.8827093916821
 10
50.1704087873706
 20
-106.8827093916821
 97
        0
 97
        0
 92
        1
 93
        1
 72
     4
 94
        3
 73
     0
 74
     1
 95
       23
 96
       19
 40
0.0
 40
0.0
 40
0.0
 40
0.0
 40
1.0
 40
1.0
 40
1.0
 40
2.0
 40
2.0
 40
2.0
 40
3.0
 40
3.0
 40
3.0
 40
4.0
 40
4.0
 40
4.0
 40
5.0
 40
5.0
 40
5.0
 40
6.0
 40
6.0
 40
6.0
 40
6.0
 10
49.1907958861398
 20
-106.3328721522362
 10
49.1907958861398
 20
-106.3514756678566
 10
49.19269068865669
 20
-106.384548584515
 10
49.17046982277683
 20
-106.384548584515
 10
49.16116806496665
 20
-106.384548584515
 10
49.15376110967337
 20
-106.3790364317386
 10
49.14445935186319
 20
-106.364222521152
 10
49.14445935186319
 20
-106.364222521152
 10
49.05368108582686
 20
-106.2050591097335
 10
49.05368108582686
 20
-106.2050591097335
 10
49.24264457319281
 20
-106.0920599778173
 10
49.4148993474553
 20
-105.8495252556557
 10
49.45555147418126
 20
-105.7864800082756
 10
49.45555147418126
 20
-105.7864800082756
 10
49.51859672156132
 20
-105.9439208719515
 10
49.51859672156132
 20
-105.9439208719515
 10
49.40198023938562
 20
-106.116175646214
 10
49.24815672596921
 20
-106.2774061149237
 10
49.1907958861398
 20
-106.3328721522362
 97
        0
 97
        0
 92
        1
 93
        1
 72
     4
 94
        3
 73
     0
 74
     1
 95
       17
 96
       13
 40
0.0
 40
0.0
 40
0.0
 40
0.0
 40
1.0
 40
1.0
 40
1.0
 40
2.0
 40
2.0
 40
2.0
 40
3.0
 40
3.0
 40
3.0
 40
4.0
 40
4.0
 40
4.0
 40
4.0
 10
49.41300454493842
 20
-105.5494574388904
 10
49.35926105536852
 20
-105.4829670960251
 10
49.24626192345232
 20
-105.4161322436112
 10
49.15565591219026
 20
-105.3902940274719
 10
49.15565591219026
 20
-105.3902940274719
 10
49.2390272229333
 20
-105.2459445266399
 10
49.2390272229333
 20
-105.2459445266399
 10
49.32791068645275
 20
-105.2772948955557
 10
49.42041150023171
 20
-105.3272487800918
 10
49.49809840342409
 20
-105.3975287279909
 10
49.49809840342409
 20
-105.3975287279909
 10
49.41300454493842
 20
-105.5494574388904
 10
49.41300454493842
 20
-105.5494574388904
 97
        0
 97
        0
 92
        1
 93
        1
 72
     4
 94
        3
 73
     0
 74
     1
 95
       23
 96
       19
 40
0.0
 40
0.0
 40
0.0
 40
0.0
 40
1.0
 40
1.0
 40
1.0
 40
2.0
 40
2.0
 40
2.0
 40
3.0
 40
3.0
 40
3.0
 40
4.0
 40
4.0
 40
4.0
 40
5.0
 40
5.0
 40
5.0
 40
6.0
 40
6.0
 40
6.0
 40
6.0
 10
49.80919052574215
 20
-106.1661295307501
 10
49.79075926489606
 20
-106.1864555941131
 10
49.70549315163613
 20
-106.2846408154427
 10
49.58336451668402
 20
-106.3549207633418
 10
49.58336451668402
 20
-106.3549207633418
 10
49.43712021333517
 20
-106.2495008414932
 10
49.43712021333517
 20
-106.2495008414932
 10
49.56855060609745
 20
-106.1830104986279
 10
49.6555392671
 20
-106.0996391878848
 10
49.69825845111711
 20
-106.0531303988339
 10
49.69825845111711
 20
-106.0531303988339
 10
49.85001490724236
 20
-106.1254774040242
 10
49.85001490724236
 20
-106.1254774040242
 10
49.85742186253565
 20
-106.129267009058
 10
49.86482881782894
 20
-106.1347791618344
 10
49.86482881782894
 20
-106.1440809196445
 10
49.86482881782894
 20
-106.1661295307501
 10
49.8333061941389
 20
-106.1661295307501
 10
49.80919052574215
 20
-106.1661295307501
 97
        0
 97
        0
 92
        1
 93
        1
 72
     4
 94
        3
 73
     0
 74
     1
 95
       20
 96
       16
 40
0.0
 40
0.0
 40
0.0
 40
0.0
 40
1.0
 40
1.0
 40
1.0
 40
2.0
 40
2.0
 40
2.0
 40
3.0
 40
3.0
 40
3.0
 40
4.0
 40
4.0
 40
4.0
 40
5.0
 40
5.0
 40
5.0
 40
5.0
 10
50.07032876352409
 20
-105.4292236064552
 10
50.03708359209143
 20
-105.4719427904723
 10
49.98334010252153
 20
-105.5401556810803
 10
49.86121146756942
 20
-105.6366183546672
 10
49.93149141546852
 20
-105.640407959701
 10
49.95732963160789
 20
-105.640407959701
 10
49.97782794974513
 20
-105.640407959701
 10
49.97782794974513
 20
-105.640407959701
 10
50.17781574266388
 20
-105.640407959701
 10
50.17781574266388
 20
-105.640407959701
 10
50.20554876132014
 20
-105.640407959701
 10
50.24809569056298
 20
-105.6383409024099
 10
50.31286348568567
 20
-105.6366183546672
 10
50.21485051913032
 20
-105.5718505595445
 10
50.17230358988748
 20
-105.5311984328186
 10
50.07032876352409
 20
-105.4292236064552
 97
        0
 97
        0
 92
        1
 93
        1
 72
     4
 94
        3
 73
     0
 74
     1
 95
       17
 96
       13
 40
0.0
 40
0.0
 40
0.0
 40
0.0
 40
1.0
 40
1.0
 40
1.0
 40
2.0
 40
2.0
 40
2.0
 40
3.0
 40
3.0
 40
3.0
 40
4.0
 40
4.0
 40
4.0
 40
4.0
 10
50.56108261539793
 20
-106.3531982155992
 10
50.44257133070533
 20
-106.2550129942696
 10
50.35007051692637
 20
-106.1995469569571
 10
50.24637314282035
 20
-106.1440809196445
 10
50.24637314282035
 20
-106.1440809196445
 10
50.3573052174454
 20
-106.0458956983149
 10
50.3573052174454
 20
-106.0458956983149
 10
50.47219915187848
 20
-106.0865478250409
 10
50.56848957069121
 20
-106.136501709577
 10
50.67769909757363
 20
-106.2253851730964
 10
50.67769909757363
 20
-106.2253851730964
 10
50.56108261539793
 20
-106.3531982155992
 10
50.56108261539793
 20
-106.3531982155992
 97
        0
 97
        0
 75
     2
 76
     1
 98
        0
  0
SPLINE
  5
57
330
4B
100
AcDbEntity
  8
_U+30EC_U+30A4_U+30E4_U+30FC 1
370
     0
100
AcDbSpline
210
0.0
220
0.0
230
1.0
 70
    11
 71
     3
 72
   113
 73
   109
 74
     0
 42
0.0000000001
 43
0.0000000001
 12
1.0
 22
0.0
 32
0.0
 13
1.0
 23
0.0
 33
0.0
 40
0.0
 40
0.0
 40
0.0
 40
0.0
 40
1.0
 40
1.0
 40
1.0
 40
2.0
 40
2.0
 40
2.0
 40
3.0
 40
3.0
 40
3.0
 40
4.0
 40
4.0
 40
4.0
 40
5.0
 40
5.0
 40
5.0
 40
6.0
 40
6.0
 40
6.0
 40
7.0
 40
7.0
 40
7.0
 40
8.0
 40
8.0
 40
8.0
 40
9.0
 40
9.0
 40
9.0
 40
10.0
 40
10.0
 40
10.0
 40
11.0
 40
11.0
 40
11.0
 40
12.0
 40
12.0
 40
12.0
 40
13.0
 40
13.0
 40
13.0
 40
14.0
 40
14.0
 40
14.0
 40
15.0
 40
15.0
 40
15.0
 40
16.0
 40
16.0
 40
16.0
 40
17.0
 40
17.0
 40
17.0
 40
18.0
 40
18.0
 40
18.0
 40
19.0
 40
19.0
 40
19.0
 40
20.0
 40
20.0
 40
20.0
 40
21.0
 40
21.0
 40
21.0
 40
22.0
 40
22.0
 40
22.0
 40
23.0
 40
23.0
 40
23.0
 40
24.0
 40
24.0
 40
24.0
 40
25.0
 40
25.0
 40
25.0
 40
26.0
 40
26.0
 40
26.0
 40
27.0
 40
27.0
 40
27.0
 40
28.0
 40
28.0
 40
28.0
 40
29.0
 40
29.0
 40
29.0
 40
30.0
 40
30.0
 40
30.0
 40
31.0
 40
31.0
 40
31.0
 40
32.0
 40
32.0
 40
32.0
 40
33.0
 40
33.0
 40
33.0
 40
34.0
 40
34.0
 40
34.0
 40
35.0
 40
35.0
 40
35.0
 40
36.0
 40
36.0
 40
36.0
 40
36.0
 10
52.20766600257308
 20
-106.3328721522362
 30
0.0
 10
52.20766600257308
 20
-106.3328721522362
 30
0.0
 10
52.29465466357564
 20
-106.4200330680131
 30
0.0
 10
52.29465466357564
 20
-106.4200330680131
 30
0.0
 10
52.30395642138582
 20
-106.4289903162747
 30
0.0
 10
52.31325817919599
 20
-106.440359131376
 30
0.0
 10
52.31325817919599
 20
-106.4531059846715
 30
0.0
 10
52.31325817919599
 20
-106.4551730419626
 30
0.0
 10
52.31325817919599
 20
-106.481011258102
 30
0.0
 10
52.27984075298907
 20
-106.481011258102
 30
0.0
 10
52.27243379769578
 20
-106.481011258102
 30
0.0
 10
52.23729382374623
 20
-106.4772216530682
 30
0.0
 10
52.23178167096984
 20
-106.4772216530682
 30
0.0
 10
52.19664169702028
 20
-106.5051269264987
 30
0.0
 10
52.15581731552007
 20
-106.5347547476719
 30
0.0
 10
52.06882865451752
 20
-106.584708632208
 30
0.0
 10
52.19664169702028
 20
-106.6791042485038
 30
0.0
 10
52.33547904507586
 20
-106.72905813304
 30
0.0
 10
52.57422416220367
 20
-106.7624755592469
 30
0.0
 10
52.57422416220367
 20
-106.7624755592469
 30
0.0
 10
52.44279376944139
 20
-106.916126817889
 30
0.0
 10
52.44279376944139
 20
-106.916126817889
 30
0.0
 10
52.21317815534949
 20
-106.853081570509
 30
0.0
 10
52.0762356098108
 20
-106.7755669220908
 30
0.0
 10
52.00957301217122
 20
-106.72905813304
 30
0.0
 10
51.87797036463468
 20
-106.6401746695205
 30
0.0
 10
51.75222437942305
 20
-106.4975477164312
 30
0.0
 10
51.68538952700921
 20
-106.3531982155992
 30
0.0
 10
51.62613388466291
 20
-106.4107313102029
 30
0.0
 10
51.56136608954021
 20
-106.4568955897052
 30
0.0
 10
51.49280868938374
 20
-106.4996147737223
 30
0.0
 10
51.49280868938374
 20
-106.4996147737223
 30
0.0
 10
51.49280868938374
 20
-106.7197563752298
 30
0.0
 10
51.49280868938374
 20
-106.7197563752298
 30
0.0
 10
51.63543564247309
 20
-106.6977077641242
 30
0.0
 10
51.7983886589254
 20
-106.6587781851409
 30
0.0
 10
51.85402695101219
 20
-106.6456868222969
 30
0.0
 10
51.85402695101219
 20
-106.6456868222969
 30
0.0
 10
51.82801648009855
 20
-106.7938259281627
 30
0.0
 10
51.82801648009855
 20
-106.7938259281627
 30
0.0
 10
51.82629393235593
 20
-106.7938259281627
 30
0.0
 10
51.80958521925247
 20
-106.7993380809391
 30
0.0
 10
51.80769041673558
 20
-106.7993380809391
 30
0.0
 10
51.63371309473046
 20
-106.832755507146
 30
0.0
 10
51.35586614384506
 20
-106.8902886017497
 30
0.0
 10
51.18361136958257
 20
-106.9216389706654
 30
0.0
 10
51.17448186654666
 20
-106.936452881252
 30
0.0
 10
51.15398354840942
 20
-106.9643581546825
 30
0.0
 10
51.13365748504645
 20
-106.9643581546825
 30
0.0
 10
51.1095418166497
 20
-106.9643581546825
 30
0.0
 10
51.10592446639019
 20
-106.9474771868048
 30
0.0
 10
51.1040296638733
 20
-106.9309407284756
 30
0.0
 10
51.1040296638733
 20
-106.9309407284756
 30
0.0
 10
51.08180879799344
 20
-106.7790120175761
 30
0.0
 10
51.08180879799344
 20
-106.7790120175761
 30
0.0
 10
51.14657659311614
 20
-106.7717773170571
 30
0.0
 10
51.24097220941198
 20
-106.7604085019557
 30
0.0
 10
51.33554008048209
 20
-106.7421494958839
 30
0.0
 10
51.33554008048209
 20
-106.7421494958839
 30
0.0
 10
51.33554008048209
 20
-106.5864311799506
 30
0.0
 10
51.33554008048209
 20
-106.5864311799506
 30
0.0
 10
51.2096218404962
 20
-106.6494764273307
 30
0.0
 10
51.12625052975316
 20
-106.6753146434701
 30
0.0
 10
50.98190102892119
 20
-106.7011528596094
 30
0.0
 10
50.98190102892119
 20
-106.7011528596094
 30
0.0
 10
50.87630885229829
 20
-106.5530137537437
 30
0.0
 10
50.87630885229829
 20
-106.5530137537437
 30
0.0
 10
51.15398354840942
 20
-106.5292425948955
 30
0.0
 10
51.3226209724124
 20
-106.447593831895
 30
0.0
 10
51.47799477879717
 20
-106.3311496044936
 30
0.0
 10
51.35035399106867
 20
-106.3311496044936
 30
0.0
 10
51.08732095076984
 20
-106.3345946999789
 30
0.0
 10
50.91506617650735
 20
-106.3401068527553
 30
0.0
 10
50.91506617650735
 20
-106.3401068527553
 30
0.0
 10
50.91506617650735
 20
-106.1847330463705
 30
0.0
 10
50.91506617650735
 20
-106.1847330463705
 30
0.0
 10
51.0502861743034
 20
-106.1902451991469
 30
0.0
 10
51.30952960956845
 20
-106.1957573519233
 30
0.0
 10
51.47076007827815
 20
-106.1957573519233
 30
0.0
 10
51.47076007827815
 20
-106.1957573519233
 30
0.0
 10
51.65576170583606
 20
-106.1957573519233
 30
0.0
 10
51.65576170583606
 20
-106.1957573519233
 30
0.0
 10
51.65576170583606
 20
-106.1123860411802
 30
0.0
 10
51.65403915809344
 20
-106.0679443094205
 30
0.0
 10
51.64852700531704
 20
-106.0272921826946
 30
0.0
 10
51.64852700531704
 20
-106.0272921826946
 30
0.0
 10
51.83731823790873
 20
-106.0421060932811
 30
0.0
 10
51.83731823790873
 20
-106.0421060932811
 30
0.0
 10
51.87986516715156
 20
-106.0458956983149
 30
0.0
 10
51.88727212244485
 20
-106.0586425516103
 30
0.0
 10
51.88727212244485
 20
-106.0717339144543
 30
0.0
 10
51.88727212244485
 20
-106.0941270351084
 30
0.0
 10
51.87245821185828
 20
-106.1013617356274
 30
0.0
 10
51.82801648009855
 20
-106.1237548562816
 30
0.0
 10
51.82629393235593
 20
-106.1458034673872
 30
0.0
 10
51.82629393235593
 20
-106.1513156201636
 30
0.0
 10
51.82439912983904
 20
-106.1957573519233
 30
0.0
 10
51.82439912983904
 20
-106.1957573519233
 30
0.0
 10
52.02610947050042
 20
-106.1957573519233
 30
0.0
 10
52.02610947050042
 20
-106.1957573519233
 30
0.0
 10
52.17063122610665
 20
-106.1957573519233
 30
0.0
 10
52.42608505633793
 20
-106.1902451991469
 30
0.0
 10
52.58352592001384
 20
-106.1847330463705
 30
0.0
 10
52.58352592001384
 20
-106.1847330463705
 30
0.0
 10
52.58352592001384
 20
-106.3401068527553
 30
0.0
 10
52.58352592001384
 20
-106.3401068527553
 30
0.0
 10
52.47052678809765
 20
-106.33666175727
 30
0.0
 10
52.45020072473467
 20
-106.33666175727
 30
0.0
 10
52.20766600257308
 20
-106.3328721522362
 30
0.0
  0
SPLINE
  5
58
330
4B
100
AcDbEntity
  8
_U+30EC_U+30A4_U+30E4_U+30FC 1
370
     0
100
AcDbSpline
210
0.0
220
0.0
230
1.0
 70
    11
 71
     3
 72
    23
 73
    19
 74
     0
 42
0.0000000001
 43
0.0000000001
 12
1.0
 22
0.0
 32
0.0
 13
1.0
 23
0.0
 33
0.0
 40
0.0
 40
0.0
 40
0.0
 40
0.0
 40
1.0
 40
1.0
 40
1.0
 40
2.0
 40
2.0
 40
2.0
 40
3.0
 40
3.0
 40
3.0
 40
4.0
 40
4.0
 40
4.0
 40
5.0
 40
5.0
 40
5.0
 40
6.0
 40
6.0
 40
6.0
 40
6.0
 10
51.08370360051033
 20
-106.0255696349519
 30
0.0
 10
51.06888968992375
 20
-106.0607096089015
 30
0.0
 10
51.06320528237309
 20
-106.0755235194881
 30
0.0
 10
51.044774021527
 20
-106.0755235194881
 30
0.0
 10
51.03185491345732
 20
-106.0755235194881
 30
0.0
 10
51.02255315564715
 20
-106.0607096089015
 30
0.0
 10
51.01704100287074
 20
-106.0493407938002
 30
0.0
 10
51.01704100287074
 20
-106.0493407938002
 30
0.0
 10
50.92988008709392
 20
-105.9049912929682
 30
0.0
 10
50.92988008709392
 20
-105.9049912929682
 30
0.0
 10
51.01876355061336
 20
-105.8774305290862
 30
0.0
 10
51.15036619814991
 20
-105.8291991922927
 30
0.0
 10
51.32434352015503
 20
-105.6865722392034
 30
0.0
 10
51.32434352015503
 20
-105.6865722392034
 30
0.0
 10
51.37429740469115
 20
-105.8385009501029
 30
0.0
 10
51.37429740469115
 20
-105.8385009501029
 30
0.0
 10
51.29299315123925
 20
-105.9105034457446
 30
0.0
 10
51.21513399327261
 20
-105.9604573302807
 30
0.0
 10
51.08370360051033
 20
-106.0255696349519
 30
0.0
  0
SPLINE
  5
59
330
4B
100
AcDbEntity
  8
_U+30EC_U+30A4_U+30E4_U+30FC 1
370
     0
100
AcDbSpline
210
0.0
220
0.0
230
1.0
 70
    11
 71
     3
 72
    17
 73
    13
 74
     0
 42
0.0000000001
 43
0.0000000001
 12
1.0
 22
0.0
 32
0.0
 13
1.0
 23
0.0
 33
0.0
 40
0.0
 40
0.0
 40
0.0
 40
0.0
 40
1.0
 40
1.0
 40
1.0
 40
2.0
 40
2.0
 40
2.0
 40
3.0
 40
3.0
 40
3.0
 40
4.0
 40
4.0
 40
4.0
 40
4.0
 10
51.2170287957895
 20
-105.6180148390469
 30
0.0
 10
51.19101832487586
 20
-105.5828748650973
 30
0.0
 10
51.13176268252956
 20
-105.4977810066117
 30
0.0
 10
50.97259927111102
 20
-105.4013183330247
 30
0.0
 10
50.97259927111102
 20
-105.4013183330247
 30
0.0
 10
51.08370360051033
 20
-105.2848741056232
 30
0.0
 10
51.08370360051033
 20
-105.2848741056232
 30
0.0
 10
51.24665661696265
 20
-105.3737575691427
 30
0.0
 10
51.29661050149877
 20
-105.4512722175608
 30
0.0
 10
51.32072616989552
 20
-105.4884792488015
 30
0.0
 10
51.32072616989552
 20
-105.4884792488015
 30
0.0
 10
51.2170287957895
 20
-105.6180148390469
 30
0.0
 10
51.2170287957895
 20
-105.6180148390469
 30
0.0
  0
SPLINE
  5
5A
330
4B
100
AcDbEntity
  8
_U+30EC_U+30A4_U+30E4_U+30FC 1
370
     0
100
AcDbSpline
210
0.0
220
0.0
230
1.0
 70
    11
 71
     3
 72
    38
 73
    34
 74
     0
 42
0.0000000001
 43
0.0000000001
 12
1.0
 22
0.0
 32
0.0
 13
1.0
 23
0.0
 33
0.0
 40
0.0
 40
0.0
 40
0.0
 40
0.0
 40
1.0
 40
1.0
 40
1.0
 40
2.0
 40
2.0
 40
2.0
 40
3.0
 40
3.0
 40
3.0
 40
4.0
 40
4.0
 40
4.0
 40
5.0
 40
5.0
 40
5.0
 40
6.0
 40
6.0
 40
6.0
 40
7.0
 40
7.0
 40
7.0
 40
8.0
 40
8.0
 40
8.0
 40
9.0
 40
9.0
 40
9.0
 40
10.0
 40
10.0
 40
10.0
 40
11.0
 40
11.0
 40
11.0
 40
11.0
 10
51.53914522366036
 20
-105.3513644484886
 30
0.0
 10
51.53725042114347
 20
-105.3920165752145
 30
0.0
 10
51.53552787340085
 20
-105.4939914015779
 30
0.0
 10
51.53552787340085
 20
-105.5329209805612
 30
0.0
 10
51.53552787340085
 20
-105.5329209805612
 30
0.0
 10
51.53552787340085
 20
-105.8364338928117
 30
0.0
 10
51.53552787340085
 20
-105.8364338928117
 30
0.0
 10
51.53552787340085
 20
-105.9125705030358
 30
0.0
 10
51.53725042114347
 20
-106.0365939405047
 30
0.0
 10
51.54655217895364
 20
-106.1420138623534
 30
0.0
 10
51.54655217895364
 20
-106.1420138623534
 30
0.0
 10
51.37998181224182
 20
-106.1420138623534
 30
0.0
 10
51.37998181224182
 20
-106.1420138623534
 30
0.0
 10
51.38359916250133
 20
-106.0865478250409
 30
0.0
 10
51.3873887675351
 20
-106.0403835455385
 30
0.0
 10
51.38911131527772
 20
-105.992152208745
 30
0.0
 10
51.39100611779461
 20
-105.8846652296052
 30
0.0
 10
51.3929009203115
 20
-105.8715738667613
 30
0.0
 10
51.3929009203115
 20
-105.8329887973265
 30
0.0
 10
51.3929009203115
 20
-105.8329887973265
 30
0.0
 10
51.3929009203115
 20
-105.5515244961816
 30
0.0
 10
51.3929009203115
 20
-105.5515244961816
 30
0.0
 10
51.3929009203115
 20
-105.5032931593881
 30
0.0
 10
51.3818766147587
 20
-105.2941758634334
 30
0.0
 10
51.37998181224182
 20
-105.2493896221252
 30
0.0
 10
51.37998181224182
 20
-105.2493896221252
 30
0.0
 10
51.55585393676382
 20
-105.2735052905219
 30
0.0
 10
51.55585393676382
 20
-105.2735052905219
 30
0.0
 10
51.57445745238417
 20
-105.2755723478131
 30
0.0
 10
51.60219047104043
 20
-105.2790174432983
 30
0.0
 10
51.60219047104043
 20
-105.3014105639524
 30
0.0
 10
51.60219047104043
 20
-105.3255262323492
 30
0.0
 10
51.5577487392807
 20
-105.3441297479695
 30
0.0
 10
51.53914522366036
 20
-105.3513644484886
 30
0.0
  0
SPLINE
  5
5B
330
4B
100
AcDbEntity
  8
_U+30EC_U+30A4_U+30E4_U+30FC 1
370
     0
100
AcDbSpline
210
0.0
220
0.0
230
1.0
 70
    11
 71
     3
 72
    83
 73
    79
 74
     0
 42
0.0000000001
 43
0.0000000001
 12
1.0
 22
0.0
 32
0.0
 13
1.0
 23
0.0
 33
0.0
 40
0.0
 40
0.0
 40
0.0
 40
0.0
 40
1.0
 40
1.0
 40
1.0
 40
2.0
 40
2.0
 40
2.0
 40
3.0
 40
3.0
 40
3.0
 40
4.0
 40
4.0
 40
4.0
 40
5.0
 40
5.0
 40
5.0
 40
6.0
 40
6.0
 40
6.0
 40
7.0
 40
7.0
 40
7.0
 40
8.0
 40
8.0
 40
8.0
 40
9.0
 40
9.0
 40
9.0
 40
10.0
 40
10.0
 40
10.0
 40
11.0
 40
11.0
 40
11.0
 40
12.0
 40
12.0
 40
12.0
 40
13.0
 40
13.0
 40
13.0
 40
14.0
 40
14.0
 40
14.0
 40
15.0
 40
15.0
 40
15.0
 40
16.0
 40
16.0
 40
16.0
 40
17.0
 40
17.0
 40
17.0
 40
18.0
 40
18.0
 40
18.0
 40
19.0
 40
19.0
 40
19.0
 40
20.0
 40
20.0
 40
20.0
 40
21.0
 40
21.0
 40
21.0
 40
22.0
 40
22.0
 40
22.0
 40
23.0
 40
23.0
 40
23.0
 40
24.0
 40
24.0
 40
24.0
 40
25.0
 40
25.0
 40
25.0
 40
26.0
 40
26.0
 40
26.0
 40
26.0
 10
52.24108342878001
 20
-105.6328287496335
 30
0.0
 10
52.24108342878001
 20
-105.6328287496335
 30
0.0
 10
52.15581731552007
 20
-105.6328287496335
 30
0.0
 10
52.15581731552007
 20
-105.6328287496335
 30
0.0
 10
52.15581731552007
 20
-105.6328287496335
 30
0.0
 10
52.15581731552007
 20
-105.8495252556557
 30
0.0
 10
52.15581731552007
 20
-105.8495252556557
 30
0.0
 10
52.15581731552007
 20
-105.8495252556557
 30
0.0
 10
52.22799206593606
 20
-105.8495252556557
 30
0.0
 10
52.22799206593606
 20
-105.8495252556557
 30
0.0
 10
52.28552516053973
 20
-105.8495252556557
 30
0.0
 10
52.40765379549184
 20
-105.8457356506219
 30
0.0
 10
52.4946424564944
 20
-105.8385009501029
 30
0.0
 10
52.4946424564944
 20
-105.8385009501029
 30
0.0
 10
52.4946424564944
 20
-105.9959418137788
 30
0.0
 10
52.4946424564944
 20
-105.9959418137788
 30
0.0
 10
52.41316594826824
 20
-105.9883626037113
 30
0.0
 10
52.28173555550596
 20
-105.9845729986775
 30
0.0
 10
52.22799206593606
 20
-105.9845729986775
 30
0.0
 10
52.22799206593606
 20
-105.9845729986775
 30
0.0
 10
51.96134167537772
 20
-105.9845729986775
 30
0.0
 10
51.96134167537772
 20
-105.9845729986775
 30
0.0
 10
51.91517739587538
 20
-105.9845729986775
 30
0.0
 10
51.7873643533726
 20
-105.9883626037113
 30
0.0
 10
51.69469128481938
 20
-105.9959418137788
 30
0.0
 10
51.69469128481938
 20
-105.9959418137788
 30
0.0
 10
51.69469128481938
 20
-105.8385009501029
 30
0.0
 10
51.69469128481938
 20
-105.8385009501029
 30
0.0
 10
51.78185220059621
 20
-105.8457356506219
 30
0.0
 10
51.90398083554831
 20
-105.8495252556557
 30
0.0
 10
51.96134167537772
 20
-105.8495252556557
 30
0.0
 10
51.96134167537772
 20
-105.8495252556557
 30
0.0
 10
52.00027125436105
 20
-105.8495252556557
 30
0.0
 10
52.00027125436105
 20
-105.8495252556557
 30
0.0
 10
52.00027125436105
 20
-105.8495252556557
 30
0.0
 10
52.00027125436105
 20
-105.6328287496335
 30
0.0
 10
52.00027125436105
 20
-105.6328287496335
 30
0.0
 10
52.00027125436105
 20
-105.6328287496335
 30
0.0
 10
51.93550345923835
 20
-105.6328287496335
 30
0.0
 10
51.93550345923835
 20
-105.6328287496335
 30
0.0
 10
51.88175996966845
 20
-105.6328287496335
 30
0.0
 10
51.73551566631959
 20
-105.6366183546672
 30
0.0
 10
51.62992348969669
 20
-105.6438530551863
 30
0.0
 10
51.62992348969669
 20
-105.6438530551863
 30
0.0
 10
51.62992348969669
 20
-105.4884792488015
 30
0.0
 10
51.62992348969669
 20
-105.4884792488015
 30
0.0
 10
51.72983125876893
 20
-105.4939914015779
 30
0.0
 10
51.86884086159876
 20
-105.4977810066117
 30
0.0
 10
51.93550345923835
 20
-105.4977810066117
 30
0.0
 10
51.93550345923835
 20
-105.4977810066117
 30
0.0
 10
51.99837645184416
 20
-105.4977810066117
 30
0.0
 10
51.99837645184416
 20
-105.4977810066117
 30
0.0
 10
51.99475910158465
 20
-105.3644558113325
 30
0.0
 10
51.99286429906776
 20
-105.3348279901594
 30
0.0
 10
51.98735214629136
 20
-105.2531792271589
 30
0.0
 10
51.98735214629136
 20
-105.2531792271589
 30
0.0
 10
52.17252602862354
 20
-105.2735052905219
 30
0.0
 10
52.17252602862354
 20
-105.2735052905219
 30
0.0
 10
52.1947468945034
 20
-105.2755723478131
 30
0.0
 10
52.21507295786638
 20
-105.2790174432983
 30
0.0
 10
52.21507295786638
 20
-105.2996880162098
 30
0.0
 10
52.21507295786638
 20
-105.3272487800918
 30
0.0
 10
52.17614337888305
 20
-105.3420626906784
 30
0.0
 10
52.15581731552007
 20
-105.3496419007459
 30
0.0
 10
52.15581731552007
 20
-105.3496419007459
 30
0.0
 10
52.15581731552007
 20
-105.4977810066117
 30
0.0
 10
52.15581731552007
 20
-105.4977810066117
 30
0.0
 10
52.15581731552007
 20
-105.4977810066117
 30
0.0
 10
52.24108342878001
 20
-105.4977810066117
 30
0.0
 10
52.24108342878001
 20
-105.4977810066117
 30
0.0
 10
52.30757377164533
 20
-105.4977810066117
 30
0.0
 10
52.44658337447516
 20
-105.4939914015779
 30
0.0
 10
52.54838594606429
 20
-105.4884792488015
 30
0.0
 10
52.54838594606429
 20
-105.4884792488015
 30
0.0
 10
52.54838594606429
 20
-105.6438530551863
 30
0.0
 10
52.54838594606429
 20
-105.6438530551863
 30
0.0
 10
52.45399032976845
 20
-105.6383409024099
 30
0.0
 10
52.30206161886893
 20
-105.6328287496335
 30
0.0
 10
52.24108342878001
 20
-105.6328287496335
 30
0.0
  0
SPLINE
  5
5C
330
4B
100
AcDbEntity
  8
_U+30EC_U+30A4_U+30E4_U+30FC 1
370
     0
100
AcDbSpline
210
0.0
220
0.0
230
1.0
 70
    11
 71
     3
 72
    17
 73
    13
 74
     0
 42
0.0000000001
 43
0.0000000001
 12
1.0
 22
0.0
 32
0.0
 13
1.0
 23
0.0
 33
0.0
 40
0.0
 40
0.0
 40
0.0
 40
0.0
 40
1.0
 40
1.0
 40
1.0
 40
2.0
 40
2.0
 40
2.0
 40
3.0
 40
3.0
 40
3.0
 40
4.0
 40
4.0
 40
4.0
 40
4.0
 10
52.02610947050042
 20
-106.3311496044936
 30
0.0
 10
52.02610947050042
 20
-106.3311496044936
 30
0.0
 10
51.84834254346153
 20
-106.3311496044936
 30
0.0
 10
51.84834254346153
 20
-106.3311496044936
 30
0.0
 10
51.87245821185828
 20
-106.3828260367724
 30
0.0
 10
51.92068954865177
 20
-106.4458712841524
 30
0.0
 10
51.94480521704853
 20
-106.4717095002918
 30
0.0
 10
51.96874863067101
 20
-106.4586181374479
 30
0.0
 10
52.06882865451752
 20
-106.4031521001353
 30
0.0
 10
52.14841036022679
 20
-106.3311496044936
 30
0.0
 10
52.14841036022679
 20
-106.3311496044936
 30
0.0
 10
52.02610947050042
 20
-106.3311496044936
 30
0.0
 10
52.02610947050042
 20
-106.3311496044936
 30
0.0
  0
HATCH
  5
5D
330
4B
100
AcDbEntity
  8
_U+30EC_U+30A4_U+30E4_U+30FC 1
 62
   179
420
  2234388
100
AcDbHatch
 10
0.0
 20
0.0
 30
0.0
210
0.0
220
0.0
230
1.0
  2
SOLID
 70
     1
 71
     0
 91
        6
 92
        1
 93
        1
 72
     4
 94
        3
 73
     0
 74
     1
 95
      113
 96
      109
 40
0.0
 40
0.0
 40
0.0
 40
0.0
 40
1.0
 40
1.0
 40
1.0
 40
2.0
 40
2.0
 40
2.0
 40
3.0
 40
3.0
 40
3.0
 40
4.0
 40
4.0
 40
4.0
 40
5.0
 40
5.0
 40
5.0
 40
6.0
 40
6.0
 40
6.0
 40
7.0
 40
7.0
 40
7.0
 40
8.0
 40
8.0
 40
8.0
 40
9.0
 40
9.0
 40
9.0
 40
10.0
 40
10.0
 40
10.0
 40
11.0
 40
11.0
 40
11.0
 40
12.0
 40
12.0
 40
12.0
 40
13.0
 40
13.0
 40
13.0
 40
14.0
 40
14.0
 40
14.0
 40
15.0
 40
15.0
 40
15.0
 40
16.0
 40
16.0
 40
16.0
 40
17.0
 40
17.0
 40
17.0
 40
18.0
 40
18.0
 40
18.0
 40
19.0
 40
19.0
 40
19.0
 40
20.0
 40
20.0
 40
20.0
 40
21.0
 40
21.0
 40
21.0
 40
22.0
 40
22.0
 40
22.0
 40
23.0
 40
23.0
 40
23.0
 40
24.0
 40
24.0
 40
24.0
 40
25.0
 40
25.0
 40
25.0
 40
26.0
 40
26.0
 40
26.0
 40
27.0
 40
27.0
 40
27.0
 40
28.0
 40
28.0
 40
28.0
 40
29.0
 40
29.0
 40
29.0
 40
30.0
 40
30.0
 40
30.0
 40
31.0
 40
31.0
 40
31.0
 40
32.0
 40
32.0
 40
32.0
 40
33.0
 40
33.0
 40
33.0
 40
34.0
 40
34.0
 40
34.0
 40
35.0
 40
35.0
 40
35.0
 40
36.0
 40
36.0
 40
36.0
 40
36.0
 10
52.20766600257308
 20
-106.3328721522362
 10
52.20766600257308
 20
-106.3328721522362
 10
52.29465466357564
 20
-106.4200330680131
 10
52.29465466357564
 20
-106.4200330680131
 10
52.30395642138582
 20
-106.4289903162747
 10
52.31325817919599
 20
-106.440359131376
 10
52.31325817919599
 20
-106.4531059846715
 10
52.31325817919599
 20
-106.4551730419626
 10
52.31325817919599
 20
-106.481011258102
 10
52.27984075298907
 20
-106.481011258102
 10
52.27243379769578
 20
-106.481011258102
 10
52.23729382374623
 20
-106.4772216530682
 10
52.23178167096984
 20
-106.4772216530682
 10
52.19664169702028
 20
-106.5051269264987
 10
52.15581731552007
 20
-106.5347547476719
 10
52.06882865451752
 20
-106.584708632208
 10
52.19664169702028
 20
-106.6791042485038
 10
52.33547904507586
 20
-106.72905813304
 10
52.57422416220367
 20
-106.7624755592469
 10
52.57422416220367
 20
-106.7624755592469
 10
52.44279376944139
 20
-106.916126817889
 10
52.44279376944139
 20
-106.916126817889
 10
52.21317815534949
 20
-106.853081570509
 10
52.0762356098108
 20
-106.7755669220908
 10
52.00957301217122
 20
-106.72905813304
 10
51.87797036463468
 20
-106.6401746695205
 10
51.75222437942305
 20
-106.4975477164312
 10
51.68538952700921
 20
-106.3531982155992
 10
51.62613388466291
 20
-106.4107313102029
 10
51.56136608954021
 20
-106.4568955897052
 10
51.49280868938374
 20
-106.4996147737223
 10
51.49280868938374
 20
-106.4996147737223
 10
51.49280868938374
 20
-106.7197563752298
 10
51.49280868938374
 20
-106.7197563752298
 10
51.63543564247309
 20
-106.6977077641242
 10
51.7983886589254
 20
-106.6587781851409
 10
51.85402695101219
 20
-106.6456868222969
 10
51.85402695101219
 20
-106.6456868222969
 10
51.82801648009855
 20
-106.7938259281627
 10
51.82801648009855
 20
-106.7938259281627
 10
51.82629393235593
 20
-106.7938259281627
 10
51.80958521925247
 20
-106.7993380809391
 10
51.80769041673558
 20
-106.7993380809391
 10
51.63371309473046
 20
-106.832755507146
 10
51.35586614384506
 20
-106.8902886017497
 10
51.18361136958257
 20
-106.9216389706654
 10
51.17448186654666
 20
-106.936452881252
 10
51.15398354840942
 20
-106.9643581546825
 10
51.13365748504645
 20
-106.9643581546825
 10
51.1095418166497
 20
-106.9643581546825
 10
51.10592446639019
 20
-106.9474771868048
 10
51.1040296638733
 20
-106.9309407284756
 10
51.1040296638733
 20
-106.9309407284756
 10
51.08180879799344
 20
-106.7790120175761
 10
51.08180879799344
 20
-106.7790120175761
 10
51.14657659311614
 20
-106.7717773170571
 10
51.24097220941198
 20
-106.7604085019557
 10
51.33554008048209
 20
-106.7421494958839
 10
51.33554008048209
 20
-106.7421494958839
 10
51.33554008048209
 20
-106.5864311799506
 10
51.33554008048209
 20
-106.5864311799506
 10
51.2096218404962
 20
-106.6494764273307
 10
51.12625052975316
 20
-106.6753146434701
 10
50.98190102892119
 20
-106.7011528596094
 10
50.98190102892119
 20
-106.7011528596094
 10
50.87630885229829
 20
-106.5530137537437
 10
50.87630885229829
 20
-106.5530137537437
 10
51.15398354840942
 20
-106.5292425948955
 10
51.3226209724124
 20
-106.447593831895
 10
51.47799477879717
 20
-106.3311496044936
 10
51.35035399106867
 20
-106.3311496044936
 10
51.08732095076984
 20
-106.3345946999789
 10
50.91506617650735
 20
-106.3401068527553
 10
50.91506617650735
 20
-106.3401068527553
 10
50.91506617650735
 20
-106.1847330463705
 10
50.91506617650735
 20
-106.1847330463705
 10
51.0502861743034
 20
-106.1902451991469
 10
51.30952960956845
 20
-106.1957573519233
 10
51.47076007827815
 20
-106.1957573519233
 10
51.47076007827815
 20
-106.1957573519233
 10
51.65576170583606
 20
-106.1957573519233
 10
51.65576170583606
 20
-106.1957573519233
 10
51.65576170583606
 20
-106.1123860411802
 10
51.65403915809344
 20
-106.0679443094205
 10
51.64852700531704
 20
-106.0272921826946
 10
51.64852700531704
 20
-106.0272921826946
 10
51.83731823790873
 20
-106.0421060932811
 10
51.83731823790873
 20
-106.0421060932811
 10
51.87986516715156
 20
-106.0458956983149
 10
51.88727212244485
 20
-106.0586425516103
 10
51.88727212244485
 20
-106.0717339144543
 10
51.88727212244485
 20
-106.0941270351084
 10
51.87245821185828
 20
-106.1013617356274
 10
51.82801648009855
 20
-106.1237548562816
 10
51.82629393235593
 20
-106.1458034673872
 10
51.82629393235593
 20
-106.1513156201636
 10
51.82439912983904
 20
-106.1957573519233
 10
51.82439912983904
 20
-106.1957573519233
 10
52.02610947050042
 20
-106.1957573519233
 10
52.02610947050042
 20
-106.1957573519233
 10
52.17063122610665
 20
-106.1957573519233
 10
52.42608505633793
 20
-106.1902451991469
 10
52.58352592001384
 20
-106.1847330463705
 10
52.58352592001384
 20
-106.1847330463705
 10
52.58352592001384
 20
-106.3401068527553
 10
52.58352592001384
 20
-106.3401068527553
 10
52.47052678809765
 20
-106.33666175727
 10
52.45020072473467
 20
-106.33666175727
 10
52.20766600257308
 20
-106.3328721522362
 97
        0
 97
        0
 92
        1
 93
        1
 72
     4
 94
        3
 73
     0
 74
     1
 95
       23
 96
       19
 40
0.0
 40
0.0
 40
0.0
 40
0.0
 40
1.0
 40
1.0
 40
1.0
 40
2.0
 40
2.0
 40
2.0
 40
3.0
 40
3.0
 40
3.0
 40
4.0
 40
4.0
 40
4.0
 40
5.0
 40
5.0
 40
5.0
 40
6.0
 40
6.0
 40
6.0
 40
6.0
 10
51.08370360051033
 20
-106.0255696349519
 10
51.06888968992375
 20
-106.0607096089015
 10
51.06320528237309
 20
-106.0755235194881
 10
51.044774021527
 20
-106.0755235194881
 10
51.03185491345732
 20
-106.0755235194881
 10
51.02255315564715
 20
-106.0607096089015
 10
51.01704100287074
 20
-106.0493407938002
 10
51.01704100287074
 20
-106.0493407938002
 10
50.92988008709392
 20
-105.9049912929682
 10
50.92988008709392
 20
-105.9049912929682
 10
51.01876355061336
 20
-105.8774305290862
 10
51.15036619814991
 20
-105.8291991922927
 10
51.32434352015503
 20
-105.6865722392034
 10
51.32434352015503
 20
-105.6865722392034
 10
51.37429740469115
 20
-105.8385009501029
 10
51.37429740469115
 20
-105.8385009501029
 10
51.29299315123925
 20
-105.9105034457446
 10
51.21513399327261
 20
-105.9604573302807
 10
51.08370360051033
 20
-106.0255696349519
 97
        0
 97
        0
 92
        1
 93
        1
 72
     4
 94
        3
 73
     0
 74
     1
 95
       17
 96
       13
 40
0.0
 40
0.0
 40
0.0
 40
0.0
 40
1.0
 40
1.0
 40
1.0
 40
2.0
 40
2.0
 40
2.0
 40
3.0
 40
3.0
 40
3.0
 40
4.0
 40
4.0
 40
4.0
 40
4.0
 10
51.2170287957895
 20
-105.6180148390469
 10
51.19101832487586
 20
-105.5828748650973
 10
51.13176268252956
 20
-105.4977810066117
 10
50.97259927111102
 20
-105.4013183330247
 10
50.97259927111102
 20
-105.4013183330247
 10
51.08370360051033
 20
-105.2848741056232
 10
51.08370360051033
 20
-105.2848741056232
 10
51.24665661696265
 20
-105.3737575691427
 10
51.29661050149877
 20
-105.4512722175608
 10
51.32072616989552
 20
-105.4884792488015
 10
51.32072616989552
 20
-105.4884792488015
 10
51.2170287957895
 20
-105.6180148390469
 10
51.2170287957895
 20
-105.6180148390469
 97
        0
 97
        0
 92
        1
 93
        1
 72
     4
 94
        3
 73
     0
 74
     1
 95
       38
 96
       34
 40
0.0
 40
0.0
 40
0.0
 40
0.0
 40
1.0
 40
1.0
 40
1.0
 40
2.0
 40
2.0
 40
2.0
 40
3.0
 40
3.0
 40
3.0
 40
4.0
 40
4.0
 40
4.0
 40
5.0
 40
5.0
 40
5.0
 40
6.0
 40
6.0
 40
6.0
 40
7.0
 40
7.0
 40
7.0
 40
8.0
 40
8.0
 40
8.0
 40
9.0
 40
9.0
 40
9.0
 40
10.0
 40
10.0
 40
10.0
 40
11.0
 40
11.0
 40
11.0
 40
11.0
 10
51.53914522366036
 20
-105.3513644484886
 10
51.53725042114347
 20
-105.3920165752145
 10
51.53552787340085
 20
-105.4939914015779
 10
51.53552787340085
 20
-105.5329209805612
 10
51.53552787340085
 20
-105.5329209805612
 10
51.53552787340085
 20
-105.8364338928117
 10
51.53552787340085
 20
-105.8364338928117
 10
51.53552787340085
 20
-105.9125705030358
 10
51.53725042114347
 20
-106.0365939405047
 10
51.54655217895364
 20
-106.1420138623534
 10
51.54655217895364
 20
-106.1420138623534
 10
51.37998181224182
 20
-106.1420138623534
 10
51.37998181224182
 20
-106.1420138623534
 10
51.38359916250133
 20
-106.0865478250409
 10
51.3873887675351
 20
-106.0403835455385
 10
51.38911131527772
 20
-105.992152208745
 10
51.39100611779461
 20
-105.8846652296052
 10
51.3929009203115
 20
-105.8715738667613
 10
51.3929009203115
 20
-105.8329887973265
 10
51.3929009203115
 20
-105.8329887973265
 10
51.3929009203115
 20
-105.5515244961816
 10
51.3929009203115
 20
-105.5515244961816
 10
51.3929009203115
 20
-105.5032931593881
 10
51.3818766147587
 20
-105.2941758634334
 10
51.37998181224182
 20
-105.2493896221252
 10
51.37998181224182
 20
-105.2493896221252
 10
51.55585393676382
 20
-105.2735052905219
 10
51.55585393676382
 20
-105.2735052905219
 10
51.57445745238417
 20
-105.2755723478131
 10
51.60219047104043
 20
-105.2790174432983
 10
51.60219047104043
 20
-105.3014105639524
 10
51.60219047104043
 20
-105.3255262323492
 10
51.5577487392807
 20
-105.3441297479695
 10
51.53914522366036
 20
-105.3513644484886
 97
        0
 97
        0
 92
        1
 93
        1
 72
     4
 94
        3
 73
     0
 74
     1
 95
       83
 96
       79
 40
0.0
 40
0.0
 40
0.0
 40
0.0
 40
1.0
 40
1.0
 40
1.0
 40
2.0
 40
2.0
 40
2.0
 40
3.0
 40
3.0
 40
3.0
 40
4.0
 40
4.0
 40
4.0
 40
5.0
 40
5.0
 40
5.0
 40
6.0
 40
6.0
 40
6.0
 40
7.0
 40
7.0
 40
7.0
 40
8.0
 40
8.0
 40
8.0
 40
9.0
 40
9.0
 40
9.0
 40
10.0
 40
10.0
 40
10.0
 40
11.0
 40
11.0
 40
11.0
 40
12.0
 40
12.0
 40
12.0
 40
13.0
 40
13.0
 40
13.0
 40
14.0
 40
14.0
 40
14.0
 40
15.0
 40
15.0
 40
15.0
 40
16.0
 40
16.0
 40
16.0
 40
17.0
 40
17.0
 40
17.0
 40
18.0
 40
18.0
 40
18.0
 40
19.0
 40
19.0
 40
19.0
 40
20.0
 40
20.0
 40
20.0
 40
21.0
 40
21.0
 40
21.0
 40
22.0
 40
22.0
 40
22.0
 40
23.0
 40
23.0
 40
23.0
 40
24.0
 40
24.0
 40
24.0
 40
25.0
 40
25.0
 40
25.0
 40
26.0
 40
26.0
 40
26.0
 40
26.0
 10
52.24108342878001
 20
-105.6328287496335
 10
52.24108342878001
 20
-105.6328287496335
 10
52.15581731552007
 20
-105.6328287496335
 10
52.15581731552007
 20
-105.6328287496335
 10
52.15581731552007
 20
-105.6328287496335
 10
52.15581731552007
 20
-105.8495252556557
 10
52.15581731552007
 20
-105.8495252556557
 10
52.15581731552007
 20
-105.8495252556557
 10
52.22799206593606
 20
-105.8495252556557
 10
52.22799206593606
 20
-105.8495252556557
 10
52.28552516053973
 20
-105.8495252556557
 10
52.40765379549184
 20
-105.8457356506219
 10
52.4946424564944
 20
-105.8385009501029
 10
52.4946424564944
 20
-105.8385009501029
 10
52.4946424564944
 20
-105.9959418137788
 10
52.4946424564944
 20
-105.9959418137788
 10
52.41316594826824
 20
-105.9883626037113
 10
52.28173555550596
 20
-105.9845729986775
 10
52.22799206593606
 20
-105.9845729986775
 10
52.22799206593606
 20
-105.9845729986775
 10
51.96134167537772
 20
-105.9845729986775
 10
51.96134167537772
 20
-105.9845729986775
 10
51.91517739587538
 20
-105.9845729986775
 10
51.7873643533726
 20
-105.9883626037113
 10
51.69469128481938
 20
-105.9959418137788
 10
51.69469128481938
 20
-105.9959418137788
 10
51.69469128481938
 20
-105.8385009501029
 10
51.69469128481938
 20
-105.8385009501029
 10
51.78185220059621
 20
-105.8457356506219
 10
51.90398083554831
 20
-105.8495252556557
 10
51.96134167537772
 20
-105.8495252556557
 10
51.96134167537772
 20
-105.8495252556557
 10
52.00027125436105
 20
-105.8495252556557
 10
52.00027125436105
 20
-105.8495252556557
 10
52.00027125436105
 20
-105.8495252556557
 10
52.00027125436105
 20
-105.6328287496335
 10
52.00027125436105
 20
-105.6328287496335
 10
52.00027125436105
 20
-105.6328287496335
 10
51.93550345923835
 20
-105.6328287496335
 10
51.93550345923835
 20
-105.6328287496335
 10
51.88175996966845
 20
-105.6328287496335
 10
51.73551566631959
 20
-105.6366183546672
 10
51.62992348969669
 20
-105.6438530551863
 10
51.62992348969669
 20
-105.6438530551863
 10
51.62992348969669
 20
-105.4884792488015
 10
51.62992348969669
 20
-105.4884792488015
 10
51.72983125876893
 20
-105.4939914015779
 10
51.86884086159876
 20
-105.4977810066117
 10
51.93550345923835
 20
-105.4977810066117
 10
51.93550345923835
 20
-105.4977810066117
 10
51.99837645184416
 20
-105.4977810066117
 10
51.99837645184416
 20
-105.4977810066117
 10
51.99475910158465
 20
-105.3644558113325
 10
51.99286429906776
 20
-105.3348279901594
 10
51.98735214629136
 20
-105.2531792271589
 10
51.98735214629136
 20
-105.2531792271589
 10
52.17252602862354
 20
-105.2735052905219
 10
52.17252602862354
 20
-105.2735052905219
 10
52.1947468945034
 20
-105.2755723478131
 10
52.21507295786638
 20
-105.2790174432983
 10
52.21507295786638
 20
-105.2996880162098
 10
52.21507295786638
 20
-105.3272487800918
 10
52.17614337888305
 20
-105.3420626906784
 10
52.15581731552007
 20
-105.3496419007459
 10
52.15581731552007
 20
-105.3496419007459
 10
52.15581731552007
 20
-105.4977810066117
 10
52.15581731552007
 20
-105.4977810066117
 10
52.15581731552007
 20
-105.4977810066117
 10
52.24108342878001
 20
-105.4977810066117
 10
52.24108342878001
 20
-105.4977810066117
 10
52.30757377164533
 20
-105.4977810066117
 10
52.44658337447516
 20
-105.4939914015779
 10
52.54838594606429
 20
-105.4884792488015
 10
52.54838594606429
 20
-105.4884792488015
 10
52.54838594606429
 20
-105.6438530551863
 10
52.54838594606429
 20
-105.6438530551863
 10
52.45399032976845
 20
-105.6383409024099
 10
52.30206161886893
 20
-105.6328287496335
 10
52.24108342878001
 20
-105.6328287496335
 97
        0
 97
        0
 92
        1
 93
        1
 72
     4
 94
        3
 73
     0
 74
     1
 95
       17
 96
       13
 40
0.0
 40
0.0
 40
0.0
 40
0.0
 40
1.0
 40
1.0
 40
1.0
 40
2.0
 40
2.0
 40
2.0
 40
3.0
 40
3.0
 40
3.0
 40
4.0
 40
4.0
 40
4.0
 40
4.0
 10
52.02610947050042
 20
-106.3311496044936
 10
52.02610947050042
 20
-106.3311496044936
 10
51.84834254346153
 20
-106.3311496044936
 10
51.84834254346153
 20
-106.3311496044936
 10
51.87245821185828
 20
-106.3828260367724
 10
51.92068954865177
 20
-106.4458712841524
 10
51.94480521704853
 20
-106.4717095002918
 10
51.96874863067101
 20
-106.4586181374479
 10
52.06882865451752
 20
-106.4031521001353
 10
52.14841036022679
 20
-106.3311496044936
 10
52.14841036022679
 20
-106.3311496044936
 10
52.02610947050042
 20
-106.3311496044936
 10
52.02610947050042
 20
-106.3311496044936
 97
        0
 97
        0
 75
     2
 76
     1
 98
        0
  0
SPLINE
  5
5E
330
4B
100
AcDbEntity
  8
_U+30EC_U+30A4_U+30E4_U+30FC 1
370
     0
100
AcDbSpline
210
0.0
220
0.0
230
1.0
 70
    11
 71
     3
 72
    77
 73
    73
 74
     0
 42
0.0000000001
 43
0.0000000001
 12
1.0
 22
0.0
 32
0.0
 13
1.0
 23
0.0
 33
0.0
 40
0.0
 40
0.0
 40
0.0
 40
0.0
 40
1.0
 40
1.0
 40
1.0
 40
2.0
 40
2.0
 40
2.0
 40
3.0
 40
3.0
 40
3.0
 40
4.0
 40
4.0
 40
4.0
 40
5.0
 40
5.0
 40
5.0
 40
6.0
 40
6.0
 40
6.0
 40
7.0
 40
7.0
 40
7.0
 40
8.0
 40
8.0
 40
8.0
 40
9.0
 40
9.0
 40
9.0
 40
10.0
 40
10.0
 40
10.0
 40
11.0
 40
11.0
 40
11.0
 40
12.0
 40
12.0
 40
12.0
 40
13.0
 40
13.0
 40
13.0
 40
14.0
 40
14.0
 40
14.0
 40
15.0
 40
15.0
 40
15.0
 40
16.0
 40
16.0
 40
16.0
 40
17.0
 40
17.0
 40
17.0
 40
18.0
 40
18.0
 40
18.0
 40
19.0
 40
19.0
 40
19.0
 40
20.0
 40
20.0
 40
20.0
 40
21.0
 40
21.0
 40
21.0
 40
22.0
 40
22.0
 40
22.0
 40
23.0
 40
23.0
 40
23.0
 40
24.0
 40
24.0
 40
24.0
 40
24.0
 10
54.20788844130914
 20
-106.8827093916821
 30
0.0
 10
54.16723631458319
 20
-106.9051025123362
 30
0.0
 10
54.05785453292651
 20
-106.916126817889
 30
0.0
 10
53.9894693875443
 20
-106.916126817889
 30
0.0
 10
53.97827282721724
 20
-106.916126817889
 30
0.0
 10
53.95605196133738
 20
-106.916126817889
 30
0.0
 10
53.92642414016423
 20
-106.9123372128552
 30
0.0
 10
53.92642414016423
 20
-106.9123372128552
 30
0.0
 10
53.84133028167856
 20
-106.7142442224534
 30
0.0
 10
53.84133028167856
 20
-106.7142442224534
 30
0.0
 10
53.86716849781794
 20
-106.7197563752298
 30
0.0
 10
53.91712238235406
 20
-106.7273355852973
 30
0.0
 10
54.01909720871745
 20
-106.7273355852973
 30
0.0
 10
54.08748235409966
 20
-106.7273355852973
 30
0.0
 10
54.08937715661655
 20
-106.6901285540566
 30
0.0
 10
54.08937715661655
 20
-106.6401746695205
 30
0.0
 10
54.08937715661655
 20
-106.6401746695205
 30
0.0
 10
54.08937715661655
 20
-106.3345946999789
 30
0.0
 10
54.08937715661655
 20
-106.3345946999789
 30
0.0
 10
54.08937715661655
 20
-106.3345946999789
 30
0.0
 10
53.68750676826215
 20
-106.3345946999789
 30
0.0
 10
53.68750676826215
 20
-106.3345946999789
 30
0.0
 10
53.68940157077904
 20
-106.4551730419626
 30
0.0
 10
53.69129637329593
 20
-106.6291503639677
 30
0.0
 10
53.69680852607233
 20
-106.7459391009177
 30
0.0
 10
53.69870332858922
 20
-106.7697102597659
 30
0.0
 10
53.69870332858922
 20
-106.8086398387492
 30
0.0
 10
53.70972763414201
 20
-106.8623833283191
 30
0.0
 10
53.70972763414201
 20
-106.8623833283191
 30
0.0
 10
53.49871553567046
 20
-106.8623833283191
 30
0.0
 10
53.49871553567046
 20
-106.8623833283191
 30
0.0
 10
53.52093640155032
 20
-106.7531738014367
 30
0.0
 10
53.52093640155032
 20
-106.4551730419626
 30
0.0
 10
53.52093640155032
 20
-106.3345946999789
 30
0.0
 10
53.52093640155032
 20
-106.3345946999789
 30
0.0
 10
53.1338799237825
 20
-106.3345946999789
 30
0.0
 10
53.1338799237825
 20
-106.3345946999789
 30
0.0
 10
53.11355386041953
 20
-106.5161512320515
 30
0.0
 10
53.05619302059012
 20
-106.7514512536941
 30
0.0
 10
52.88393824632763
 20
-106.9123372128552
 30
0.0
 10
52.88393824632763
 20
-106.9123372128552
 30
0.0
 10
52.71909042735842
 20
-106.805194743264
 30
0.0
 10
52.71909042735842
 20
-106.805194743264
 30
0.0
 10
52.94129908615704
 20
-106.61226939609
 30
0.0
 10
52.9690321048133
 20
-106.3218478466834
 30
0.0
 10
52.9690321048133
 20
-106.0310817877283
 30
0.0
 10
52.9690321048133
 20
-106.0310817877283
 30
0.0
 10
52.9690321048133
 20
-105.6497097175112
 30
0.0
 10
52.9690321048133
 20
-105.6497097175112
 30
0.0
 10
52.9690321048133
 20
-105.6180148390469
 30
0.0
 10
52.96730955707068
 20
-105.4144096958686
 30
0.0
 10
52.95973034700312
 20
-105.3255262323492
 30
0.0
 10
53.08203123672949
 20
-105.3348279901594
 30
0.0
 10
53.29321558997531
 20
-105.3348279901594
 30
0.0
 10
53.41896157518693
 20
-105.3348279901594
 30
0.0
 10
53.41896157518693
 20
-105.3348279901594
 30
0.0
 10
53.82083196354132
 20
-105.3348279901594
 30
0.0
 10
53.82083196354132
 20
-105.3348279901594
 30
0.0
 10
53.83375107161101
 20
-105.3348279901594
 30
0.0
 10
54.13933104115267
 20
-105.3348279901594
 30
0.0
 10
54.27816838920824
 20
-105.3255262323492
 30
0.0
 10
54.27644584146562
 20
-105.3716905118515
 30
0.0
 10
54.27093368868921
 20
-105.5125949171982
 30
0.0
 10
54.27093368868921
 20
-105.557036648958
 30
0.0
 10
54.27093368868921
 20
-105.557036648958
 30
0.0
 10
54.27093368868921
 20
-106.0882703727835
 30
0.0
 10
54.27093368868921
 20
-106.0882703727835
 30
0.0
 10
54.27093368868921
 20
-106.1051513406612
 30
0.0
 10
54.28006319172513
 20
-106.605034695571
 30
0.0
 10
54.28006319172513
 20
-106.7032199169006
 30
0.0
 10
54.28006319172513
 20
-106.7531738014367
 30
0.0
 10
54.28006319172513
 20
-106.8420572649562
 30
0.0
 10
54.20788844130914
 20
-106.8827093916821
 30
0.0
  0
POLYLINE
  5
5F
330
4B
100
AcDbEntity
  8
_U+30EC_U+30A4_U+30E4_U+30FC 1
370
     0
100
AcDb2dPolyline
 66
     1
 10
0.0
 20
0.0
 30
0.0
  0
VERTEX
  5
60
330
5F
100
AcDbEntity
  8
_U+30EC_U+30A4_U+30E4_U+30FC 1
370
     0
100
AcDbVertex
100
AcDb2dVertex
 10
53.52093640155032
 20
-105.4939914015779
 30
0.0
  0
VERTEX
  5
61
330
5F
100
AcDbEntity
  8
_U+30EC_U+30A4_U+30E4_U+30FC 1
370
     0
100
AcDbVertex
100
AcDb2dVertex
 10
53.13749727404202
 20
-105.4939914015779
 30
0.0
  0
VERTEX
  5
62
330
5F
100
AcDbEntity
  8
_U+30EC_U+30A4_U+30E4_U+30FC 1
370
     0
100
AcDbVertex
100
AcDb2dVertex
 10
53.13749727404202
 20
-105.7606417921362
 30
0.0
  0
VERTEX
  5
63
330
5F
100
AcDbEntity
  8
_U+30EC_U+30A4_U+30E4_U+30FC 1
370
     0
100
AcDbVertex
100
AcDb2dVertex
 10
53.52093640155032
 20
-105.7606417921362
 30
0.0
  0
VERTEX
  5
64
330
5F
100
AcDbEntity
  8
_U+30EC_U+30A4_U+30E4_U+30FC 1
370
     0
100
AcDbVertex
100
AcDb2dVertex
 10
53.52093640155032
 20
-105.4939914015779
 30
0.0
  0
SEQEND
  5
65
330
5F
100
AcDbEntity
  8
_U+30EC_U+30A4_U+30E4_U+30FC 1
370
     0
  0
POLYLINE
  5
66
330
4B
100
AcDbEntity
  8
_U+30EC_U+30A4_U+30E4_U+30FC 1
370
     0
100
AcDb2dPolyline
 66
     1
 10
0.0
 20
0.0
 30
0.0
  0
VERTEX
  5
67
330
66
100
AcDbEntity
  8
_U+30EC_U+30A4_U+30E4_U+30FC 1
370
     0
100
AcDbVertex
100
AcDb2dVertex
 10
53.52093640155032
 20
-105.9070583502593
 30
0.0
  0
VERTEX
  5
68
330
66
100
AcDbEntity
  8
_U+30EC_U+30A4_U+30E4_U+30FC 1
370
     0
100
AcDbVertex
100
AcDb2dVertex
 10
53.13749727404202
 20
-105.9070583502593
 30
0.0
  0
VERTEX
  5
69
330
66
100
AcDbEntity
  8
_U+30EC_U+30A4_U+30E4_U+30FC 1
370
     0
100
AcDbVertex
100
AcDb2dVertex
 10
53.13749727404202
 20
-106.1771538363029
 30
0.0
  0
VERTEX
  5
6A
330
66
100
AcDbEntity
  8
_U+30EC_U+30A4_U+30E4_U+30FC 1
370
     0
100
AcDbVertex
100
AcDb2dVertex
 10
53.52093640155032
 20
-106.1771538363029
 30
0.0
  0
VERTEX
  5
6B
330
66
100
AcDbEntity
  8
_U+30EC_U+30A4_U+30E4_U+30FC 1
370
     0
100
AcDbVertex
100
AcDb2dVertex
 10
53.52093640155032
 20
-105.9070583502593
 30
0.0
  0
SEQEND
  5
6C
330
66
100
AcDbEntity
  8
_U+30EC_U+30A4_U+30E4_U+30FC 1
370
     0
  0
POLYLINE
  5
6D
330
4B
100
AcDbEntity
  8
_U+30EC_U+30A4_U+30E4_U+30FC 1
370
     0
100
AcDb2dPolyline
 66
     1
 10
0.0
 20
0.0
 30
0.0
  0
VERTEX
  5
6E
330
6D
100
AcDbEntity
  8
_U+30EC_U+30A4_U+30E4_U+30FC 1
370
     0
100
AcDbVertex
100
AcDb2dVertex
 10
54.08937715661655
 20
-105.4939914015779
 30
0.0
  0
VERTEX
  5
6F
330
6D
100
AcDbEntity
  8
_U+30EC_U+30A4_U+30E4_U+30FC 1
370
     0
100
AcDbVertex
100
AcDb2dVertex
 10
53.68750676826215
 20
-105.4939914015779
 30
0.0
  0
VERTEX
  5
70
330
6D
100
AcDbEntity
  8
_U+30EC_U+30A4_U+30E4_U+30FC 1
370
     0
100
AcDbVertex
100
AcDb2dVertex
 10
53.68750676826215
 20
-105.7606417921362
 30
0.0
  0
VERTEX
  5
71
330
6D
100
AcDbEntity
  8
_U+30EC_U+30A4_U+30E4_U+30FC 1
370
     0
100
AcDbVertex
100
AcDb2dVertex
 10
54.08937715661655
 20
-105.7606417921362
 30
0.0
  0
VERTEX
  5
72
330
6D
100
AcDbEntity
  8
_U+30EC_U+30A4_U+30E4_U+30FC 1
370
     0
100
AcDbVertex
100
AcDb2dVertex
 10
54.08937715661655
 20
-105.4939914015779
 30
0.0
  0
SEQEND
  5
73
330
6D
100
AcDbEntity
  8
_U+30EC_U+30A4_U+30E4_U+30FC 1
370
     0
  0
POLYLINE
  5
74
330
4B
100
AcDbEntity
  8
_U+30EC_U+30A4_U+30E4_U+30FC 1
370
     0
100
AcDb2dPolyline
 66
     1
 10
0.0
 20
0.0
 30
0.0
  0
VERTEX
  5
75
330
74
100
AcDbEntity
  8
_U+30EC_U+30A4_U+30E4_U+30FC 1
370
     0
100
AcDbVertex
100
AcDb2dVertex
 10
54.08937715661655
 20
-105.9070583502593
 30
0.0
  0
VERTEX
  5
76
330
74
100
AcDbEntity
  8
_U+30EC_U+30A4_U+30E4_U+30FC 1
370
     0
100
AcDbVertex
100
AcDb2dVertex
 10
53.68750676826215
 20
-105.9070583502593
 30
0.0
  0
VERTEX
  5
77
330
74
100
AcDbEntity
  8
_U+30EC_U+30A4_U+30E4_U+30FC 1
370
     0
100
AcDbVertex
100
AcDb2dVertex
 10
53.68750676826215
 20
-106.1771538363029
 30
0.0
  0
VERTEX
  5
78
330
74
100
AcDbEntity
  8
_U+30EC_U+30A4_U+30E4_U+30FC 1
370
     0
100
AcDbVertex
100
AcDb2dVertex
 10
54.08937715661655
 20
-106.1771538363029
 30
0.0
  0
VERTEX
  5
79
330
74
100
AcDbEntity
  8
_U+30EC_U+30A4_U+30E4_U+30FC 1
370
     0
100
AcDbVertex
100
AcDb2dVertex
 10
54.08937715661655
 20
-105.9070583502593
 30
0.0
  0
SEQEND
  5
7A
330
74
100
AcDbEntity
  8
_U+30EC_U+30A4_U+30E4_U+30FC 1
370
     0
  0
HATCH
  5
7B
330
4B
100
AcDbEntity
  8
_U+30EC_U+30A4_U+30E4_U+30FC 1
 62
   179
420
  2234388
100
AcDbHatch
 10
0.0
 20
0.0
 30
0.0
210
0.0
220
0.0
230
1.0
  2
SOLID
 70
     1
 71
     0
 91
        5
 92
        1
 93
        1
 72
     4
 94
        3
 73
     0
 74
     1
 95
       77
 96
       73
 40
0.0
 40
0.0
 40
0.0
 40
0.0
 40
1.0
 40
1.0
 40
1.0
 40
2.0
 40
2.0
 40
2.0
 40
3.0
 40
3.0
 40
3.0
 40
4.0
 40
4.0
 40
4.0
 40
5.0
 40
5.0
 40
5.0
 40
6.0
 40
6.0
 40
6.0
 40
7.0
 40
7.0
 40
7.0
 40
8.0
 40
8.0
 40
8.0
 40
9.0
 40
9.0
 40
9.0
 40
10.0
 40
10.0
 40
10.0
 40
11.0
 40
11.0
 40
11.0
 40
12.0
 40
12.0
 40
12.0
 40
13.0
 40
13.0
 40
13.0
 40
14.0
 40
14.0
 40
14.0
 40
15.0
 40
15.0
 40
15.0
 40
16.0
 40
16.0
 40
16.0
 40
17.0
 40
17.0
 40
17.0
 40
18.0
 40
18.0
 40
18.0
 40
19.0
 40
19.0
 40
19.0
 40
20.0
 40
20.0
 40
20.0
 40
21.0
 40
21.0
 40
21.0
 40
22.0
 40
22.0
 40
22.0
 40
23.0
 40
23.0
 40
23.0
 40
24.0
 40
24.0
 40
24.0
 40
24.0
 10
54.20788844130914
 20
-106.8827093916821
 10
54.16723631458319
 20
-106.9051025123362
 10
54.05785453292651
 20
-106.916126817889
 10
53.9894693875443
 20
-106.916126817889
 10
53.97827282721724
 20
-106.916126817889
 10
53.95605196133738
 20
-106.916126817889
 10
53.92642414016423
 20
-106.9123372128552
 10
53.92642414016423
 20
-106.9123372128552
 10
53.84133028167856
 20
-106.7142442224534
 10
53.84133028167856
 20
-106.7142442224534
 10
53.86716849781794
 20
-106.7197563752298
 10
53.91712238235406
 20
-106.7273355852973
 10
54.01909720871745
 20
-106.7273355852973
 10
54.08748235409966
 20
-106.7273355852973
 10
54.08937715661655
 20
-106.6901285540566
 10
54.08937715661655
 20
-106.6401746695205
 10
54.08937715661655
 20
-106.6401746695205
 10
54.08937715661655
 20
-106.3345946999789
 10
54.08937715661655
 20
-106.3345946999789
 10
54.08937715661655
 20
-106.3345946999789
 10
53.68750676826215
 20
-106.3345946999789
 10
53.68750676826215
 20
-106.3345946999789
 10
53.68940157077904
 20
-106.4551730419626
 10
53.69129637329593
 20
-106.6291503639677
 10
53.69680852607233
 20
-106.7459391009177
 10
53.69870332858922
 20
-106.7697102597659
 10
53.69870332858922
 20
-106.8086398387492
 10
53.70972763414201
 20
-106.8623833283191
 10
53.70972763414201
 20
-106.8623833283191
 10
53.49871553567046
 20
-106.8623833283191
 10
53.49871553567046
 20
-106.8623833283191
 10
53.52093640155032
 20
-106.7531738014367
 10
53.52093640155032
 20
-106.4551730419626
 10
53.52093640155032
 20
-106.3345946999789
 10
53.52093640155032
 20
-106.3345946999789
 10
53.1338799237825
 20
-106.3345946999789
 10
53.1338799237825
 20
-106.3345946999789
 10
53.11355386041953
 20
-106.5161512320515
 10
53.05619302059012
 20
-106.7514512536941
 10
52.88393824632763
 20
-106.9123372128552
 10
52.88393824632763
 20
-106.9123372128552
 10
52.71909042735842
 20
-106.805194743264
 10
52.71909042735842
 20
-106.805194743264
 10
52.94129908615704
 20
-106.61226939609
 10
52.9690321048133
 20
-106.3218478466834
 10
52.9690321048133
 20
-106.0310817877283
 10
52.9690321048133
 20
-106.0310817877283
 10
52.9690321048133
 20
-105.6497097175112
 10
52.9690321048133
 20
-105.6497097175112
 10
52.9690321048133
 20
-105.6180148390469
 10
52.96730955707068
 20
-105.4144096958686
 10
52.95973034700312
 20
-105.3255262323492
 10
53.08203123672949
 20
-105.3348279901594
 10
53.29321558997531
 20
-105.3348279901594
 10
53.41896157518693
 20
-105.3348279901594
 10
53.41896157518693
 20
-105.3348279901594
 10
53.82083196354132
 20
-105.3348279901594
 10
53.82083196354132
 20
-105.3348279901594
 10
53.83375107161101
 20
-105.3348279901594
 10
54.13933104115267
 20
-105.3348279901594
 10
54.27816838920824
 20
-105.3255262323492
 10
54.27644584146562
 20
-105.3716905118515
 10
54.27093368868921
 20
-105.5125949171982
 10
54.27093368868921
 20
-105.557036648958
 10
54.27093368868921
 20
-105.557036648958
 10
54.27093368868921
 20
-106.0882703727835
 10
54.27093368868921
 20
-106.0882703727835
 10
54.27093368868921
 20
-106.1051513406612
 10
54.28006319172513
 20
-106.605034695571
 10
54.28006319172513
 20
-106.7032199169006
 10
54.28006319172513
 20
-106.7531738014367
 10
54.28006319172513
 20
-106.8420572649562
 10
54.20788844130914
 20
-106.8827093916821
 97
        0
 97
        0
 92
        1
 93
        4
 72
     1
 10
53.52093640155032
 20
-105.4939914015779
 11
53.13749727404202
 21
-105.4939914015779
 72
     1
 10
53.13749727404202
 20
-105.4939914015779
 11
53.13749727404202
 21
-105.7606417921362
 72
     1
 10
53.13749727404202
 20
-105.7606417921362
 11
53.52093640155032
 21
-105.7606417921362
 72
     1
 10
53.52093640155032
 20
-105.7606417921362
 11
53.52093640155032
 21
-105.4939914015779
 97
        0
 92
        1
 93
        4
 72
     1
 10
53.52093640155032
 20
-105.9070583502593
 11
53.13749727404202
 21
-105.9070583502593
 72
     1
 10
53.13749727404202
 20
-105.9070583502593
 11
53.13749727404202
 21
-106.1771538363029
 72
     1
 10
53.13749727404202
 20
-106.1771538363029
 11
53.52093640155032
 21
-106.1771538363029
 72
     1
 10
53.52093640155032
 20
-106.1771538363029
 11
53.52093640155032
 21
-105.9070583502593
 97
        0
 92
        1
 93
        4
 72
     1
 10
54.08937715661655
 20
-105.4939914015779
 11
53.68750676826215
 21
-105.4939914015779
 72
     1
 10
53.68750676826215
 20
-105.4939914015779
 11
53.68750676826215
 21
-105.7606417921362
 72
     1
 10
53.68750676826215
 20
-105.7606417921362
 11
54.08937715661655
 21
-105.7606417921362
 72
     1
 10
54.08937715661655
 20
-105.7606417921362
 11
54.08937715661655
 21
-105.4939914015779
 97
        0
 92
        1
 93
        4
 72
     1
 10
54.08937715661655
 20
-105.9070583502593
 11
53.68750676826215
 21
-105.9070583502593
 72
     1
 10
53.68750676826215
 20
-105.9070583502593
 11
53.68750676826215
 21
-106.1771538363029
 72
     1
 10
53.68750676826215
 20
-106.1771538363029
 11
54.08937715661655
 21
-106.1771538363029
 72
     1
 10
54.08937715661655
 20
-106.1771538363029
 11
54.08937715661655
 21
-105.9070583502593
 97
        0
 75
     2
 76
     1
 98
        0
  0
SPLINE
  5
7C
330
4B
100
AcDbEntity
  8
_U+30EC_U+30A4_U+30E4_U+30FC 1
370
     0
100
AcDbSpline
210
0.0
220
0.0
230
1.0
 70
    11
 71
     3
 72
    44
 73
    40
 74
     0
 42
0.0000000001
 43
0.0000000001
 12
1.0
 22
0.0
 32
0.0
 13
1.0
 23
0.0
 33
0.0
 40
0.0
 40
0.0
 40
0.0
 40
0.0
 40
1.0
 40
1.0
 40
1.0
 40
2.0
 40
2.0
 40
2.0
 40
3.0
 40
3.0
 40
3.0
 40
4.0
 40
4.0
 40
4.0
 40
5.0
 40
5.0
 40
5.0
 40
6.0
 40
6.0
 40
6.0
 40
7.0
 40
7.0
 40
7.0
 40
8.0
 40
8.0
 40
8.0
 40
9.0
 40
9.0
 40
9.0
 40
10.0
 40
10.0
 40
10.0
 40
11.0
 40
11.0
 40
11.0
 40
12.0
 40
12.0
 40
12.0
 40
13.0
 40
13.0
 40
13.0
 40
13.0
 10
55.85257702596741
 20
-105.7885470655668
 30
0.0
 10
55.75439180463779
 20
-106.1106634934376
 30
0.0
 10
55.70995007287807
 20
-106.2495008414932
 30
0.0
 10
55.53786755338984
 20
-106.467919895258
 30
0.0
 10
55.37680933945441
 20
-106.6698024906937
 30
0.0
 10
55.16941459124237
 20
-106.832755507146
 30
0.0
 10
54.92481281178964
 20
-106.9144042701464
 30
0.0
 10
54.92481281178964
 20
-106.9144042701464
 30
0.0
 10
54.75634764256092
 20
-106.7569634064705
 30
0.0
 10
54.75634764256092
 20
-106.7569634064705
 30
0.0
 10
55.31755369710812
 20
-106.6236382111913
 30
0.0
 10
55.60625269877205
 20
-106.136501709577
 30
0.0
 10
55.66189099085884
 20
-105.7513400343261
 30
0.0
 10
55.66189099085884
 20
-105.7513400343261
 30
0.0
 10
54.99164766420348
 20
-105.7513400343261
 30
0.0
 10
54.99164766420348
 20
-105.7513400343261
 30
0.0
 10
54.90999890120306
 20
-105.7513400343261
 30
0.0
 10
54.74894068726763
 20
-105.7551296393598
 30
0.0
 10
54.61199814172895
 20
-105.771666097689
 30
0.0
 10
54.61199814172895
 20
-105.771666097689
 30
0.0
 10
54.61199814172895
 20
-105.5790852600636
 30
0.0
 10
54.61199814172895
 20
-105.5790852600636
 30
0.0
 10
54.68779024240445
 20
-105.5976887756839
 30
0.0
 10
54.90827635346044
 20
-105.5976887756839
 30
0.0
 10
54.99526501446299
 20
-105.5976887756839
 30
0.0
 10
54.99526501446299
 20
-105.5976887756839
 30
0.0
 10
55.37301973442064
 20
-105.5976887756839
 30
0.0
 10
55.37301973442064
 20
-105.5976887756839
 30
0.0
 10
55.41005451088707
 20
-105.5976887756839
 30
0.0
 10
55.61555445658222
 20
-105.5959662279413
 30
0.0
 10
55.64897188278915
 20
-105.5904540751649
 30
0.0
 10
55.68600665925558
 20
-105.58459741284
 30
0.0
 10
55.68790146177247
 20
-105.5828748650973
 30
0.0
 10
55.74147269656811
 20
-105.5477348911478
 30
0.0
 10
55.74147269656811
 20
-105.5477348911478
 30
0.0
 10
55.90632051553731
 20
-105.6827826341696
 30
0.0
 10
55.90632051553731
 20
-105.6827826341696
 30
0.0
 10
55.88048229939794
 20
-105.7089653598575
 30
0.0
 10
55.86739093655399
 20
-105.7365261237395
 30
0.0
 10
55.85257702596741
 20
-105.7885470655668
 30
0.0
  0
SPLINE
  5
7D
330
4B
100
AcDbEntity
  8
_U+30EC_U+30A4_U+30E4_U+30FC 1
370
     0
100
AcDbSpline
210
0.0
220
0.0
230
1.0
 70
    11
 71
     3
 72
    17
 73
    13
 74
     0
 42
0.0000000001
 43
0.0000000001
 12
1.0
 22
0.0
 32
0.0
 13
1.0
 23
0.0
 33
0.0
 40
0.0
 40
0.0
 40
0.0
 40
0.0
 40
1.0
 40
1.0
 40
1.0
 40
2.0
 40
2.0
 40
2.0
 40
3.0
 40
3.0
 40
3.0
 40
4.0
 40
4.0
 40
4.0
 40
4.0
 10
56.03585610578271
 20
-105.6142252340131
 30
0.0
 10
55.92492403115766
 20
-105.6142252340131
 30
0.0
 10
55.83604056763821
 20
-105.5253417704937
 30
0.0
 10
55.83604056763821
 20
-105.4144096958686
 30
0.0
 10
55.83604056763821
 20
-105.3031331116951
 30
0.0
 10
55.92492403115766
 20
-105.212527100433
 30
0.0
 10
56.03585610578271
 20
-105.212527100433
 30
0.0
 10
56.14713268995627
 20
-105.212527100433
 30
0.0
 10
56.23773870121835
 20
-105.3031331116951
 30
0.0
 10
56.23773870121835
 20
-105.4144096958686
 30
0.0
 10
56.23773870121835
 20
-105.5253417704937
 30
0.0
 10
56.14713268995627
 20
-105.6142252340131
 30
0.0
 10
56.03585610578271
 20
-105.6142252340131
 30
0.0
  0
SPLINE
  5
7E
330
4B
100
AcDbEntity
  8
_U+30EC_U+30A4_U+30E4_U+30FC 1
370
     0
100
AcDbSpline
210
0.0
220
0.0
230
1.0
 70
    11
 71
     3
 72
    17
 73
    13
 74
     0
 42
0.0000000001
 43
0.0000000001
 12
1.0
 22
0.0
 32
0.0
 13
1.0
 23
0.0
 33
0.0
 40
0.0
 40
0.0
 40
0.0
 40
0.0
 40
1.0
 40
1.0
 40
1.0
 40
2.0
 40
2.0
 40
2.0
 40
3.0
 40
3.0
 40
3.0
 40
4.0
 40
4.0
 40
4.0
 40
4.0
 10
56.03413355804008
 20
-105.3255262323492
 30
0.0
 10
55.98590222124658
 20
-105.3255262323492
 30
0.0
 10
55.94697264226326
 20
-105.3644558113325
 30
0.0
 10
55.94697264226326
 20
-105.412687148126
 30
0.0
 10
55.94697264226326
 20
-105.4626410326621
 30
0.0
 10
55.98590222124658
 20
-105.5050157071307
 30
0.0
 10
56.03775090829959
 20
-105.5050157071307
 30
0.0
 10
56.0895995953526
 20
-105.5050157071307
 30
0.0
 10
56.12473956930215
 20
-105.460573975371
 30
0.0
 10
56.12473956930215
 20
-105.4144096958686
 30
0.0
 10
56.12473956930215
 20
-105.3644558113325
 30
0.0
 10
56.08408744257621
 20
-105.3255262323492
 30
0.0
 10
56.03413355804008
 20
-105.3255262323492
 30
0.0
  0
HATCH
  5
7F
330
4B
100
AcDbEntity
  8
_U+30EC_U+30A4_U+30E4_U+30FC 1
 62
   179
420
  2234388
100
AcDbHatch
 10
0.0
 20
0.0
 30
0.0
210
0.0
220
0.0
230
1.0
  2
SOLID
 70
     1
 71
     0
 91
        3
 92
        1
 93
        1
 72
     4
 94
        3
 73
     0
 74
     1
 95
       44
 96
       40
 40
0.0
 40
0.0
 40
0.0
 40
0.0
 40
1.0
 40
1.0
 40
1.0
 40
2.0
 40
2.0
 40
2.0
 40
3.0
 40
3.0
 40
3.0
 40
4.0
 40
4.0
 40
4.0
 40
5.0
 40
5.0
 40
5.0
 40
6.0
 40
6.0
 40
6.0
 40
7.0
 40
7.0
 40
7.0
 40
8.0
 40
8.0
 40
8.0
 40
9.0
 40
9.0
 40
9.0
 40
10.0
 40
10.0
 40
10.0
 40
11.0
 40
11.0
 40
11.0
 40
12.0
 40
12.0
 40
12.0
 40
13.0
 40
13.0
 40
13.0
 40
13.0
 10
55.85257702596741
 20
-105.7885470655668
 10
55.75439180463779
 20
-106.1106634934376
 10
55.70995007287807
 20
-106.2495008414932
 10
55.53786755338984
 20
-106.467919895258
 10
55.37680933945441
 20
-106.6698024906937
 10
55.16941459124237
 20
-106.832755507146
 10
54.92481281178964
 20
-106.9144042701464
 10
54.92481281178964
 20
-106.9144042701464
 10
54.75634764256092
 20
-106.7569634064705
 10
54.75634764256092
 20
-106.7569634064705
 10
55.31755369710812
 20
-106.6236382111913
 10
55.60625269877205
 20
-106.136501709577
 10
55.66189099085884
 20
-105.7513400343261
 10
55.66189099085884
 20
-105.7513400343261
 10
54.99164766420348
 20
-105.7513400343261
 10
54.99164766420348
 20
-105.7513400343261
 10
54.90999890120306
 20
-105.7513400343261
 10
54.74894068726763
 20
-105.7551296393598
 10
54.61199814172895
 20
-105.771666097689
 10
54.61199814172895
 20
-105.771666097689
 10
54.61199814172895
 20
-105.5790852600636
 10
54.61199814172895
 20
-105.5790852600636
 10
54.68779024240445
 20
-105.5976887756839
 10
54.90827635346044
 20
-105.5976887756839
 10
54.99526501446299
 20
-105.5976887756839
 10
54.99526501446299
 20
-105.5976887756839
 10
55.37301973442064
 20
-105.5976887756839
 10
55.37301973442064
 20
-105.5976887756839
 10
55.41005451088707
 20
-105.5976887756839
 10
55.61555445658222
 20
-105.5959662279413
 10
55.64897188278915
 20
-105.5904540751649
 10
55.68600665925558
 20
-105.58459741284
 10
55.68790146177247
 20
-105.5828748650973
 10
55.74147269656811
 20
-105.5477348911478
 10
55.74147269656811
 20
-105.5477348911478
 10
55.90632051553731
 20
-105.6827826341696
 10
55.90632051553731
 20
-105.6827826341696
 10
55.88048229939794
 20
-105.7089653598575
 10
55.86739093655399
 20
-105.7365261237395
 10
55.85257702596741
 20
-105.7885470655668
 97
        0
 97
        0
 92
        1
 93
        1
 72
     4
 94
        3
 73
     0
 74
     1
 95
       17
 96
       13
 40
0.0
 40
0.0
 40
0.0
 40
0.0
 40
1.0
 40
1.0
 40
1.0
 40
2.0
 40
2.0
 40
2.0
 40
3.0
 40
3.0
 40
3.0
 40
4.0
 40
4.0
 40
4.0
 40
4.0
 10
56.03585610578271
 20
-105.6142252340131
 10
55.92492403115766
 20
-105.6142252340131
 10
55.83604056763821
 20
-105.5253417704937
 10
55.83604056763821
 20
-105.4144096958686
 10
55.83604056763821
 20
-105.3031331116951
 10
55.92492403115766
 20
-105.212527100433
 10
56.03585610578271
 20
-105.212527100433
 10
56.14713268995627
 20
-105.212527100433
 10
56.23773870121835
 20
-105.3031331116951
 10
56.23773870121835
 20
-105.4144096958686
 10
56.23773870121835
 20
-105.5253417704937
 10
56.14713268995627
 20
-105.6142252340131
 10
56.03585610578271
 20
-105.6142252340131
 97
        0
 97
        0
 92
        1
 93
        1
 72
     4
 94
        3
 73
     0
 74
     1
 95
       17
 96
       13
 40
0.0
 40
0.0
 40
0.0
 40
0.0
 40
1.0
 40
1.0
 40
1.0
 40
2.0
 40
2.0
 40
2.0
 40
3.0
 40
3.0
 40
3.0
 40
4.0
 40
4.0
 40
4.0
 40
4.0
 10
56.03413355804008
 20
-105.3255262323492
 10
55.98590222124658
 20
-105.3255262323492
 10
55.94697264226326
 20
-105.3644558113325
 10
55.94697264226326
 20
-105.412687148126
 10
55.94697264226326
 20
-105.4626410326621
 10
55.98590222124658
 20
-105.5050157071307
 10
56.03775090829959
 20
-105.5050157071307
 10
56.0895995953526
 20
-105.5050157071307
 10
56.12473956930215
 20
-105.460573975371
 10
56.12473956930215
 20
-105.4144096958686
 10
56.12473956930215
 20
-105.3644558113325
 10
56.08408744257621
 20
-105.3255262323492
 10
56.03413355804008
 20
-105.3255262323492
 97
        0
 97
        0
 75
     2
 76
     1
 98
        0
  0
SPLINE
  5
80
330
4B
100
AcDbEntity
  8
_U+30EC_U+30A4_U+30E4_U+30FC 1
370
     0
100
AcDbSpline
210
0.0
220
0.0
230
1.0
 70
    11
 71
     3
 72
    50
 73
    46
 74
     0
 42
0.0000000001
 43
0.0000000001
 12
1.0
 22
0.0
 32
0.0
 13
1.0
 23
0.0
 33
0.0
 40
0.0
 40
0.0
 40
0.0
 40
0.0
 40
1.0
 40
1.0
 40
1.0
 40
2.0
 40
2.0
 40
2.0
 40
3.0
 40
3.0
 40
3.0
 40
4.0
 40
4.0
 40
4.0
 40
5.0
 40
5.0
 40
5.0
 40
6.0
 40
6.0
 40
6.0
 40
7.0
 40
7.0
 40
7.0
 40
8.0
 40
8.0
 40
8.0
 40
9.0
 40
9.0
 40
9.0
 40
10.0
 40
10.0
 40
10.0
 40
11.0
 40
11.0
 40
11.0
 40
12.0
 40
12.0
 40
12.0
 40
13.0
 40
13.0
 40
13.0
 40
14.0
 40
14.0
 40
14.0
 40
15.0
 40
15.0
 40
15.0
 40
15.0
 10
57.60819768525073
 20
-106.0586425516103
 30
0.0
 10
57.53964028509426
 20
-106.2143608675436
 30
0.0
 10
57.42112900040166
 20
-106.3959173996163
 30
0.0
 10
57.30089516796644
 20
-106.5178737797941
 30
0.0
 10
57.1527560621007
 20
-106.668079942951
 30
0.0
 10
57.01012910901136
 20
-106.7459391009177
 30
0.0
 10
56.73055961038334
 20
-106.8699625383867
 30
0.0
 10
56.73055961038334
 20
-106.8699625383867
 30
0.0
 10
56.58242050451759
 20
-106.7049424646432
 30
0.0
 10
56.58242050451759
 20
-106.7049424646432
 30
0.0
 10
56.74537352096991
 20
-106.6846164012802
 30
0.0
 10
56.89540742935254
 20
-106.6088243006047
 30
0.0
 10
57.02873262463171
 20
-106.5161512320515
 30
0.0
 10
57.25817598394935
 20
-106.356987820633
 30
0.0
 10
57.42491860543544
 20
-106.0827582200071
 30
0.0
 10
57.46746553467828
 20
-105.9235948085885
 30
0.0
 10
57.46746553467828
 20
-105.9235948085885
 30
0.0
 10
56.88059351876596
 20
-105.9235948085885
 30
0.0
 10
56.88059351876596
 20
-105.9235948085885
 30
0.0
 10
56.74158391593613
 20
-105.9235948085885
 30
0.0
 10
56.48613008570486
 20
-105.9308295091076
 30
0.0
 10
56.35280489042569
 20
-105.9459879292427
 30
0.0
 10
56.35280489042569
 20
-105.9459879292427
 30
0.0
 10
56.35280489042569
 20
-105.7458278815497
 30
0.0
 10
56.35280489042569
 20
-105.7458278815497
 30
0.0
 10
56.38243271159884
 20
-105.7513400343261
 30
0.0
 10
56.4046535774787
 20
-105.7568521871025
 30
0.0
 10
56.45099011175531
 20
-105.7606417921362
 30
0.0
 10
56.53987357527475
 20
-105.7661539449126
 30
0.0
 10
56.71195609476299
 20
-105.7682210022038
 30
0.0
 10
56.78602564769586
 20
-105.7682210022038
 30
0.0
 10
56.78602564769586
 20
-105.7682210022038
 30
0.0
 10
57.2285481627762
 20
-105.7682210022038
 30
0.0
 10
57.2285481627762
 20
-105.7682210022038
 30
0.0
 10
57.28780380512249
 20
-105.7682210022038
 30
0.0
 10
57.41561684762527
 20
-105.76443139717
 30
0.0
 10
57.46936033719516
 20
-105.7589192443936
 30
0.0
 10
57.53240558457524
 20
-105.7513400343261
 30
0.0
 10
57.55634899819772
 20
-105.7385931810306
 30
0.0
 10
57.58597681937087
 20
-105.7179226081191
 30
0.0
 10
57.58597681937087
 20
-105.7179226081191
 30
0.0
 10
57.7304985749771
 20
-105.8643391662423
 30
0.0
 10
57.7304985749771
 20
-105.8643391662423
 30
0.0
 10
57.66934813011392
 20
-105.9235948085885
 30
0.0
 10
57.6285237486137
 20
-106.0142008198506
 30
0.0
 10
57.60819768525073
 20
-106.0586425516103
 30
0.0
  0
SPLINE
  5
81
330
4B
100
AcDbEntity
  8
_U+30EC_U+30A4_U+30E4_U+30FC 1
370
     0
100
AcDbSpline
210
0.0
220
0.0
230
1.0
 70
    11
 71
     3
 72
    29
 73
    25
 74
     0
 42
0.0000000001
 43
0.0000000001
 12
1.0
 22
0.0
 32
0.0
 13
1.0
 23
0.0
 33
0.0
 40
0.0
 40
0.0
 40
0.0
 40
0.0
 40
1.0
 40
1.0
 40
1.0
 40
2.0
 40
2.0
 40
2.0
 40
3.0
 40
3.0
 40
3.0
 40
4.0
 40
4.0
 40
4.0
 40
5.0
 40
5.0
 40
5.0
 40
6.0
 40
6.0
 40
6.0
 40
7.0
 40
7.0
 40
7.0
 40
8.0
 40
8.0
 40
8.0
 40
8.0
 10
57.17687173049745
 20
-105.5105278599071
 30
0.0
 10
57.17687173049745
 20
-105.5105278599071
 30
0.0
 10
56.87869871624908
 20
-105.5105278599071
 30
0.0
 10
56.87869871624908
 20
-105.5105278599071
 30
0.0
 10
56.77861869240257
 20
-105.5105278599071
 30
0.0
 10
56.67681612081343
 20
-105.5143174649409
 30
0.0
 10
56.57673609696693
 20
-105.5274088277848
 30
0.0
 10
56.57673609696693
 20
-105.5274088277848
 30
0.0
 10
56.57673609696693
 20
-105.3441297479695
 30
0.0
 10
56.57673609696693
 20
-105.3441297479695
 30
0.0
 10
56.68043347107295
 20
-105.356876601265
 30
0.0
 10
56.83236218197247
 20
-105.3606662062987
 30
0.0
 10
56.87869871624908
 20
-105.3606662062987
 30
0.0
 10
56.87869871624908
 20
-105.3606662062987
 30
0.0
 10
57.17687173049745
 20
-105.3606662062987
 30
0.0
 10
57.17687173049745
 20
-105.3606662062987
 30
0.0
 10
57.27867430208659
 20
-105.3606662062987
 30
0.0
 10
57.38047687367572
 20
-105.356876601265
 30
0.0
 10
57.48227944526485
 20
-105.3441297479695
 30
0.0
 10
57.48227944526485
 20
-105.3441297479695
 30
0.0
 10
57.48227944526485
 20
-105.5274088277848
 30
0.0
 10
57.48227944526485
 20
-105.5274088277848
 30
0.0
 10
57.35084905250257
 20
-105.5105278599071
 30
0.0
 10
57.18979083856714
 20
-105.5105278599071
 30
0.0
 10
57.17687173049745
 20
-105.5105278599071
 30
0.0
  0
HATCH
  5
82
330
4B
100
AcDbEntity
  8
_U+30EC_U+30A4_U+30E4_U+30FC 1
 62
   179
420
  2234388
100
AcDbHatch
 10
0.0
 20
0.0
 30
0.0
210
0.0
220
0.0
230
1.0
  2
SOLID
 70
     1
 71
     0
 91
        2
 92
        1
 93
        1
 72
     4
 94
        3
 73
     0
 74
     1
 95
       50
 96
       46
 40
0.0
 40
0.0
 40
0.0
 40
0.0
 40
1.0
 40
1.0
 40
1.0
 40
2.0
 40
2.0
 40
2.0
 40
3.0
 40
3.0
 40
3.0
 40
4.0
 40
4.0
 40
4.0
 40
5.0
 40
5.0
 40
5.0
 40
6.0
 40
6.0
 40
6.0
 40
7.0
 40
7.0
 40
7.0
 40
8.0
 40
8.0
 40
8.0
 40
9.0
 40
9.0
 40
9.0
 40
10.0
 40
10.0
 40
10.0
 40
11.0
 40
11.0
 40
11.0
 40
12.0
 40
12.0
 40
12.0
 40
13.0
 40
13.0
 40
13.0
 40
14.0
 40
14.0
 40
14.0
 40
15.0
 40
15.0
 40
15.0
 40
15.0
 10
57.60819768525073
 20
-106.0586425516103
 10
57.53964028509426
 20
-106.2143608675436
 10
57.42112900040166
 20
-106.3959173996163
 10
57.30089516796644
 20
-106.5178737797941
 10
57.1527560621007
 20
-106.668079942951
 10
57.01012910901136
 20
-106.7459391009177
 10
56.73055961038334
 20
-106.8699625383867
 10
56.73055961038334
 20
-106.8699625383867
 10
56.58242050451759
 20
-106.7049424646432
 10
56.58242050451759
 20
-106.7049424646432
 10
56.74537352096991
 20
-106.6846164012802
 10
56.89540742935254
 20
-106.6088243006047
 10
57.02873262463171
 20
-106.5161512320515
 10
57.25817598394935
 20
-106.356987820633
 10
57.42491860543544
 20
-106.0827582200071
 10
57.46746553467828
 20
-105.9235948085885
 10
57.46746553467828
 20
-105.9235948085885
 10
56.88059351876596
 20
-105.9235948085885
 10
56.88059351876596
 20
-105.9235948085885
 10
56.74158391593613
 20
-105.9235948085885
 10
56.48613008570486
 20
-105.9308295091076
 10
56.35280489042569
 20
-105.9459879292427
 10
56.35280489042569
 20
-105.9459879292427
 10
56.35280489042569
 20
-105.7458278815497
 10
56.35280489042569
 20
-105.7458278815497
 10
56.38243271159884
 20
-105.7513400343261
 10
56.4046535774787
 20
-105.7568521871025
 10
56.45099011175531
 20
-105.7606417921362
 10
56.53987357527475
 20
-105.7661539449126
 10
56.71195609476299
 20
-105.7682210022038
 10
56.78602564769586
 20
-105.7682210022038
 10
56.78602564769586
 20
-105.7682210022038
 10
57.2285481627762
 20
-105.7682210022038
 10
57.2285481627762
 20
-105.7682210022038
 10
57.28780380512249
 20
-105.7682210022038
 10
57.41561684762527
 20
-105.76443139717
 10
57.46936033719516
 20
-105.7589192443936
 10
57.53240558457524
 20
-105.7513400343261
 10
57.55634899819772
 20
-105.7385931810306
 10
57.58597681937087
 20
-105.7179226081191
 10
57.58597681937087
 20
-105.7179226081191
 10
57.7304985749771
 20
-105.8643391662423
 10
57.7304985749771
 20
-105.8643391662423
 10
57.66934813011392
 20
-105.9235948085885
 10
57.6285237486137
 20
-106.0142008198506
 10
57.60819768525073
 20
-106.0586425516103
 97
        0
 97
        0
 92
        1
 93
        1
 72
     4
 94
        3
 73
     0
 74
     1
 95
       29
 96
       25
 40
0.0
 40
0.0
 40
0.0
 40
0.0
 40
1.0
 40
1.0
 40
1.0
 40
2.0
 40
2.0
 40
2.0
 40
3.0
 40
3.0
 40
3.0
 40
4.0
 40
4.0
 40
4.0
 40
5.0
 40
5.0
 40
5.0
 40
6.0
 40
6.0
 40
6.0
 40
7.0
 40
7.0
 40
7.0
 40
8.0
 40
8.0
 40
8.0
 40
8.0
 10
57.17687173049745
 20
-105.5105278599071
 10
57.17687173049745
 20
-105.5105278599071
 10
56.87869871624908
 20
-105.5105278599071
 10
56.87869871624908
 20
-105.5105278599071
 10
56.77861869240257
 20
-105.5105278599071
 10
56.67681612081343
 20
-105.5143174649409
 10
56.57673609696693
 20
-105.5274088277848
 10
56.57673609696693
 20
-105.5274088277848
 10
56.57673609696693
 20
-105.3441297479695
 10
56.57673609696693
 20
-105.3441297479695
 10
56.68043347107295
 20
-105.356876601265
 10
56.83236218197247
 20
-105.3606662062987
 10
56.87869871624908
 20
-105.3606662062987
 10
56.87869871624908
 20
-105.3606662062987
 10
57.17687173049745
 20
-105.3606662062987
 10
57.17687173049745
 20
-105.3606662062987
 10
57.27867430208659
 20
-105.3606662062987
 10
57.38047687367572
 20
-105.356876601265
 10
57.48227944526485
 20
-105.3441297479695
 10
57.48227944526485
 20
-105.3441297479695
 10
57.48227944526485
 20
-105.5274088277848
 10
57.48227944526485
 20
-105.5274088277848
 10
57.35084905250257
 20
-105.5105278599071
 10
57.18979083856714
 20
-105.5105278599071
 10
57.17687173049745
 20
-105.5105278599071
 97
        0
 97
        0
 75
     2
 76
     1
 98
        0
  0
SPLINE
  5
83
330
4B
100
AcDbEntity
  8
_U+30EC_U+30A4_U+30E4_U+30FC 1
370
     0
100
AcDbSpline
210
0.0
220
0.0
230
1.0
 70
    11
 71
     3
 72
    50
 73
    46
 74
     0
 42
0.0000000001
 43
0.0000000001
 12
1.0
 22
0.0
 32
0.0
 13
1.0
 23
0.0
 33
0.0
 40
0.0
 40
0.0
 40
0.0
 40
0.0
 40
1.0
 40
1.0
 40
1.0
 40
2.0
 40
2.0
 40
2.0
 40
3.0
 40
3.0
 40
3.0
 40
4.0
 40
4.0
 40
4.0
 40
5.0
 40
5.0
 40
5.0
 40
6.0
 40
6.0
 40
6.0
 40
7.0
 40
7.0
 40
7.0
 40
8.0
 40
8.0
 40
8.0
 40
9.0
 40
9.0
 40
9.0
 40
10.0
 40
10.0
 40
10.0
 40
11.0
 40
11.0
 40
11.0
 40
12.0
 40
12.0
 40
12.0
 40
13.0
 40
13.0
 40
13.0
 40
14.0
 40
14.0
 40
14.0
 40
15.0
 40
15.0
 40
15.0
 40
15.0
 10
59.10629745701162
 20
-105.4977810066117
 30
0.0
 10
58.92284612242207
 20
-105.6848496914607
 30
0.0
 10
58.85997312981626
 20
-105.7475504292923
 30
0.0
 10
58.73594969234726
 20
-105.8512478033983
 30
0.0
 10
58.73594969234726
 20
-105.8512478033983
 30
0.0
 10
58.73594969234726
 20
-106.3476860628228
 30
0.0
 10
58.73594969234726
 20
-106.3476860628228
 30
0.0
 10
58.73594969234726
 20
-106.4792887103594
 30
0.0
 10
58.74146184512367
 20
-106.4958251686886
 30
0.0
 10
58.74507919538318
 20
-106.6511989750733
 30
0.0
 10
58.74697399790006
 20
-106.7662651642807
 30
0.0
 10
58.75265840545072
 20
-106.8086398387492
 30
0.0
 10
58.75817055822713
 20
-106.8606607805765
 30
0.0
 10
58.75817055822713
 20
-106.8606607805765
 30
0.0
 10
58.56007756782526
 20
-106.8606607805765
 30
0.0
 10
58.56007756782526
 20
-106.8606607805765
 30
0.0
 10
58.56369491808477
 20
-106.8217312015932
 30
0.0
 10
58.56731226834429
 20
-106.7810790748672
 30
0.0
 10
58.56731226834429
 20
-106.7734998647997
 30
0.0
 10
58.56731226834429
 20
-106.7032199169006
 30
0.0
 10
58.57110187337806
 20
-106.3959173996163
 30
0.0
 10
58.57110187337806
 20
-106.3328721522362
 30
0.0
 10
58.57110187337806
 20
-106.3328721522362
 30
0.0
 10
58.57110187337806
 20
-105.9773382981584
 30
0.0
 10
58.57110187337806
 20
-105.9773382981584
 30
0.0
 10
58.41193846195952
 20
-106.0865478250409
 30
0.0
 10
58.24140623543965
 20
-106.1830104986279
 30
0.0
 10
58.06363930840076
 20
-106.2588025993034
 30
0.0
 10
58.06363930840076
 20
-106.2588025993034
 30
0.0
 10
57.88587238136187
 20
-106.116175646214
 30
0.0
 10
57.88587238136187
 20
-106.116175646214
 30
0.0
 10
57.99335936050166
 20
-106.0848252772982
 30
0.0
 10
58.21746282181716
 20
-106.019712972627
 30
0.0
 10
58.51925318632505
 20
-105.7957817660858
 30
0.0
 10
58.70821667369101
 20
-105.6569444180302
 30
0.0
 10
58.87668184291972
 20
-105.4922688538353
 30
0.0
 10
59.01000703819889
 20
-105.2996880162098
 30
0.0
 10
59.01000703819889
 20
-105.2996880162098
 30
0.0
 10
59.17847220742761
 20
-105.4254340014214
 30
0.0
 10
59.17847220742761
 20
-105.4254340014214
 30
0.0
 10
59.1894965129804
 20
-105.4347357592316
 30
0.0
 10
59.19707572304796
 20
-105.4478271220756
 30
0.0
 10
59.19707572304796
 20
-105.4588514276283
 30
0.0
 10
59.19707572304796
 20
-105.4939914015779
 30
0.0
 10
59.16365829684104
 20
-105.4939914015779
 30
0.0
 10
59.10629745701162
 20
-105.4977810066117
 30
0.0
  0
HATCH
  5
84
330
4B
100
AcDbEntity
  8
_U+30EC_U+30A4_U+30E4_U+30FC 1
 62
   179
420
  2234388
100
AcDbHatch
 10
0.0
 20
0.0
 30
0.0
210
0.0
220
0.0
230
1.0
  2
SOLID
 70
     1
 71
     0
 91
        1
 92
        1
 93
        1
 72
     4
 94
        3
 73
     0
 74
     1
 95
       50
 96
       46
 40
0.0
 40
0.0
 40
0.0
 40
0.0
 40
1.0
 40
1.0
 40
1.0
 40
2.0
 40
2.0
 40
2.0
 40
3.0
 40
3.0
 40
3.0
 40
4.0
 40
4.0
 40
4.0
 40
5.0
 40
5.0
 40
5.0
 40
6.0
 40
6.0
 40
6.0
 40
7.0
 40
7.0
 40
7.0
 40
8.0
 40
8.0
 40
8.0
 40
9.0
 40
9.0
 40
9.0
 40
10.0
 40
10.0
 40
10.0
 40
11.0
 40
11.0
 40
11.0
 40
12.0
 40
12.0
 40
12.0
 40
13.0
 40
13.0
 40
13.0
 40
14.0
 40
14.0
 40
14.0
 40
15.0
 40
15.0
 40
15.0
 40
15.0
 10
59.10629745701162
 20
-105.4977810066117
 10
58.92284612242207
 20
-105.6848496914607
 10
58.85997312981626
 20
-105.7475504292923
 10
58.73594969234726
 20
-105.8512478033983
 10
58.73594969234726
 20
-105.8512478033983
 10
58.73594969234726
 20
-106.3476860628228
 10
58.73594969234726
 20
-106.3476860628228
 10
58.73594969234726
 20
-106.4792887103594
 10
58.74146184512367
 20
-106.4958251686886
 10
58.74507919538318
 20
-106.6511989750733
 10
58.74697399790006
 20
-106.7662651642807
 10
58.75265840545072
 20
-106.8086398387492
 10
58.75817055822713
 20
-106.8606607805765
 10
58.75817055822713
 20
-106.8606607805765
 10
58.56007756782526
 20
-106.8606607805765
 10
58.56007756782526
 20
-106.8606607805765
 10
58.56369491808477
 20
-106.8217312015932
 10
58.56731226834429
 20
-106.7810790748672
 10
58.56731226834429
 20
-106.7734998647997
 10
58.56731226834429
 20
-106.7032199169006
 10
58.57110187337806
 20
-106.3959173996163
 10
58.57110187337806
 20
-106.3328721522362
 10
58.57110187337806
 20
-106.3328721522362
 10
58.57110187337806
 20
-105.9773382981584
 10
58.57110187337806
 20
-105.9773382981584
 10
58.41193846195952
 20
-106.0865478250409
 10
58.24140623543965
 20
-106.1830104986279
 10
58.06363930840076
 20
-106.2588025993034
 10
58.06363930840076
 20
-106.2588025993034
 10
57.88587238136187
 20
-106.116175646214
 10
57.88587238136187
 20
-106.116175646214
 10
57.99335936050166
 20
-106.0848252772982
 10
58.21746282181716
 20
-106.019712972627
 10
58.51925318632505
 20
-105.7957817660858
 10
58.70821667369101
 20
-105.6569444180302
 10
58.87668184291972
 20
-105.4922688538353
 10
59.01000703819889
 20
-105.2996880162098
 10
59.01000703819889
 20
-105.2996880162098
 10
59.17847220742761
 20
-105.4254340014214
 10
59.17847220742761
 20
-105.4254340014214
 10
59.1894965129804
 20
-105.4347357592316
 10
59.19707572304796
 20
-105.4478271220756
 10
59.19707572304796
 20
-105.4588514276283
 10
59.19707572304796
 20
-105.4939914015779
 10
59.16365829684104
 20
-105.4939914015779
 10
59.10629745701162
 20
-105.4977810066117
 97
        0
 97
        0
 75
     2
 76
     1
 98
        0
  0
SPLINE
  5
85
330
4B
100
AcDbEntity
  8
_U+30EC_U+30A4_U+30E4_U+30FC 1
370
     0
100
AcDbSpline
210
0.0
220
0.0
230
1.0
 70
    11
 71
     3
 72
    50
 73
    46
 74
     0
 42
0.0000000001
 43
0.0000000001
 12
1.0
 22
0.0
 32
0.0
 13
1.0
 23
0.0
 33
0.0
 40
0.0
 40
0.0
 40
0.0
 40
0.0
 40
1.0
 40
1.0
 40
1.0
 40
2.0
 40
2.0
 40
2.0
 40
3.0
 40
3.0
 40
3.0
 40
4.0
 40
4.0
 40
4.0
 40
5.0
 40
5.0
 40
5.0
 40
6.0
 40
6.0
 40
6.0
 40
7.0
 40
7.0
 40
7.0
 40
8.0
 40
8.0
 40
8.0
 40
9.0
 40
9.0
 40
9.0
 40
10.0
 40
10.0
 40
10.0
 40
11.0
 40
11.0
 40
11.0
 40
12.0
 40
12.0
 40
12.0
 40
13.0
 40
13.0
 40
13.0
 40
14.0
 40
14.0
 40
14.0
 40
15.0
 40
15.0
 40
15.0
 40
15.0
 10
60.60439722877251
 20
-105.9587347825381
 30
0.0
 10
60.55065373920262
 20
-106.0217800299182
 30
0.0
 10
60.3229329276276
 20
-106.2994547260293
 30
0.0
 10
60.27297904309148
 20
-106.3549207633418
 30
0.0
 10
60.34704859602435
 20
-106.440359131376
 30
0.0
 10
60.39149032778408
 20
-106.4958251686886
 30
0.0
 10
60.44885116761348
 20
-106.5754068743978
 30
0.0
 10
60.44885116761348
 20
-106.5754068743978
 30
0.0
 10
60.28779295367806
 20
-106.695640706833
 30
0.0
 10
60.28779295367806
 20
-106.695640706833
 30
0.0
 10
60.16928166898546
 20
-106.5106390792751
 30
0.0
 10
60.01924776060283
 20
-106.3142686366159
 30
0.0
 10
59.76172687308041
 20
-106.1402913146108
 30
0.0
 10
59.76172687308041
 20
-106.1402913146108
 30
0.0
 10
59.89143471810006
 20
-106.005243571589
 30
0.0
 10
59.89143471810006
 20
-106.005243571589
 30
0.0
 10
59.98772513691279
 20
-106.0755235194881
 30
0.0
 10
60.07850340294912
 20
-106.1533826774547
 30
0.0
 10
60.16359726143479
 20
-106.2364094786492
 30
0.0
 10
60.2228529037811
 20
-106.1699191357839
 30
0.0
 10
60.40061983081998
 20
-105.9570122347955
 30
0.0
 10
60.51723631299569
 20
-105.7568521871025
 30
0.0
 10
60.51723631299569
 20
-105.7568521871025
 30
0.0
 10
59.9284694945665
 20
-105.7568521871025
 30
0.0
 10
59.9284694945665
 20
-105.7568521871025
 30
0.0
 10
59.81925996768408
 20
-105.7568521871025
 30
0.0
 10
59.59877385662809
 20
-105.76443139717
 30
0.0
 10
59.41549477681279
 20
-105.7737331549802
 30
0.0
 10
59.41549477681279
 20
-105.7737331549802
 30
0.0
 10
59.41549477681279
 20
-105.5811523173547
 30
0.0
 10
59.41549477681279
 20
-105.5811523173547
 30
0.0
 10
59.57672524552249
 20
-105.5976887756839
 30
0.0
 10
59.756214720304
 20
-105.6014783807177
 30
0.0
 10
59.92106253927321
 20
-105.6014783807177
 30
0.0
 10
59.92106253927321
 20
-105.6014783807177
 30
0.0
 10
60.36186250661093
 20
-105.6014783807177
 30
0.0
 10
60.36186250661093
 20
-105.6014783807177
 30
0.0
 10
60.65814071834241
 20
-105.6014783807177
 30
0.0
 10
60.69689804255147
 20
-105.5883870178737
 30
0.0
 10
60.76907279296746
 20
-105.5532470439242
 30
0.0
 10
60.76907279296746
 20
-105.5532470439242
 30
0.0
 10
60.91548935109058
 20
-105.6920843919798
 30
0.0
 10
60.91548935109058
 20
-105.6920843919798
 30
0.0
 10
60.78216415581141
 20
-105.7551296393598
 30
0.0
 10
60.65624591582552
 20
-105.8977565924492
 30
0.0
 10
60.60439722877251
 20
-105.9587347825381
 30
0.0
  0
HATCH
  5
86
330
4B
100
AcDbEntity
  8
_U+30EC_U+30A4_U+30E4_U+30FC 1
 62
   179
420
  2234388
100
AcDbHatch
 10
0.0
 20
0.0
 30
0.0
210
0.0
220
0.0
230
1.0
  2
SOLID
 70
     1
 71
     0
 91
        1
 92
        1
 93
        1
 72
     4
 94
        3
 73
     0
 74
     1
 95
       50
 96
       46
 40
0.0
 40
0.0
 40
0.0
 40
0.0
 40
1.0
 40
1.0
 40
1.0
 40
2.0
 40
2.0
 40
2.0
 40
3.0
 40
3.0
 40
3.0
 40
4.0
 40
4.0
 40
4.0
 40
5.0
 40
5.0
 40
5.0
 40
6.0
 40
6.0
 40
6.0
 40
7.0
 40
7.0
 40
7.0
 40
8.0
 40
8.0
 40
8.0
 40
9.0
 40
9.0
 40
9.0
 40
10.0
 40
10.0
 40
10.0
 40
11.0
 40
11.0
 40
11.0
 40
12.0
 40
12.0
 40
12.0
 40
13.0
 40
13.0
 40
13.0
 40
14.0
 40
14.0
 40
14.0
 40
15.0
 40
15.0
 40
15.0
 40
15.0
 10
60.60439722877251
 20
-105.9587347825381
 10
60.55065373920262
 20
-106.0217800299182
 10
60.3229329276276
 20
-106.2994547260293
 10
60.27297904309148
 20
-106.3549207633418
 10
60.34704859602435
 20
-106.440359131376
 10
60.39149032778408
 20
-106.4958251686886
 10
60.44885116761348
 20
-106.5754068743978
 10
60.44885116761348
 20
-106.5754068743978
 10
60.28779295367806
 20
-106.695640706833
 10
60.28779295367806
 20
-106.695640706833
 10
60.16928166898546
 20
-106.5106390792751
 10
60.01924776060283
 20
-106.3142686366159
 10
59.76172687308041
 20
-106.1402913146108
 10
59.76172687308041
 20
-106.1402913146108
 10
59.89143471810006
 20
-106.005243571589
 10
59.89143471810006
 20
-106.005243571589
 10
59.98772513691279
 20
-106.0755235194881
 10
60.07850340294912
 20
-106.1533826774547
 10
60.16359726143479
 20
-106.2364094786492
 10
60.2228529037811
 20
-106.1699191357839
 10
60.40061983081998
 20
-105.9570122347955
 10
60.51723631299569
 20
-105.7568521871025
 10
60.51723631299569
 20
-105.7568521871025
 10
59.9284694945665
 20
-105.7568521871025
 10
59.9284694945665
 20
-105.7568521871025
 10
59.81925996768408
 20
-105.7568521871025
 10
59.59877385662809
 20
-105.76443139717
 10
59.41549477681279
 20
-105.7737331549802
 10
59.41549477681279
 20
-105.7737331549802
 10
59.41549477681279
 20
-105.5811523173547
 10
59.41549477681279
 20
-105.5811523173547
 10
59.57672524552249
 20
-105.5976887756839
 10
59.756214720304
 20
-105.6014783807177
 10
59.92106253927321
 20
-105.6014783807177
 10
59.92106253927321
 20
-105.6014783807177
 10
60.36186250661093
 20
-105.6014783807177
 10
60.36186250661093
 20
-105.6014783807177
 10
60.65814071834241
 20
-105.6014783807177
 10
60.69689804255147
 20
-105.5883870178737
 10
60.76907279296746
 20
-105.5532470439242
 10
60.76907279296746
 20
-105.5532470439242
 10
60.91548935109058
 20
-105.6920843919798
 10
60.91548935109058
 20
-105.6920843919798
 10
60.78216415581141
 20
-105.7551296393598
 10
60.65624591582552
 20
-105.8977565924492
 10
60.60439722877251
 20
-105.9587347825381
 97
        0
 97
        0
 75
     2
 76
     1
 98
        0
  0
SPLINE
  5
87
330
4B
100
AcDbEntity
  8
_U+30EC_U+30A4_U+30E4_U+30FC 1
370
     0
100
AcDbSpline
210
0.0
220
0.0
230
1.0
 70
    11
 71
     3
 72
    29
 73
    25
 74
     0
 42
0.0000000001
 43
0.0000000001
 12
1.0
 22
0.0
 32
0.0
 13
1.0
 23
0.0
 33
0.0
 40
0.0
 40
0.0
 40
0.0
 40
0.0
 40
1.0
 40
1.0
 40
1.0
 40
2.0
 40
2.0
 40
2.0
 40
3.0
 40
3.0
 40
3.0
 40
4.0
 40
4.0
 40
4.0
 40
5.0
 40
5.0
 40
5.0
 40
6.0
 40
6.0
 40
6.0
 40
7.0
 40
7.0
 40
7.0
 40
8.0
 40
8.0
 40
8.0
 40
8.0
 10
62.02670489985791
 20
-106.1716416835265
 30
0.0
 10
62.02670489985791
 20
-106.1716416835265
 30
0.0
 10
61.60261364562366
 20
-106.1716416835265
 30
0.0
 10
61.60261364562366
 20
-106.1716416835265
 30
0.0
 10
61.57867023200117
 20
-106.1716416835265
 30
0.0
 10
61.30082328111577
 20
-106.1716416835265
 30
0.0
 10
61.11564939878359
 20
-106.1940348041807
 30
0.0
 10
61.11564939878359
 20
-106.1940348041807
 30
0.0
 10
61.11564939878359
 20
-105.992152208745
 30
0.0
 10
61.11564939878359
 20
-105.992152208745
 30
0.0
 10
61.25448674683916
 20
-106.012478272108
 30
0.0
 10
61.42122936832525
 20
-106.0142008198506
 30
0.0
 10
61.60261364562366
 20
-106.0142008198506
 30
0.0
 10
61.60261364562366
 20
-106.0142008198506
 30
0.0
 10
62.02670489985791
 20
-106.0142008198506
 30
0.0
 10
62.02670489985791
 20
-106.0142008198506
 30
0.0
 10
62.18965791631022
 20
-106.0142008198506
 30
0.0
 10
62.35261093276254
 20
-106.012478272108
 30
0.0
 10
62.51366914669797
 20
-105.992152208745
 30
0.0
 10
62.51366914669797
 20
-105.992152208745
 30
0.0
 10
62.51366914669797
 20
-106.1940348041807
 30
0.0
 10
62.51366914669797
 20
-106.1940348041807
 30
0.0
 10
62.35261093276254
 20
-106.1737087408177
 30
0.0
 10
62.13591442674033
 20
-106.1716416835265
 30
0.0
 10
62.02670489985791
 20
-106.1716416835265
 30
0.0
  0
HATCH
  5
88
330
4B
100
AcDbEntity
  8
_U+30EC_U+30A4_U+30E4_U+30FC 1
 62
   179
420
  2234388
100
AcDbHatch
 10
0.0
 20
0.0
 30
0.0
210
0.0
220
0.0
230
1.0
  2
SOLID
 70
     1
 71
     0
 91
        1
 92
        1
 93
        1
 72
     4
 94
        3
 73
     0
 74
     1
 95
       29
 96
       25
 40
0.0
 40
0.0
 40
0.0
 40
0.0
 40
1.0
 40
1.0
 40
1.0
 40
2.0
 40
2.0
 40
2.0
 40
3.0
 40
3.0
 40
3.0
 40
4.0
 40
4.0
 40
4.0
 40
5.0
 40
5.0
 40
5.0
 40
6.0
 40
6.0
 40
6.0
 40
7.0
 40
7.0
 40
7.0
 40
8.0
 40
8.0
 40
8.0
 40
8.0
 10
62.02670489985791
 20
-106.1716416835265
 10
62.02670489985791
 20
-106.1716416835265
 10
61.60261364562366
 20
-106.1716416835265
 10
61.60261364562366
 20
-106.1716416835265
 10
61.57867023200117
 20
-106.1716416835265
 10
61.30082328111577
 20
-106.1716416835265
 10
61.11564939878359
 20
-106.1940348041807
 10
61.11564939878359
 20
-106.1940348041807
 10
61.11564939878359
 20
-105.992152208745
 10
61.11564939878359
 20
-105.992152208745
 10
61.25448674683916
 20
-106.012478272108
 10
61.42122936832525
 20
-106.0142008198506
 10
61.60261364562366
 20
-106.0142008198506
 10
61.60261364562366
 20
-106.0142008198506
 10
62.02670489985791
 20
-106.0142008198506
 10
62.02670489985791
 20
-106.0142008198506
 10
62.18965791631022
 20
-106.0142008198506
 10
62.35261093276254
 20
-106.012478272108
 10
62.51366914669797
 20
-105.992152208745
 10
62.51366914669797
 20
-105.992152208745
 10
62.51366914669797
 20
-106.1940348041807
 10
62.51366914669797
 20
-106.1940348041807
 10
62.35261093276254
 20
-106.1737087408177
 10
62.13591442674033
 20
-106.1716416835265
 10
62.02670489985791
 20
-106.1716416835265
 97
        0
 97
        0
 75
     2
 76
     1
 98
        0
  0
ENDBLK
  5
4E
330
4B
100
AcDbEntity
  8
0
100
AcDbBlockEnd
  0
BLOCK
  5
A9
330
A7
100
AcDbEntity
  8
0
100
AcDbBlockBegin
  2
block 3
 70
     0
 10
0.0
 20
0.0
 30
0.0
  3
block 3
  1

  0
SPLINE
  5
AB
330
A7
100
AcDbEntity
  8
_U+30EC_U+30A4_U+30E4_U+30FC 1
370
     0
100
AcDbSpline
210
0.0
220
0.0
230
1.0
 70
    11
 71
     3
 72
    26
 73
    22
 74
     0
 42
0.0000000001
 43
0.0000000001
 12
1.0
 22
0.0
 32
0.0
 13
1.0
 23
0.0
 33
0.0
 40
0.0
 40
0.0
 40
0.0
 40
0.0
 40
1.0
 40
1.0
 40
1.0
 40
2.0
 40
2.0
 40
2.0
 40
3.0
 40
3.0
 40
3.0
 40
4.0
 40
4.0
 40
4.0
 40
5.0
 40
5.0
 40
5.0
 40
6.0
 40
6.0
 40
6.0
 40
7.0
 40
7.0
 40
7.0
 40
7.0
 10
76.11180553652761
 20
-88.0848903859649
 30
0.0
 10
76.11180553652761
 20
-88.0848903859649
 30
0.0
 10
75.00765243350503
 20
-88.0848903859649
 30
0.0
 10
75.00765243350503
 20
-88.0848903859649
 30
0.0
 10
75.00765243350503
 20
-88.0848903859649
 30
0.0
 10
75.00765243350503
 20
-88.41493053345182
 30
0.0
 10
75.00765243350503
 20
-88.41493053345182
 30
0.0
 10
75.00765243350503
 20
-88.41493053345182
 30
0.0
 10
74.85951332763929
 20
-88.41493053345182
 30
0.0
 10
74.85951332763929
 20
-88.41493053345182
 30
0.0
 10
74.84469941705272
 20
-88.08282332867374
 30
0.0
 10
74.6817464006004
 20
-88.03631453962286
 30
0.0
 10
74.5673692304901
 20
-88.00668671844971
 30
0.0
 10
74.5673692304901
 20
-88.00668671844971
 30
0.0
 10
74.5673692304901
 20
-87.86061466987513
 30
0.0
 10
74.5673692304901
 20
-87.86061466987513
 30
0.0
 10
74.5673692304901
 20
-87.86061466987513
 30
0.0
 10
76.11180553652761
 20
-87.86061466987513
 30
0.0
 10
76.11180553652761
 20
-87.86061466987513
 30
0.0
 10
76.11180553652761
 20
-87.86061466987513
 30
0.0
 10
76.11180553652761
 20
-88.0848903859649
 30
0.0
 10
76.11180553652761
 20
-88.0848903859649
 30
0.0
  0
HATCH
  5
AC
330
A7
100
AcDbEntity
  8
_U+30EC_U+30A4_U+30E4_U+30FC 1
 62
   179
420
  2234388
100
AcDbHatch
 10
0.0
 20
0.0
 30
0.0
210
0.0
220
0.0
230
1.0
  2
SOLID
 70
     1
 71
     0
 91
        1
 92
        1
 93
        1
 72
     4
 94
        3
 73
     0
 74
     1
 95
       26
 96
       22
 40
0.0
 40
0.0
 40
0.0
 40
0.0
 40
1.0
 40
1.0
 40
1.0
 40
2.0
 40
2.0
 40
2.0
 40
3.0
 40
3.0
 40
3.0
 40
4.0
 40
4.0
 40
4.0
 40
5.0
 40
5.0
 40
5.0
 40
6.0
 40
6.0
 40
6.0
 40
7.0
 40
7.0
 40
7.0
 40
7.0
 10
76.11180553652761
 20
-88.0848903859649
 10
76.11180553652761
 20
-88.0848903859649
 10
75.00765243350503
 20
-88.0848903859649
 10
75.00765243350503
 20
-88.0848903859649
 10
75.00765243350503
 20
-88.0848903859649
 10
75.00765243350503
 20
-88.41493053345182
 10
75.00765243350503
 20
-88.41493053345182
 10
75.00765243350503
 20
-88.41493053345182
 10
74.85951332763929
 20
-88.41493053345182
 10
74.85951332763929
 20
-88.41493053345182
 10
74.84469941705272
 20
-88.08282332867374
 10
74.6817464006004
 20
-88.03631453962286
 10
74.5673692304901
 20
-88.00668671844971
 10
74.5673692304901
 20
-88.00668671844971
 10
74.5673692304901
 20
-87.86061466987513
 10
74.5673692304901
 20
-87.86061466987513
 10
74.5673692304901
 20
-87.86061466987513
 10
76.11180553652761
 20
-87.86061466987513
 10
76.11180553652761
 20
-87.86061466987513
 10
76.11180553652761
 20
-87.86061466987513
 10
76.11180553652761
 20
-88.0848903859649
 10
76.11180553652761
 20
-88.0848903859649
 97
        0
 97
        0
 75
     2
 76
     1
 98
        0
  0
SPLINE
  5
AD
330
A7
100
AcDbEntity
  8
_U+30EC_U+30A4_U+30E4_U+30FC 1
370
     0
100
AcDbSpline
210
0.0
220
0.0
230
1.0
 70
    11
 71
     3
 72
    53
 73
    49
 74
     0
 42
0.0000000001
 43
0.0000000001
 12
1.0
 22
0.0
 32
0.0
 13
1.0
 23
0.0
 33
0.0
 40
0.0
 40
0.0
 40
0.0
 40
0.0
 40
1.0
 40
1.0
 40
1.0
 40
2.0
 40
2.0
 40
2.0
 40
3.0
 40
3.0
 40
3.0
 40
4.0
 40
4.0
 40
4.0
 40
5.0
 40
5.0
 40
5.0
 40
6.0
 40
6.0
 40
6.0
 40
7.0
 40
7.0
 40
7.0
 40
8.0
 40
8.0
 40
8.0
 40
9.0
 40
9.0
 40
9.0
 40
10.0
 40
10.0
 40
10.0
 40
11.0
 40
11.0
 40
11.0
 40
12.0
 40
12.0
 40
12.0
 40
13.0
 40
13.0
 40
13.0
 40
14.0
 40
14.0
 40
14.0
 40
15.0
 40
15.0
 40
15.0
 40
16.0
 40
16.0
 40
16.0
 40
16.0
 10
76.16244844016079
 20
-86.8784179470304
 30
0.0
 10
76.16244844016079
 20
-86.95662161454557
 30
0.0
 10
76.14556747228306
 20
-87.05825193136045
 30
0.0
 10
76.08217771535446
 20
-87.15988224817531
 30
0.0
 10
75.97227916937499
 20
-87.33317055108338
 30
0.0
 10
75.84102103138697
 20
-87.35453014309192
 30
0.0
 10
75.73318954269865
 20
-87.3734781682608
 30
0.0
 10
75.73318954269865
 20
-87.3734781682608
 30
0.0
 10
75.73318954269865
 20
-87.15126950946218
 30
0.0
 10
75.73318954269865
 20
-87.15126950946218
 30
0.0
 10
75.93197155219757
 20
-87.09649249124672
 30
0.0
 10
75.96159937337072
 20
-86.969368467841
 30
0.0
 10
75.96159937337072
 20
-86.87635088973924
 30
0.0
 10
75.96159937337072
 20
-86.73682452258663
 30
0.0
 10
75.862036113847
 20
-86.58455130213859
 30
0.0
 10
75.62949216859263
 20
-86.58455130213859
 30
0.0
 10
75.37352157403856
 20
-86.58455130213859
 30
0.0
 10
75.303586135688
 20
-86.76438528646862
 30
0.0
 10
75.303586135688
 20
-86.88496362845237
 30
0.0
 10
75.303586135688
 20
-86.91665850691668
 30
0.0
 10
75.303586135688
 20
-87.05825193136045
 30
0.0
 10
75.43277721638486
 20
-87.14713539487988
 30
0.0
 10
75.43277721638486
 20
-87.14713539487988
 30
0.0
 10
75.413829191216
 20
-87.32283526462763
 30
0.0
 10
75.413829191216
 20
-87.32283526462763
 30
0.0
 10
75.413829191216
 20
-87.32283526462763
 30
0.0
 10
74.5673692304901
 20
-87.20225692264388
 30
0.0
 10
74.5673692304901
 20
-87.20225692264388
 30
0.0
 10
74.5673692304901
 20
-87.20225692264388
 30
0.0
 10
74.5673692304901
 20
-86.42366534297742
 30
0.0
 10
74.5673692304901
 20
-86.42366534297742
 30
0.0
 10
74.5673692304901
 20
-86.42366534297742
 30
0.0
 10
74.76201712540671
 20
-86.42366534297742
 30
0.0
 10
74.76201712540671
 20
-86.42366534297742
 30
0.0
 10
74.76201712540671
 20
-86.42366534297742
 30
0.0
 10
74.76201712540671
 20
-87.03930390619156
 30
0.0
 10
74.76201712540671
 20
-87.03930390619156
 30
0.0
 10
74.76201712540671
 20
-87.03930390619156
 30
0.0
 10
75.1850748509954
 20
-87.10476072041132
 30
0.0
 10
75.1850748509954
 20
-87.10476072041132
 30
0.0
 10
75.15131291523996
 20
-87.04343802077386
 30
0.0
 10
75.11100529806254
 20
-86.9611002386764
 30
0.0
 10
75.11100529806254
 20
-86.8425889539838
 30
0.0
 10
75.11100529806254
 20
-86.58868541672089
 30
0.0
 10
75.29738496381455
 20
-86.3516628473357
 30
0.0
 10
75.61054414342375
 20
-86.3516628473357
 30
0.0
 10
75.92783743761527
 20
-86.3516628473357
 30
0.0
 10
76.16244844016079
 20
-86.57593856342547
 30
0.0
 10
76.16244844016079
 20
-86.8784179470304
 30
0.0
  0
HATCH
  5
AE
330
A7
100
AcDbEntity
  8
_U+30EC_U+30A4_U+30E4_U+30FC 1
 62
   179
420
  2234388
100
AcDbHatch
 10
0.0
 20
0.0
 30
0.0
210
0.0
220
0.0
230
1.0
  2
SOLID
 70
     1
 71
     0
 91
        1
 92
        1
 93
        1
 72
     4
 94
        3
 73
     0
 74
     1
 95
       53
 96
       49
 40
0.0
 40
0.0
 40
0.0
 40
0.0
 40
1.0
 40
1.0
 40
1.0
 40
2.0
 40
2.0
 40
2.0
 40
3.0
 40
3.0
 40
3.0
 40
4.0
 40
4.0
 40
4.0
 40
5.0
 40
5.0
 40
5.0
 40
6.0
 40
6.0
 40
6.0
 40
7.0
 40
7.0
 40
7.0
 40
8.0
 40
8.0
 40
8.0
 40
9.0
 40
9.0
 40
9.0
 40
10.0
 40
10.0
 40
10.0
 40
11.0
 40
11.0
 40
11.0
 40
12.0
 40
12.0
 40
12.0
 40
13.0
 40
13.0
 40
13.0
 40
14.0
 40
14.0
 40
14.0
 40
15.0
 40
15.0
 40
15.0
 40
16.0
 40
16.0
 40
16.0
 40
16.0
 10
76.16244844016079
 20
-86.8784179470304
 10
76.16244844016079
 20
-86.95662161454557
 10
76.14556747228306
 20
-87.05825193136045
 10
76.08217771535446
 20
-87.15988224817531
 10
75.97227916937499
 20
-87.33317055108338
 10
75.84102103138697
 20
-87.35453014309192
 10
75.73318954269865
 20
-87.3734781682608
 10
75.73318954269865
 20
-87.3734781682608
 10
75.73318954269865
 20
-87.15126950946218
 10
75.73318954269865
 20
-87.15126950946218
 10
75.93197155219757
 20
-87.09649249124672
 10
75.96159937337072
 20
-86.969368467841
 10
75.96159937337072
 20
-86.87635088973924
 10
75.96159937337072
 20
-86.73682452258663
 10
75.862036113847
 20
-86.58455130213859
 10
75.62949216859263
 20
-86.58455130213859
 10
75.37352157403856
 20
-86.58455130213859
 10
75.303586135688
 20
-86.76438528646862
 10
75.303586135688
 20
-86.88496362845237
 10
75.303586135688
 20
-86.91665850691668
 10
75.303586135688
 20
-87.05825193136045
 10
75.43277721638486
 20
-87.14713539487988
 10
75.43277721638486
 20
-87.14713539487988
 10
75.413829191216
 20
-87.32283526462763
 10
75.413829191216
 20
-87.32283526462763
 10
75.413829191216
 20
-87.32283526462763
 10
74.5673692304901
 20
-87.20225692264388
 10
74.5673692304901
 20
-87.20225692264388
 10
74.5673692304901
 20
-87.20225692264388
 10
74.5673692304901
 20
-86.42366534297742
 10
74.5673692304901
 20
-86.42366534297742
 10
74.5673692304901
 20
-86.42366534297742
 10
74.76201712540671
 20
-86.42366534297742
 10
74.76201712540671
 20
-86.42366534297742
 10
74.76201712540671
 20
-86.42366534297742
 10
74.76201712540671
 20
-87.03930390619156
 10
74.76201712540671
 20
-87.03930390619156
 10
74.76201712540671
 20
-87.03930390619156
 10
75.1850748509954
 20
-87.10476072041132
 10
75.1850748509954
 20
-87.10476072041132
 10
75.15131291523996
 20
-87.04343802077386
 10
75.11100529806254
 20
-86.9611002386764
 10
75.11100529806254
 20
-86.8425889539838
 10
75.11100529806254
 20
-86.58868541672089
 10
75.29738496381455
 20
-86.3516628473357
 10
75.61054414342375
 20
-86.3516628473357
 10
75.92783743761527
 20
-86.3516628473357
 10
76.16244844016079
 20
-86.57593856342547
 10
76.16244844016079
 20
-86.8784179470304
 97
        0
 97
        0
 75
     2
 76
     1
 98
        0
  0
POLYLINE
  5
AF
330
A7
100
AcDbEntity
  8
_U+30EC_U+30A4_U+30E4_U+30FC 1
370
     0
100
AcDb2dPolyline
 66
     1
 10
0.0
 20
0.0
 30
0.0
  0
VERTEX
  5
B0
330
AF
100
AcDbEntity
  8
_U+30EC_U+30A4_U+30E4_U+30FC 1
370
     0
100
AcDbVertex
100
AcDb2dVertex
 10
76.11180553652761
 20
-86.12256399756659
 30
0.0
  0
VERTEX
  5
B1
330
AF
100
AcDbEntity
  8
_U+30EC_U+30A4_U+30E4_U+30FC 1
370
     0
100
AcDbVertex
100
AcDb2dVertex
 10
75.85996905655584
 20
-86.12256399756659
 30
0.0
  0
VERTEX
  5
B2
330
AF
100
AcDbEntity
  8
_U+30EC_U+30A4_U+30E4_U+30FC 1
370
     0
100
AcDbVertex
100
AcDb2dVertex
 10
75.85996905655584
 20
-85.87072751759482
 30
0.0
  0
VERTEX
  5
B3
330
AF
100
AcDbEntity
  8
_U+30EC_U+30A4_U+30E4_U+30FC 1
370
     0
100
AcDbVertex
100
AcDb2dVertex
 10
76.11180553652761
 20
-85.87072751759482
 30
0.0
  0
VERTEX
  5
B4
330
AF
100
AcDbEntity
  8
_U+30EC_U+30A4_U+30E4_U+30FC 1
370
     0
100
AcDbVertex
100
AcDb2dVertex
 10
76.11180553652761
 20
-86.12256399756659
 30
0.0
  0
SEQEND
  5
B5
330
AF
100
AcDbEntity
  8
_U+30EC_U+30A4_U+30E4_U+30FC 1
370
     0
  0
HATCH
  5
B6
330
A7
100
AcDbEntity
  8
_U+30EC_U+30A4_U+30E4_U+30FC 1
 62
   179
420
  2234388
100
AcDbHatch
 10
0.0
 20
0.0
 30
0.0
210
0.0
220
0.0
230
1.0
  2
SOLID
 70
     1
 71
     0
 91
        1
 92
        1
 93
        4
 72
     1
 10
76.11180553652761
 20
-86.12256399756659
 11
75.85996905655584
 21
-86.12256399756659
 72
     1
 10
75.85996905655584
 20
-86.12256399756659
 11
75.85996905655584
 21
-85.87072751759482
 72
     1
 10
75.85996905655584
 20
-85.87072751759482
 11
76.11180553652761
 21
-85.87072751759482
 72
     1
 10
76.11180553652761
 20
-85.87072751759482
 11
76.11180553652761
 21
-86.12256399756659
 97
        0
 75
     2
 76
     1
 98
        0
  0
SPLINE
  5
B7
330
A7
100
AcDbEntity
  8
_U+30EC_U+30A4_U+30E4_U+30FC 1
370
     0
100
AcDbSpline
210
0.0
220
0.0
230
1.0
 70
    11
 71
     3
 72
    53
 73
    49
 74
     0
 42
0.0000000001
 43
0.0000000001
 12
1.0
 22
0.0
 32
0.0
 13
1.0
 23
0.0
 33
0.0
 40
0.0
 40
0.0
 40
0.0
 40
0.0
 40
1.0
 40
1.0
 40
1.0
 40
2.0
 40
2.0
 40
2.0
 40
3.0
 40
3.0
 40
3.0
 40
4.0
 40
4.0
 40
4.0
 40
5.0
 40
5.0
 40
5.0
 40
6.0
 40
6.0
 40
6.0
 40
7.0
 40
7.0
 40
7.0
 40
8.0
 40
8.0
 40
8.0
 40
9.0
 40
9.0
 40
9.0
 40
10.0
 40
10.0
 40
10.0
 40
11.0
 40
11.0
 40
11.0
 40
12.0
 40
12.0
 40
12.0
 40
13.0
 40
13.0
 40
13.0
 40
14.0
 40
14.0
 40
14.0
 40
15.0
 40
15.0
 40
15.0
 40
16.0
 40
16.0
 40
16.0
 40
16.0
 10
76.16244844016079
 20
-85.1534586375658
 30
0.0
 10
76.16244844016079
 20
-85.23166230508097
 30
0.0
 10
76.14556747228306
 20
-85.33329262189585
 30
0.0
 10
76.08217771535446
 20
-85.43492293871071
 30
0.0
 10
75.97227916937499
 20
-85.60821124161879
 30
0.0
 10
75.84102103138697
 20
-85.62957083362733
 30
0.0
 10
75.73318954269865
 20
-85.64851885879621
 30
0.0
 10
75.73318954269865
 20
-85.64851885879621
 30
0.0
 10
75.73318954269865
 20
-85.42631019999759
 30
0.0
 10
75.73318954269865
 20
-85.42631019999759
 30
0.0
 10
75.93197155219757
 20
-85.37153318178213
 30
0.0
 10
75.96159937337072
 20
-85.2444091583764
 30
0.0
 10
75.96159937337072
 20
-85.15139158027466
 30
0.0
 10
75.96159937337072
 20
-85.01186521312204
 30
0.0
 10
75.862036113847
 20
-84.859591992674
 30
0.0
 10
75.62949216859263
 20
-84.859591992674
 30
0.0
 10
75.37352157403856
 20
-84.859591992674
 30
0.0
 10
75.303586135688
 20
-85.03942597700403
 30
0.0
 10
75.303586135688
 20
-85.16000431898777
 30
0.0
 10
75.303586135688
 20
-85.19169919745208
 30
0.0
 10
75.303586135688
 20
-85.33329262189585
 30
0.0
 10
75.43277721638486
 20
-85.42217608541529
 30
0.0
 10
75.43277721638486
 20
-85.42217608541529
 30
0.0
 10
75.413829191216
 20
-85.59787595516303
 30
0.0
 10
75.413829191216
 20
-85.59787595516303
 30
0.0
 10
75.413829191216
 20
-85.59787595516303
 30
0.0
 10
74.5673692304901
 20
-85.47729761317929
 30
0.0
 10
74.5673692304901
 20
-85.47729761317929
 30
0.0
 10
74.5673692304901
 20
-85.47729761317929
 30
0.0
 10
74.5673692304901
 20
-84.69870603351282
 30
0.0
 10
74.5673692304901
 20
-84.69870603351282
 30
0.0
 10
74.5673692304901
 20
-84.69870603351282
 30
0.0
 10
74.76201712540671
 20
-84.69870603351282
 30
0.0
 10
74.76201712540671
 20
-84.69870603351282
 30
0.0
 10
74.76201712540671
 20
-84.69870603351282
 30
0.0
 10
74.76201712540671
 20
-85.31434459672697
 30
0.0
 10
74.76201712540671
 20
-85.31434459672697
 30
0.0
 10
74.76201712540671
 20
-85.31434459672697
 30
0.0
 10
75.1850748509954
 20
-85.37980141094673
 30
0.0
 10
75.1850748509954
 20
-85.37980141094673
 30
0.0
 10
75.15131291523996
 20
-85.31847871130927
 30
0.0
 10
75.11100529806254
 20
-85.2361409292118
 30
0.0
 10
75.11100529806254
 20
-85.11762964451921
 30
0.0
 10
75.11100529806254
 20
-84.8637261072563
 30
0.0
 10
75.29738496381455
 20
-84.62670353787111
 30
0.0
 10
75.61054414342375
 20
-84.62670353787111
 30
0.0
 10
75.92783743761527
 20
-84.62670353787111
 30
0.0
 10
76.16244844016079
 20
-84.85097925396087
 30
0.0
 10
76.16244844016079
 20
-85.1534586375658
 30
0.0
  0
HATCH
  5
B8
330
A7
100
AcDbEntity
  8
_U+30EC_U+30A4_U+30E4_U+30FC 1
 62
   179
420
  2234388
100
AcDbHatch
 10
0.0
 20
0.0
 30
0.0
210
0.0
220
0.0
230
1.0
  2
SOLID
 70
     1
 71
     0
 91
        1
 92
        1
 93
        1
 72
     4
 94
        3
 73
     0
 74
     1
 95
       53
 96
       49
 40
0.0
 40
0.0
 40
0.0
 40
0.0
 40
1.0
 40
1.0
 40
1.0
 40
2.0
 40
2.0
 40
2.0
 40
3.0
 40
3.0
 40
3.0
 40
4.0
 40
4.0
 40
4.0
 40
5.0
 40
5.0
 40
5.0
 40
6.0
 40
6.0
 40
6.0
 40
7.0
 40
7.0
 40
7.0
 40
8.0
 40
8.0
 40
8.0
 40
9.0
 40
9.0
 40
9.0
 40
10.0
 40
10.0
 40
10.0
 40
11.0
 40
11.0
 40
11.0
 40
12.0
 40
12.0
 40
12.0
 40
13.0
 40
13.0
 40
13.0
 40
14.0
 40
14.0
 40
14.0
 40
15.0
 40
15.0
 40
15.0
 40
16.0
 40
16.0
 40
16.0
 40
16.0
 10
76.16244844016079
 20
-85.1534586375658
 10
76.16244844016079
 20
-85.23166230508097
 10
76.14556747228306
 20
-85.33329262189585
 10
76.08217771535446
 20
-85.43492293871071
 10
75.97227916937499
 20
-85.60821124161879
 10
75.84102103138697
 20
-85.62957083362733
 10
75.73318954269865
 20
-85.64851885879621
 10
75.73318954269865
 20
-85.64851885879621
 10
75.73318954269865
 20
-85.42631019999759
 10
75.73318954269865
 20
-85.42631019999759
 10
75.93197155219757
 20
-85.37153318178213
 10
75.96159937337072
 20
-85.2444091583764
 10
75.96159937337072
 20
-85.15139158027466
 10
75.96159937337072
 20
-85.01186521312204
 10
75.862036113847
 20
-84.859591992674
 10
75.62949216859263
 20
-84.859591992674
 10
75.37352157403856
 20
-84.859591992674
 10
75.303586135688
 20
-85.03942597700403
 10
75.303586135688
 20
-85.16000431898777
 10
75.303586135688
 20
-85.19169919745208
 10
75.303586135688
 20
-85.33329262189585
 10
75.43277721638486
 20
-85.42217608541529
 10
75.43277721638486
 20
-85.42217608541529
 10
75.413829191216
 20
-85.59787595516303
 10
75.413829191216
 20
-85.59787595516303
 10
75.413829191216
 20
-85.59787595516303
 10
74.5673692304901
 20
-85.47729761317929
 10
74.5673692304901
 20
-85.47729761317929
 10
74.5673692304901
 20
-85.47729761317929
 10
74.5673692304901
 20
-84.69870603351282
 10
74.5673692304901
 20
-84.69870603351282
 10
74.5673692304901
 20
-84.69870603351282
 10
74.76201712540671
 20
-84.69870603351282
 10
74.76201712540671
 20
-84.69870603351282
 10
74.76201712540671
 20
-84.69870603351282
 10
74.76201712540671
 20
-85.31434459672697
 10
74.76201712540671
 20
-85.31434459672697
 10
74.76201712540671
 20
-85.31434459672697
 10
75.1850748509954
 20
-85.37980141094673
 10
75.1850748509954
 20
-85.37980141094673
 10
75.15131291523996
 20
-85.31847871130927
 10
75.11100529806254
 20
-85.2361409292118
 10
75.11100529806254
 20
-85.11762964451921
 10
75.11100529806254
 20
-84.8637261072563
 10
75.29738496381455
 20
-84.62670353787111
 10
75.61054414342375
 20
-84.62670353787111
 10
75.92783743761527
 20
-84.62670353787111
 10
76.16244844016079
 20
-84.85097925396087
 10
76.16244844016079
 20
-85.1534586375658
 97
        0
 97
        0
 75
     2
 76
     1
 98
        0
  0
ENDBLK
  5
AA
330
A7
100
AcDbEntity
  8
0
100
AcDbBlockEnd
  0
BLOCK
  5
BB
330
B9
100
AcDbEntity
  8
0
100
AcDbBlockBegin
  2
block 4
 70
     0
 10
0.0
 20
0.0
 30
0.0
  3
block 4
  1

  0
SPLINE
  5
BD
330
B9
100
AcDbEntity
  8
_U+30EC_U+30A4_U+30E4_U+30FC 1
370
     0
100
AcDbSpline
210
0.0
220
0.0
230
1.0
 70
    11
 71
     3
 72
    29
 73
    25
 74
     0
 42
0.0000000001
 43
0.0000000001
 12
1.0
 22
0.0
 32
0.0
 13
1.0
 23
0.0
 33
0.0
 40
0.0
 40
0.0
 40
0.0
 40
0.0
 40
1.0
 40
1.0
 40
1.0
 40
2.0
 40
2.0
 40
2.0
 40
3.0
 40
3.0
 40
3.0
 40
4.0
 40
4.0
 40
4.0
 40
5.0
 40
5.0
 40
5.0
 40
6.0
 40
6.0
 40
6.0
 40
7.0
 40
7.0
 40
7.0
 40
8.0
 40
8.0
 40
8.0
 40
8.0
 10
75.93403860948871
 20
-75.27533635270895
 30
0.0
 10
76.1435004149919
 20
-75.3835123509458
 30
0.0
 10
76.16244844016079
 20
-75.55680065385386
 30
0.0
 10
76.16244844016079
 20
-75.6732448812553
 30
0.0
 10
76.16244844016079
 20
-75.83413084041648
 30
0.0
 10
76.11593965110991
 20
-75.97572426486023
 30
0.0
 10
75.93403860948871
 20
-76.07080890025314
 30
0.0
 10
75.7393907145721
 20
-76.17450627435916
 30
0.0
 10
75.50271265473543
 20
-76.19379880907655
 30
0.0
 10
75.33975963828311
 20
-76.19379880907655
 30
0.0
 10
75.19575464699967
 20
-76.19379880907655
 30
0.0
 10
74.94391816702792
 20
-76.1765733316503
 30
0.0
 10
74.745136157529
 20
-76.07080890025314
 30
0.0
 10
74.54222003344778
 20
-75.96297741156482
 30
0.0
 10
74.51879338414808
 20
-75.80209145240364
 30
0.0
 10
74.51879338414808
 20
-75.6732448812553
 30
0.0
 10
74.51879338414808
 20
-75.51442597938528
 30
0.0
 10
74.5632351159078
 20
-75.37076549765037
 30
0.0
 10
74.745136157529
 20
-75.27533635270895
 30
0.0
 10
74.93771699515446
 20
-75.17611760273375
 30
0.0
 10
75.16612682582652
 20
-75.15269095343405
 30
0.0
 10
75.33975963828311
 20
-75.15269095343405
 30
0.0
 10
75.51098088390003
 20
-75.15269095343405
 30
0.0
 10
75.74145777186325
 20
-75.1740505454426
 30
0.0
 10
75.93403860948871
 20
-75.27533635270895
 30
0.0
  0
SPLINE
  5
BE
330
B9
100
AcDbEntity
  8
_U+30EC_U+30A4_U+30E4_U+30FC 1
370
     0
100
AcDbSpline
210
0.0
220
0.0
230
1.0
 70
    11
 71
     3
 72
    17
 73
    13
 74
     0
 42
0.0000000001
 43
0.0000000001
 12
1.0
 22
0.0
 32
0.0
 13
1.0
 23
0.0
 33
0.0
 40
0.0
 40
0.0
 40
0.0
 40
0.0
 40
1.0
 40
1.0
 40
1.0
 40
2.0
 40
2.0
 40
2.0
 40
3.0
 40
3.0
 40
3.0
 40
4.0
 40
4.0
 40
4.0
 40
4.0
 10
74.71137422177355
 20
-75.6732448812553
 30
0.0
 10
74.71137422177355
 20
-75.92301430393591
 30
0.0
 10
74.9949055802096
 20
-75.96952309298679
 30
0.0
 10
75.33975963828311
 20
-75.96952309298679
 30
0.0
 10
75.65911998976578
 20
-75.96952309298679
 30
0.0
 10
75.96780054524416
 20
-75.93334959039167
 30
0.0
 10
75.96780054524416
 20
-75.6732448812553
 30
0.0
 10
75.96780054524416
 20
-75.42554251586584
 30
0.0
 10
75.68668075364778
 20
-75.37696666952382
 30
0.0
 10
75.33975963828311
 20
-75.37696666952382
 30
0.0
 10
75.02005477725193
 20
-75.37696666952382
 30
0.0
 10
74.71137422177355
 20
-75.41520722941009
 30
0.0
 10
74.71137422177355
 20
-75.6732448812553
 30
0.0
  0
HATCH
  5
BF
330
B9
100
AcDbEntity
  8
_U+30EC_U+30A4_U+30E4_U+30FC 1
 62
   179
420
  2234388
100
AcDbHatch
 10
0.0
 20
0.0
 30
0.0
210
0.0
220
0.0
230
1.0
  2
SOLID
 70
     1
 71
     0
 91
        2
 92
        1
 93
        1
 72
     4
 94
        3
 73
     0
 74
     1
 95
       29
 96
       25
 40
0.0
 40
0.0
 40
0.0
 40
0.0
 40
1.0
 40
1.0
 40
1.0
 40
2.0
 40
2.0
 40
2.0
 40
3.0
 40
3.0
 40
3.0
 40
4.0
 40
4.0
 40
4.0
 40
5.0
 40
5.0
 40
5.0
 40
6.0
 40
6.0
 40
6.0
 40
7.0
 40
7.0
 40
7.0
 40
8.0
 40
8.0
 40
8.0
 40
8.0
 10
75.93403860948871
 20
-75.27533635270895
 10
76.1435004149919
 20
-75.3835123509458
 10
76.16244844016079
 20
-75.55680065385386
 10
76.16244844016079
 20
-75.6732448812553
 10
76.16244844016079
 20
-75.83413084041648
 10
76.11593965110991
 20
-75.97572426486023
 10
75.93403860948871
 20
-76.07080890025314
 10
75.7393907145721
 20
-76.17450627435916
 10
75.50271265473543
 20
-76.19379880907655
 10
75.33975963828311
 20
-76.19379880907655
 10
75.19575464699967
 20
-76.19379880907655
 10
74.94391816702792
 20
-76.1765733316503
 10
74.745136157529
 20
-76.07080890025314
 10
74.54222003344778
 20
-75.96297741156482
 10
74.51879338414808
 20
-75.80209145240364
 10
74.51879338414808
 20
-75.6732448812553
 10
74.51879338414808
 20
-75.51442597938528
 10
74.5632351159078
 20
-75.37076549765037
 10
74.745136157529
 20
-75.27533635270895
 10
74.93771699515446
 20
-75.17611760273375
 10
75.16612682582652
 20
-75.15269095343405
 10
75.33975963828311
 20
-75.15269095343405
 10
75.51098088390003
 20
-75.15269095343405
 10
75.74145777186325
 20
-75.1740505454426
 10
75.93403860948871
 20
-75.27533635270895
 97
        0
 97
        0
 92
        1
 93
        1
 72
     4
 94
        3
 73
     0
 74
     1
 95
       17
 96
       13
 40
0.0
 40
0.0
 40
0.0
 40
0.0
 40
1.0
 40
1.0
 40
1.0
 40
2.0
 40
2.0
 40
2.0
 40
3.0
 40
3.0
 40
3.0
 40
4.0
 40
4.0
 40
4.0
 40
4.0
 10
74.71137422177355
 20
-75.6732448812553
 10
74.71137422177355
 20
-75.92301430393591
 10
74.9949055802096
 20
-75.96952309298679
 10
75.33975963828311
 20
-75.96952309298679
 10
75.65911998976578
 20
-75.96952309298679
 10
75.96780054524416
 20
-75.93334959039167
 10
75.96780054524416
 20
-75.6732448812553
 10
75.96780054524416
 20
-75.42554251586584
 10
75.68668075364778
 20
-75.37696666952382
 10
75.33975963828311
 20
-75.37696666952382
 10
75.02005477725193
 20
-75.37696666952382
 10
74.71137422177355
 20
-75.41520722941009
 10
74.71137422177355
 20
-75.6732448812553
 97
        0
 97
        0
 75
     2
 76
     1
 98
        0
  0
POLYLINE
  5
C0
330
B9
100
AcDbEntity
  8
_U+30EC_U+30A4_U+30E4_U+30FC 1
370
     0
100
AcDb2dPolyline
 66
     1
 10
0.0
 20
0.0
 30
0.0
  0
VERTEX
  5
C1
330
C0
100
AcDbEntity
  8
_U+30EC_U+30A4_U+30E4_U+30FC 1
370
     0
100
AcDbVertex
100
AcDb2dVertex
 10
76.11180553652761
 20
-74.93633895696037
 30
0.0
  0
VERTEX
  5
C2
330
C0
100
AcDbEntity
  8
_U+30EC_U+30A4_U+30E4_U+30FC 1
370
     0
100
AcDbVertex
100
AcDb2dVertex
 10
75.85996905655584
 20
-74.93633895696037
 30
0.0
  0
VERTEX
  5
C3
330
C0
100
AcDbEntity
  8
_U+30EC_U+30A4_U+30E4_U+30FC 1
370
     0
100
AcDbVertex
100
AcDb2dVertex
 10
75.85996905655584
 20
-74.6845024769886
 30
0.0
  0
VERTEX
  5
C4
330
C0
100
AcDbEntity
  8
_U+30EC_U+30A4_U+30E4_U+30FC 1
370
     0
100
AcDbVertex
100
AcDb2dVertex
 10
76.11180553652761
 20
-74.6845024769886
 30
0.0
  0
VERTEX
  5
C5
330
C0
100
AcDbEntity
  8
_U+30EC_U+30A4_U+30E4_U+30FC 1
370
     0
100
AcDbVertex
100
AcDb2dVertex
 10
76.11180553652761
 20
-74.93633895696037
 30
0.0
  0
SEQEND
  5
C6
330
C0
100
AcDbEntity
  8
_U+30EC_U+30A4_U+30E4_U+30FC 1
370
     0
  0
HATCH
  5
C7
330
B9
100
AcDbEntity
  8
_U+30EC_U+30A4_U+30E4_U+30FC 1
 62
   179
420
  2234388
100
AcDbHatch
 10
0.0
 20
0.0
 30
0.0
210
0.0
220
0.0
230
1.0
  2
SOLID
 70
     1
 71
     0
 91
        1
 92
        1
 93
        4
 72
     1
 10
76.11180553652761
 20
-74.93633895696037
 11
75.85996905655584
 21
-74.93633895696037
 72
     1
 10
75.85996905655584
 20
-74.93633895696037
 11
75.85996905655584
 21
-74.6845024769886
 72
     1
 10
75.85996905655584
 20
-74.6845024769886
 11
76.11180553652761
 21
-74.6845024769886
 72
     1
 10
76.11180553652761
 20
-74.6845024769886
 11
76.11180553652761
 21
-74.93633895696037
 97
        0
 75
     2
 76
     1
 98
        0
  0
SPLINE
  5
C8
330
B9
100
AcDbEntity
  8
_U+30EC_U+30A4_U+30E4_U+30FC 1
370
     0
100
AcDbSpline
210
0.0
220
0.0
230
1.0
 70
    11
 71
     3
 72
    29
 73
    25
 74
     0
 42
0.0000000001
 43
0.0000000001
 12
1.0
 22
0.0
 32
0.0
 13
1.0
 23
0.0
 33
0.0
 40
0.0
 40
0.0
 40
0.0
 40
0.0
 40
1.0
 40
1.0
 40
1.0
 40
2.0
 40
2.0
 40
2.0
 40
3.0
 40
3.0
 40
3.0
 40
4.0
 40
4.0
 40
4.0
 40
5.0
 40
5.0
 40
5.0
 40
6.0
 40
6.0
 40
6.0
 40
7.0
 40
7.0
 40
7.0
 40
8.0
 40
8.0
 40
8.0
 40
8.0
 10
76.16244844016079
 20
-73.9482855717907
 30
0.0
 10
76.16244844016079
 20
-74.21493596234905
 30
0.0
 10
76.02498913029932
 20
-74.46849499006343
 30
0.0
 10
75.67600095764351
 20
-74.46849499006343
 30
0.0
 10
75.42003036308944
 20
-74.46849499006343
 30
0.0
 10
75.32494572769654
 20
-74.32690156561966
 30
0.0
 10
75.2636230280591
 20
-74.2211371342225
 30
0.0
 10
75.2043673857128
 20
-74.34584959078855
 30
0.0
 10
75.08999021560251
 20
-74.42198620101256
 30
0.0
 10
74.92910425644133
 20
-74.42198620101256
 30
0.0
 10
74.6541856367184
 20
-74.42198620101256
 30
0.0
 10
74.51879338414808
 20
-74.22320419151364
 30
0.0
 10
74.51879338414808
 20
-73.9482855717907
 30
0.0
 10
74.51879338414808
 20
-73.66475421335466
 30
0.0
 10
74.66279837543152
 20
-73.47424043302033
 30
0.0
 10
74.92910425644133
 20
-73.47424043302033
 30
0.0
 10
75.08999021560251
 20
-73.47424043302033
 30
0.0
 10
75.2043673857128
 20
-73.55278861008402
 30
0.0
 10
75.2636230280591
 20
-73.67750106665007
 30
0.0
 10
75.31426593169228
 20
-73.58861760313063
 30
0.0
 10
75.40935056708517
 20
-73.42979870126061
 30
0.0
 10
75.67186684306121
 20
-73.42979870126061
 30
0.0
 10
76.04634872230785
 20
-73.42979870126061
 30
0.0
 10
76.16244844016079
 20
-73.70919594511437
 30
0.0
 10
76.16244844016079
 20
-73.9482855717907
 30
0.0
  0
SPLINE
  5
C9
330
B9
100
AcDbEntity
  8
_U+30EC_U+30A4_U+30E4_U+30FC 1
370
     0
100
AcDbSpline
210
0.0
220
0.0
230
1.0
 70
    11
 71
     3
 72
    17
 73
    13
 74
     0
 42
0.0000000001
 43
0.0000000001
 12
1.0
 22
0.0
 32
0.0
 13
1.0
 23
0.0
 33
0.0
 40
0.0
 40
0.0
 40
0.0
 40
0.0
 40
1.0
 40
1.0
 40
1.0
 40
2.0
 40
2.0
 40
2.0
 40
3.0
 40
3.0
 40
3.0
 40
4.0
 40
4.0
 40
4.0
 40
4.0
 10
74.71137422177355
 20
-73.9482855717907
 30
0.0
 10
74.71137422177355
 20
-74.11330564553418
 30
0.0
 10
74.80645885716645
 20
-74.1977104849228
 30
0.0
 10
74.94185110973676
 20
-74.1977104849228
 30
0.0
 10
75.06449650901166
 20
-74.1977104849228
 30
0.0
 10
75.18300779370425
 20
-74.12605249882961
 30
0.0
 10
75.18300779370425
 20
-73.9482855717907
 30
0.0
 10
75.18300779370425
 20
-73.77051864475182
 30
0.0
 10
75.06449650901166
 20
-73.69851614911009
 30
0.0
 10
74.94185110973676
 20
-73.69851614911009
 30
0.0
 10
74.80645885716645
 20
-73.69851614911009
 30
0.0
 10
74.71137422177355
 20
-73.78533255533839
 30
0.0
 10
74.71137422177355
 20
-73.9482855717907
 30
0.0
  0
SPLINE
  5
CA
330
B9
100
AcDbEntity
  8
_U+30EC_U+30A4_U+30E4_U+30FC 1
370
     0
100
AcDbSpline
210
0.0
220
0.0
230
1.0
 70
    11
 71
     3
 72
    17
 73
    13
 74
     0
 42
0.0000000001
 43
0.0000000001
 12
1.0
 22
0.0
 32
0.0
 13
1.0
 23
0.0
 33
0.0
 40
0.0
 40
0.0
 40
0.0
 40
0.0
 40
1.0
 40
1.0
 40
1.0
 40
2.0
 40
2.0
 40
2.0
 40
3.0
 40
3.0
 40
3.0
 40
4.0
 40
4.0
 40
4.0
 40
4.0
 10
75.37145451674742
 20
-73.9482855717907
 30
0.0
 10
75.37145451674742
 20
-74.09194605352563
 30
0.0
 10
75.45827092297571
 20
-74.2445637835222
 30
0.0
 10
75.66118704705693
 20
-74.2445637835222
 30
0.0
 10
75.86651473797782
 20
-74.2445637835222
 30
0.0
 10
75.96780054524416
 20
-74.11743976011648
 30
0.0
 10
75.96780054524416
 20
-73.9482855717907
 30
0.0
 10
75.96780054524416
 20
-73.76225041558722
 30
0.0
 10
75.84515514596927
 20
-73.65200736005923
 30
0.0
 10
75.66738821893038
 20
-73.65200736005923
 30
0.0
 10
75.44552406968029
 20
-73.65200736005923
 30
0.0
 10
75.37145451674742
 20
-73.81496037651154
 30
0.0
 10
75.37145451674742
 20
-73.9482855717907
 30
0.0
  0
HATCH
  5
CB
330
B9
100
AcDbEntity
  8
_U+30EC_U+30A4_U+30E4_U+30FC 1
 62
   179
420
  2234388
100
AcDbHatch
 10
0.0
 20
0.0
 30
0.0
210
0.0
220
0.0
230
1.0
  2
SOLID
 70
     1
 71
     0
 91
        3
 92
        1
 93
        1
 72
     4
 94
        3
 73
     0
 74
     1
 95
       29
 96
       25
 40
0.0
 40
0.0
 40
0.0
 40
0.0
 40
1.0
 40
1.0
 40
1.0
 40
2.0
 40
2.0
 40
2.0
 40
3.0
 40
3.0
 40
3.0
 40
4.0
 40
4.0
 40
4.0
 40
5.0
 40
5.0
 40
5.0
 40
6.0
 40
6.0
 40
6.0
 40
7.0
 40
7.0
 40
7.0
 40
8.0
 40
8.0
 40
8.0
 40
8.0
 10
76.16244844016079
 20
-73.9482855717907
 10
76.16244844016079
 20
-74.21493596234905
 10
76.02498913029932
 20
-74.46849499006343
 10
75.67600095764351
 20
-74.46849499006343
 10
75.42003036308944
 20
-74.46849499006343
 10
75.32494572769654
 20
-74.32690156561966
 10
75.2636230280591
 20
-74.2211371342225
 10
75.2043673857128
 20
-74.34584959078855
 10
75.08999021560251
 20
-74.42198620101256
 10
74.92910425644133
 20
-74.42198620101256
 10
74.6541856367184
 20
-74.42198620101256
 10
74.51879338414808
 20
-74.22320419151364
 10
74.51879338414808
 20
-73.9482855717907
 10
74.51879338414808
 20
-73.66475421335466
 10
74.66279837543152
 20
-73.47424043302033
 10
74.92910425644133
 20
-73.47424043302033
 10
75.08999021560251
 20
-73.47424043302033
 10
75.2043673857128
 20
-73.55278861008402
 10
75.2636230280591
 20
-73.67750106665007
 10
75.31426593169228
 20
-73.58861760313063
 10
75.40935056708517
 20
-73.42979870126061
 10
75.67186684306121
 20
-73.42979870126061
 10
76.04634872230785
 20
-73.42979870126061
 10
76.16244844016079
 20
-73.70919594511437
 10
76.16244844016079
 20
-73.9482855717907
 97
        0
 97
        0
 92
        1
 93
        1
 72
     4
 94
        3
 73
     0
 74
     1
 95
       17
 96
       13
 40
0.0
 40
0.0
 40
0.0
 40
0.0
 40
1.0
 40
1.0
 40
1.0
 40
2.0
 40
2.0
 40
2.0
 40
3.0
 40
3.0
 40
3.0
 40
4.0
 40
4.0
 40
4.0
 40
4.0
 10
74.71137422177355
 20
-73.9482855717907
 10
74.71137422177355
 20
-74.11330564553418
 10
74.80645885716645
 20
-74.1977104849228
 10
74.94185110973676
 20
-74.1977104849228
 10
75.06449650901166
 20
-74.1977104849228
 10
75.18300779370425
 20
-74.12605249882961
 10
75.18300779370425
 20
-73.9482855717907
 10
75.18300779370425
 20
-73.77051864475182
 10
75.06449650901166
 20
-73.69851614911009
 10
74.94185110973676
 20
-73.69851614911009
 10
74.80645885716645
 20
-73.69851614911009
 10
74.71137422177355
 20
-73.78533255533839
 10
74.71137422177355
 20
-73.9482855717907
 97
        0
 97
        0
 92
        1
 93
        1
 72
     4
 94
        3
 73
     0
 74
     1
 95
       17
 96
       13
 40
0.0
 40
0.0
 40
0.0
 40
0.0
 40
1.0
 40
1.0
 40
1.0
 40
2.0
 40
2.0
 40
2.0
 40
3.0
 40
3.0
 40
3.0
 40
4.0
 40
4.0
 40
4.0
 40
4.0
 10
75.37145451674742
 20
-73.9482855717907
 10
75.37145451674742
 20
-74.09194605352563
 10
75.45827092297571
 20
-74.2445637835222
 10
75.66118704705693
 20
-74.2445637835222
 10
75.86651473797782
 20
-74.2445637835222
 10
75.96780054524416
 20
-74.11743976011648
 10
75.96780054524416
 20
-73.9482855717907
 10
75.96780054524416
 20
-73.76225041558722
 10
75.84515514596927
 20
-73.65200736005923
 10
75.66738821893038
 20
-73.65200736005923
 10
75.44552406968029
 20
-73.65200736005923
 10
75.37145451674742
 20
-73.81496037651154
 10
75.37145451674742
 20
-73.9482855717907
 97
        0
 97
        0
 75
     2
 76
     1
 98
        0
  0
ENDBLK
  5
BC
330
B9
100
AcDbEntity
  8
0
100
AcDbBlockEnd
  0
BLOCK
  5
CE
330
CC
100
AcDbEntity
  8
0
100
AcDbBlockBegin
  2
block 5
 70
     0
 10
0.0
 20
0.0
 30
0.0
  3
block 5
  1

  0
SPLINE
  5
D0
330
CC
100
AcDbEntity
  8
_U+30EC_U+30A4_U+30E4_U+30FC 1
370
     0
100
AcDbSpline
210
0.0
220
0.0
230
1.0
 70
    11
 71
     3
 72
    62
 73
    58
 74
     0
 42
0.0000000001
 43
0.0000000001
 12
1.0
 22
0.0
 32
0.0
 13
1.0
 23
0.0
 33
0.0
 40
0.0
 40
0.0
 40
0.0
 40
0.0
 40
1.0
 40
1.0
 40
1.0
 40
2.0
 40
2.0
 40
2.0
 40
3.0
 40
3.0
 40
3.0
 40
4.0
 40
4.0
 40
4.0
 40
5.0
 40
5.0
 40
5.0
 40
6.0
 40
6.0
 40
6.0
 40
7.0
 40
7.0
 40
7.0
 40
8.0
 40
8.0
 40
8.0
 40
9.0
 40
9.0
 40
9.0
 40
10.0
 40
10.0
 40
10.0
 40
11.0
 40
11.0
 40
11.0
 40
12.0
 40
12.0
 40
12.0
 40
13.0
 40
13.0
 40
13.0
 40
14.0
 40
14.0
 40
14.0
 40
15.0
 40
15.0
 40
15.0
 40
16.0
 40
16.0
 40
16.0
 40
17.0
 40
17.0
 40
17.0
 40
18.0
 40
18.0
 40
18.0
 40
19.0
 40
19.0
 40
19.0
 40
19.0
 10
76.16244844016079
 20
-95.68511553597456
 30
0.0
 10
76.16244844016079
 20
-95.78054468091598
 30
0.0
 10
76.14143335770076
 20
-95.99827471558378
 30
0.0
 10
75.95539820149726
 20
-96.12333168169833
 30
0.0
 10
75.84308808867812
 20
-96.19740123463122
 30
0.0
 10
75.74386933870292
 20
-96.20153534921351
 30
0.0
 10
75.65911998976578
 20
-96.20566946379581
 30
0.0
 10
75.65911998976578
 20
-96.20566946379581
 30
0.0
 10
75.65911998976578
 20
-95.98552786228835
 30
0.0
 10
75.65911998976578
 20
-95.98552786228835
 30
0.0
 10
75.73318954269865
 20
-95.9834608049972
 30
0.0
 10
75.96780054524416
 20
-95.97312551854145
 30
0.0
 10
75.96780054524416
 20
-95.68959416010539
 30
0.0
 10
75.96780054524416
 20
-95.55213485024392
 30
0.0
 10
75.89820961644212
 20
-95.39951712024735
 30
0.0
 10
75.66979978577005
 20
-95.39951712024735
 30
0.0
 10
75.55335555836861
 20
-95.39951712024735
 30
0.0
 10
75.50477971202659
 20
-95.43775768013361
 30
0.0
 10
75.47308483356228
 20
-95.46945255859792
 30
0.0
 10
75.39901528062941
 20
-95.54352211153079
 30
0.0
 10
75.38626842733399
 20
-95.65996633893224
 30
0.0
 10
75.38626842733399
 20
-95.71474335714771
 30
0.0
 10
75.38626842733399
 20
-95.7340358918651
 30
0.0
 10
75.38833548462514
 20
-95.7698648849117
 30
0.0
 10
75.39246959920744
 20
-95.7974256487937
 30
0.0
 10
75.39246959920744
 20
-95.7974256487937
 30
0.0
 10
75.19782170429083
 20
-95.7974256487937
 30
0.0
 10
75.19782170429083
 20
-95.7974256487937
 30
0.0
 10
75.2043673857128
 20
-95.75918508890743
 30
0.0
 10
75.20643444300396
 20
-95.71715492398738
 30
0.0
 10
75.20643444300396
 20
-95.71060924256541
 30
0.0
 10
75.20643444300396
 20
-95.64515242834567
 30
0.0
 10
75.1850748509954
 20
-95.44637041884674
 30
0.0
 10
74.94839679115874
 20
-95.44637041884674
 30
0.0
 10
74.77062986411984
 20
-95.44637041884674
 30
0.0
 10
74.71550833635585
 20
-95.57728404728624
 30
0.0
 10
74.71550833635585
 20
-95.68752710281423
 30
0.0
 10
74.71550833635585
 20
-95.9517659265329
 30
0.0
 10
74.94839679115874
 20
-95.96037866524603
 30
0.0
 10
75.02005477725193
 20
-95.96451277982833
 30
0.0
 10
75.02005477725193
 20
-95.96451277982833
 30
0.0
 10
75.02005477725193
 20
-96.16777341345806
 30
0.0
 10
75.02005477725193
 20
-96.16777341345806
 30
0.0
 10
74.89534232068588
 20
-96.15916067474494
 30
0.0
 10
74.51879338414808
 20
-96.13159991086293
 30
0.0
 10
74.51879338414808
 20
-95.6747802495188
 30
0.0
 10
74.51879338414808
 20
-95.45050453342904
 30
0.0
 10
74.6459174075538
 20
-95.20934784946155
 30
0.0
 10
74.94185110973676
 20
-95.20934784946155
 30
0.0
 10
75.12823077548877
 20
-95.20934784946155
 30
0.0
 10
75.21056855758626
 20
-95.30443248485444
 30
0.0
 10
75.2718912572237
 20
-95.40399574437818
 30
0.0
 10
75.2994520211057
 20
-95.34267304474072
 30
0.0
 10
75.37972274591202
 20
-95.16077200311953
 30
0.0
 10
75.65705293247463
 20
-95.16077200311953
 30
0.0
 10
75.99536130912617
 20
-95.16077200311953
 30
0.0
 10
76.16244844016079
 20
-95.40812985896048
 30
0.0
 10
76.16244844016079
 20
-95.68511553597456
 30
0.0
  0
HATCH
  5
D1
330
CC
100
AcDbEntity
  8
_U+30EC_U+30A4_U+30E4_U+30FC 1
 62
   179
420
  2234388
100
AcDbHatch
 10
0.0
 20
0.0
 30
0.0
210
0.0
220
0.0
230
1.0
  2
SOLID
 70
     1
 71
     0
 91
        1
 92
        1
 93
        1
 72
     4
 94
        3
 73
     0
 74
     1
 95
       62
 96
       58
 40
0.0
 40
0.0
 40
0.0
 40
0.0
 40
1.0
 40
1.0
 40
1.0
 40
2.0
 40
2.0
 40
2.0
 40
3.0
 40
3.0
 40
3.0
 40
4.0
 40
4.0
 40
4.0
 40
5.0
 40
5.0
 40
5.0
 40
6.0
 40
6.0
 40
6.0
 40
7.0
 40
7.0
 40
7.0
 40
8.0
 40
8.0
 40
8.0
 40
9.0
 40
9.0
 40
9.0
 40
10.0
 40
10.0
 40
10.0
 40
11.0
 40
11.0
 40
11.0
 40
12.0
 40
12.0
 40
12.0
 40
13.0
 40
13.0
 40
13.0
 40
14.0
 40
14.0
 40
14.0
 40
15.0
 40
15.0
 40
15.0
 40
16.0
 40
16.0
 40
16.0
 40
17.0
 40
17.0
 40
17.0
 40
18.0
 40
18.0
 40
18.0
 40
19.0
 40
19.0
 40
19.0
 40
19.0
 10
76.16244844016079
 20
-95.68511553597456
 10
76.16244844016079
 20
-95.78054468091598
 10
76.14143335770076
 20
-95.99827471558378
 10
75.95539820149726
 20
-96.12333168169833
 10
75.84308808867812
 20
-96.19740123463122
 10
75.74386933870292
 20
-96.20153534921351
 10
75.65911998976578
 20
-96.20566946379581
 10
75.65911998976578
 20
-96.20566946379581
 10
75.65911998976578
 20
-95.98552786228835
 10
75.65911998976578
 20
-95.98552786228835
 10
75.73318954269865
 20
-95.9834608049972
 10
75.96780054524416
 20
-95.97312551854145
 10
75.96780054524416
 20
-95.68959416010539
 10
75.96780054524416
 20
-95.55213485024392
 10
75.89820961644212
 20
-95.39951712024735
 10
75.66979978577005
 20
-95.39951712024735
 10
75.55335555836861
 20
-95.39951712024735
 10
75.50477971202659
 20
-95.43775768013361
 10
75.47308483356228
 20
-95.46945255859792
 10
75.39901528062941
 20
-95.54352211153079
 10
75.38626842733399
 20
-95.65996633893224
 10
75.38626842733399
 20
-95.71474335714771
 10
75.38626842733399
 20
-95.7340358918651
 10
75.38833548462514
 20
-95.7698648849117
 10
75.39246959920744
 20
-95.7974256487937
 10
75.39246959920744
 20
-95.7974256487937
 10
75.19782170429083
 20
-95.7974256487937
 10
75.19782170429083
 20
-95.7974256487937
 10
75.2043673857128
 20
-95.75918508890743
 10
75.20643444300396
 20
-95.71715492398738
 10
75.20643444300396
 20
-95.71060924256541
 10
75.20643444300396
 20
-95.64515242834567
 10
75.1850748509954
 20
-95.44637041884674
 10
74.94839679115874
 20
-95.44637041884674
 10
74.77062986411984
 20
-95.44637041884674
 10
74.71550833635585
 20
-95.57728404728624
 10
74.71550833635585
 20
-95.68752710281423
 10
74.71550833635585
 20
-95.9517659265329
 10
74.94839679115874
 20
-95.96037866524603
 10
75.02005477725193
 20
-95.96451277982833
 10
75.02005477725193
 20
-95.96451277982833
 10
75.02005477725193
 20
-96.16777341345806
 10
75.02005477725193
 20
-96.16777341345806
 10
74.89534232068588
 20
-96.15916067474494
 10
74.51879338414808
 20
-96.13159991086293
 10
74.51879338414808
 20
-95.6747802495188
 10
74.51879338414808
 20
-95.45050453342904
 10
74.6459174075538
 20
-95.20934784946155
 10
74.94185110973676
 20
-95.20934784946155
 10
75.12823077548877
 20
-95.20934784946155
 10
75.21056855758626
 20
-95.30443248485444
 10
75.2718912572237
 20
-95.40399574437818
 10
75.2994520211057
 20
-95.34267304474072
 10
75.37972274591202
 20
-95.16077200311953
 10
75.65705293247463
 20
-95.16077200311953
 10
75.99536130912617
 20
-95.16077200311953
 10
76.16244844016079
 20
-95.40812985896048
 10
76.16244844016079
 20
-95.68511553597456
 97
        0
 97
        0
 75
     2
 76
     1
 98
        0
  0
ENDBLK
  5
CF
330
CC
100
AcDbEntity
  8
0
100
AcDbBlockEnd
  0
BLOCK
  5
E0
330
DE
100
AcDbEntity
  8
0
100
AcDbBlockBegin
  2
block 6
 70
     0
 10
0.0
 20
0.0
 30
0.0
  3
block 6
  1

  0
SPLINE
  5
E2
330
DE
100
AcDbEntity
  8
_U+30EC_U+30A4_U+30E4_U+30FC 1
370
     0
100
AcDbSpline
210
0.0
220
0.0
230
1.0
 70
    11
 71
     3
 72
    26
 73
    22
 74
     0
 42
0.0000000001
 43
0.0000000001
 12
1.0
 22
0.0
 32
0.0
 13
1.0
 23
0.0
 33
0.0
 40
0.0
 40
0.0
 40
0.0
 40
0.0
 40
1.0
 40
1.0
 40
1.0
 40
2.0
 40
2.0
 40
2.0
 40
3.0
 40
3.0
 40
3.0
 40
4.0
 40
4.0
 40
4.0
 40
5.0
 40
5.0
 40
5.0
 40
6.0
 40
6.0
 40
6.0
 40
7.0
 40
7.0
 40
7.0
 40
7.0
 10
53.28839245629596
 20
-100.5978216979408
 30
0.0
 10
53.28839245629596
 20
-100.5978216979408
 30
0.0
 10
53.28839245629596
 20
-99.49366859491825
 30
0.0
 10
53.28839245629596
 20
-99.49366859491825
 30
0.0
 10
53.28839245629596
 20
-99.49366859491825
 30
0.0
 10
52.95835230880903
 20
-99.49366859491825
 30
0.0
 10
52.95835230880903
 20
-99.49366859491825
 30
0.0
 10
52.95835230880903
 20
-99.49366859491825
 30
0.0
 10
52.95835230880903
 20
-99.34552948905251
 30
0.0
 10
52.95835230880903
 20
-99.34552948905251
 30
0.0
 10
53.29045951358711
 20
-99.33071557846594
 30
0.0
 10
53.33696830263798
 20
-99.16776256201362
 30
0.0
 10
53.36659612381113
 20
-99.05338539190332
 30
0.0
 10
53.36659612381113
 20
-99.05338539190332
 30
0.0
 10
53.51266817238572
 20
-99.05338539190332
 30
0.0
 10
53.51266817238572
 20
-99.05338539190332
 30
0.0
 10
53.51266817238572
 20
-99.05338539190332
 30
0.0
 10
53.51266817238572
 20
-100.5978216979408
 30
0.0
 10
53.51266817238572
 20
-100.5978216979408
 30
0.0
 10
53.51266817238572
 20
-100.5978216979408
 30
0.0
 10
53.28839245629596
 20
-100.5978216979408
 30
0.0
 10
53.28839245629596
 20
-100.5978216979408
 30
0.0
  0
HATCH
  5
E3
330
DE
100
AcDbEntity
  8
_U+30EC_U+30A4_U+30E4_U+30FC 1
 62
   179
420
  2234388
100
AcDbHatch
 10
0.0
 20
0.0
 30
0.0
210
0.0
220
0.0
230
1.0
  2
SOLID
 70
     1
 71
     0
 91
        1
 92
        1
 93
        1
 72
     4
 94
        3
 73
     0
 74
     1
 95
       26
 96
       22
 40
0.0
 40
0.0
 40
0.0
 40
0.0
 40
1.0
 40
1.0
 40
1.0
 40
2.0
 40
2.0
 40
2.0
 40
3.0
 40
3.0
 40
3.0
 40
4.0
 40
4.0
 40
4.0
 40
5.0
 40
5.0
 40
5.0
 40
6.0
 40
6.0
 40
6.0
 40
7.0
 40
7.0
 40
7.0
 40
7.0
 10
53.28839245629596
 20
-100.5978216979408
 10
53.28839245629596
 20
-100.5978216979408
 10
53.28839245629596
 20
-99.49366859491825
 10
53.28839245629596
 20
-99.49366859491825
 10
53.28839245629596
 20
-99.49366859491825
 10
52.95835230880903
 20
-99.49366859491825
 10
52.95835230880903
 20
-99.49366859491825
 10
52.95835230880903
 20
-99.49366859491825
 10
52.95835230880903
 20
-99.34552948905251
 10
52.95835230880903
 20
-99.34552948905251
 10
53.29045951358711
 20
-99.33071557846594
 10
53.33696830263798
 20
-99.16776256201362
 10
53.36659612381113
 20
-99.05338539190332
 10
53.36659612381113
 20
-99.05338539190332
 10
53.51266817238572
 20
-99.05338539190332
 10
53.51266817238572
 20
-99.05338539190332
 10
53.51266817238572
 20
-99.05338539190332
 10
53.51266817238572
 20
-100.5978216979408
 10
53.51266817238572
 20
-100.5978216979408
 10
53.51266817238572
 20
-100.5978216979408
 10
53.28839245629596
 20
-100.5978216979408
 10
53.28839245629596
 20
-100.5978216979408
 97
        0
 97
        0
 75
     2
 76
     1
 98
        0
  0
SPLINE
  5
E4
330
DE
100
AcDbEntity
  8
_U+30EC_U+30A4_U+30E4_U+30FC 1
370
     0
100
AcDbSpline
210
0.0
220
0.0
230
1.0
 70
    11
 71
     3
 72
    29
 73
    25
 74
     0
 42
0.0000000001
 43
0.0000000001
 12
1.0
 22
0.0
 32
0.0
 13
1.0
 23
0.0
 33
0.0
 40
0.0
 40
0.0
 40
0.0
 40
0.0
 40
1.0
 40
1.0
 40
1.0
 40
2.0
 40
2.0
 40
2.0
 40
3.0
 40
3.0
 40
3.0
 40
4.0
 40
4.0
 40
4.0
 40
5.0
 40
5.0
 40
5.0
 40
6.0
 40
6.0
 40
6.0
 40
7.0
 40
7.0
 40
7.0
 40
8.0
 40
8.0
 40
8.0
 40
8.0
 10
54.91172144894568
 20
-100.4200547709019
 30
0.0
 10
54.80354545070884
 20
-100.6295165764051
 30
0.0
 10
54.63025714780077
 20
-100.648464601574
 30
0.0
 10
54.51381292039932
 20
-100.648464601574
 30
0.0
 10
54.35292696123816
 20
-100.648464601574
 30
0.0
 10
54.21133353679439
 20
-100.6019558125231
 30
0.0
 10
54.1162489014015
 20
-100.4200547709019
 30
0.0
 10
54.01255152729548
 20
-100.2254068759853
 30
0.0
 10
53.9936035021266
 20
-99.98872881614865
 30
0.0
 10
53.9936035021266
 20
-99.82577579969634
 30
0.0
 10
53.9936035021266
 20
-99.68177080841289
 30
0.0
 10
54.01048447000433
 20
-99.42993432844113
 30
0.0
 10
54.1162489014015
 20
-99.23115231894222
 30
0.0
 10
54.22408039008982
 20
-99.028236194861
 30
0.0
 10
54.38496634925098
 20
-99.0048095455613
 30
0.0
 10
54.51381292039932
 20
-99.0048095455613
 30
0.0
 10
54.67263182226935
 20
-99.0048095455613
 30
0.0
 10
54.81629230400426
 20
-99.04925127732102
 30
0.0
 10
54.91172144894568
 20
-99.23115231894222
 30
0.0
 10
55.01094019892088
 20
-99.42373315656768
 30
0.0
 10
55.03436684822058
 20
-99.65214298723974
 30
0.0
 10
55.03436684822058
 20
-99.82577579969634
 30
0.0
 10
55.03436684822058
 20
-99.99699704531325
 30
0.0
 10
55.01300725621203
 20
-100.2274739332765
 30
0.0
 10
54.91172144894568
 20
-100.4200547709019
 30
0.0
  0
SPLINE
  5
E5
330
DE
100
AcDbEntity
  8
_U+30EC_U+30A4_U+30E4_U+30FC 1
370
     0
100
AcDbSpline
210
0.0
220
0.0
230
1.0
 70
    11
 71
     3
 72
    17
 73
    13
 74
     0
 42
0.0000000001
 43
0.0000000001
 12
1.0
 22
0.0
 32
0.0
 13
1.0
 23
0.0
 33
0.0
 40
0.0
 40
0.0
 40
0.0
 40
0.0
 40
1.0
 40
1.0
 40
1.0
 40
2.0
 40
2.0
 40
2.0
 40
3.0
 40
3.0
 40
3.0
 40
4.0
 40
4.0
 40
4.0
 40
4.0
 10
54.51381292039932
 20
-99.19739038318677
 30
0.0
 10
54.26438800726724
 20
-99.19739038318677
 30
0.0
 10
54.21753470866784
 20
-99.48092174162284
 30
0.0
 10
54.21753470866784
 20
-99.82577579969634
 30
0.0
 10
54.21753470866784
 20
-100.145136151179
 30
0.0
 10
54.25370821126297
 20
-100.4538167066574
 30
0.0
 10
54.51381292039932
 20
-100.4538167066574
 30
0.0
 10
54.76151528578879
 20
-100.4538167066574
 30
0.0
 10
54.81009113213081
 20
-100.172696915061
 30
0.0
 10
54.81009113213081
 20
-99.82577579969634
 30
0.0
 10
54.81009113213081
 20
-99.50607093866515
 30
0.0
 10
54.77185057224454
 20
-99.19739038318677
 30
0.0
 10
54.51381292039932
 20
-99.19739038318677
 30
0.0
  0
HATCH
  5
E6
330
DE
100
AcDbEntity
  8
_U+30EC_U+30A4_U+30E4_U+30FC 1
 62
   179
420
  2234388
100
AcDbHatch
 10
0.0
 20
0.0
 30
0.0
210
0.0
220
0.0
230
1.0
  2
SOLID
 70
     1
 71
     0
 91
        2
 92
        1
 93
        1
 72
     4
 94
        3
 73
     0
 74
     1
 95
       29
 96
       25
 40
0.0
 40
0.0
 40
0.0
 40
0.0
 40
1.0
 40
1.0
 40
1.0
 40
2.0
 40
2.0
 40
2.0
 40
3.0
 40
3.0
 40
3.0
 40
4.0
 40
4.0
 40
4.0
 40
5.0
 40
5.0
 40
5.0
 40
6.0
 40
6.0
 40
6.0
 40
7.0
 40
7.0
 40
7.0
 40
8.0
 40
8.0
 40
8.0
 40
8.0
 10
54.91172144894568
 20
-100.4200547709019
 10
54.80354545070884
 20
-100.6295165764051
 10
54.63025714780077
 20
-100.648464601574
 10
54.51381292039932
 20
-100.648464601574
 10
54.35292696123816
 20
-100.648464601574
 10
54.21133353679439
 20
-100.6019558125231
 10
54.1162489014015
 20
-100.4200547709019
 10
54.01255152729548
 20
-100.2254068759853
 10
53.9936035021266
 20
-99.98872881614865
 10
53.9936035021266
 20
-99.82577579969634
 10
53.9936035021266
 20
-99.68177080841289
 10
54.01048447000433
 20
-99.42993432844113
 10
54.1162489014015
 20
-99.23115231894222
 10
54.22408039008982
 20
-99.028236194861
 10
54.38496634925098
 20
-99.0048095455613
 10
54.51381292039932
 20
-99.0048095455613
 10
54.67263182226935
 20
-99.0048095455613
 10
54.81629230400426
 20
-99.04925127732102
 10
54.91172144894568
 20
-99.23115231894222
 10
55.01094019892088
 20
-99.42373315656768
 10
55.03436684822058
 20
-99.65214298723974
 10
55.03436684822058
 20
-99.82577579969634
 10
55.03436684822058
 20
-99.99699704531325
 10
55.01300725621203
 20
-100.2274739332765
 10
54.91172144894568
 20
-100.4200547709019
 97
        0
 97
        0
 92
        1
 93
        1
 72
     4
 94
        3
 73
     0
 74
     1
 95
       17
 96
       13
 40
0.0
 40
0.0
 40
0.0
 40
0.0
 40
1.0
 40
1.0
 40
1.0
 40
2.0
 40
2.0
 40
2.0
 40
3.0
 40
3.0
 40
3.0
 40
4.0
 40
4.0
 40
4.0
 40
4.0
 10
54.51381292039932
 20
-99.19739038318677
 10
54.26438800726724
 20
-99.19739038318677
 10
54.21753470866784
 20
-99.48092174162284
 10
54.21753470866784
 20
-99.82577579969634
 10
54.21753470866784
 20
-100.145136151179
 10
54.25370821126297
 20
-100.4538167066574
 10
54.51381292039932
 20
-100.4538167066574
 10
54.76151528578879
 20
-100.4538167066574
 10
54.81009113213081
 20
-100.172696915061
 10
54.81009113213081
 20
-99.82577579969634
 10
54.81009113213081
 20
-99.50607093866515
 10
54.77185057224454
 20
-99.19739038318677
 10
54.51381292039932
 20
-99.19739038318677
 97
        0
 97
        0
 75
     2
 76
     1
 98
        0
  0
ENDBLK
  5
E1
330
DE
100
AcDbEntity
  8
0
100
AcDbBlockEnd
  0
BLOCK
  5
108
330
106
100
AcDbEntity
  8
0
100
AcDbBlockBegin
  2
block 7
 70
     0
 10
0.0
 20
0.0
 30
0.0
  3
block 7
  1

  0
SPLINE
  5
10A
330
106
100
AcDbEntity
  8
_U+30EC_U+30A4_U+30E4_U+30FC 1
370
     0
100
AcDbSpline
210
0.0
220
0.0
230
1.0
 70
    11
 71
     3
 72
    44
 73
    40
 74
     0
 42
0.0000000001
 43
0.0000000001
 12
1.0
 22
0.0
 32
0.0
 13
1.0
 23
0.0
 33
0.0
 40
0.0
 40
0.0
 40
0.0
 40
0.0
 40
1.0
 40
1.0
 40
1.0
 40
2.0
 40
2.0
 40
2.0
 40
3.0
 40
3.0
 40
3.0
 40
4.0
 40
4.0
 40
4.0
 40
5.0
 40
5.0
 40
5.0
 40
6.0
 40
6.0
 40
6.0
 40
7.0
 40
7.0
 40
7.0
 40
8.0
 40
8.0
 40
8.0
 40
9.0
 40
9.0
 40
9.0
 40
10.0
 40
10.0
 40
10.0
 40
11.0
 40
11.0
 40
11.0
 40
12.0
 40
12.0
 40
12.0
 40
13.0
 40
13.0
 40
13.0
 40
13.0
 10
61.57729219380707
 20
-71.93049314607988
 30
0.0
 10
61.35956215913928
 20
-72.0893120479499
 30
0.0
 10
61.26654458103754
 20
-72.16338160088277
 30
0.0
 10
61.21762422514698
 20
-72.30704208261768
 30
0.0
 10
61.21762422514698
 20
-72.30704208261768
 30
0.0
 10
61.99621580481345
 20
-72.30704208261768
 30
0.0
 10
61.99621580481345
 20
-72.30704208261768
 30
0.0
 10
61.99621580481345
 20
-72.30704208261768
 30
0.0
 10
61.99621580481345
 20
-72.51236977353858
 30
0.0
 10
61.99621580481345
 20
-72.51236977353858
 30
0.0
 10
61.99621580481345
 20
-72.51236977353858
 30
0.0
 10
60.9681993120149
 20
-72.51236977353858
 30
0.0
 10
60.9681993120149
 20
-72.51236977353858
 30
0.0
 10
60.9998941904792
 20
-72.15476886216965
 30
0.0
 10
61.06535100469894
 20
-72.07656519465448
 30
0.0
 10
61.45051267994987
 20
-71.77821992563183
 30
0.0
 10
61.70648327450394
 20
-71.57943791613292
 30
0.0
 10
61.77194008872368
 20
-71.5115695350735
 30
0.0
 10
61.77194008872368
 20
-71.37411022521204
 30
0.0
 10
61.77194008872368
 20
-71.25559894051943
 30
0.0
 10
61.69993759308196
 20
-71.12468531207995
 30
0.0
 10
61.5032226408742
 20
-71.12468531207995
 30
0.0
 10
61.24311793173784
 20
-71.12468531207995
 30
0.0
 10
61.23450519302471
 20
-71.35516220004315
 30
0.0
 10
61.23037107844241
 20
-71.4716064274446
 30
0.0
 10
61.23037107844241
 20
-71.4716064274446
 30
0.0
 10
61.00609536235265
 20
-71.4716064274446
 30
0.0
 10
61.00609536235265
 20
-71.4716064274446
 30
0.0
 10
61.01470810106577
 20
-71.34448240403889
 30
0.0
 10
61.02538789707005
 20
-71.23251680076827
 30
0.0
 10
61.10565862187637
 20
-71.11400551607566
 30
0.0
 10
61.21555716785583
 20
-70.9531195569145
 30
0.0
 10
61.40193683360785
 20
-70.91935762115905
 30
0.0
 10
61.51803655146077
 20
-70.91935762115905
 30
0.0
 10
61.79536673802338
 20
-70.91935762115905
 30
0.0
 10
62.00276148623542
 20
-71.1033257200714
 30
0.0
 10
62.00276148623542
 20
-71.37617728250318
 30
0.0
 10
62.00276148623542
 20
-71.60493162272377
 30
0.0
 10
61.88631725883398
 20
-71.70415037269896
 30
0.0
 10
61.57729219380707
 20
-71.93049314607988
 30
0.0
  0
HATCH
  5
10B
330
106
100
AcDbEntity
  8
_U+30EC_U+30A4_U+30E4_U+30FC 1
 62
   179
420
  2234388
100
AcDbHatch
 10
0.0
 20
0.0
 30
0.0
210
0.0
220
0.0
230
1.0
  2
SOLID
 70
     1
 71
     0
 91
        1
 92
        1
 93
        1
 72
     4
 94
        3
 73
     0
 74
     1
 95
       44
 96
       40
 40
0.0
 40
0.0
 40
0.0
 40
0.0
 40
1.0
 40
1.0
 40
1.0
 40
2.0
 40
2.0
 40
2.0
 40
3.0
 40
3.0
 40
3.0
 40
4.0
 40
4.0
 40
4.0
 40
5.0
 40
5.0
 40
5.0
 40
6.0
 40
6.0
 40
6.0
 40
7.0
 40
7.0
 40
7.0
 40
8.0
 40
8.0
 40
8.0
 40
9.0
 40
9.0
 40
9.0
 40
10.0
 40
10.0
 40
10.0
 40
11.0
 40
11.0
 40
11.0
 40
12.0
 40
12.0
 40
12.0
 40
13.0
 40
13.0
 40
13.0
 40
13.0
 10
61.57729219380707
 20
-71.93049314607988
 10
61.35956215913928
 20
-72.0893120479499
 10
61.26654458103754
 20
-72.16338160088277
 10
61.21762422514698
 20
-72.30704208261768
 10
61.21762422514698
 20
-72.30704208261768
 10
61.99621580481345
 20
-72.30704208261768
 10
61.99621580481345
 20
-72.30704208261768
 10
61.99621580481345
 20
-72.30704208261768
 10
61.99621580481345
 20
-72.51236977353858
 10
61.99621580481345
 20
-72.51236977353858
 10
61.99621580481345
 20
-72.51236977353858
 10
60.9681993120149
 20
-72.51236977353858
 10
60.9681993120149
 20
-72.51236977353858
 10
60.9998941904792
 20
-72.15476886216965
 10
61.06535100469894
 20
-72.07656519465448
 10
61.45051267994987
 20
-71.77821992563183
 10
61.70648327450394
 20
-71.57943791613292
 10
61.77194008872368
 20
-71.5115695350735
 10
61.77194008872368
 20
-71.37411022521204
 10
61.77194008872368
 20
-71.25559894051943
 10
61.69993759308196
 20
-71.12468531207995
 10
61.5032226408742
 20
-71.12468531207995
 10
61.24311793173784
 20
-71.12468531207995
 10
61.23450519302471
 20
-71.35516220004315
 10
61.23037107844241
 20
-71.4716064274446
 10
61.23037107844241
 20
-71.4716064274446
 10
61.00609536235265
 20
-71.4716064274446
 10
61.00609536235265
 20
-71.4716064274446
 10
61.01470810106577
 20
-71.34448240403889
 10
61.02538789707005
 20
-71.23251680076827
 10
61.10565862187637
 20
-71.11400551607566
 10
61.21555716785583
 20
-70.9531195569145
 10
61.40193683360785
 20
-70.91935762115905
 10
61.51803655146077
 20
-70.91935762115905
 10
61.79536673802338
 20
-70.91935762115905
 10
62.00276148623542
 20
-71.1033257200714
 10
62.00276148623542
 20
-71.37617728250318
 10
62.00276148623542
 20
-71.60493162272377
 10
61.88631725883398
 20
-71.70415037269896
 10
61.57729219380707
 20
-71.93049314607988
 97
        0
 97
        0
 75
     2
 76
     1
 98
        0
  0
SPLINE
  5
10C
330
106
100
AcDbEntity
  8
_U+30EC_U+30A4_U+30E4_U+30FC 1
370
     0
100
AcDbSpline
210
0.0
220
0.0
230
1.0
 70
    11
 71
     3
 72
    62
 73
    58
 74
     0
 42
0.0000000001
 43
0.0000000001
 12
1.0
 22
0.0
 32
0.0
 13
1.0
 23
0.0
 33
0.0
 40
0.0
 40
0.0
 40
0.0
 40
0.0
 40
1.0
 40
1.0
 40
1.0
 40
2.0
 40
2.0
 40
2.0
 40
3.0
 40
3.0
 40
3.0
 40
4.0
 40
4.0
 40
4.0
 40
5.0
 40
5.0
 40
5.0
 40
6.0
 40
6.0
 40
6.0
 40
7.0
 40
7.0
 40
7.0
 40
8.0
 40
8.0
 40
8.0
 40
9.0
 40
9.0
 40
9.0
 40
10.0
 40
10.0
 40
10.0
 40
11.0
 40
11.0
 40
11.0
 40
12.0
 40
12.0
 40
12.0
 40
13.0
 40
13.0
 40
13.0
 40
14.0
 40
14.0
 40
14.0
 40
15.0
 40
15.0
 40
15.0
 40
16.0
 40
16.0
 40
16.0
 40
17.0
 40
17.0
 40
17.0
 40
18.0
 40
18.0
 40
18.0
 40
19.0
 40
19.0
 40
19.0
 40
19.0
 10
62.65285100430206
 20
-72.56301267717176
 30
0.0
 10
62.55742185936064
 20
-72.56301267717176
 30
0.0
 10
62.33969182469286
 20
-72.54199759471173
 30
0.0
 10
62.21463485857829
 20
-72.35596243850823
 30
0.0
 10
62.14056530564542
 20
-72.24365232568908
 30
0.0
 10
62.13643119106312
 20
-72.14443357571389
 30
0.0
 10
62.13229707648082
 20
-72.05968422677675
 30
0.0
 10
62.13229707648082
 20
-72.05968422677675
 30
0.0
 10
62.35243867798828
 20
-72.05968422677675
 30
0.0
 10
62.35243867798828
 20
-72.05968422677675
 30
0.0
 10
62.35450573527943
 20
-72.13375377970962
 30
0.0
 10
62.36484102173518
 20
-72.36836478225513
 30
0.0
 10
62.64837238017125
 20
-72.36836478225513
 30
0.0
 10
62.78583169003271
 20
-72.36836478225513
 30
0.0
 10
62.93844942002928
 20
-72.29877385345308
 30
0.0
 10
62.93844942002928
 20
-72.07036402278102
 30
0.0
 10
62.93844942002928
 20
-71.95391979537958
 30
0.0
 10
62.900208860143
 20
-71.90534394903756
 30
0.0
 10
62.86851398167871
 20
-71.87364907057325
 30
0.0
 10
62.79444442874583
 20
-71.79957951764038
 30
0.0
 10
62.67800020134439
 20
-71.78683266434496
 30
0.0
 10
62.62322318312892
 20
-71.78683266434496
 30
0.0
 10
62.60393064841152
 20
-71.78683266434496
 30
0.0
 10
62.56810165536492
 20
-71.78889972163611
 30
0.0
 10
62.54054089148293
 20
-71.79303383621841
 30
0.0
 10
62.54054089148293
 20
-71.79303383621841
 30
0.0
 10
62.54054089148293
 20
-71.5983859413018
 30
0.0
 10
62.54054089148293
 20
-71.5983859413018
 30
0.0
 10
62.5787814513692
 20
-71.60493162272377
 30
0.0
 10
62.62081161628925
 20
-71.60699868001493
 30
0.0
 10
62.62735729771122
 20
-71.60699868001493
 30
0.0
 10
62.69281411193096
 20
-71.60699868001493
 30
0.0
 10
62.89159612142988
 20
-71.58563908800637
 30
0.0
 10
62.89159612142988
 20
-71.34896102816971
 30
0.0
 10
62.89159612142988
 20
-71.17119410113082
 30
0.0
 10
62.76068249299039
 20
-71.11607257336682
 30
0.0
 10
62.6504394374624
 20
-71.11607257336682
 30
0.0
 10
62.38620061374373
 20
-71.11607257336682
 30
0.0
 10
62.37758787503061
 20
-71.34896102816971
 30
0.0
 10
62.37345376044831
 20
-71.42061901426291
 30
0.0
 10
62.37345376044831
 20
-71.42061901426291
 30
0.0
 10
62.17019312681857
 20
-71.42061901426291
 30
0.0
 10
62.17019312681857
 20
-71.42061901426291
 30
0.0
 10
62.17880586553169
 20
-71.29590655769687
 30
0.0
 10
62.20636662941369
 20
-70.91935762115905
 30
0.0
 10
62.66318629075781
 20
-70.91935762115905
 30
0.0
 10
62.88746200684758
 20
-70.91935762115905
 30
0.0
 10
63.12861869081507
 20
-71.04648164456478
 30
0.0
 10
63.12861869081507
 20
-71.34241534674773
 30
0.0
 10
63.12861869081507
 20
-71.52879501249974
 30
0.0
 10
63.03353405542217
 20
-71.61113279459722
 30
0.0
 10
62.93397079589845
 20
-71.67245549423467
 30
0.0
 10
62.9952934955359
 20
-71.70001625811666
 30
0.0
 10
63.17719453715709
 20
-71.78028698292299
 30
0.0
 10
63.17719453715709
 20
-72.0576171694856
 30
0.0
 10
63.17719453715709
 20
-72.39592554613714
 30
0.0
 10
62.92983668131615
 20
-72.56301267717176
 30
0.0
 10
62.65285100430206
 20
-72.56301267717176
 30
0.0
  0
HATCH
  5
10D
330
106
100
AcDbEntity
  8
_U+30EC_U+30A4_U+30E4_U+30FC 1
 62
   179
420
  2234388
100
AcDbHatch
 10
0.0
 20
0.0
 30
0.0
210
0.0
220
0.0
230
1.0
  2
SOLID
 70
     1
 71
     0
 91
        1
 92
        1
 93
        1
 72
     4
 94
        3
 73
     0
 74
     1
 95
       62
 96
       58
 40
0.0
 40
0.0
 40
0.0
 40
0.0
 40
1.0
 40
1.0
 40
1.0
 40
2.0
 40
2.0
 40
2.0
 40
3.0
 40
3.0
 40
3.0
 40
4.0
 40
4.0
 40
4.0
 40
5.0
 40
5.0
 40
5.0
 40
6.0
 40
6.0
 40
6.0
 40
7.0
 40
7.0
 40
7.0
 40
8.0
 40
8.0
 40
8.0
 40
9.0
 40
9.0
 40
9.0
 40
10.0
 40
10.0
 40
10.0
 40
11.0
 40
11.0
 40
11.0
 40
12.0
 40
12.0
 40
12.0
 40
13.0
 40
13.0
 40
13.0
 40
14.0
 40
14.0
 40
14.0
 40
15.0
 40
15.0
 40
15.0
 40
16.0
 40
16.0
 40
16.0
 40
17.0
 40
17.0
 40
17.0
 40
18.0
 40
18.0
 40
18.0
 40
19.0
 40
19.0
 40
19.0
 40
19.0
 10
62.65285100430206
 20
-72.56301267717176
 10
62.55742185936064
 20
-72.56301267717176
 10
62.33969182469286
 20
-72.54199759471173
 10
62.21463485857829
 20
-72.35596243850823
 10
62.14056530564542
 20
-72.24365232568908
 10
62.13643119106312
 20
-72.14443357571389
 10
62.13229707648082
 20
-72.05968422677675
 10
62.13229707648082
 20
-72.05968422677675
 10
62.35243867798828
 20
-72.05968422677675
 10
62.35243867798828
 20
-72.05968422677675
 10
62.35450573527943
 20
-72.13375377970962
 10
62.36484102173518
 20
-72.36836478225513
 10
62.64837238017125
 20
-72.36836478225513
 10
62.78583169003271
 20
-72.36836478225513
 10
62.93844942002928
 20
-72.29877385345308
 10
62.93844942002928
 20
-72.07036402278102
 10
62.93844942002928
 20
-71.95391979537958
 10
62.900208860143
 20
-71.90534394903756
 10
62.86851398167871
 20
-71.87364907057325
 10
62.79444442874583
 20
-71.79957951764038
 10
62.67800020134439
 20
-71.78683266434496
 10
62.62322318312892
 20
-71.78683266434496
 10
62.60393064841152
 20
-71.78683266434496
 10
62.56810165536492
 20
-71.78889972163611
 10
62.54054089148293
 20
-71.79303383621841
 10
62.54054089148293
 20
-71.79303383621841
 10
62.54054089148293
 20
-71.5983859413018
 10
62.54054089148293
 20
-71.5983859413018
 10
62.5787814513692
 20
-71.60493162272377
 10
62.62081161628925
 20
-71.60699868001493
 10
62.62735729771122
 20
-71.60699868001493
 10
62.69281411193096
 20
-71.60699868001493
 10
62.89159612142988
 20
-71.58563908800637
 10
62.89159612142988
 20
-71.34896102816971
 10
62.89159612142988
 20
-71.17119410113082
 10
62.76068249299039
 20
-71.11607257336682
 10
62.6504394374624
 20
-71.11607257336682
 10
62.38620061374373
 20
-71.11607257336682
 10
62.37758787503061
 20
-71.34896102816971
 10
62.37345376044831
 20
-71.42061901426291
 10
62.37345376044831
 20
-71.42061901426291
 10
62.17019312681857
 20
-71.42061901426291
 10
62.17019312681857
 20
-71.42061901426291
 10
62.17880586553169
 20
-71.29590655769687
 10
62.20636662941369
 20
-70.91935762115905
 10
62.66318629075781
 20
-70.91935762115905
 10
62.88746200684758
 20
-70.91935762115905
 10
63.12861869081507
 20
-71.04648164456478
 10
63.12861869081507
 20
-71.34241534674773
 10
63.12861869081507
 20
-71.52879501249974
 10
63.03353405542217
 20
-71.61113279459722
 10
62.93397079589845
 20
-71.67245549423467
 10
62.9952934955359
 20
-71.70001625811666
 10
63.17719453715709
 20
-71.78028698292299
 10
63.17719453715709
 20
-72.0576171694856
 10
63.17719453715709
 20
-72.39592554613714
 10
62.92983668131615
 20
-72.56301267717176
 10
62.65285100430206
 20
-72.56301267717176
 97
        0
 97
        0
 75
     2
 76
     1
 98
        0
  0
ENDBLK
  5
109
330
106
100
AcDbEntity
  8
0
100
AcDbBlockEnd
  0
ENDSEC
  0
SECTION
  2
ENTITIES
  0
POLYLINE
  5
41
330
1F
100
AcDbEntity
  8
_U+30EC_U+30A4_U+30E4_U+30FC 1
  6
AI-Linetype-1
 62
   154
420
    23468
370
    25
100
AcDb2dPolyline
 66
     1
 10
0.0
 20
0.0
 30
0.0
  0
VERTEX
  5
42
330
41
100
AcDbEntity
  8
_U+30EC_U+30A4_U+30E4_U+30FC 1
  6
AI-Linetype-1
 62
   154
420
    23468
370
    25
100
AcDbVertex
100
AcDb2dVertex
 10
59.72658153180352
 20
-97.25504775346413
 30
0.0
  0
VERTEX
  5
43
330
41
100
AcDbEntity
  8
_U+30EC_U+30A4_U+30E4_U+30FC 1
  6
AI-Linetype-1
 62
   154
420
    23468
370
    25
100
AcDbVertex
100
AcDb2dVertex
 10
59.72658153180352
 20
-94.11035136536142
 30
0.0
  0
SEQEND
  5
45
330
41
100
AcDbEntity
  8
_U+30EC_U+30A4_U+30E4_U+30FC 1
  6
AI-Linetype-1
 62
   154
420
    23468
370
    25
  0
POLYLINE
  5
46
330
1F
100
AcDbEntity
  8
_U+30EC_U+30A4_U+30E4_U+30FC 1
  6
AI-Linetype-2
 62
   154
420
    23468
370
    25
100
AcDb2dPolyline
 66
     1
 10
0.0
 20
0.0
 30
0.0
  0
VERTEX
  5
47
330
46
100
AcDbEntity
  8
_U+30EC_U+30A4_U+30E4_U+30FC 1
  6
AI-Linetype-2
 62
   154
420
    23468
370
    25
100
AcDbVertex
100
AcDb2dVertex
 10
48.95754625098894
 20
-97.81039053110275
 30
0.0
  0
VERTEX
  5
48
330
46
100
AcDbEntity
  8
_U+30EC_U+30A4_U+30E4_U+30FC 1
  6
AI-Linetype-2
 62
   154
420
    23468
370
    25
100
AcDbVertex
100
AcDb2dVertex
 10
59.78740041914079
 20
-97.81039053110275
 30
0.0
  0
SEQEND
  5
4A
330
46
100
AcDbEntity
  8
_U+30EC_U+30A4_U+30E4_U+30FC 1
  6
AI-Linetype-2
 62
   154
420
    23468
370
    25
  0
INSERT
  5
4C
330
1F
100
AcDbEntity
  8
_U+30EC_U+30A4_U+30E4_U+30FC 1
100
AcDbBlockReference
  2
block 2
 10
0.0
 20
0.0
 30
0.0
  0
POLYLINE
  5
89
330
1F
100
AcDbEntity
  8
_U+30EC_U+30A4_U+30E4_U+30FC 1
 62
   179
420
  2234388
370
     9
100
AcDb2dPolyline
 66
     1
 10
0.0
 20
0.0
 30
0.0
  0
VERTEX
  5
8A
330
89
100
AcDbEntity
  8
_U+30EC_U+30A4_U+30E4_U+30FC 1
 62
   179
420
  2234388
370
     9
100
AcDbVertex
100
AcDb2dVertex
 10
52.27933699957633
 20
-97.98815525328042
 30
0.0
  0
VERTEX
  5
8B
330
89
100
AcDbEntity
  8
_U+30EC_U+30A4_U+30E4_U+30FC 1
 62
   179
420
  2234388
370
     9
100
AcDbVertex
100
AcDb2dVertex
 10
50.90731370124622
 20
-104.5579710849716
 30
0.0
  0
SEQEND
  5
8C
330
89
100
AcDbEntity
  8
_U+30EC_U+30A4_U+30E4_U+30FC 1
 62
   179
420
  2234388
370
     9
  0
SPLINE
  5
8D
330
1F
100
AcDbEntity
  8
_U+30EC_U+30A4_U+30E4_U+30FC 1
 62
   179
420
  2234388
370
     9
100
AcDbSpline
210
0.0
220
0.0
230
1.0
 70
    11
 71
     3
 72
    17
 73
    13
 74
     0
 42
0.0000000001
 43
0.0000000001
 12
1.0
 22
0.0
 32
0.0
 13
1.0
 23
0.0
 33
0.0
 40
0.0
 40
0.0
 40
0.0
 40
0.0
 40
1.0
 40
1.0
 40
1.0
 40
2.0
 40
2.0
 40
2.0
 40
3.0
 40
3.0
 40
3.0
 40
4.0
 40
4.0
 40
4.0
 40
4.0
 10
59.06858043747941
 20
-101.1941644191457
 30
0.0
 10
59.06858043747941
 20
-101.1390605302708
 30
0.0
 10
59.02377766084464
 20
-101.0942577525041
 30
0.0
 10
58.96867377336157
 20
-101.0942577525041
 30
0.0
 10
58.91388887416042
 20
-101.0942577525041
 30
0.0
 10
58.86876710924374
 20
-101.1390605302708
 30
0.0
 10
58.86876710924374
 20
-101.1941644191457
 30
0.0
 10
58.86876710924374
 20
-101.2493035857988
 30
0.0
 10
58.91388887416042
 20
-101.2940710857874
 30
0.0
 10
58.96867377336157
 20
-101.2940710857874
 30
0.0
 10
59.02377766084464
 20
-101.2940710857874
 30
0.0
 10
59.06858043747941
 20
-101.2493035857988
 30
0.0
 10
59.06858043747941
 20
-101.1941644191457
 30
0.0
  0
SPLINE
  5
8E
330
1F
100
AcDbEntity
  8
_U+30EC_U+30A4_U+30E4_U+30FC 1
 62
   179
420
  2234388
370
     9
100
AcDbSpline
210
0.0
220
0.0
230
1.0
 70
    11
 71
     3
 72
    17
 73
    13
 74
     0
 42
0.0000000001
 43
0.0000000001
 12
1.0
 22
0.0
 32
0.0
 13
1.0
 23
0.0
 33
0.0
 40
0.0
 40
0.0
 40
0.0
 40
0.0
 40
1.0
 40
1.0
 40
1.0
 40
2.0
 40
2.0
 40
2.0
 40
3.0
 40
3.0
 40
3.0
 40
4.0
 40
4.0
 40
4.0
 40
4.0
 10
49.06934152591458
 20
-101.1941644191457
 30
0.0
 10
49.06934152591458
 20
-101.1390605302708
 30
0.0
 10
49.02457402705669
 20
-101.0942577525041
 30
0.0
 10
48.96876458403607
 20
-101.0942577525041
 30
0.0
 10
48.91362541877612
 20
-101.0942577525041
 30
0.0
 10
48.86885791991823
 20
-101.1390605302708
 30
0.0
 10
48.86885791991823
 20
-101.1941644191457
 30
0.0
 10
48.86885791991823
 20
-101.2493035857988
 30
0.0
 10
48.91362541877612
 20
-101.2940710857874
 30
0.0
 10
48.96876458403607
 20
-101.2940710857874
 30
0.0
 10
49.02457402705669
 20
-101.2940710857874
 30
0.0
 10
49.06934152591458
 20
-101.2493035857988
 30
0.0
 10
49.06934152591458
 20
-101.1941644191457
 30
0.0
  0
SPLINE
  5
8F
330
1F
100
AcDbEntity
  8
_U+30EC_U+30A4_U+30E4_U+30FC 1
 62
   179
420
  2234388
370
     9
100
AcDbSpline
210
0.0
220
0.0
230
1.0
 70
    11
 71
     3
 72
    17
 73
    13
 74
     0
 42
0.0000000001
 43
0.0000000001
 12
1.0
 22
0.0
 32
0.0
 13
1.0
 23
0.0
 33
0.0
 40
0.0
 40
0.0
 40
0.0
 40
0.0
 40
1.0
 40
1.0
 40
1.0
 40
2.0
 40
2.0
 40
2.0
 40
3.0
 40
3.0
 40
3.0
 40
4.0
 40
4.0
 40
4.0
 40
4.0
 10
77.3348135825801
 20
-97.19338219792374
 30
0.0
 10
77.3348135825801
 20
-97.2484860867993
 30
0.0
 10
77.37961635921485
 20
-97.29328886456538
 30
0.0
 10
77.43472220286354
 20
-97.29328886456538
 30
0.0
 10
77.48985941195788
 20
-97.29328886456538
 30
0.0
 10
77.53462691081576
 20
-97.2484860867993
 30
0.0
 10
77.53462691081576
 20
-97.19338219792374
 30
0.0
 10
77.53462691081576
 20
-97.1382430312713
 30
0.0
 10
77.48985941195788
 20
-97.09347553128211
 30
0.0
 10
77.43472220286354
 20
-97.09347553128211
 30
0.0
 10
77.37961635921485
 20
-97.09347553128211
 30
0.0
 10
77.3348135825801
 20
-97.1382430312713
 30
0.0
 10
77.3348135825801
 20
-97.19338219792374
 30
0.0
  0
SPLINE
  5
90
330
1F
100
AcDbEntity
  8
_U+30EC_U+30A4_U+30E4_U+30FC 1
 62
   179
420
  2234388
370
     9
100
AcDbSpline
210
0.0
220
0.0
230
1.0
 70
    11
 71
     3
 72
    17
 73
    13
 74
     0
 42
0.0000000001
 43
0.0000000001
 12
1.0
 22
0.0
 32
0.0
 13
1.0
 23
0.0
 33
0.0
 40
0.0
 40
0.0
 40
0.0
 40
0.0
 40
1.0
 40
1.0
 40
1.0
 40
2.0
 40
2.0
 40
2.0
 40
3.0
 40
3.0
 40
3.0
 40
4.0
 40
4.0
 40
4.0
 40
4.0
 10
77.3348135825801
 20
-77.89051109163861
 30
0.0
 10
77.3348135825801
 20
-77.94561498051354
 30
0.0
 10
77.37961635921485
 20
-77.99041775828026
 30
0.0
 10
77.43472220286354
 20
-77.99041775828026
 30
0.0
 10
77.48985941195788
 20
-77.99041775828026
 30
0.0
 10
77.53462691081576
 20
-77.94561498051354
 30
0.0
 10
77.53462691081576
 20
-77.89051109163861
 30
0.0
 10
77.53462691081576
 20
-77.83470164720785
 30
0.0
 10
77.48985941195788
 20
-77.78989886944146
 30
0.0
 10
77.43472220286354
 20
-77.78989886944146
 30
0.0
 10
77.37961635921485
 20
-77.78989886944146
 30
0.0
 10
77.3348135825801
 20
-77.83470164720785
 30
0.0
 10
77.3348135825801
 20
-77.89051109163861
 30
0.0
  0
POLYLINE
  5
91
330
1F
100
AcDbEntity
  8
_U+30EC_U+30A4_U+30E4_U+30FC 1
 62
   179
420
  2234388
370
     9
100
AcDb2dPolyline
 66
     1
 10
0.0
 20
0.0
 30
0.0
  0
VERTEX
  5
92
330
91
100
AcDbEntity
  8
_U+30EC_U+30A4_U+30E4_U+30FC 1
 62
   179
420
  2234388
370
     9
100
AcDbVertex
100
AcDb2dVertex
 10
77.43472220286354
 20
-72.63570970406325
 30
0.0
  0
VERTEX
  5
93
330
91
100
AcDbEntity
  8
_U+30EC_U+30A4_U+30E4_U+30FC 1
 62
   179
420
  2234388
370
     9
100
AcDbVertex
100
AcDb2dVertex
 10
77.43472220286354
 20
-97.19338219792374
 30
0.0
  0
SEQEND
  5
94
330
91
100
AcDbEntity
  8
_U+30EC_U+30A4_U+30E4_U+30FC 1
 62
   179
420
  2234388
370
     9
  0
POLYLINE
  5
95
330
1F
100
AcDbEntity
  8
_U+30EC_U+30A4_U+30E4_U+30FC 1
 62
   179
420
  2234388
370
     9
100
AcDb2dPolyline
 66
     1
 10
0.0
 20
0.0
 30
0.0
  0
VERTEX
  5
96
330
95
100
AcDbEntity
  8
_U+30EC_U+30A4_U+30E4_U+30FC 1
 62
   179
420
  2234388
370
     9
100
AcDbVertex
100
AcDb2dVertex
 10
62.04856480589812
 20
-97.19338219792374
 30
0.0
  0
VERTEX
  5
97
330
95
100
AcDbEntity
  8
_U+30EC_U+30A4_U+30E4_U+30FC 1
 62
   179
420
  2234388
370
     9
100
AcDbVertex
100
AcDb2dVertex
 10
78.43449442483609
 20
-97.19338219792374
 30
0.0
  0
SEQEND
  5
98
330
95
100
AcDbEntity
  8
_U+30EC_U+30A4_U+30E4_U+30FC 1
 62
   179
420
  2234388
370
     9
  0
SPLINE
  5
99
330
1F
100
AcDbEntity
  8
_U+30EC_U+30A4_U+30E4_U+30FC 1
 62
   179
420
  2234388
370
     9
100
AcDbSpline
210
0.0
220
0.0
230
1.0
 70
    11
 71
     3
 72
    17
 73
    13
 74
     0
 42
0.0000000001
 43
0.0000000001
 12
1.0
 22
0.0
 32
0.0
 13
1.0
 23
0.0
 33
0.0
 40
0.0
 40
0.0
 40
0.0
 40
0.0
 40
1.0
 40
1.0
 40
1.0
 40
2.0
 40
2.0
 40
2.0
 40
3.0
 40
3.0
 40
3.0
 40
4.0
 40
4.0
 40
4.0
 40
4.0
 10
77.3348135825801
 20
-94.1933952542294
 30
0.0
 10
77.3348135825801
 20
-94.24849914310431
 30
0.0
 10
77.37961635921485
 20
-94.29330192087104
 30
0.0
 10
77.43472220286354
 20
-94.29330192087104
 30
0.0
 10
77.48985941195788
 20
-94.29330192087104
 30
0.0
 10
77.53462691081576
 20
-94.24849914310431
 30
0.0
 10
77.53462691081576
 20
-94.1933952542294
 30
0.0
 10
77.53462691081576
 20
-94.13825608757632
 30
0.0
 10
77.48985941195788
 20
-94.09348858758776
 30
0.0
 10
77.43472220286354
 20
-94.09348858758776
 30
0.0
 10
77.37961635921485
 20
-94.09348858758776
 30
0.0
 10
77.3348135825801
 20
-94.13825608757632
 30
0.0
 10
77.3348135825801
 20
-94.1933952542294
 30
0.0
  0
POLYLINE
  5
9A
330
1F
100
AcDbEntity
  8
_U+30EC_U+30A4_U+30E4_U+30FC 1
 62
   179
420
  2234388
370
     9
100
AcDb2dPolyline
 66
     1
 10
0.0
 20
0.0
 30
0.0
  0
VERTEX
  5
9B
330
9A
100
AcDbEntity
  8
_U+30EC_U+30A4_U+30E4_U+30FC 1
 62
   179
420
  2234388
370
     9
100
AcDbVertex
100
AcDb2dVertex
 10
62.04856480589812
 20
-94.1933952542294
 30
0.0
  0
VERTEX
  5
9C
330
9A
100
AcDbEntity
  8
_U+30EC_U+30A4_U+30E4_U+30FC 1
 62
   179
420
  2234388
370
     9
100
AcDbVertex
100
AcDb2dVertex
 10
78.43449442483609
 20
-94.1933952542294
 30
0.0
  0
SEQEND
  5
9D
330
9A
100
AcDbEntity
  8
_U+30EC_U+30A4_U+30E4_U+30FC 1
 62
   179
420
  2234388
370
     9
  0
POLYLINE
  5
9E
330
1F
100
AcDbEntity
  8
_U+30EC_U+30A4_U+30E4_U+30FC 1
 62
   179
420
  2234388
370
     9
100
AcDb2dPolyline
 66
     1
 10
0.0
 20
0.0
 30
0.0
  0
VERTEX
  5
9F
330
9E
100
AcDbEntity
  8
_U+30EC_U+30A4_U+30E4_U+30FC 1
 62
   179
420
  2234388
370
     9
100
AcDbVertex
100
AcDb2dVertex
 10
75.97467889505779
 20
-77.89361553608215
 30
0.0
  0
VERTEX
  5
A0
330
9E
100
AcDbEntity
  8
_U+30EC_U+30A4_U+30E4_U+30FC 1
 62
   179
420
  2234388
370
     9
100
AcDbVertex
100
AcDb2dVertex
 10
78.43449442483609
 20
-77.89361553608215
 30
0.0
  0
SEQEND
  5
A1
330
9E
100
AcDbEntity
  8
_U+30EC_U+30A4_U+30E4_U+30FC 1
 62
   179
420
  2234388
370
     9
  0
SPLINE
  5
A2
330
1F
100
AcDbEntity
  8
_U+30EC_U+30A4_U+30E4_U+30FC 1
 62
   179
420
  2234388
370
     9
100
AcDbSpline
210
0.0
220
0.0
230
1.0
 70
    11
 71
     3
 72
    17
 73
    13
 74
     0
 42
0.0000000001
 43
0.0000000001
 12
1.0
 22
0.0
 32
0.0
 13
1.0
 23
0.0
 33
0.0
 40
0.0
 40
0.0
 40
0.0
 40
0.0
 40
1.0
 40
1.0
 40
1.0
 40
2.0
 40
2.0
 40
2.0
 40
3.0
 40
3.0
 40
3.0
 40
4.0
 40
4.0
 40
4.0
 40
4.0
 10
77.3348135825801
 20
-78.69046998032724
 30
0.0
 10
77.3348135825801
 20
-78.74557386920247
 30
0.0
 10
77.37961635921485
 20
-78.79037664696921
 30
0.0
 10
77.43472220286354
 20
-78.79037664696921
 30
0.0
 10
77.48985941195788
 20
-78.79037664696921
 30
0.0
 10
77.53462691081576
 20
-78.74557386920247
 30
0.0
 10
77.53462691081576
 20
-78.69046998032724
 30
0.0
 10
77.53462691081576
 20
-78.6346605358968
 30
0.0
 10
77.48985941195788
 20
-78.5898577581304
 30
0.0
 10
77.43472220286354
 20
-78.5898577581304
 30
0.0
 10
77.37961635921485
 20
-78.5898577581304
 30
0.0
 10
77.3348135825801
 20
-78.6346605358968
 30
0.0
 10
77.3348135825801
 20
-78.69046998032724
 30
0.0
  0
POLYLINE
  5
A3
330
1F
100
AcDbEntity
  8
_U+30EC_U+30A4_U+30E4_U+30FC 1
 62
   179
420
  2234388
370
     9
100
AcDb2dPolyline
 66
     1
 10
0.0
 20
0.0
 30
0.0
  0
VERTEX
  5
A4
330
A3
100
AcDbEntity
  8
_U+30EC_U+30A4_U+30E4_U+30FC 1
 62
   179
420
  2234388
370
     9
100
AcDbVertex
100
AcDb2dVertex
 10
75.97467889505779
 20
-78.6935744247711
 30
0.0
  0
VERTEX
  5
A5
330
A3
100
AcDbEntity
  8
_U+30EC_U+30A4_U+30E4_U+30FC 1
 62
   179
420
  2234388
370
     9
100
AcDbVertex
100
AcDb2dVertex
 10
78.43449442483609
 20
-78.6935744247711
 30
0.0
  0
SEQEND
  5
A6
330
A3
100
AcDbEntity
  8
_U+30EC_U+30A4_U+30E4_U+30FC 1
 62
   179
420
  2234388
370
     9
  0
INSERT
  5
A8
330
1F
100
AcDbEntity
  8
_U+30EC_U+30A4_U+30E4_U+30FC 1
100
AcDbBlockReference
  2
block 3
 10
0.0
 20
0.0
 30
0.0
  0
INSERT
  5
BA
330
1F
100
AcDbEntity
  8
_U+30EC_U+30A4_U+30E4_U+30FC 1
100
AcDbBlockReference
  2
block 4
 10
0.0
 20
0.0
 30
0.0
  0
INSERT
  5
CD
330
1F
100
AcDbEntity
  8
_U+30EC_U+30A4_U+30E4_U+30FC 1
100
AcDbBlockReference
  2
block 5
 10
0.0
 20
0.0
 30
0.0
  0
POLYLINE
  5
D2
330
1F
100
AcDbEntity
  8
_U+30EC_U+30A4_U+30E4_U+30FC 1
 62
   179
420
  2234388
370
     9
100
AcDb2dPolyline
 66
     1
 10
0.0
 20
0.0
 30
0.0
  0
VERTEX
  5
D3
330
D2
100
AcDbEntity
  8
_U+30EC_U+30A4_U+30E4_U+30FC 1
 62
   179
420
  2234388
370
     9
100
AcDbVertex
100
AcDb2dVertex
 10
48.96876458403607
 20
-101.1941644191457
 30
0.0
  0
VERTEX
  5
D4
330
D2
100
AcDbEntity
  8
_U+30EC_U+30A4_U+30E4_U+30FC 1
 62
   179
420
  2234388
370
     9
100
AcDbVertex
100
AcDb2dVertex
 10
58.96867377336157
 20
-101.1941644191457
 30
0.0
  0
SEQEND
  5
D5
330
D2
100
AcDbEntity
  8
_U+30EC_U+30A4_U+30E4_U+30FC 1
 62
   179
420
  2234388
370
     9
  0
POLYLINE
  5
D6
330
1F
100
AcDbEntity
  8
_U+30EC_U+30A4_U+30E4_U+30FC 1
 62
   179
420
  2234388
370
     9
100
AcDb2dPolyline
 66
     1
 10
0.0
 20
0.0
 30
0.0
  0
VERTEX
  5
D7
330
D6
100
AcDbEntity
  8
_U+30EC_U+30A4_U+30E4_U+30FC 1
 62
   179
420
  2234388
370
     9
100
AcDbVertex
100
AcDb2dVertex
 10
48.96876458403607
 20
-99.68900275285573
 30
0.0
  0
VERTEX
  5
D8
330
D6
100
AcDbEntity
  8
_U+30EC_U+30A4_U+30E4_U+30FC 1
 62
   179
420
  2234388
370
     9
100
AcDbVertex
100
AcDb2dVertex
 10
48.96876458403607
 20
-102.1339996966886
 30
0.0
  0
SEQEND
  5
D9
330
D6
100
AcDbEntity
  8
_U+30EC_U+30A4_U+30E4_U+30FC 1
 62
   179
420
  2234388
370
     9
  0
POLYLINE
  5
DA
330
1F
100
AcDbEntity
  8
_U+30EC_U+30A4_U+30E4_U+30FC 1
 62
   179
420
  2234388
370
     9
100
AcDb2dPolyline
 66
     1
 10
0.0
 20
0.0
 30
0.0
  0
VERTEX
  5
DB
330
DA
100
AcDbEntity
  8
_U+30EC_U+30A4_U+30E4_U+30FC 1
 62
   179
420
  2234388
370
     9
100
AcDbVertex
100
AcDb2dVertex
 10
58.96885016224596
 20
-99.68900275285573
 30
0.0
  0
VERTEX
  5
DC
330
DA
100
AcDbEntity
  8
_U+30EC_U+30A4_U+30E4_U+30FC 1
 62
   179
420
  2234388
370
     9
100
AcDbVertex
100
AcDb2dVertex
 10
58.96885016224596
 20
-102.1339996966886
 30
0.0
  0
SEQEND
  5
DD
330
DA
100
AcDbEntity
  8
_U+30EC_U+30A4_U+30E4_U+30FC 1
 62
   179
420
  2234388
370
     9
  0
INSERT
  5
DF
330
1F
100
AcDbEntity
  8
_U+30EC_U+30A4_U+30E4_U+30FC 1
100
AcDbBlockReference
  2
block 6
 10
0.0
 20
0.0
 30
0.0
  0
POLYLINE
  5
E7
330
1F
100
AcDbEntity
  8
_U+30EC_U+30A4_U+30E4_U+30FC 1
 62
   179
420
  2234388
370
    25
100
AcDb2dPolyline
 66
     1
 10
0.0
 20
0.0
 30
0.0
  0
VERTEX
  5
E8
330
E7
100
AcDbEntity
  8
_U+30EC_U+30A4_U+30E4_U+30FC 1
 62
   179
420
  2234388
370
    25
100
AcDbVertex
100
AcDb2dVertex
 10
73.56277256770176
 20
-78.6935744247711
 30
0.0
  0
VERTEX
  5
E9
330
E7
100
AcDbEntity
  8
_U+30EC_U+30A4_U+30E4_U+30FC 1
 62
   179
420
  2234388
370
    25
100
AcDbVertex
100
AcDb2dVertex
 10
73.56277256770176
 20
-77.89361553608215
 30
0.0
  0
VERTEX
  5
EA
330
E7
100
AcDbEntity
  8
_U+30EC_U+30A4_U+30E4_U+30FC 1
 62
   179
420
  2234388
370
    25
100
AcDbVertex
100
AcDb2dVertex
 10
50.56279093225795
 20
-77.89361553608215
 30
0.0
  0
VERTEX
  5
EB
330
E7
100
AcDbEntity
  8
_U+30EC_U+30A4_U+30E4_U+30FC 1
 62
   179
420
  2234388
370
    25
100
AcDbVertex
100
AcDb2dVertex
 10
49.45365762722097
 20
-96.39342330923512
 30
0.0
  0
VERTEX
  5
EC
330
E7
100
AcDbEntity
  8
_U+30EC_U+30A4_U+30E4_U+30FC 1
 62
   179
420
  2234388
370
    25
100
AcDbVertex
100
AcDb2dVertex
 10
48.95324236220985
 20
-96.39342330923512
 30
0.0
  0
VERTEX
  5
ED
330
E7
100
AcDbEntity
  8
_U+30EC_U+30A4_U+30E4_U+30FC 1
 62
   179
420
  2234388
370
    25
100
AcDbVertex
100
AcDb2dVertex
 10
48.95324236220985
 20
-97.19338219792374
 30
0.0
  0
VERTEX
  5
EE
330
E7
100
AcDbEntity
  8
_U+30EC_U+30A4_U+30E4_U+30FC 1
 62
   179
420
  2234388
370
    25
100
AcDbVertex
100
AcDb2dVertex
 10
58.95332794041975
 20
-97.19338219792374
 30
0.0
  0
VERTEX
  5
EF
330
E7
100
AcDbEntity
  8
_U+30EC_U+30A4_U+30E4_U+30FC 1
 62
   179
420
  2234388
370
    25
100
AcDbVertex
100
AcDb2dVertex
 10
58.95332794041975
 20
-94.1933952542294
 30
0.0
  0
VERTEX
  5
F0
330
E7
100
AcDbEntity
  8
_U+30EC_U+30A4_U+30E4_U+30FC 1
 62
   179
420
  2234388
370
    25
100
AcDbVertex
100
AcDb2dVertex
 10
54.95339248691105
 20
-94.1933952542294
 30
0.0
  0
VERTEX
  5
F1
330
E7
100
AcDbEntity
  8
_U+30EC_U+30A4_U+30E4_U+30FC 1
 62
   179
420
  2234388
370
    25
100
AcDbVertex
100
AcDb2dVertex
 10
54.95339248691105
 20
-94.99335414291802
 30
0.0
  0
VERTEX
  5
F2
330
E7
100
AcDbEntity
  8
_U+30EC_U+30A4_U+30E4_U+30FC 1
 62
   179
420
  2234388
370
    25
100
AcDbVertex
100
AcDb2dVertex
 10
58.15336907193951
 20
-94.99335414291802
 30
0.0
  0
VERTEX
  5
F3
330
E7
100
AcDbEntity
  8
_U+30EC_U+30A4_U+30E4_U+30FC 1
 62
   179
420
  2234388
370
    25
100
AcDbVertex
100
AcDb2dVertex
 10
58.15336907193951
 20
-96.39342330923512
 30
0.0
  0
VERTEX
  5
F4
330
E7
100
AcDbEntity
  8
_U+30EC_U+30A4_U+30E4_U+30FC 1
 62
   179
420
  2234388
370
    25
100
AcDbVertex
100
AcDb2dVertex
 10
50.25361649570121
 20
-96.39342330923512
 30
0.0
  0
VERTEX
  5
F5
330
E7
100
AcDbEntity
  8
_U+30EC_U+30A4_U+30E4_U+30FC 1
 62
   179
420
  2234388
370
    25
100
AcDbVertex
100
AcDb2dVertex
 10
51.36310257850698
 20
-78.6935744247711
 30
0.0
  0
VERTEX
  5
F6
330
E7
100
AcDbEntity
  8
_U+30EC_U+30A4_U+30E4_U+30FC 1
 62
   179
420
  2234388
370
    25
100
AcDbVertex
100
AcDb2dVertex
 10
73.56277256770176
 20
-78.6935744247711
 30
0.0
  0
SEQEND
  5
F7
330
E7
100
AcDbEntity
  8
_U+30EC_U+30A4_U+30E4_U+30FC 1
 62
   179
420
  2234388
370
    25
  0
SPLINE
  5
F8
330
1F
100
AcDbEntity
  8
_U+30EC_U+30A4_U+30E4_U+30FC 1
 62
   179
420
  2234388
370
     9
100
AcDbSpline
210
0.0
220
0.0
230
1.0
 70
    11
 71
     3
 72
    17
 73
    13
 74
     0
 42
0.0000000001
 43
0.0000000001
 12
1.0
 22
0.0
 32
0.0
 13
1.0
 23
0.0
 33
0.0
 40
0.0
 40
0.0
 40
0.0
 40
0.0
 40
1.0
 40
1.0
 40
1.0
 40
2.0
 40
2.0
 40
2.0
 40
3.0
 40
3.0
 40
3.0
 40
4.0
 40
4.0
 40
4.0
 40
4.0
 10
50.56279093225795
 20
-73.79394970377362
 30
0.0
 10
50.50768704477488
 20
-73.79394970377362
 30
0.0
 10
50.46288426814012
 20
-73.83871720376251
 30
0.0
 10
50.46288426814012
 20
-73.89385637041559
 30
0.0
 10
50.46288426814012
 20
-73.9489602592905
 30
0.0
 10
50.50768704477488
 20
-73.99376303705722
 30
0.0
 10
50.56279093225795
 20
-73.99376303705722
 30
0.0
 10
50.61793009751791
 20
-73.99376303705722
 30
0.0
 10
50.66269759637579
 20
-73.9489602592905
 30
0.0
 10
50.66269759637579
 20
-73.89385637041559
 30
0.0
 10
50.66269759637579
 20
-73.83871720376251
 30
0.0
 10
50.61793009751791
 20
-73.79394970377362
 30
0.0
 10
50.56279093225795
 20
-73.79394970377362
 30
0.0
  0
POLYLINE
  5
F9
330
1F
100
AcDbEntity
  8
_U+30EC_U+30A4_U+30E4_U+30FC 1
 62
   179
420
  2234388
370
     9
100
AcDb2dPolyline
 66
     1
 10
0.0
 20
0.0
 30
0.0
  0
VERTEX
  5
FA
330
F9
100
AcDbEntity
  8
_U+30EC_U+30A4_U+30E4_U+30FC 1
 62
   179
420
  2234388
370
     9
100
AcDbVertex
100
AcDb2dVertex
 10
73.53176340182621
 20
-73.89385637041559
 30
0.0
  0
VERTEX
  5
FB
330
F9
100
AcDbEntity
  8
_U+30EC_U+30A4_U+30E4_U+30FC 1
 62
   179
420
  2234388
370
     9
100
AcDbVertex
100
AcDb2dVertex
 10
50.56279093225795
 20
-73.89385637041559
 30
0.0
  0
SEQEND
  5
FC
330
F9
100
AcDbEntity
  8
_U+30EC_U+30A4_U+30E4_U+30FC 1
 62
   179
420
  2234388
370
     9
  0
POLYLINE
  5
FD
330
1F
100
AcDbEntity
  8
_U+30EC_U+30A4_U+30E4_U+30FC 1
 62
   179
420
  2234388
370
     9
100
AcDb2dPolyline
 66
     1
 10
0.0
 20
0.0
 30
0.0
  0
VERTEX
  5
FE
330
FD
100
AcDbEntity
  8
_U+30EC_U+30A4_U+30E4_U+30FC 1
 62
   179
420
  2234388
370
     9
100
AcDbVertex
100
AcDb2dVertex
 10
50.56279093225795
 20
-72.8937313706656
 30
0.0
  0
VERTEX
  5
FF
330
FD
100
AcDbEntity
  8
_U+30EC_U+30A4_U+30E4_U+30FC 1
 62
   179
420
  2234388
370
     9
100
AcDbVertex
100
AcDb2dVertex
 10
50.56279093225795
 20
-75.3538977589393
 30
0.0
  0
SEQEND
  5
100
330
FD
100
AcDbEntity
  8
_U+30EC_U+30A4_U+30E4_U+30FC 1
 62
   179
420
  2234388
370
     9
  0
SPLINE
  5
101
330
1F
100
AcDbEntity
  8
_U+30EC_U+30A4_U+30E4_U+30FC 1
 62
   179
420
  2234388
370
     9
100
AcDbSpline
210
0.0
220
0.0
230
1.0
 70
    11
 71
     3
 72
    17
 73
    13
 74
     0
 42
0.0000000001
 43
0.0000000001
 12
1.0
 22
0.0
 32
0.0
 13
1.0
 23
0.0
 33
0.0
 40
0.0
 40
0.0
 40
0.0
 40
0.0
 40
1.0
 40
1.0
 40
1.0
 40
2.0
 40
2.0
 40
2.0
 40
3.0
 40
3.0
 40
3.0
 40
4.0
 40
4.0
 40
4.0
 40
4.0
 10
73.53176340182621
 20
-73.79394970377362
 30
0.0
 10
73.47665951434314
 20
-73.79394970377362
 30
0.0
 10
73.43185673770837
 20
-73.83871720376251
 30
0.0
 10
73.43185673770837
 20
-73.89385637041559
 30
0.0
 10
73.43185673770837
 20
-73.9489602592905
 30
0.0
 10
73.47665951434314
 20
-73.99376303705722
 30
0.0
 10
73.53176340182621
 20
-73.99376303705722
 30
0.0
 10
73.58690256708616
 20
-73.99376303705722
 30
0.0
 10
73.63167006594404
 20
-73.9489602592905
 30
0.0
 10
73.63167006594404
 20
-73.89385637041559
 30
0.0
 10
73.63167006594404
 20
-73.83871720376251
 30
0.0
 10
73.58690256708616
 20
-73.79394970377362
 30
0.0
 10
73.53176340182621
 20
-73.79394970377362
 30
0.0
  0
POLYLINE
  5
102
330
1F
100
AcDbEntity
  8
_U+30EC_U+30A4_U+30E4_U+30FC 1
 62
   179
420
  2234388
370
     9
100
AcDb2dPolyline
 66
     1
 10
0.0
 20
0.0
 30
0.0
  0
VERTEX
  5
103
330
102
100
AcDbEntity
  8
_U+30EC_U+30A4_U+30E4_U+30FC 1
 62
   179
420
  2234388
370
     9
100
AcDbVertex
100
AcDb2dVertex
 10
73.53176340182621
 20
-72.8937313706656
 30
0.0
  0
VERTEX
  5
104
330
102
100
AcDbEntity
  8
_U+30EC_U+30A4_U+30E4_U+30FC 1
 62
   179
420
  2234388
370
     9
100
AcDbVertex
100
AcDb2dVertex
 10
73.53176340182621
 20
-75.3538977589393
 30
0.0
  0
SEQEND
  5
105
330
102
100
AcDbEntity
  8
_U+30EC_U+30A4_U+30E4_U+30FC 1
 62
   179
420
  2234388
370
     9
  0
INSERT
  5
107
330
1F
100
AcDbEntity
  8
_U+30EC_U+30A4_U+30E4_U+30FC 1
100
AcDbBlockReference
  2
block 7
 10
0.0
 20
0.0
 30
0.0
  0
ENDSEC
  0
SECTION
  2
OBJECTS
  0
DICTIONARY
  5
C
330
0
100
AcDbDictionary
281
     1
  3
ACAD_GROUP
350
D
  3
ACAD_LAYOUT
350
1A
  3
ACAD_MATERIAL
350
3B
  3
ACAD_MLEADERSTYLE
350
10F
  3
ACAD_MLINESTYLE
350
17
  3
ACAD_PLOTSETTINGS
350
19
  3
ACAD_PLOTSTYLENAME
350
E
  3
ACAD_TABLESTYLE
350
10E
  3
ACAD_VISUALSTYLE
350
2A
  0
SUN
  5
3F
330
29
100
AcDbSun
 90
        1
290
     0
 63
     7
421
 16777215
 40
1.0
291
     1
 91
  2455826
 92
 54000000
292
     0
 70
     2
 71
   256
280
     1
  0
DICTIONARY
  5
D
102
{ACAD_REACTORS
330
C
102
}
330
C
100
AcDbDictionary
281
     1
  0
DICTIONARY
  5
1A
102
{ACAD_REACTORS
330
C
102
}
330
C
100
AcDbDictionary
281
     1
  3
Layout1
350
1E
  3
Layout2
350
26
  3
Model
350
22
  0
DICTIONARY
  5
3B
102
{ACAD_REACTORS
330
C
102
}
330
C
100
AcDbDictionary
281
     1
  3
ByBlock
350
3D
  3
ByLayer
350
3C
  3
Global
350
3E
  0
DICTIONARY
  5
10F
102
{ACAD_REACTORS
330
C
102
}
330
C
100
AcDbDictionary
281
     1
  0
DICTIONARY
  5
17
102
{ACAD_REACTORS
330
C
102
}
330
C
100
AcDbDictionary
281
     1
  3
Standard
350
18
  0
DICTIONARY
  5
19
102
{ACAD_REACTORS
330
C
102
}
330
C
100
AcDbDictionary
281
     1
  0
ACDBDICTIONARYWDFLT
  5
E
102
{ACAD_REACTORS
330
C
102
}
330
C
100
AcDbDictionary
281
     1
  3
Normal
350
F
100
AcDbDictionaryWithDefault
340
F
  0
DICTIONARY
  5
10E
102
{ACAD_REACTORS
330
C
102
}
330
C
100
AcDbDictionary
281
     1
  0
DICTIONARY
  5
2A
102
{ACAD_REACTORS
330
C
102
}
330
C
100
AcDbDictionary
281
     1
  3
2dWireframe
350
2F
  3
3D Hidden
350
31
  3
3dWireframe
350
30
  3
Basic
350
32
  3
Brighten
350
36
  3
ColorChange
350
3A
  3
Conceptual
350
34
  3
Dim
350
35
  3
Facepattern
350
39
  3
Flat
350
2B
  3
FlatWithEdges
350
2C
  3
Gouraud
350
2D
  3
GouraudWithEdges
350
2E
  3
Linepattern
350
38
  3
Realistic
350
33
  3
Thicken
350
37
  0
LAYOUT
  5
1E
102
{ACAD_REACTORS
330
1A
102
}
330
1A
100
AcDbPlotSettings
  1

  2
none_device
  4

  6

 40
0.0
 41
0.0
 42
0.0
 43
0.0
 44
0.0
 45
0.0
 46
0.0
 47
0.0
 48
0.0
 49
0.0
140
0.0
141
0.0
142
1.0
143
1.0
 70
   688
 72
     0
 73
     0
 74
     5
  7

 75
    16
 76
     0
 77
     2
 78
   300
147
1.0
148
0.0
149
0.0
100
AcDbLayout
  1
Layout1
 70
     1
 71
     1
 10
0.0
 20
0.0
 11
12.0
 21
9.0
 12
0.0
 22
0.0
 32
0.0
 14
1.000000000000000E+20
 24
1.000000000000000E+20
 34
1.000000000000000E+20
 15
-1.000000000000000E+20
 25
-1.000000000000000E+20
 35
-1.000000000000000E+20
146
0.0
 13
0.0
 23
0.0
 33
0.0
 16
1.0
 26
0.0
 36
0.0
 17
0.0
 27
1.0
 37
0.0
 76
     0
330
1B
  0
LAYOUT
  5
26
102
{ACAD_REACTORS
330
1A
102
}
330
1A
100
AcDbPlotSettings
  1

  2
none_device
  4

  6

 40
0.0
 41
0.0
 42
0.0
 43
0.0
 44
0.0
 45
0.0
 46
0.0
 47
0.0
 48
0.0
 49
0.0
140
0.0
141
0.0
142
1.0
143
1.0
 70
   688
 72
     0
 73
     0
 74
     5
  7

 75
    16
 76
     0
 77
     2
 78
   300
147
1.0
148
0.0
149
0.0
100
AcDbLayout
  1
Layout2
 70
     1
 71
     2
 10
0.0
 20
0.0
 11
0.0
 21
0.0
 12
0.0
 22
0.0
 32
0.0
 14
0.0
 24
0.0
 34
0.0
 15
0.0
 25
0.0
 35
0.0
146
0.0
 13
0.0
 23
0.0
 33
0.0
 16
1.0
 26
0.0
 36
0.0
 17
0.0
 27
1.0
 37
0.0
 76
     0
330
23
  0
LAYOUT
  5
22
102
{ACAD_REACTORS
330
1A
102
}
330
1A
100
AcDbPlotSettings
  1

  2
none_device
  4

  6

 40
0.0
 41
0.0
 42
0.0
 43
0.0
 44
0.0
 45
0.0
 46
0.0
 47
0.0
 48
0.0
 49
0.0
140
0.0
141
0.0
142
1.0
143
1.0
 70
  1712
 72
     0
 73
     0
 74
     0
  7

 75
     0
 76
     0
 77
     2
 78
   300
147
1.0
148
0.0
149
0.0
100
AcDbLayout
  1
Model
 70
     1
 71
     0
 10
0.0
 20
0.0
 11
12.0
 21
9.0
 12
0.0
 22
0.0
 32
0.0
 14
1.000000000000000E+20
 24
1.000000000000000E+20
 34
1.000000000000000E+20
 15
-1.000000000000000E+20
 25
-1.000000000000000E+20
 35
-1.000000000000000E+20
146
0.0
 13
0.0
 23
0.0
 33
0.0
 16
1.0
 26
0.0
 36
0.0
 17
0.0
 27
1.0
 37
0.0
 76
     0
330
1F
331
29
  0
MATERIAL
  5
3D
102
{ACAD_REACTORS
330
3B
102
}
330
3B
100
AcDbMaterial
  1
ByBlock
 72
     1
 94
      127
  0
MATERIAL
  5
3C
102
{ACAD_REACTORS
330
3B
102
}
330
3B
100
AcDbMaterial
  1
ByLayer
 72
     1
 94
      127
  0
MATERIAL
  5
3E
102
{ACAD_REACTORS
330
3B
102
}
330
3B
100
AcDbMaterial
  1
Global
 72
     1
 94
      127
  0
MLINESTYLE
  5
18
102
{ACAD_REACTORS
330
17
102
}
330
17
100
AcDbMlineStyle
  2
Standard
 70
     0
  3

 62
   256
 51
90.0
 52
90.0
 71
     2
 49
0.5
 62
   256
  6
BYLAYER
 49
-0.5
 62
   256
  6
BYLAYER
  0
ACDBPLACEHOLDER
  5
F
102
{ACAD_REACTORS
330
E
102
}
330
E
  0
VISUALSTYLE
  5
2F
102
{ACAD_REACTORS
330
2A
102
}
330
2A
100
AcDbVisualStyle
  2
2dWireframe
 70
     4
177
     2
291
     0
 71
     0
176
     1
 72
     2
176
     1
 73
     0
176
     1
 90
        0
176
     1
 40
-0.6
176
     1
 41
-30.0
176
     1
 62
     5
 63
     7
421
 16777215
176
     1
 74
     1
176
     1
 91
        4
176
     1
 64
     7
176
     1
 65
   257
176
     1
 75
     1
176
     1
175
     1
176
     1
 42
1.0
176
     1
 92
        0
176
     1
 66
   257
176
     1
 43
1.0
176
     1
 76
     1
176
     1
 77
     6
176
     1
 78
     2
176
     1
 67
     7
176
     1
 79
     5
176
     1
170
     0
176
     1
171
     0
176
     1
290
     0
176
     1
 93
        1
176
     1
 44
0.0
176
     1
173
     0
176
     1
  0
VISUALSTYLE
  5
31
102
{ACAD_REACTORS
330
2A
102
}
330
2A
100
AcDbVisualStyle
  2
3D Hidden
 70
     6
177
     2
291
     0
 71
     1
176
     1
 72
     2
176
     1
 73
     2
176
     1
 90
        0
176
     1
 40
-0.6
176
     1
 41
-30.0
176
     1
 62
     5
 63
     7
421
 16777215
176
     1
 74
     2
176
     1
 91
        2
176
     1
 64
     7
176
     1
 65
   257
176
     1
 75
     2
176
     1
175
     1
176
     1
 42
40.0
176
     1
 92
        0
176
     1
 66
   257
176
     1
 43
1.0
176
     1
 76
     1
176
     1
 77
     6
176
     1
 78
     2
176
     1
 67
     7
176
     1
 79
     3
176
     1
170
     0
176
     1
171
     0
176
     1
290
     0
176
     1
 93
        1
176
     1
 44
0.0
176
     1
173
     0
176
     1
  0
VISUALSTYLE
  5
30
102
{ACAD_REACTORS
330
2A
102
}
330
2A
100
AcDbVisualStyle
  2
3dWireframe
 70
     5
177
     2
291
     0
 71
     0
176
     1
 72
     2
176
     1
 73
     0
176
     1
 90
        0
176
     1
 40
-0.6
176
     1
 41
-30.0
176
     1
 62
     5
 63
     7
421
 16777215
176
     1
 74
     1
176
     1
 91
        4
176
     1
 64
     7
176
     1
 65
   257
176
     1
 75
     1
176
     1
175
     1
176
     1
 42
1.0
176
     1
 92
        0
176
     1
 66
   257
176
     1
 43
1.0
176
     1
 76
     1
176
     1
 77
     6
176
     1
 78
     2
176
     1
 67
     7
176
     1
 79
     5
176
     1
170
     0
176
     1
171
     0
176
     1
290
     0
176
     1
 93
        1
176
     1
 44
0.0
176
     1
173
     0
176
     1
  0
VISUALSTYLE
  5
32
102
{ACAD_REACTORS
330
2A
102
}
330
2A
100
AcDbVisualStyle
  2
Basic
 70
     7
177
     2
291
     1
 71
     1
176
     1
 72
     0
176
     1
 73
     1
176
     1
 90
        0
176
     1
 40
-0.6
176
     1
 41
-30.0
176
     1
 62
     5
 63
     7
421
 16777215
176
     1
 74
     0
176
     1
 91
        4
176
     1
 64
     7
176
     1
 65
   257
176
     1
 75
     1
176
     1
175
     1
176
     1
 42
1.0
176
     1
 92
        8
176
     1
 66
     7
176
     1
 43
1.0
176
     1
 76
     1
176
     1
 77
     6
176
     1
 78
     2
176
     1
 67
     7
176
     1
 79
     5
176
     1
170
     0
176
     1
171
     0
176
     1
290
     0
176
     1
 93
        1
176
     1
 44
0.0
176
     1
173
     0
176
     1
  0
VISUALSTYLE
  5
36
102
{ACAD_REACTORS
330
2A
102
}
330
2A
100
AcDbVisualStyle
  2
Brighten
 70
    12
177
     2
291
     1
 71
     2
176
     1
 72
     2
176
     1
 73
     0
176
     1
 90
        0
176
     1
 40
-0.6
176
     1
 41
-30.0
176
     1
 62
     5
 63
     7
421
 16777215
176
     1
 74
     1
176
     1
 91
        4
176
     1
 64
     7
176
     1
 65
   257
176
     1
 75
     1
176
     1
175
     1
176
     1
 42
1.0
176
     1
 92
        8
176
     1
 66
     7
176
     1
 43
1.0
176
     1
 76
     1
176
     1
 77
     6
176
     1
 78
     2
176
     1
 67
     7
176
     1
 79
     5
176
     1
170
     0
176
     1
171
     0
176
     1
290
     0
176
     1
 93
        1
176
     1
 44
50.0
176
     1
173
     0
176
     1
  0
VISUALSTYLE
  5
3A
102
{ACAD_REACTORS
330
2A
102
}
330
2A
100
AcDbVisualStyle
  2
ColorChange
 70
    16
177
     2
291
     1
 71
     2
176
     1
 72
     2
176
     1
 73
     3
176
     1
 90
        0
176
     1
 40
-0.6
176
     1
 41
-30.0
176
     1
 62
     5
 63
     8
421
  8421504
176
     1
 74
     1
176
     1
 91
        4
176
     1
 64
     7
176
     1
 65
   257
176
     1
 75
     1
176
     1
175
     1
176
     1
 42
1.0
176
     1
 92
        8
176
     1
 66
     8
424
  8421504
176
     1
 43
1.0
176
     1
 76
     1
176
     1
 77
     6
176
     1
 78
     2
176
     1
 67
     7
176
     1
 79
     5
176
     1
170
     0
176
     1
171
     0
176
     1
290
     0
176
     1
 93
        1
176
     1
 44
0.0
176
     1
173
     0
176
     1
  0
VISUALSTYLE
  5
34
102
{ACAD_REACTORS
330
2A
102
}
330
2A
100
AcDbVisualStyle
  2
Conceptual
 70
     9
177
     2
291
     0
 71
     3
176
     1
 72
     2
176
     1
 73
     0
176
     1
 90
        0
176
     1
 40
-0.6
176
     1
 41
-30.0
176
     1
 62
     5
 63
     7
421
 16777215
176
     1
 74
     2
176
     1
 91
        2
176
     1
 64
     7
176
     1
 65
   257
176
     1
 75
     1
176
     1
175
     1
176
     1
 42
40.0
176
     1
 92
        8
176
     1
 66
     7
176
     1
 43
1.0
176
     1
 76
     1
176
     1
 77
     6
176
     1
 78
     2
176
     1
 67
     7
176
     1
 79
     3
176
     1
170
     0
176
     1
171
     0
176
     1
290
     0
176
     1
 93
        1
176
     1
 44
0.0
176
     1
173
     0
176
     1
  0
VISUALSTYLE
  5
35
102
{ACAD_REACTORS
330
2A
102
}
330
2A
100
AcDbVisualStyle
  2
Dim
 70
    11
177
     2
291
     1
 71
     2
176
     1
 72
     2
176
     1
 73
     0
176
     1
 90
        0
176
     1
 40
-0.6
176
     1
 41
-30.0
176
     1
 62
     5
 63
     7
421
 16777215
176
     1
 74
     1
176
     1
 91
        4
176
     1
 64
     7
176
     1
 65
   257
176
     1
 75
     1
176
     1
175
     1
176
     1
 42
1.0
176
     1
 92
        8
176
     1
 66
     7
176
     1
 43
1.0
176
     1
 76
     1
176
     1
 77
     6
176
     1
 78
     2
176
     1
 67
     7
176
     1
 79
     5
176
     1
170
     0
176
     1
171
     0
176
     1
290
     0
176
     1
 93
        1
176
     1
 44
-50.0
176
     1
173
     0
176
     1
  0
VISUALSTYLE
  5
39
102
{ACAD_REACTORS
330
2A
102
}
330
2A
100
AcDbVisualStyle
  2
Facepattern
 70
    15
177
     2
291
     1
 71
     2
176
     1
 72
     2
176
     1
 73
     0
176
     1
 90
        0
176
     1
 40
-0.6
176
     1
 41
-30.0
176
     1
 62
     5
 63
     7
421
 16777215
176
     1
 74
     1
176
     1
 91
        4
176
     1
 64
     7
176
     1
 65
   257
176
     1
 75
     1
176
     1
175
     1
176
     1
 42
1.0
176
     1
 92
        8
176
     1
 66
     7
176
     1
 43
1.0
176
     1
 76
     1
176
     1
 77
     6
176
     1
 78
     2
176
     1
 67
     7
176
     1
 79
     5
176
     1
170
     0
176
     1
171
     0
176
     1
290
     0
176
     1
 93
        1
176
     1
 44
0.0
176
     1
173
     0
176
     1
  0
VISUALSTYLE
  5
2B
102
{ACAD_REACTORS
330
2A
102
}
330
2A
100
AcDbVisualStyle
  2
Flat
 70
     0
177
     2
291
     1
 71
     2
176
     1
 72
     1
176
     1
 73
     1
176
     1
 90
        2
176
     1
 40
-0.6
176
     1
 41
30.0
176
     1
 62
     5
 63
     7
421
 16777215
176
     1
 74
     0
176
     1
 91
        4
176
     1
 64
     7
176
     1
 65
   257
176
     1
 75
     1
176
     1
175
     1
176
     1
 42
1.0
176
     1
 92
        8
176
     1
 66
     7
176
     1
 43
1.0
176
     1
 76
     1
176
     1
 77
     6
176
     1
 78
     2
176
     1
 67
     7
176
     1
 79
     5
176
     1
170
     0
176
     1
171
     0
176
     1
290
     0
176
     1
 93
       13
176
     1
 44
0.0
176
     1
173
     0
176
     1
  0
VISUALSTYLE
  5
2C
102
{ACAD_REACTORS
330
2A
102
}
330
2A
100
AcDbVisualStyle
  2
FlatWithEdges
 70
     1
177
     2
291
     1
 71
     2
176
     1
 72
     1
176
     1
 73
     1
176
     1
 90
        2
176
     1
 40
-0.6
176
     1
 41
30.0
176
     1
 62
     5
 63
     7
421
 16777215
176
     1
 74
     1
176
     1
 91
        4
176
     1
 64
     7
176
     1
 65
   257
176
     1
 75
     1
176
     1
175
     1
176
     1
 42
1.0
176
     1
 92
        0
176
     1
 66
   257
176
     1
 43
1.0
176
     1
 76
     1
176
     1
 77
     6
176
     1
 78
     2
176
     1
 67
     7
176
     1
 79
     5
176
     1
170
     0
176
     1
171
     0
176
     1
290
     0
176
     1
 93
       13
176
     1
 44
0.0
176
     1
173
     0
176
     1
  0
VISUALSTYLE
  5
2D
102
{ACAD_REACTORS
330
2A
102
}
330
2A
100
AcDbVisualStyle
  2
Gouraud
 70
     2
177
     2
291
     1
 71
     2
176
     1
 72
     2
176
     1
 73
     1
176
     1
 90
        2
176
     1
 40
-0.6
176
     1
 41
30.0
176
     1
 62
     5
 63
     7
421
 16777215
176
     1
 74
     0
176
     1
 91
        4
176
     1
 64
     7
176
     1
 65
   257
176
     1
 75
     1
176
     1
175
     1
176
     1
 42
1.0
176
     1
 92
        0
176
     1
 66
     7
176
     1
 43
1.0
176
     1
 76
     1
176
     1
 77
     6
176
     1
 78
     2
176
     1
 67
     7
176
     1
 79
     5
176
     1
170
     0
176
     1
171
     0
176
     1
290
     0
176
     1
 93
       13
176
     1
 44
0.0
176
     1
173
     0
176
     1
  0
VISUALSTYLE
  5
2E
102
{ACAD_REACTORS
330
2A
102
}
330
2A
100
AcDbVisualStyle
  2
GouraudWithEdges
 70
     3
177
     2
291
     1
 71
     2
176
     1
 72
     2
176
     1
 73
     1
176
     1
 90
        2
176
     1
 40
-0.6
176
     1
 41
30.0
176
     1
 62
     5
 63
     7
421
 16777215
176
     1
 74
     1
176
     1
 91
        4
176
     1
 64
     7
176
     1
 65
   257
176
     1
 75
     1
176
     1
175
     1
176
     1
 42
1.0
176
     1
 92
        0
176
     1
 66
   257
176
     1
 43
1.0
176
     1
 76
     1
176
     1
 77
     6
176
     1
 78
     2
176
     1
 67
     7
176
     1
 79
     5
176
     1
170
     0
176
     1
171
     0
176
     1
290
     0
176
     1
 93
       13
176
     1
 44
0.0
176
     1
173
     0
176
     1
  0
VISUALSTYLE
  5
38
102
{ACAD_REACTORS
330
2A
102
}
330
2A
100
AcDbVisualStyle
  2
Linepattern
 70
    14
177
     2
291
     1
 71
     2
176
     1
 72
     2
176
     1
 73
     0
176
     1
 90
        0
176
     1
 40
-0.6
176
     1
 41
-30.0
176
     1
 62
     5
 63
     7
421
 16777215
176
     1
 74
     1
176
     1
 91
        4
176
     1
 64
     7
176
     1
 65
   257
176
     1
 75
     7
176
     1
175
     7
176
     1
 42
1.0
176
     1
 92
        8
176
     1
 66
     7
176
     1
 43
1.0
176
     1
 76
     1
176
     1
 77
     6
176
     1
 78
     2
176
     1
 67
     7
176
     1
 79
     5
176
     1
170
     0
176
     1
171
     0
176
     1
290
     0
176
     1
 93
        1
176
     1
 44
0.0
176
     1
173
     0
176
     1
  0
VISUALSTYLE
  5
33
102
{ACAD_REACTORS
330
2A
102
}
330
2A
100
AcDbVisualStyle
  2
Realistic
 70
     8
177
     2
291
     0
 71
     2
176
     1
 72
     2
176
     1
 73
     0
176
     1
 90
        0
176
     1
 40
-0.6
176
     1
 41
-30.0
176
     1
 62
     5
 63
     7
421
 16777215
176
     1
 74
     1
176
     1
 91
        0
176
     1
 64
     7
176
     1
 65
   257
176
     1
 75
     1
176
     1
175
     1
176
     1
 42
1.0
176
     1
 92
        8
176
     1
 66
     8
424
  7895160
176
     1
 43
1.0
176
     1
 76
     1
176
     1
 77
     6
176
     1
 78
     2
176
     1
 67
     7
176
     1
 79
     5
176
     1
170
     0
176
     1
171
     0
176
     1
290
     0
176
     1
 93
       13
176
     1
 44
0.0
176
     1
173
     0
176
     1
  0
VISUALSTYLE
  5
37
102
{ACAD_REACTORS
330
2A
102
}
330
2A
100
AcDbVisualStyle
  2
Thicken
 70
    13
177
     2
291
     1
 71
     2
176
     1
 72
     2
176
     1
 73
     0
176
     1
 90
        0
176
     1
 40
-0.6
176
     1
 41
-30.0
176
     1
 62
     5
 63
     7
421
 16777215
176
     1
 74
     1
176
     1
 91
        4
176
     1
 64
     7
176
     1
 65
   257
176
     1
 75
     1
176
     1
175
     1
176
     1
 42
1.0
176
     1
 92
       12
176
     1
 66
     7
176
     1
 43
1.0
176
     1
 76
     1
176
     1
 77
     6
176
     1
 78
     2
176
     1
 67
     7
176
     1
 79
     5
176
     1
170
     0
176
     1
171
     0
176
     1
290
     0
176
     1
 93
        1
176
     1
 44
0.0
176
     1
173
     0
176
     1
  0
ENDSEC
  0
EOF
