  0
SECTION
  2
HEADER
  9
$ACADVER
  1
AC1024
  9
$ACADMAINTVER
 70
     6
  9
$DWGCODEPAGE
  3
UNDEFINED
  9
$INSBASE
 10
0.0
 20
0.0
 30
0.0
  9
$EXTMIN
 10
1.000000000000000E+20
 20
1.000000000000000E+20
 30
1.000000000000000E+20
  9
$EXTMAX
 10
-1.000000000000000E+20
 20
-1.000000000000000E+20
 30
-1.000000000000000E+20
  9
$LIMMIN
 10
0.0
 20
0.0
  9
$LIMMAX
 10
12.0
 20
9.0
  9
$ORTHOMODE
 70
     0
  9
$REGENMODE
 70
     1
  9
$FILLMODE
 70
     1
  9
$QTEXTMODE
 70
     0
  9
$MIRRTEXT
 70
     1
  9
$LTSCALE
 40
1.0
  9
$ATTMODE
 70
     1
  9
$TEXTSIZE
 40
0.2
  9
$TRACEWID
 40
0.05
  9
$TEXTSTYLE
  7
Standard
  9
$CLAYER
  8
0
  9
$CELTYPE
  6
ByLayer
  9
$CECOLOR
 62
   256
  9
$CELTSCALE
 40
1.0
  9
$DISPSILH
 70
     0
  9
$DIMSCALE
 40
1.0
  9
$DIMASZ
 40
0.18
  9
$DIMEXO
 40
0.0625
  9
$DIMDLI
 40
0.38
  9
$DIMRND
 40
0.0
  9
$DIMDLE
 40
0.0
  9
$DIMEXE
 40
0.18
  9
$DIMTP
 40
0.0
  9
$DIMTM
 40
0.0
  9
$DIMTXT
 40
0.18
  9
$DIMCEN
 40
0.09
  9
$DIMTSZ
 40
0.0
  9
$DIMTOL
 70
     0
  9
$DIMLIM
 70
     0
  9
$DIMTIH
 70
     1
  9
$DIMTOH
 70
     1
  9
$DIMSE1
 70
     0
  9
$DIMSE2
 70
     0
  9
$DIMTAD
 70
     0
  9
$DIMZIN
 70
     0
  9
$DIMBLK
  1

  9
$DIMASO
 70
     1
  9
$DIMSHO
 70
     1
  9
$DIMPOST
  1

  9
$DIMAPOST
  1

  9
$DIMALT
 70
     0
  9
$DIMALTD
 70
     2
  9
$DIMALTF
 40
25.4
  9
$DIMLFAC
 40
1.0
  9
$DIMTOFL
 70
     0
  9
$DIMTVP
 40
0.0
  9
$DIMTIX
 70
     0
  9
$DIMSOXD
 70
     0
  9
$DIMSAH
 70
     0
  9
$DIMBLK1
  1

  9
$DIMBLK2
  1

  9
$DIMSTYLE
  2
Standard
  9
$DIMCLRD
 70
     0
  9
$DIMCLRE
 70
     0
  9
$DIMCLRT
 70
     0
  9
$DIMTFAC
 40
1.0
  9
$DIMGAP
 40
0.09
  9
$DIMJUST
 70
     0
  9
$DIMSD1
 70
     0
  9
$DIMSD2
 70
     0
  9
$DIMTOLJ
 70
     1
  9
$DIMTZIN
 70
     0
  9
$DIMALTZ
 70
     0
  9
$DIMALTTZ
 70
     0
  9
$DIMUPT
 70
     0
  9
$DIMDEC
 70
     4
  9
$DIMTDEC
 70
     4
  9
$DIMALTU
 70
     2
  9
$DIMALTTD
 70
     2
  9
$DIMTXSTY
  7
Standard
  9
$DIMAUNIT
 70
     0
  9
$DIMADEC
 70
     0
  9
$DIMALTRND
 40
0.0
  9
$DIMAZIN
 70
     0
  9
$DIMDSEP
 70
    46
  9
$DIMATFIT
 70
     3
  9
$DIMFRAC
 70
     0
  9
$DIMLDRBLK
  1

  9
$DIMLUNIT
 70
     2
  9
$DIMLWD
 70
    -2
  9
$DIMLWE
 70
    -2
  9
$DIMTMOVE
 70
     0
  9
$DIMFXL
 40
1.0
  9
$DIMFXLON
 70
     0
  9
$DIMJOGANG
 40
0.7853981633974483
  9
$DIMTFILL
 70
     0
  9
$DIMTFILLCLR
 70
     0
  9
$DIMARCSYM
 70
     0
  9
$DIMLTYPE
  6

  9
$DIMLTEX1
  6

  9
$DIMLTEX2
  6

  9
$DIMTXTDIRECTION
 70
     0
  9
$LUNITS
 70
     2
  9
$LUPREC
 70
     4
  9
$SKETCHINC
 40
0.1
  9
$FILLETRAD
 40
0.5
  9
$AUNITS
 70
     0
  9
$AUPREC
 70
     0
  9
$MENU
  1
.
  9
$ELEVATION
 40
0.0
  9
$PELEVATION
 40
0.0
  9
$THICKNESS
 40
0.0
  9
$LIMCHECK
 70
     0
  9
$CHAMFERA
 40
0.5
  9
$CHAMFERB
 40
0.5
  9
$CHAMFERC
 40
1.0
  9
$CHAMFERD
 40
0.0
  9
$SKPOLY
 70
     0
  9
$TDCREATE
 40
2457917.592847211
  9
$TDUCREATE
 40
2457917.217847222
  9
$TDUPDATE
 40
2457917.592847211
  9
$TDUUPDATE
 40
2457917.217847222
  9
$TDINDWG
 40
0.0000000116
  9
$TDUSRTIMER
 40
0.0000000116
  9
$USRTIMER
 70
     1
  9
$ANGBASE
 50
0.0
  9
$ANGDIR
 70
     0
  9
$PDMODE
 70
     0
  9
$PDSIZE
 40
0.0
  9
$PLINEWID
 40
0.0
  9
$SPLFRAME
 70
     0
  9
$SPLINETYPE
 70
     6
  9
$SPLINESEGS
 70
     8
  9
$HANDSEED
  5
142
  9
$SURFTAB1
 70
     6
  9
$SURFTAB2
 70
     6
  9
$SURFTYPE
 70
     6
  9
$SURFU
 70
     6
  9
$SURFV
 70
     6
  9
$UCSBASE
  2

  9
$UCSNAME
  2

  9
$UCSORG
 10
0.0
 20
0.0
 30
0.0
  9
$UCSXDIR
 10
1.0
 20
0.0
 30
0.0
  9
$UCSYDIR
 10
0.0
 20
1.0
 30
0.0
  9
$UCSORTHOREF
  2

  9
$UCSORTHOVIEW
 70
     0
  9
$UCSORGTOP
 10
0.0
 20
0.0
 30
0.0
  9
$UCSORGBOTTOM
 10
0.0
 20
0.0
 30
0.0
  9
$UCSORGLEFT
 10
0.0
 20
0.0
 30
0.0
  9
$UCSORGRIGHT
 10
0.0
 20
0.0
 30
0.0
  9
$UCSORGFRONT
 10
0.0
 20
0.0
 30
0.0
  9
$UCSORGBACK
 10
0.0
 20
0.0
 30
0.0
  9
$PUCSBASE
  2

  9
$PUCSNAME
  2

  9
$PUCSORG
 10
0.0
 20
0.0
 30
0.0
  9
$PUCSXDIR
 10
1.0
 20
0.0
 30
0.0
  9
$PUCSYDIR
 10
0.0
 20
1.0
 30
0.0
  9
$PUCSORTHOREF
  2

  9
$PUCSORTHOVIEW
 70
     0
  9
$PUCSORGTOP
 10
0.0
 20
0.0
 30
0.0
  9
$PUCSORGBOTTOM
 10
0.0
 20
0.0
 30
0.0
  9
$PUCSORGLEFT
 10
0.0
 20
0.0
 30
0.0
  9
$PUCSORGRIGHT
 10
0.0
 20
0.0
 30
0.0
  9
$PUCSORGFRONT
 10
0.0
 20
0.0
 30
0.0
  9
$PUCSORGBACK
 10
0.0
 20
0.0
 30
0.0
  9
$USERI1
 70
     0
  9
$USERI2
 70
     0
  9
$USERI3
 70
     0
  9
$USERI4
 70
     0
  9
$USERI5
 70
     0
  9
$USERR1
 40
0.0
  9
$USERR2
 40
0.0
  9
$USERR3
 40
0.0
  9
$USERR4
 40
0.0
  9
$USERR5
 40
0.0
  9
$WORLDVIEW
 70
     1
  9
$SHADEDGE
 70
     3
  9
$SHADEDIF
 70
    70
  9
$TILEMODE
 70
     1
  9
$MAXACTVP
 70
    64
  9
$PINSBASE
 10
0.0
 20
0.0
 30
0.0
  9
$PLIMCHECK
 70
     0
  9
$PEXTMIN
 10
1.000000000000000E+20
 20
1.000000000000000E+20
 30
1.000000000000000E+20
  9
$PEXTMAX
 10
-1.000000000000000E+20
 20
-1.000000000000000E+20
 30
-1.000000000000000E+20
  9
$PLIMMIN
 10
0.0
 20
0.0
  9
$PLIMMAX
 10
12.0
 20
9.0
  9
$UNITMODE
 70
     0
  9
$VISRETAIN
 70
     1
  9
$PLINEGEN
 70
     0
  9
$PSLTSCALE
 70
     1
  9
$TREEDEPTH
 70
  3020
  9
$CMLSTYLE
  2
Standard
  9
$CMLJUST
 70
     0
  9
$CMLSCALE
 40
1.0
  9
$PROXYGRAPHICS
 70
     1
  9
$MEASUREMENT
 70
     0
  9
$CELWEIGHT
370
    -1
  9
$ENDCAPS
280
     0
  9
$JOINSTYLE
280
     0
  9
$LWDISPLAY
290
     1
  9
$INSUNITS
 70
     1
  9
$HYPERLINKBASE
  1

  9
$STYLESHEET
  1

  9
$XEDIT
290
     1
  9
$CEPSNTYPE
380
     0
  9
$PSTYLEMODE
290
     1
  9
$FINGERPRINTGUID
  2
{127CC83F-631F-6D5A-EA92-5A6161AF16C6}
  9
$VERSIONGUID
  2
{FAEB1C32-E019-11D5-929B-00C0DF256EC4}
  9
$EXTNAMES
290
     1
  9
$PSVPSCALE
 40
0.0
  9
$OLESTARTUP
290
     0
  9
$SORTENTS
280
   127
  9
$INDEXCTL
280
     0
  9
$HIDETEXT
280
     1
  9
$XCLIPFRAME
280
     2
  9
$HALOGAP
280
     0
  9
$OBSCOLOR
 70
   257
  9
$OBSLTYPE
280
     0
  9
$INTERSECTIONDISPLAY
280
     0
  9
$INTERSECTIONCOLOR
 70
   257
  9
$DIMASSOC
280
     2
  9
$PROJECTNAME
  1

  9
$CAMERADISPLAY
290
     0
  9
$LENSLENGTH
 40
50.0
  9
$CAMERAHEIGHT
 40
0.0
  9
$STEPSPERSEC
 40
2.0
  9
$STEPSIZE
 40
6.0
  9
$3DDWFPREC
 40
2.0
  9
$PSOLWIDTH
 40
0.25
  9
$PSOLHEIGHT
 40
4.0
  9
$LOFTANG1
 40
1.570796326794897
  9
$LOFTANG2
 40
1.570796326794897
  9
$LOFTMAG1
 40
0.0
  9
$LOFTMAG2
 40
0.0
  9
$LOFTPARAM
 70
     7
  9
$LOFTNORMALS
280
     1
  9
$LATITUDE
 40
37.795
  9
$LONGITUDE
 40
-122.394
  9
$NORTHDIRECTION
 40
0.0
  9
$TIMEZONE
 70
 -8000
  9
$LIGHTGLYPHDISPLAY
280
     1
  9
$TILEMODELIGHTSYNCH
280
     1
  9
$CMATERIAL
347
3C
  9
$SOLIDHIST
280
     1
  9
$SHOWHIST
280
     1
  9
$DWFFRAME
280
     2
  9
$DGNFRAME
280
     2
  9
$REALWORLDSCALE
290
     1
  9
$INTERFERECOLOR
 62
   256
  9
$CSHADOW
280
     0
  9
$SHADOWPLANELOCATION
 40
0.0
  0
ENDSEC
  0
SECTION
  2
CLASSES
  0
CLASS
  1
ACDBDICTIONARYWDFLT
  2
AcDbDictionaryWithDefault
  3
ObjectDBX Classes
 90
        0
 91
        4
280
     0
281
     0
  0
CLASS
  1
VISUALSTYLE
  2
AcDbVisualStyle
  3
ObjectDBX Classes
 90
     4095
 91
        4
280
     0
281
     0
  0
CLASS
  1
MATERIAL
  2
AcDbMaterial
  3
ObjectDBX Classes
 90
     1153
 91
        4
280
     0
281
     0
  0
CLASS
  1
SUN
  2
AcDbSun
  3
SCENEOE
 90
     1024
 91
        4
280
     0
281
     0
  0
ENDSEC
  0
SECTION
  2
TABLES
  0
TABLE
  2
VPORT
  5
8
330
0
100
AcDbSymbolTable
 70
     1
  0
VPORT
  5
29
330
8
100
AcDbSymbolTableRecord
100
AcDbViewportTableRecord
  2
*Active
 70
     0
 10
0.0
 20
0.0
 11
1.0
 21
1.0
 12
0.0
 22
0.0
 13
0.0
 23
0.0
 14
0.5
 24
0.5
 15
0.5
 25
0.5
 16
0.0
 26
0.0
 36
1.0
 17
63.499999984125
 27
-89.00059456108309
 37
0.0
 40
178.0011891221662
 41
0.7134783795241226
 42
50.0
 43
0.0
 44
0.0
 50
0.0
 51
0.0
 71
     0
 72
   100
 73
     1
 74
     3
 75
     0
 76
     0
 77
     0
 78
     0
281
     0
 65
     1
110
0.0
120
0.0
130
0.0
111
1.0
121
0.0
131
0.0
112
0.0
122
1.0
132
0.0
 79
     0
146
0.0
 60
     3
 61
     5
292
     1
282
     1
141
0.0
142
0.0
 63
   250
361
3F
  0
ENDTAB
  0
TABLE
  2
LTYPE
  5
5
330
0
100
AcDbSymbolTable
 70
     3
  0
LTYPE
  5
14
330
5
100
AcDbSymbolTableRecord
100
AcDbLinetypeTableRecord
  2
ByBlock
 70
     0
  3

 72
    65
 73
     0
 40
0.0
  0
LTYPE
  5
15
330
5
100
AcDbSymbolTableRecord
100
AcDbLinetypeTableRecord
  2
ByLayer
 70
     0
  3

 72
    65
 73
     0
 40
0.0
  0
LTYPE
  5
16
330
5
100
AcDbSymbolTableRecord
100
AcDbLinetypeTableRecord
  2
Continuous
 70
     0
  3
Solid line
 72
    65
 73
     0
 40
0.0
  0
LTYPE
  5
44
330
5
100
AcDbSymbolTableRecord
100
AcDbLinetypeTableRecord
  2
AI-Linetype-1
 70
     0
  3
Adobe Illustrator Linetype No. 1
 72
    65
 73
     2
 40
1.411111110758333
 49
0.7055555553791667
 74
     0
 49
-0.7055555553791667
 74
     0
  0
LTYPE
  5
49
330
5
100
AcDbSymbolTableRecord
100
AcDbLinetypeTableRecord
  2
AI-Linetype-2
 70
     0
  3
Adobe Illustrator Linetype No. 2
 72
    65
 73
     2
 40
1.411111110758333
 49
0.7055555553791667
 74
     0
 49
-0.7055555553791667
 74
     0
  0
ENDTAB
  0
TABLE
  2
LAYER
  5
2
330
0
100
AcDbSymbolTable
 70
     2
  0
LAYER
  5
10
330
2
100
AcDbSymbolTableRecord
100
AcDbLayerTableRecord
  2
0
 70
     0
 62
     7
  6
Continuous
370
    -3
390
F
347
3E
  0
LAYER
  5
40
330
2
100
AcDbSymbolTableRecord
100
AcDbLayerTableRecord
  2
_U+30EC_U+30A4_U+30E4_U+30FC 1
 70
     0
 62
     7
  6
Continuous
370
    -3
390
F
347
3E
  0
ENDTAB
  0
TABLE
  2
STYLE
  5
3
330
0
100
AcDbSymbolTable
 70
     1
  0
STYLE
  5
11
330
3
100
AcDbSymbolTableRecord
100
AcDbTextStyleTableRecord
  2
Standard
 70
     0
 40
0.0
 41
1.0
 50
0.0
 71
     0
 42
0.2
  3
txt
  4

  0
ENDTAB
  0
TABLE
  2
VIEW
  5
6
330
0
100
AcDbSymbolTable
 70
     0
  0
ENDTAB
  0
TABLE
  2
UCS
  5
7
330
0
100
AcDbSymbolTable
 70
     0
  0
ENDTAB
  0
TABLE
  2
APPID
  5
9
330
0
100
AcDbSymbolTable
 70
     1
  0
APPID
  5
12
330
9
100
AcDbSymbolTableRecord
100
AcDbRegAppTableRecord
  2
ACAD
 70
     0
  0
ENDTAB
  0
TABLE
  2
DIMSTYLE
  5
A
330
0
100
AcDbSymbolTable
 70
     1
100
AcDbDimStyleTable
  0
DIMSTYLE
105
27
330
A
100
AcDbSymbolTableRecord
100
AcDbDimStyleTableRecord
  2
Standard
 70
     0
178
     0
340
11
  0
ENDTAB
  0
TABLE
  2
BLOCK_RECORD
  5
1
330
0
100
AcDbSymbolTable
 70
     8
  0
BLOCK_RECORD
  5
1F
330
1
100
AcDbSymbolTableRecord
100
AcDbBlockTableRecord
  2
*Model_Space
340
22
 70
     0
280
     1
281
     0
  0
BLOCK_RECORD
  5
1B
330
1
100
AcDbSymbolTableRecord
100
AcDbBlockTableRecord
  2
*Paper_Space
340
1E
 70
     0
280
     1
281
     0
  0
BLOCK_RECORD
  5
23
330
1
100
AcDbSymbolTableRecord
100
AcDbBlockTableRecord
  2
*Paper_Space0
340
26
 70
     0
280
     1
281
     0
  0
BLOCK_RECORD
  5
4B
330
1
100
AcDbSymbolTableRecord
100
AcDbBlockTableRecord
  2
block 2
340
0
102
{BLKREFS
331
4C
102
}
 70
     0
280
     1
281
     0
  0
BLOCK_RECORD
  5
8D
330
1
100
AcDbSymbolTableRecord
100
AcDbBlockTableRecord
  2
block 3
340
0
102
{BLKREFS
331
8E
102
}
 70
     0
280
     1
281
     0
  0
BLOCK_RECORD
  5
DD
330
1
100
AcDbSymbolTableRecord
100
AcDbBlockTableRecord
  2
block 4
340
0
102
{BLKREFS
331
DE
102
}
 70
     0
280
     1
281
     0
  0
BLOCK_RECORD
  5
F1
330
1
100
AcDbSymbolTableRecord
100
AcDbBlockTableRecord
  2
block 5
340
0
102
{BLKREFS
331
F2
102
}
 70
     0
280
     1
281
     0
  0
BLOCK_RECORD
  5
10A
330
1
100
AcDbSymbolTableRecord
100
AcDbBlockTableRecord
  2
block 6
340
0
102
{BLKREFS
331
10B
102
}
 70
     0
280
     1
281
     0
  0
BLOCK_RECORD
  5
125
330
1
100
AcDbSymbolTableRecord
100
AcDbBlockTableRecord
  2
block 7
340
0
102
{BLKREFS
331
126
102
}
 70
     0
280
     1
281
     0
  0
BLOCK_RECORD
  5
137
330
1
100
AcDbSymbolTableRecord
100
AcDbBlockTableRecord
  2
block 8
340
0
102
{BLKREFS
331
138
102
}
 70
     0
280
     1
281
     0
  0
ENDTAB
  0
ENDSEC
  0
SECTION
  2
BLOCKS
  0
BLOCK
  5
20
330
1F
100
AcDbEntity
  8
0
100
AcDbBlockBegin
  2
*Model_Space
 70
     0
 10
0.0
 20
0.0
 30
0.0
  3
*Model_Space
  1

  0
ENDBLK
  5
21
330
1F
100
AcDbEntity
  8
0
100
AcDbBlockEnd
  0
BLOCK
  5
1C
330
1B
100
AcDbEntity
 67
     1
  8
0
100
AcDbBlockBegin
  2
*Paper_Space
 70
     0
 10
0.0
 20
0.0
 30
0.0
  3
*Paper_Space
  1

  0
ENDBLK
  5
1D
330
1B
100
AcDbEntity
 67
     1
  8
0
100
AcDbBlockEnd
  0
BLOCK
  5
24
330
23
100
AcDbEntity
  8
0
100
AcDbBlockBegin
  2
*Paper_Space0
 70
     0
 10
0.0
 20
0.0
 30
0.0
  3
*Paper_Space0
  1

  0
ENDBLK
  5
25
330
23
100
AcDbEntity
  8
0
100
AcDbBlockEnd
  0
BLOCK
  5
4D
330
4B
100
AcDbEntity
  8
0
100
AcDbBlockBegin
  2
block 2
 70
     0
 10
0.0
 20
0.0
 30
0.0
  3
block 2
  1

  0
SPLINE
  5
4F
330
4B
100
AcDbEntity
  8
_U+30EC_U+30A4_U+30E4_U+30FC 1
370
     0
100
AcDbSpline
210
0.0
220
0.0
230
1.0
 70
    11
 71
     3
 72
    17
 73
    13
 74
     0
 42
0.0000000001
 43
0.0000000001
 12
1.0
 22
0.0
 32
0.0
 13
1.0
 23
0.0
 33
0.0
 40
0.0
 40
0.0
 40
0.0
 40
0.0
 40
1.0
 40
1.0
 40
1.0
 40
2.0
 40
2.0
 40
2.0
 40
3.0
 40
3.0
 40
3.0
 40
4.0
 40
4.0
 40
4.0
 40
4.0
 10
49.11672633320693
 20
-103.9089029688144
 30
0.0
 10
49.02422551942797
 20
-103.8031385374173
 30
0.0
 10
48.95377331675461
 20
-103.7652424870795
 30
0.0
 10
48.87229680852845
 20
-103.7332030990667
 30
0.0
 10
48.87229680852845
 20
-103.7332030990667
 30
0.0
 10
48.96858722734119
 20
-103.5685275348718
 30
0.0
 10
48.96858722734119
 20
-103.5685275348718
 30
0.0
 10
49.05385334060112
 20
-103.6105576997918
 30
0.0
 10
49.15944551722403
 20
-103.6891058768555
 30
0.0
 10
49.20560979672638
 20
-103.743882895071
 30
0.0
 10
49.20560979672638
 20
-103.743882895071
 30
0.0
 10
49.11672633320693
 20
-103.9089029688144
 30
0.0
 10
49.11672633320693
 20
-103.9089029688144
 30
0.0
  0
SPLINE
  5
50
330
4B
100
AcDbEntity
  8
_U+30EC_U+30A4_U+30E4_U+30FC 1
370
     0
100
AcDbSpline
210
0.0
220
0.0
230
1.0
 70
    11
 71
     3
 72
   182
 73
   178
 74
     0
 42
0.0000000001
 43
0.0000000001
 12
1.0
 22
0.0
 32
0.0
 13
1.0
 23
0.0
 33
0.0
 40
0.0
 40
0.0
 40
0.0
 40
0.0
 40
1.0
 40
1.0
 40
1.0
 40
2.0
 40
2.0
 40
2.0
 40
3.0
 40
3.0
 40
3.0
 40
4.0
 40
4.0
 40
4.0
 40
5.0
 40
5.0
 40
5.0
 40
6.0
 40
6.0
 40
6.0
 40
7.0
 40
7.0
 40
7.0
 40
8.0
 40
8.0
 40
8.0
 40
9.0
 40
9.0
 40
9.0
 40
10.0
 40
10.0
 40
10.0
 40
11.0
 40
11.0
 40
11.0
 40
12.0
 40
12.0
 40
12.0
 40
13.0
 40
13.0
 40
13.0
 40
14.0
 40
14.0
 40
14.0
 40
15.0
 40
15.0
 40
15.0
 40
16.0
 40
16.0
 40
16.0
 40
17.0
 40
17.0
 40
17.0
 40
18.0
 40
18.0
 40
18.0
 40
19.0
 40
19.0
 40
19.0
 40
20.0
 40
20.0
 40
20.0
 40
21.0
 40
21.0
 40
21.0
 40
22.0
 40
22.0
 40
22.0
 40
23.0
 40
23.0
 40
23.0
 40
24.0
 40
24.0
 40
24.0
 40
25.0
 40
25.0
 40
25.0
 40
26.0
 40
26.0
 40
26.0
 40
27.0
 40
27.0
 40
27.0
 40
28.0
 40
28.0
 40
28.0
 40
29.0
 40
29.0
 40
29.0
 40
30.0
 40
30.0
 40
30.0
 40
31.0
 40
31.0
 40
31.0
 40
32.0
 40
32.0
 40
32.0
 40
33.0
 40
33.0
 40
33.0
 40
34.0
 40
34.0
 40
34.0
 40
35.0
 40
35.0
 40
35.0
 40
36.0
 40
36.0
 40
36.0
 40
37.0
 40
37.0
 40
37.0
 40
38.0
 40
38.0
 40
38.0
 40
39.0
 40
39.0
 40
39.0
 40
40.0
 40
40.0
 40
40.0
 40
41.0
 40
41.0
 40
41.0
 40
42.0
 40
42.0
 40
42.0
 40
43.0
 40
43.0
 40
43.0
 40
44.0
 40
44.0
 40
44.0
 40
45.0
 40
45.0
 40
45.0
 40
46.0
 40
46.0
 40
46.0
 40
47.0
 40
47.0
 40
47.0
 40
48.0
 40
48.0
 40
48.0
 40
49.0
 40
49.0
 40
49.0
 40
50.0
 40
50.0
 40
50.0
 40
51.0
 40
51.0
 40
51.0
 40
52.0
 40
52.0
 40
52.0
 40
53.0
 40
53.0
 40
53.0
 40
54.0
 40
54.0
 40
54.0
 40
55.0
 40
55.0
 40
55.0
 40
56.0
 40
56.0
 40
56.0
 40
57.0
 40
57.0
 40
57.0
 40
58.0
 40
58.0
 40
58.0
 40
59.0
 40
59.0
 40
59.0
 40
59.0
 10
50.03157143931502
 20
-105.0871256247699
 30
0.0
 10
50.03157143931502
 20
-105.0871256247699
 30
0.0
 10
49.4741549898016
 20
-105.0871256247699
 30
0.0
 10
49.4741549898016
 20
-105.0871256247699
 30
0.0
 10
49.28708630495254
 20
-105.0871256247699
 30
0.0
 10
49.09829507236085
 20
-105.0916042489007
 30
0.0
 10
48.91122638751178
 20
-105.1043511021961
 30
0.0
 10
48.91122638751178
 20
-105.1043511021961
 30
0.0
 10
48.91122638751178
 20
-104.8969563539841
 30
0.0
 10
48.91122638751178
 20
-104.8969563539841
 30
0.0
 10
49.10570202765413
 20
-104.9097032072795
 30
0.0
 10
49.38888887654167
 20
-104.9138373218618
 30
0.0
 10
49.4741549898016
 20
-104.9138373218618
 30
0.0
 10
49.4741549898016
 20
-104.9138373218618
 30
0.0
 10
49.66673582742707
 20
-104.9138373218618
 30
0.0
 10
49.66673582742707
 20
-104.9138373218618
 30
0.0
 10
49.66673582742707
 20
-104.9138373218618
 30
0.0
 10
49.66673582742707
 20
-104.7722438974181
 30
0.0
 10
49.66673582742707
 20
-104.7722438974181
 30
0.0
 10
49.66673582742707
 20
-104.7722438974181
 30
0.0
 10
49.52600367685461
 20
-104.7722438974181
 30
0.0
 10
49.52600367685461
 20
-104.7722438974181
 30
0.0
 10
49.38165417602264
 20
-104.7722438974181
 30
0.0
 10
49.23713242041642
 20
-104.7763780120004
 30
0.0
 10
49.09261066481018
 20
-104.7911919225869
 30
0.0
 10
49.09261066481018
 20
-104.7911919225869
 30
0.0
 10
49.09261066481018
 20
-104.5817301170837
 30
0.0
 10
49.09261066481018
 20
-104.5817301170837
 30
0.0
 10
49.24264457319281
 20
-104.5965440276703
 30
0.0
 10
49.45934107921503
 20
-104.6006781422526
 30
0.0
 10
49.52600367685461
 20
-104.6006781422526
 30
0.0
 10
49.52600367685461
 20
-104.6006781422526
 30
0.0
 10
49.66673582742707
 20
-104.6006781422526
 30
0.0
 10
49.66673582742707
 20
-104.6006781422526
 30
0.0
 10
49.66311847716756
 20
-104.5286756466109
 30
0.0
 10
49.66311847716756
 20
-104.5224744747374
 30
0.0
 10
49.65743406961689
 20
-104.4694200042646
 30
0.0
 10
49.65743406961689
 20
-104.4694200042646
 30
0.0
 10
49.77973495934327
 20
-104.4842339148512
 30
0.0
 10
49.77973495934327
 20
-104.4842339148512
 30
0.0
 10
49.77973495934327
 20
-104.4842339148512
 30
0.0
 10
49.6927462983407
 20
-104.3130126692343
 30
0.0
 10
49.6927462983407
 20
-104.3130126692343
 30
0.0
 10
49.73339842506665
 20
-104.3192138411077
 30
0.0
 10
49.79816622018935
 20
-104.3278265798208
 30
0.0
 10
49.81298013077593
 20
-104.3278265798208
 30
0.0
 10
49.85742186253565
 20
-104.3278265798208
 30
0.0
 10
49.87223577312222
 20
-104.3068114973608
 30
0.0
 10
49.87223577312222
 20
-104.2496229123057
 30
0.0
 10
49.87223577312222
 20
-104.2496229123057
 30
0.0
 10
49.87223577312222
 20
-104.1121636024442
 30
0.0
 10
49.87223577312222
 20
-104.1121636024442
 30
0.0
 10
49.87223577312222
 20
-104.1121636024442
 30
0.0
 10
49.77973495934327
 20
-104.1121636024442
 30
0.0
 10
49.77973495934327
 20
-104.1121636024442
 30
0.0
 10
49.66311847716756
 20
-104.1121636024442
 30
0.0
 10
49.52600367685461
 20
-104.1121636024442
 30
0.0
 10
49.41851669771481
 20
-104.1245659461911
 30
0.0
 10
49.41851669771481
 20
-104.1245659461911
 30
0.0
 10
49.41851669771481
 20
-103.9343966754053
 30
0.0
 10
49.41851669771481
 20
-103.9343966754053
 30
0.0
 10
49.56493325583794
 20
-103.951277643283
 30
0.0
 10
49.76681585127358
 20
-103.9533447005742
 30
0.0
 10
49.77973495934327
 20
-103.9533447005742
 30
0.0
 10
49.77973495934327
 20
-103.9533447005742
 30
0.0
 10
49.87223577312222
 20
-103.9533447005742
 30
0.0
 10
49.87223577312222
 20
-103.9533447005742
 30
0.0
 10
49.87223577312222
 20
-103.9533447005742
 30
0.0
 10
49.87223577312222
 20
-103.8220865625862
 30
0.0
 10
49.87223577312222
 20
-103.8220865625862
 30
0.0
 10
49.87223577312222
 20
-103.8220865625862
 30
0.0
 10
49.83899060168956
 20
-103.8220865625862
 30
0.0
 10
49.83899060168956
 20
-103.8220865625862
 30
0.0
 10
49.80006102270624
 20
-103.8220865625862
 30
0.0
 10
49.69085149582381
 20
-103.826565186717
 30
0.0
 10
49.61299233785717
 20
-103.8348334158816
 30
0.0
 10
49.61299233785717
 20
-103.8348334158816
 30
0.0
 10
49.61299233785717
 20
-103.7545626910753
 30
0.0
 10
49.61299233785717
 20
-103.7545626910753
 30
0.0
 10
49.56665580358056
 20
-103.792458741413
 30
0.0
 10
49.54460719247496
 20
-103.8072726519996
 30
0.0
 10
49.50740016123427
 20
-103.8306993012993
 30
0.0
 10
49.50740016123427
 20
-103.8306993012993
 30
0.0
 10
49.34272459703932
 20
-103.7015082206024
 30
0.0
 10
49.34272459703932
 20
-103.7015082206024
 30
0.0
 10
49.41128199719579
 20
-103.667746284847
 30
0.0
 10
49.54822454273447
 20
-103.6043565279184
 30
0.0
 10
49.68516708827315
 20
-103.4603515366349
 30
0.0
 10
49.7575140934634
 20
-103.3821478691197
 30
0.0
 10
49.82607149361987
 20
-103.2977430297311
 30
0.0
 10
49.87223577312222
 20
-103.1961127129163
 30
0.0
 10
49.87223577312222
 20
-103.1961127129163
 30
0.0
 10
50.0574096554544
 20
-103.2574354125537
 30
0.0
 10
50.0574096554544
 20
-103.2574354125537
 30
0.0
 10
50.07411836855786
 20
-103.2636365844271
 30
0.0
 10
50.08342012636803
 20
-103.2722493231403
 30
0.0
 10
50.08342012636803
 20
-103.2849961764357
 30
0.0
 10
50.08342012636803
 20
-103.3018771443134
 30
0.0
 10
50.07222356604098
 20
-103.3080783161869
 30
0.0
 10
50.05000270016112
 20
-103.3208251694823
 30
0.0
 10
50.12045490283447
 20
-103.4183213717149
 30
0.0
 10
50.26290960114955
 20
-103.5154730643989
 30
0.0
 10
50.2925374223227
 20
-103.5344210895678
 30
0.0
 10
50.42414006985925
 20
-103.6233045530872
 30
0.0
 10
50.52404783893149
 20
-103.6508653169692
 30
0.0
 10
50.59260523908796
 20
-103.6698133421381
 30
0.0
 10
50.59260523908796
 20
-103.6698133421381
 30
0.0
 10
50.48890786498194
 20
-103.8393120400124
 30
0.0
 10
50.48890786498194
 20
-103.8393120400124
 30
0.0
 10
50.41483831204907
 20
-103.8096842188393
 30
0.0
 10
50.37039658028934
 20
-103.7903916841219
 30
0.0
 10
50.26669920618333
 20
-103.7249348699021
 30
0.0
 10
50.26669920618333
 20
-103.7249348699021
 30
0.0
 10
50.26669920618333
 20
-103.8348334158816
 30
0.0
 10
50.26669920618333
 20
-103.8348334158816
 30
0.0
 10
50.19452445576734
 20
-103.826565186717
 30
0.0
 10
50.08342012636803
 20
-103.8220865625862
 30
0.0
 10
50.03708359209143
 20
-103.8220865625862
 30
0.0
 10
50.03708359209143
 20
-103.8220865625862
 30
0.0
 10
50.03708359209143
 20
-103.9533447005742
 30
0.0
 10
50.03708359209143
 20
-103.9533447005742
 30
0.0
 10
50.03708359209143
 20
-103.9533447005742
 30
0.0
 10
50.14267576871433
 20
-103.9533447005742
 30
0.0
 10
50.14267576871433
 20
-103.9533447005742
 30
0.0
 10
50.14439831645696
 20
-103.9533447005742
 30
0.0
 10
50.34817571440949
 20
-103.951277643283
 30
0.0
 10
50.50372177556851
 20
-103.9343966754053
 30
0.0
 10
50.50372177556851
 20
-103.9343966754053
 30
0.0
 10
50.50372177556851
 20
-104.1245659461911
 30
0.0
 10
50.50372177556851
 20
-104.1245659461911
 30
0.0
 10
50.39072264365232
 20
-104.1121636024442
 30
0.0
 10
50.25378009811364
 20
-104.1121636024442
 30
0.0
 10
50.14267576871433
 20
-104.1121636024442
 30
0.0
 10
50.14267576871433
 20
-104.1121636024442
 30
0.0
 10
50.03708359209143
 20
-104.1121636024442
 30
0.0
 10
50.03708359209143
 20
-104.1121636024442
 30
0.0
 10
50.03708359209143
 20
-104.1121636024442
 30
0.0
 10
50.03708359209143
 20
-104.3385063758251
 30
0.0
 10
50.03708359209143
 20
-104.3385063758251
 30
0.0
 10
50.03708359209143
 20
-104.4570176605177
 30
0.0
 10
50.01486272621156
 20
-104.4928466535643
 30
0.0
 10
49.87413057563911
 20
-104.5076605641509
 30
0.0
 10
49.87774792589862
 20
-104.5266085893197
 30
0.0
 10
49.87223577312222
 20
-104.537288385324
 30
0.0
 10
49.83899060168956
 20
-104.5603705250752
 30
0.0
 10
49.83709579917267
 20
-104.5796630597926
 30
0.0
 10
49.83709579917267
 20
-104.585864231666
 30
0.0
 10
49.83520099665579
 20
-104.6006781422526
 30
0.0
 10
49.83520099665579
 20
-104.6006781422526
 30
0.0
 10
49.95560708386527
 20
-104.6006781422526
 30
0.0
 10
49.95560708386527
 20
-104.6006781422526
 30
0.0
 10
50.09995658469724
 20
-104.6006781422526
 30
0.0
 10
50.24637314282035
 20
-104.5965440276703
 30
0.0
 10
50.39261744616921
 20
-104.5817301170837
 30
0.0
 10
50.39261744616921
 20
-104.5817301170837
 30
0.0
 10
50.39261744616921
 20
-104.7891248652958
 30
0.0
 10
50.39261744616921
 20
-104.7891248652958
 30
0.0
 10
50.20365395880326
 20
-104.7722438974181
 30
0.0
 10
49.97231579696873
 20
-104.7722438974181
 30
0.0
 10
49.95560708386527
 20
-104.7722438974181
 30
0.0
 10
49.95560708386527
 20
-104.7722438974181
 30
0.0
 10
49.8333061941389
 20
-104.7722438974181
 30
0.0
 10
49.8333061941389
 20
-104.7722438974181
 30
0.0
 10
49.8333061941389
 20
-104.7722438974181
 30
0.0
 10
49.8333061941389
 20
-104.9138373218618
 30
0.0
 10
49.8333061941389
 20
-104.9138373218618
 30
0.0
 10
49.8333061941389
 20
-104.9138373218618
 30
0.0
 10
50.03157143931502
 20
-104.9138373218618
 30
0.0
 10
50.03157143931502
 20
-104.9138373218618
 30
0.0
 10
50.22036267190672
 20
-104.9138373218618
 30
0.0
 10
50.4110487070153
 20
-104.9097032072795
 30
0.0
 10
50.60001219438125
 20
-104.8969563539841
 30
0.0
 10
50.60001219438125
 20
-104.8969563539841
 30
0.0
 10
50.60001219438125
 20
-105.1043511021961
 30
0.0
 10
50.60001219438125
 20
-105.1043511021961
 30
0.0
 10
50.35368786718588
 20
-105.0871256247699
 30
0.0
 10
50.051897502678
 20
-105.0871256247699
 30
0.0
 10
50.03157143931502
 20
-105.0871256247699
 30
0.0
  0
SPLINE
  5
51
330
4B
100
AcDbEntity
  8
_U+30EC_U+30A4_U+30E4_U+30FC 1
370
     0
100
AcDbSpline
210
0.0
220
0.0
230
1.0
 70
    11
 71
     3
 72
    23
 73
    19
 74
     0
 42
0.0000000001
 43
0.0000000001
 12
1.0
 22
0.0
 32
0.0
 13
1.0
 23
0.0
 33
0.0
 40
0.0
 40
0.0
 40
0.0
 40
0.0
 40
1.0
 40
1.0
 40
1.0
 40
2.0
 40
2.0
 40
2.0
 40
3.0
 40
3.0
 40
3.0
 40
4.0
 40
4.0
 40
4.0
 40
5.0
 40
5.0
 40
5.0
 40
6.0
 40
6.0
 40
6.0
 40
6.0
 10
49.05195853808424
 20
-104.4590847178088
 30
0.0
 10
49.05195853808424
 20
-104.4800998002689
 30
0.0
 10
49.05385334060112
 20
-104.5183403601551
 30
0.0
 10
49.03163247472126
 20
-104.5183403601551
 30
0.0
 10
49.02233071691109
 20
-104.5183403601551
 30
0.0
 10
49.0149237616178
 20
-104.5117946787332
 30
0.0
 10
49.00562200380762
 20
-104.4949137108554
 30
0.0
 10
49.00562200380762
 20
-104.4949137108554
 30
0.0
 10
48.91484373777129
 20
-104.3130126692343
 30
0.0
 10
48.91484373777129
 20
-104.3130126692343
 30
0.0
 10
49.10380722513725
 20
-104.1838215885374
 30
0.0
 10
49.27606199939974
 20
-103.9068359115233
 30
0.0
 10
49.31671412612568
 20
-103.8348334158816
 30
0.0
 10
49.31671412612568
 20
-103.8348334158816
 30
0.0
 10
49.37975937350576
 20
-104.0146674002116
 30
0.0
 10
49.37975937350576
 20
-104.0146674002116
 30
0.0
 10
49.26314289133005
 20
-104.2113823524194
 30
0.0
 10
49.10931937791364
 20
-104.3953504513317
 30
0.0
 10
49.05195853808424
 20
-104.4590847178088
 30
0.0
  0
SPLINE
  5
52
330
4B
100
AcDbEntity
  8
_U+30EC_U+30A4_U+30E4_U+30FC 1
370
     0
100
AcDbSpline
210
0.0
220
0.0
230
1.0
 70
    11
 71
     3
 72
    17
 73
    13
 74
     0
 42
0.0000000001
 43
0.0000000001
 12
1.0
 22
0.0
 32
0.0
 13
1.0
 23
0.0
 33
0.0
 40
0.0
 40
0.0
 40
0.0
 40
0.0
 40
1.0
 40
1.0
 40
1.0
 40
2.0
 40
2.0
 40
2.0
 40
3.0
 40
3.0
 40
3.0
 40
4.0
 40
4.0
 40
4.0
 40
4.0
 10
49.27416719688285
 20
-103.5640489107409
 30
0.0
 10
49.22042370731295
 20
-103.4879123005169
 30
0.0
 10
49.10742457539676
 20
-103.4117756902929
 30
0.0
 10
49.01681856413469
 20
-103.3821478691197
 30
0.0
 10
49.01681856413469
 20
-103.3821478691197
 30
0.0
 10
49.10018987487774
 20
-103.2171277953763
 30
0.0
 10
49.10018987487774
 20
-103.2171277953763
 30
0.0
 10
49.18907333839718
 20
-103.2533012979714
 30
0.0
 10
49.28157415217613
 20
-103.310145373478
 30
0.0
 10
49.35926105536852
 20
-103.3907606078329
 30
0.0
 10
49.35926105536852
 20
-103.3907606078329
 30
0.0
 10
49.27416719688285
 20
-103.5640489107409
 30
0.0
 10
49.27416719688285
 20
-103.5640489107409
 30
0.0
  0
SPLINE
  5
53
330
4B
100
AcDbEntity
  8
_U+30EC_U+30A4_U+30E4_U+30FC 1
370
     0
100
AcDbSpline
210
0.0
220
0.0
230
1.0
 70
    11
 71
     3
 72
    23
 73
    19
 74
     0
 42
0.0000000001
 43
0.0000000001
 12
1.0
 22
0.0
 32
0.0
 13
1.0
 23
0.0
 33
0.0
 40
0.0
 40
0.0
 40
0.0
 40
0.0
 40
1.0
 40
1.0
 40
1.0
 40
2.0
 40
2.0
 40
2.0
 40
3.0
 40
3.0
 40
3.0
 40
4.0
 40
4.0
 40
4.0
 40
5.0
 40
5.0
 40
5.0
 40
6.0
 40
6.0
 40
6.0
 40
6.0
 10
49.67035317768658
 20
-104.2685709374745
 30
0.0
 10
49.65192191684049
 20
-104.2919975867742
 30
0.0
 10
49.56665580358056
 20
-104.4039631900448
 30
0.0
 10
49.44452716862845
 20
-104.4842339148512
 30
0.0
 10
49.44452716862845
 20
-104.4842339148512
 30
0.0
 10
49.2982828652796
 20
-104.3636555728674
 30
0.0
 10
49.2982828652796
 20
-104.3636555728674
 30
0.0
 10
49.42971325804188
 20
-104.2875189626434
 30
0.0
 10
49.51670191904444
 20
-104.1924343272505
 30
0.0
 10
49.55942110306154
 20
-104.1393798567777
 30
0.0
 10
49.55942110306154
 20
-104.1393798567777
 30
0.0
 10
49.71117755918679
 20
-104.2220621484237
 30
0.0
 10
49.71117755918679
 20
-104.2220621484237
 30
0.0
 10
49.71858451448008
 20
-104.226196263006
 30
0.0
 10
49.72599146977336
 20
-104.2327419444279
 30
0.0
 10
49.72599146977336
 20
-104.2430772308837
 30
0.0
 10
49.72599146977336
 20
-104.2685709374745
 30
0.0
 10
49.69446884608333
 20
-104.2685709374745
 30
0.0
 10
49.67035317768658
 20
-104.2685709374745
 30
0.0
  0
SPLINE
  5
54
330
4B
100
AcDbEntity
  8
_U+30EC_U+30A4_U+30E4_U+30FC 1
370
     0
100
AcDbSpline
210
0.0
220
0.0
230
1.0
 70
    11
 71
     3
 72
    20
 73
    16
 74
     0
 42
0.0000000001
 43
0.0000000001
 12
1.0
 22
0.0
 32
0.0
 13
1.0
 23
0.0
 33
0.0
 40
0.0
 40
0.0
 40
0.0
 40
0.0
 40
1.0
 40
1.0
 40
1.0
 40
2.0
 40
2.0
 40
2.0
 40
3.0
 40
3.0
 40
3.0
 40
4.0
 40
4.0
 40
4.0
 40
5.0
 40
5.0
 40
5.0
 40
5.0
 10
49.93149141546852
 20
-103.4265896008795
 30
0.0
 10
49.89824624403586
 20
-103.4751654472215
 30
0.0
 10
49.84450275446596
 20
-103.5537136242852
 30
0.0
 10
49.72237411951385
 20
-103.6636121702647
 30
0.0
 10
49.79265406741295
 20
-103.667746284847
 30
0.0
 10
49.81849228355232
 20
-103.667746284847
 30
0.0
 10
49.83899060168956
 20
-103.667746284847
 30
0.0
 10
49.83899060168956
 20
-103.667746284847
 30
0.0
 10
50.03897839460831
 20
-103.667746284847
 30
0.0
 10
50.03897839460831
 20
-103.667746284847
 30
0.0
 10
50.06671141326458
 20
-103.667746284847
 30
0.0
 10
50.10925834250741
 20
-103.6656792275558
 30
0.0
 10
50.17402613763011
 20
-103.6636121702647
 30
0.0
 10
50.07601317107475
 20
-103.5895426173318
 30
0.0
 10
50.03346624183192
 20
-103.5430338282809
 30
0.0
 10
49.93149141546852
 20
-103.4265896008795
 30
0.0
  0
SPLINE
  5
55
330
4B
100
AcDbEntity
  8
_U+30EC_U+30A4_U+30E4_U+30FC 1
370
     0
100
AcDbSpline
210
0.0
220
0.0
230
1.0
 70
    11
 71
     3
 72
    17
 73
    13
 74
     0
 42
0.0000000001
 43
0.0000000001
 12
1.0
 22
0.0
 32
0.0
 13
1.0
 23
0.0
 33
0.0
 40
0.0
 40
0.0
 40
0.0
 40
0.0
 40
1.0
 40
1.0
 40
1.0
 40
2.0
 40
2.0
 40
2.0
 40
3.0
 40
3.0
 40
3.0
 40
4.0
 40
4.0
 40
4.0
 40
4.0
 10
50.42224526734235
 20
-104.48216685756
 30
0.0
 10
50.30373398264976
 20
-104.3702012542894
 30
0.0
 10
50.21123316887081
 20
-104.3068114973608
 30
0.0
 10
50.10753579476479
 20
-104.2430772308837
 30
0.0
 10
50.10753579476479
 20
-104.2430772308837
 30
0.0
 10
50.21846786938983
 20
-104.1311116276131
 30
0.0
 10
50.21846786938983
 20
-104.1311116276131
 30
0.0
 10
50.33336180382291
 20
-104.1776204166639
 30
0.0
 10
50.42965222263565
 20
-104.2348090017191
 30
0.0
 10
50.53886174951806
 20
-104.3364393185339
 30
0.0
 10
50.53886174951806
 20
-104.3364393185339
 30
0.0
 10
50.42224526734235
 20
-104.48216685756
 30
0.0
 10
50.42224526734235
 20
-104.48216685756
 30
0.0
  0
HATCH
  5
56
330
4B
100
AcDbEntity
  8
_U+30EC_U+30A4_U+30E4_U+30FC 1
 62
   179
420
  2234388
100
AcDbHatch
 10
0.0
 20
0.0
 30
0.0
210
0.0
220
0.0
230
1.0
  2
SOLID
 70
     1
 71
     0
 91
        7
 92
        1
 93
        1
 72
     4
 94
        3
 73
     0
 74
     1
 95
       17
 96
       13
 40
0.0
 40
0.0
 40
0.0
 40
0.0
 40
1.0
 40
1.0
 40
1.0
 40
2.0
 40
2.0
 40
2.0
 40
3.0
 40
3.0
 40
3.0
 40
4.0
 40
4.0
 40
4.0
 40
4.0
 10
49.11672633320693
 20
-103.9089029688144
 10
49.02422551942797
 20
-103.8031385374173
 10
48.95377331675461
 20
-103.7652424870795
 10
48.87229680852845
 20
-103.7332030990667
 10
48.87229680852845
 20
-103.7332030990667
 10
48.96858722734119
 20
-103.5685275348718
 10
48.96858722734119
 20
-103.5685275348718
 10
49.05385334060112
 20
-103.6105576997918
 10
49.15944551722403
 20
-103.6891058768555
 10
49.20560979672638
 20
-103.743882895071
 10
49.20560979672638
 20
-103.743882895071
 10
49.11672633320693
 20
-103.9089029688144
 10
49.11672633320693
 20
-103.9089029688144
 97
        0
 97
        0
 92
        1
 93
        1
 72
     4
 94
        3
 73
     0
 74
     1
 95
      182
 96
      178
 40
0.0
 40
0.0
 40
0.0
 40
0.0
 40
1.0
 40
1.0
 40
1.0
 40
2.0
 40
2.0
 40
2.0
 40
3.0
 40
3.0
 40
3.0
 40
4.0
 40
4.0
 40
4.0
 40
5.0
 40
5.0
 40
5.0
 40
6.0
 40
6.0
 40
6.0
 40
7.0
 40
7.0
 40
7.0
 40
8.0
 40
8.0
 40
8.0
 40
9.0
 40
9.0
 40
9.0
 40
10.0
 40
10.0
 40
10.0
 40
11.0
 40
11.0
 40
11.0
 40
12.0
 40
12.0
 40
12.0
 40
13.0
 40
13.0
 40
13.0
 40
14.0
 40
14.0
 40
14.0
 40
15.0
 40
15.0
 40
15.0
 40
16.0
 40
16.0
 40
16.0
 40
17.0
 40
17.0
 40
17.0
 40
18.0
 40
18.0
 40
18.0
 40
19.0
 40
19.0
 40
19.0
 40
20.0
 40
20.0
 40
20.0
 40
21.0
 40
21.0
 40
21.0
 40
22.0
 40
22.0
 40
22.0
 40
23.0
 40
23.0
 40
23.0
 40
24.0
 40
24.0
 40
24.0
 40
25.0
 40
25.0
 40
25.0
 40
26.0
 40
26.0
 40
26.0
 40
27.0
 40
27.0
 40
27.0
 40
28.0
 40
28.0
 40
28.0
 40
29.0
 40
29.0
 40
29.0
 40
30.0
 40
30.0
 40
30.0
 40
31.0
 40
31.0
 40
31.0
 40
32.0
 40
32.0
 40
32.0
 40
33.0
 40
33.0
 40
33.0
 40
34.0
 40
34.0
 40
34.0
 40
35.0
 40
35.0
 40
35.0
 40
36.0
 40
36.0
 40
36.0
 40
37.0
 40
37.0
 40
37.0
 40
38.0
 40
38.0
 40
38.0
 40
39.0
 40
39.0
 40
39.0
 40
40.0
 40
40.0
 40
40.0
 40
41.0
 40
41.0
 40
41.0
 40
42.0
 40
42.0
 40
42.0
 40
43.0
 40
43.0
 40
43.0
 40
44.0
 40
44.0
 40
44.0
 40
45.0
 40
45.0
 40
45.0
 40
46.0
 40
46.0
 40
46.0
 40
47.0
 40
47.0
 40
47.0
 40
48.0
 40
48.0
 40
48.0
 40
49.0
 40
49.0
 40
49.0
 40
50.0
 40
50.0
 40
50.0
 40
51.0
 40
51.0
 40
51.0
 40
52.0
 40
52.0
 40
52.0
 40
53.0
 40
53.0
 40
53.0
 40
54.0
 40
54.0
 40
54.0
 40
55.0
 40
55.0
 40
55.0
 40
56.0
 40
56.0
 40
56.0
 40
57.0
 40
57.0
 40
57.0
 40
58.0
 40
58.0
 40
58.0
 40
59.0
 40
59.0
 40
59.0
 40
59.0
 10
50.03157143931502
 20
-105.0871256247699
 10
50.03157143931502
 20
-105.0871256247699
 10
49.4741549898016
 20
-105.0871256247699
 10
49.4741549898016
 20
-105.0871256247699
 10
49.28708630495254
 20
-105.0871256247699
 10
49.09829507236085
 20
-105.0916042489007
 10
48.91122638751178
 20
-105.1043511021961
 10
48.91122638751178
 20
-105.1043511021961
 10
48.91122638751178
 20
-104.8969563539841
 10
48.91122638751178
 20
-104.8969563539841
 10
49.10570202765413
 20
-104.9097032072795
 10
49.38888887654167
 20
-104.9138373218618
 10
49.4741549898016
 20
-104.9138373218618
 10
49.4741549898016
 20
-104.9138373218618
 10
49.66673582742707
 20
-104.9138373218618
 10
49.66673582742707
 20
-104.9138373218618
 10
49.66673582742707
 20
-104.9138373218618
 10
49.66673582742707
 20
-104.7722438974181
 10
49.66673582742707
 20
-104.7722438974181
 10
49.66673582742707
 20
-104.7722438974181
 10
49.52600367685461
 20
-104.7722438974181
 10
49.52600367685461
 20
-104.7722438974181
 10
49.38165417602264
 20
-104.7722438974181
 10
49.23713242041642
 20
-104.7763780120004
 10
49.09261066481018
 20
-104.7911919225869
 10
49.09261066481018
 20
-104.7911919225869
 10
49.09261066481018
 20
-104.5817301170837
 10
49.09261066481018
 20
-104.5817301170837
 10
49.24264457319281
 20
-104.5965440276703
 10
49.45934107921503
 20
-104.6006781422526
 10
49.52600367685461
 20
-104.6006781422526
 10
49.52600367685461
 20
-104.6006781422526
 10
49.66673582742707
 20
-104.6006781422526
 10
49.66673582742707
 20
-104.6006781422526
 10
49.66311847716756
 20
-104.5286756466109
 10
49.66311847716756
 20
-104.5224744747374
 10
49.65743406961689
 20
-104.4694200042646
 10
49.65743406961689
 20
-104.4694200042646
 10
49.77973495934327
 20
-104.4842339148512
 10
49.77973495934327
 20
-104.4842339148512
 10
49.77973495934327
 20
-104.4842339148512
 10
49.6927462983407
 20
-104.3130126692343
 10
49.6927462983407
 20
-104.3130126692343
 10
49.73339842506665
 20
-104.3192138411077
 10
49.79816622018935
 20
-104.3278265798208
 10
49.81298013077593
 20
-104.3278265798208
 10
49.85742186253565
 20
-104.3278265798208
 10
49.87223577312222
 20
-104.3068114973608
 10
49.87223577312222
 20
-104.2496229123057
 10
49.87223577312222
 20
-104.2496229123057
 10
49.87223577312222
 20
-104.1121636024442
 10
49.87223577312222
 20
-104.1121636024442
 10
49.87223577312222
 20
-104.1121636024442
 10
49.77973495934327
 20
-104.1121636024442
 10
49.77973495934327
 20
-104.1121636024442
 10
49.66311847716756
 20
-104.1121636024442
 10
49.52600367685461
 20
-104.1121636024442
 10
49.41851669771481
 20
-104.1245659461911
 10
49.41851669771481
 20
-104.1245659461911
 10
49.41851669771481
 20
-103.9343966754053
 10
49.41851669771481
 20
-103.9343966754053
 10
49.56493325583794
 20
-103.951277643283
 10
49.76681585127358
 20
-103.9533447005742
 10
49.77973495934327
 20
-103.9533447005742
 10
49.77973495934327
 20
-103.9533447005742
 10
49.87223577312222
 20
-103.9533447005742
 10
49.87223577312222
 20
-103.9533447005742
 10
49.87223577312222
 20
-103.9533447005742
 10
49.87223577312222
 20
-103.8220865625862
 10
49.87223577312222
 20
-103.8220865625862
 10
49.87223577312222
 20
-103.8220865625862
 10
49.83899060168956
 20
-103.8220865625862
 10
49.83899060168956
 20
-103.8220865625862
 10
49.80006102270624
 20
-103.8220865625862
 10
49.69085149582381
 20
-103.826565186717
 10
49.61299233785717
 20
-103.8348334158816
 10
49.61299233785717
 20
-103.8348334158816
 10
49.61299233785717
 20
-103.7545626910753
 10
49.61299233785717
 20
-103.7545626910753
 10
49.56665580358056
 20
-103.792458741413
 10
49.54460719247496
 20
-103.8072726519996
 10
49.50740016123427
 20
-103.8306993012993
 10
49.50740016123427
 20
-103.8306993012993
 10
49.34272459703932
 20
-103.7015082206024
 10
49.34272459703932
 20
-103.7015082206024
 10
49.41128199719579
 20
-103.667746284847
 10
49.54822454273447
 20
-103.6043565279184
 10
49.68516708827315
 20
-103.4603515366349
 10
49.7575140934634
 20
-103.3821478691197
 10
49.82607149361987
 20
-103.2977430297311
 10
49.87223577312222
 20
-103.1961127129163
 10
49.87223577312222
 20
-103.1961127129163
 10
50.0574096554544
 20
-103.2574354125537
 10
50.0574096554544
 20
-103.2574354125537
 10
50.07411836855786
 20
-103.2636365844271
 10
50.08342012636803
 20
-103.2722493231403
 10
50.08342012636803
 20
-103.2849961764357
 10
50.08342012636803
 20
-103.3018771443134
 10
50.07222356604098
 20
-103.3080783161869
 10
50.05000270016112
 20
-103.3208251694823
 10
50.12045490283447
 20
-103.4183213717149
 10
50.26290960114955
 20
-103.5154730643989
 10
50.2925374223227
 20
-103.5344210895678
 10
50.42414006985925
 20
-103.6233045530872
 10
50.52404783893149
 20
-103.6508653169692
 10
50.59260523908796
 20
-103.6698133421381
 10
50.59260523908796
 20
-103.6698133421381
 10
50.48890786498194
 20
-103.8393120400124
 10
50.48890786498194
 20
-103.8393120400124
 10
50.41483831204907
 20
-103.8096842188393
 10
50.37039658028934
 20
-103.7903916841219
 10
50.26669920618333
 20
-103.7249348699021
 10
50.26669920618333
 20
-103.7249348699021
 10
50.26669920618333
 20
-103.8348334158816
 10
50.26669920618333
 20
-103.8348334158816
 10
50.19452445576734
 20
-103.826565186717
 10
50.08342012636803
 20
-103.8220865625862
 10
50.03708359209143
 20
-103.8220865625862
 10
50.03708359209143
 20
-103.8220865625862
 10
50.03708359209143
 20
-103.9533447005742
 10
50.03708359209143
 20
-103.9533447005742
 10
50.03708359209143
 20
-103.9533447005742
 10
50.14267576871433
 20
-103.9533447005742
 10
50.14267576871433
 20
-103.9533447005742
 10
50.14439831645696
 20
-103.9533447005742
 10
50.34817571440949
 20
-103.951277643283
 10
50.50372177556851
 20
-103.9343966754053
 10
50.50372177556851
 20
-103.9343966754053
 10
50.50372177556851
 20
-104.1245659461911
 10
50.50372177556851
 20
-104.1245659461911
 10
50.39072264365232
 20
-104.1121636024442
 10
50.25378009811364
 20
-104.1121636024442
 10
50.14267576871433
 20
-104.1121636024442
 10
50.14267576871433
 20
-104.1121636024442
 10
50.03708359209143
 20
-104.1121636024442
 10
50.03708359209143
 20
-104.1121636024442
 10
50.03708359209143
 20
-104.1121636024442
 10
50.03708359209143
 20
-104.3385063758251
 10
50.03708359209143
 20
-104.3385063758251
 10
50.03708359209143
 20
-104.4570176605177
 10
50.01486272621156
 20
-104.4928466535643
 10
49.87413057563911
 20
-104.5076605641509
 10
49.87774792589862
 20
-104.5266085893197
 10
49.87223577312222
 20
-104.537288385324
 10
49.83899060168956
 20
-104.5603705250752
 10
49.83709579917267
 20
-104.5796630597926
 10
49.83709579917267
 20
-104.585864231666
 10
49.83520099665579
 20
-104.6006781422526
 10
49.83520099665579
 20
-104.6006781422526
 10
49.95560708386527
 20
-104.6006781422526
 10
49.95560708386527
 20
-104.6006781422526
 10
50.09995658469724
 20
-104.6006781422526
 10
50.24637314282035
 20
-104.5965440276703
 10
50.39261744616921
 20
-104.5817301170837
 10
50.39261744616921
 20
-104.5817301170837
 10
50.39261744616921
 20
-104.7891248652958
 10
50.39261744616921
 20
-104.7891248652958
 10
50.20365395880326
 20
-104.7722438974181
 10
49.97231579696873
 20
-104.7722438974181
 10
49.95560708386527
 20
-104.7722438974181
 10
49.95560708386527
 20
-104.7722438974181
 10
49.8333061941389
 20
-104.7722438974181
 10
49.8333061941389
 20
-104.7722438974181
 10
49.8333061941389
 20
-104.7722438974181
 10
49.8333061941389
 20
-104.9138373218618
 10
49.8333061941389
 20
-104.9138373218618
 10
49.8333061941389
 20
-104.9138373218618
 10
50.03157143931502
 20
-104.9138373218618
 10
50.03157143931502
 20
-104.9138373218618
 10
50.22036267190672
 20
-104.9138373218618
 10
50.4110487070153
 20
-104.9097032072795
 10
50.60001219438125
 20
-104.8969563539841
 10
50.60001219438125
 20
-104.8969563539841
 10
50.60001219438125
 20
-105.1043511021961
 10
50.60001219438125
 20
-105.1043511021961
 10
50.35368786718588
 20
-105.0871256247699
 10
50.051897502678
 20
-105.0871256247699
 10
50.03157143931502
 20
-105.0871256247699
 97
        0
 97
        0
 92
        1
 93
        1
 72
     4
 94
        3
 73
     0
 74
     1
 95
       23
 96
       19
 40
0.0
 40
0.0
 40
0.0
 40
0.0
 40
1.0
 40
1.0
 40
1.0
 40
2.0
 40
2.0
 40
2.0
 40
3.0
 40
3.0
 40
3.0
 40
4.0
 40
4.0
 40
4.0
 40
5.0
 40
5.0
 40
5.0
 40
6.0
 40
6.0
 40
6.0
 40
6.0
 10
49.05195853808424
 20
-104.4590847178088
 10
49.05195853808424
 20
-104.4800998002689
 10
49.05385334060112
 20
-104.5183403601551
 10
49.03163247472126
 20
-104.5183403601551
 10
49.02233071691109
 20
-104.5183403601551
 10
49.0149237616178
 20
-104.5117946787332
 10
49.00562200380762
 20
-104.4949137108554
 10
49.00562200380762
 20
-104.4949137108554
 10
48.91484373777129
 20
-104.3130126692343
 10
48.91484373777129
 20
-104.3130126692343
 10
49.10380722513725
 20
-104.1838215885374
 10
49.27606199939974
 20
-103.9068359115233
 10
49.31671412612568
 20
-103.8348334158816
 10
49.31671412612568
 20
-103.8348334158816
 10
49.37975937350576
 20
-104.0146674002116
 10
49.37975937350576
 20
-104.0146674002116
 10
49.26314289133005
 20
-104.2113823524194
 10
49.10931937791364
 20
-104.3953504513317
 10
49.05195853808424
 20
-104.4590847178088
 97
        0
 97
        0
 92
        1
 93
        1
 72
     4
 94
        3
 73
     0
 74
     1
 95
       17
 96
       13
 40
0.0
 40
0.0
 40
0.0
 40
0.0
 40
1.0
 40
1.0
 40
1.0
 40
2.0
 40
2.0
 40
2.0
 40
3.0
 40
3.0
 40
3.0
 40
4.0
 40
4.0
 40
4.0
 40
4.0
 10
49.27416719688285
 20
-103.5640489107409
 10
49.22042370731295
 20
-103.4879123005169
 10
49.10742457539676
 20
-103.4117756902929
 10
49.01681856413469
 20
-103.3821478691197
 10
49.01681856413469
 20
-103.3821478691197
 10
49.10018987487774
 20
-103.2171277953763
 10
49.10018987487774
 20
-103.2171277953763
 10
49.18907333839718
 20
-103.2533012979714
 10
49.28157415217613
 20
-103.310145373478
 10
49.35926105536852
 20
-103.3907606078329
 10
49.35926105536852
 20
-103.3907606078329
 10
49.27416719688285
 20
-103.5640489107409
 10
49.27416719688285
 20
-103.5640489107409
 97
        0
 97
        0
 92
        1
 93
        1
 72
     4
 94
        3
 73
     0
 74
     1
 95
       23
 96
       19
 40
0.0
 40
0.0
 40
0.0
 40
0.0
 40
1.0
 40
1.0
 40
1.0
 40
2.0
 40
2.0
 40
2.0
 40
3.0
 40
3.0
 40
3.0
 40
4.0
 40
4.0
 40
4.0
 40
5.0
 40
5.0
 40
5.0
 40
6.0
 40
6.0
 40
6.0
 40
6.0
 10
49.67035317768658
 20
-104.2685709374745
 10
49.65192191684049
 20
-104.2919975867742
 10
49.56665580358056
 20
-104.4039631900448
 10
49.44452716862845
 20
-104.4842339148512
 10
49.44452716862845
 20
-104.4842339148512
 10
49.2982828652796
 20
-104.3636555728674
 10
49.2982828652796
 20
-104.3636555728674
 10
49.42971325804188
 20
-104.2875189626434
 10
49.51670191904444
 20
-104.1924343272505
 10
49.55942110306154
 20
-104.1393798567777
 10
49.55942110306154
 20
-104.1393798567777
 10
49.71117755918679
 20
-104.2220621484237
 10
49.71117755918679
 20
-104.2220621484237
 10
49.71858451448008
 20
-104.226196263006
 10
49.72599146977336
 20
-104.2327419444279
 10
49.72599146977336
 20
-104.2430772308837
 10
49.72599146977336
 20
-104.2685709374745
 10
49.69446884608333
 20
-104.2685709374745
 10
49.67035317768658
 20
-104.2685709374745
 97
        0
 97
        0
 92
        1
 93
        1
 72
     4
 94
        3
 73
     0
 74
     1
 95
       20
 96
       16
 40
0.0
 40
0.0
 40
0.0
 40
0.0
 40
1.0
 40
1.0
 40
1.0
 40
2.0
 40
2.0
 40
2.0
 40
3.0
 40
3.0
 40
3.0
 40
4.0
 40
4.0
 40
4.0
 40
5.0
 40
5.0
 40
5.0
 40
5.0
 10
49.93149141546852
 20
-103.4265896008795
 10
49.89824624403586
 20
-103.4751654472215
 10
49.84450275446596
 20
-103.5537136242852
 10
49.72237411951385
 20
-103.6636121702647
 10
49.79265406741295
 20
-103.667746284847
 10
49.81849228355232
 20
-103.667746284847
 10
49.83899060168956
 20
-103.667746284847
 10
49.83899060168956
 20
-103.667746284847
 10
50.03897839460831
 20
-103.667746284847
 10
50.03897839460831
 20
-103.667746284847
 10
50.06671141326458
 20
-103.667746284847
 10
50.10925834250741
 20
-103.6656792275558
 10
50.17402613763011
 20
-103.6636121702647
 10
50.07601317107475
 20
-103.5895426173318
 10
50.03346624183192
 20
-103.5430338282809
 10
49.93149141546852
 20
-103.4265896008795
 97
        0
 97
        0
 92
        1
 93
        1
 72
     4
 94
        3
 73
     0
 74
     1
 95
       17
 96
       13
 40
0.0
 40
0.0
 40
0.0
 40
0.0
 40
1.0
 40
1.0
 40
1.0
 40
2.0
 40
2.0
 40
2.0
 40
3.0
 40
3.0
 40
3.0
 40
4.0
 40
4.0
 40
4.0
 40
4.0
 10
50.42224526734235
 20
-104.48216685756
 10
50.30373398264976
 20
-104.3702012542894
 10
50.21123316887081
 20
-104.3068114973608
 10
50.10753579476479
 20
-104.2430772308837
 10
50.10753579476479
 20
-104.2430772308837
 10
50.21846786938983
 20
-104.1311116276131
 10
50.21846786938983
 20
-104.1311116276131
 10
50.33336180382291
 20
-104.1776204166639
 10
50.42965222263565
 20
-104.2348090017191
 10
50.53886174951806
 20
-104.3364393185339
 10
50.53886174951806
 20
-104.3364393185339
 10
50.42224526734235
 20
-104.48216685756
 10
50.42224526734235
 20
-104.48216685756
 97
        0
 97
        0
 75
     2
 76
     1
 98
        0
  0
SPLINE
  5
57
330
4B
100
AcDbEntity
  8
_U+30EC_U+30A4_U+30E4_U+30FC 1
370
     0
100
AcDbSpline
210
0.0
220
0.0
230
1.0
 70
    11
 71
     3
 72
   113
 73
   109
 74
     0
 42
0.0000000001
 43
0.0000000001
 12
1.0
 22
0.0
 32
0.0
 13
1.0
 23
0.0
 33
0.0
 40
0.0
 40
0.0
 40
0.0
 40
0.0
 40
1.0
 40
1.0
 40
1.0
 40
2.0
 40
2.0
 40
2.0
 40
3.0
 40
3.0
 40
3.0
 40
4.0
 40
4.0
 40
4.0
 40
5.0
 40
5.0
 40
5.0
 40
6.0
 40
6.0
 40
6.0
 40
7.0
 40
7.0
 40
7.0
 40
8.0
 40
8.0
 40
8.0
 40
9.0
 40
9.0
 40
9.0
 40
10.0
 40
10.0
 40
10.0
 40
11.0
 40
11.0
 40
11.0
 40
12.0
 40
12.0
 40
12.0
 40
13.0
 40
13.0
 40
13.0
 40
14.0
 40
14.0
 40
14.0
 40
15.0
 40
15.0
 40
15.0
 40
16.0
 40
16.0
 40
16.0
 40
17.0
 40
17.0
 40
17.0
 40
18.0
 40
18.0
 40
18.0
 40
19.0
 40
19.0
 40
19.0
 40
20.0
 40
20.0
 40
20.0
 40
21.0
 40
21.0
 40
21.0
 40
22.0
 40
22.0
 40
22.0
 40
23.0
 40
23.0
 40
23.0
 40
24.0
 40
24.0
 40
24.0
 40
25.0
 40
25.0
 40
25.0
 40
26.0
 40
26.0
 40
26.0
 40
27.0
 40
27.0
 40
27.0
 40
28.0
 40
28.0
 40
28.0
 40
29.0
 40
29.0
 40
29.0
 40
30.0
 40
30.0
 40
30.0
 40
31.0
 40
31.0
 40
31.0
 40
32.0
 40
32.0
 40
32.0
 40
33.0
 40
33.0
 40
33.0
 40
34.0
 40
34.0
 40
34.0
 40
35.0
 40
35.0
 40
35.0
 40
36.0
 40
36.0
 40
36.0
 40
36.0
 10
52.06882865451752
 20
-104.4590847178088
 30
0.0
 10
52.06882865451752
 20
-104.4590847178088
 30
0.0
 10
52.15581731552007
 20
-104.558303467784
 30
0.0
 10
52.15581731552007
 20
-104.558303467784
 30
0.0
 10
52.16511907333025
 20
-104.5689832637883
 30
0.0
 10
52.17442083114042
 20
-104.5817301170837
 30
0.0
 10
52.17442083114042
 20
-104.5965440276703
 30
0.0
 10
52.17442083114042
 20
-104.5986110849615
 30
0.0
 10
52.17442083114042
 20
-104.6282389061346
 30
0.0
 10
52.1410034049335
 20
-104.6282389061346
 30
0.0
 10
52.13359644964022
 20
-104.6282389061346
 30
0.0
 10
52.09845647569067
 20
-104.6241047915523
 30
0.0
 10
52.09294432291426
 20
-104.6241047915523
 30
0.0
 10
52.05780434896472
 20
-104.6557996700166
 30
0.0
 10
52.01697996746451
 20
-104.6895616057721
 30
0.0
 10
51.92999130646195
 20
-104.7467501908272
 30
0.0
 10
52.05780434896472
 20
-104.8545816795155
 30
0.0
 10
52.19664169702028
 20
-104.9117702645707
 30
0.0
 10
52.43555906892237
 20
-104.9496663149084
 30
0.0
 10
52.43555906892237
 20
-104.9496663149084
 30
0.0
 10
52.30395642138582
 20
-105.1253661846562
 30
0.0
 10
52.30395642138582
 20
-105.1253661846562
 30
0.0
 10
52.07434080729391
 20
-105.0533636890144
 30
0.0
 10
51.93739826175523
 20
-104.964480225495
 30
0.0
 10
51.87073566411565
 20
-104.9117702645707
 30
0.0
 10
51.73930527135337
 20
-104.8101399477558
 30
0.0
 10
51.61338703136749
 20
-104.6471869313035
 30
0.0
 10
51.5467244337279
 20
-104.48216685756
 30
0.0
 10
51.48746879138161
 20
-104.5479681813283
 30
0.0
 10
51.42252874148465
 20
-104.6006781422526
 30
0.0
 10
51.35414359610244
 20
-104.6492539885946
 30
0.0
 10
51.35414359610244
 20
-104.6492539885946
 30
0.0
 10
51.35414359610244
 20
-104.9010904685664
 30
0.0
 10
51.35414359610244
 20
-104.9010904685664
 30
0.0
 10
51.49659829441752
 20
-104.8755967619755
 30
0.0
 10
51.65955131086984
 20
-104.8311550302158
 30
0.0
 10
51.71518960295662
 20
-104.8163411196293
 30
0.0
 10
51.71518960295662
 20
-104.8163411196293
 30
0.0
 10
51.68917913204299
 20
-104.9858398175035
 30
0.0
 10
51.68917913204299
 20
-104.9858398175035
 30
0.0
 10
51.68745658430036
 20
-104.9858398175035
 30
0.0
 10
51.6707478711969
 20
-104.992040989377
 30
0.0
 10
51.66885306868001
 20
-104.992040989377
 30
0.0
 10
51.49487574667489
 20
-105.0302815492633
 30
0.0
 10
51.2170287957895
 20
-105.095738363483
 30
0.0
 10
51.044774021527
 20
-105.1315673565296
 30
0.0
 10
51.03564451849109
 20
-105.1487928339559
 30
0.0
 10
51.01514620035385
 20
-105.1804877124202
 30
0.0
 10
50.99482013699088
 20
-105.1804877124202
 30
0.0
 10
50.97070446859413
 20
-105.1804877124202
 30
0.0
 10
50.96708711833462
 20
-105.1611951777028
 30
0.0
 10
50.96519231581773
 20
-105.1422471525339
 30
0.0
 10
50.96519231581773
 20
-105.1422471525339
 30
0.0
 10
50.94297144993787
 20
-104.9689588496258
 30
0.0
 10
50.94297144993787
 20
-104.9689588496258
 30
0.0
 10
51.00773924506057
 20
-104.9603461109127
 30
0.0
 10
51.10230711613067
 20
-104.9475992576173
 30
0.0
 10
51.19670273242652
 20
-104.9265841751572
 30
0.0
 10
51.19670273242652
 20
-104.9265841751572
 30
0.0
 10
51.19670273242652
 20
-104.7488172481184
 30
0.0
 10
51.19670273242652
 20
-104.7488172481184
 30
0.0
 10
51.07078449244064
 20
-104.8208197437601
 30
0.0
 10
50.98741318169759
 20
-104.8504475649332
 30
0.0
 10
50.84306368086563
 20
-104.8800753861064
 30
0.0
 10
50.84306368086563
 20
-104.8800753861064
 30
0.0
 10
50.73747150424272
 20
-104.7105766882321
 30
0.0
 10
50.73747150424272
 20
-104.7105766882321
 30
0.0
 10
51.01514620035385
 20
-104.6833604338986
 30
0.0
 10
51.18378362435683
 20
-104.5899983462483
 30
0.0
 10
51.33932968551586
 20
-104.4570176605177
 30
0.0
 10
51.2115166430131
 20
-104.4570176605177
 30
0.0
 10
50.94848360271427
 20
-104.4611517751
 30
0.0
 10
50.77640108322604
 20
-104.4673529469734
 30
0.0
 10
50.77640108322604
 20
-104.4673529469734
 30
0.0
 10
50.77640108322604
 20
-104.2895860199345
 30
0.0
 10
50.77640108322604
 20
-104.2895860199345
 30
0.0
 10
50.91144882624783
 20
-104.2961317013565
 30
0.0
 10
51.17069226151288
 20
-104.30233287323
 30
0.0
 10
51.33192273022258
 20
-104.30233287323
 30
0.0
 10
51.33192273022258
 20
-104.30233287323
 30
0.0
 10
51.51709661255476
 20
-104.30233287323
 30
0.0
 10
51.51709661255476
 20
-104.30233287323
 30
0.0
 10
51.51709661255476
 20
-104.2072482378371
 30
0.0
 10
51.51520181003787
 20
-104.1566053342039
 30
0.0
 10
51.50968965726147
 20
-104.110096545153
 30
0.0
 10
51.50968965726147
 20
-104.110096545153
 30
0.0
 10
51.69848088985316
 20
-104.1269775130308
 30
0.0
 10
51.69848088985316
 20
-104.1269775130308
 30
0.0
 10
51.741027819096
 20
-104.1311116276131
 30
0.0
 10
51.74843477438928
 20
-104.1459255381996
 30
0.0
 10
51.74843477438928
 20
-104.1607394487862
 30
0.0
 10
51.74843477438928
 20
-104.1862331553771
 30
0.0
 10
51.73362086380271
 20
-104.1945013845417
 30
0.0
 10
51.68917913204299
 20
-104.2199950911325
 30
0.0
 10
51.68745658430036
 20
-104.2451442881748
 30
0.0
 10
51.68745658430036
 20
-104.2516899695968
 30
0.0
 10
51.68556178178347
 20
-104.30233287323
 30
0.0
 10
51.68556178178347
 20
-104.30233287323
 30
0.0
 10
51.88744437721911
 20
-104.30233287323
 30
0.0
 10
51.88744437721911
 20
-104.30233287323
 30
0.0
 10
52.03179387805108
 20
-104.30233287323
 30
0.0
 10
52.28741996305662
 20
-104.2961317013565
 30
0.0
 10
52.44468857195827
 20
-104.2895860199345
 30
0.0
 10
52.44468857195827
 20
-104.2895860199345
 30
0.0
 10
52.44468857195827
 20
-104.4673529469734
 30
0.0
 10
52.44468857195827
 20
-104.4673529469734
 30
0.0
 10
52.33186169481634
 20
-104.4632188323911
 30
0.0
 10
52.3113633766791
 20
-104.4632188323911
 30
0.0
 10
52.06882865451752
 20
-104.4590847178088
 30
0.0
  0
SPLINE
  5
58
330
4B
100
AcDbEntity
  8
_U+30EC_U+30A4_U+30E4_U+30FC 1
370
     0
100
AcDbSpline
210
0.0
220
0.0
230
1.0
 70
    11
 71
     3
 72
    23
 73
    19
 74
     0
 42
0.0000000001
 43
0.0000000001
 12
1.0
 22
0.0
 32
0.0
 13
1.0
 23
0.0
 33
0.0
 40
0.0
 40
0.0
 40
0.0
 40
0.0
 40
1.0
 40
1.0
 40
1.0
 40
2.0
 40
2.0
 40
2.0
 40
3.0
 40
3.0
 40
3.0
 40
4.0
 40
4.0
 40
4.0
 40
5.0
 40
5.0
 40
5.0
 40
6.0
 40
6.0
 40
6.0
 40
6.0
 10
50.94486625245476
 20
-104.1076849783134
 30
0.0
 10
50.93005234186818
 20
-104.1479925954908
 30
0.0
 10
50.92454018909179
 20
-104.1648735633685
 30
0.0
 10
50.90593667347144
 20
-104.1648735633685
 30
0.0
 10
50.89301756540175
 20
-104.1648735633685
 30
0.0
 10
50.88371580759157
 20
-104.1479925954908
 30
0.0
 10
50.87820365481517
 20
-104.1352457421954
 30
0.0
 10
50.87820365481517
 20
-104.1352457421954
 30
0.0
 10
50.79121499381262
 20
-103.9702256684519
 30
0.0
 10
50.79121499381262
 20
-103.9702256684519
 30
0.0
 10
50.88009845733206
 20
-103.9385307899876
 30
0.0
 10
51.01152885009434
 20
-103.8834092622236
 30
0.0
 10
51.18550617209946
 20
-103.7208007553198
 30
0.0
 10
51.18550617209946
 20
-103.7208007553198
 30
0.0
 10
51.23563231140984
 20
-103.8940890582279
 30
0.0
 10
51.23563231140984
 20
-103.8940890582279
 30
0.0
 10
51.15415580318368
 20
-103.9767713498739
 30
0.0
 10
51.07629664521704
 20
-104.0336154253805
 30
0.0
 10
50.94486625245476
 20
-104.1076849783134
 30
0.0
  0
SPLINE
  5
59
330
4B
100
AcDbEntity
  8
_U+30EC_U+30A4_U+30E4_U+30FC 1
370
     0
100
AcDbSpline
210
0.0
220
0.0
230
1.0
 70
    11
 71
     3
 72
    17
 73
    13
 74
     0
 42
0.0000000001
 43
0.0000000001
 12
1.0
 22
0.0
 32
0.0
 13
1.0
 23
0.0
 33
0.0
 40
0.0
 40
0.0
 40
0.0
 40
0.0
 40
1.0
 40
1.0
 40
1.0
 40
2.0
 40
2.0
 40
2.0
 40
3.0
 40
3.0
 40
3.0
 40
4.0
 40
4.0
 40
4.0
 40
4.0
 10
51.07819144773393
 20
-103.6422525782561
 30
0.0
 10
51.05218097682029
 20
-103.6022894706272
 30
0.0
 10
50.99292533447399
 20
-103.5047932683946
 30
0.0
 10
50.83376192305545
 20
-103.3948947224152
 30
0.0
 10
50.83376192305545
 20
-103.3948947224152
 30
0.0
 10
50.94486625245476
 20
-103.261569527136
 30
0.0
 10
50.94486625245476
 20
-103.261569527136
 30
0.0
 10
51.10781926890707
 20
-103.3631998439509
 30
0.0
 10
51.15777315344319
 20
-103.4520833074703
 30
0.0
 10
51.18188882183995
 20
-103.4944579819389
 30
0.0
 10
51.18188882183995
 20
-103.4944579819389
 30
0.0
 10
51.07819144773393
 20
-103.6422525782561
 30
0.0
 10
51.07819144773393
 20
-103.6422525782561
 30
0.0
  0
SPLINE
  5
5A
330
4B
100
AcDbEntity
  8
_U+30EC_U+30A4_U+30E4_U+30FC 1
370
     0
100
AcDbSpline
210
0.0
220
0.0
230
1.0
 70
    11
 71
     3
 72
    38
 73
    34
 74
     0
 42
0.0000000001
 43
0.0000000001
 12
1.0
 22
0.0
 32
0.0
 13
1.0
 23
0.0
 33
0.0
 40
0.0
 40
0.0
 40
0.0
 40
0.0
 40
1.0
 40
1.0
 40
1.0
 40
2.0
 40
2.0
 40
2.0
 40
3.0
 40
3.0
 40
3.0
 40
4.0
 40
4.0
 40
4.0
 40
5.0
 40
5.0
 40
5.0
 40
6.0
 40
6.0
 40
6.0
 40
7.0
 40
7.0
 40
7.0
 40
8.0
 40
8.0
 40
8.0
 40
9.0
 40
9.0
 40
9.0
 40
10.0
 40
10.0
 40
10.0
 40
11.0
 40
11.0
 40
11.0
 40
11.0
 10
51.40030787560479
 20
-103.33770613736
 30
0.0
 10
51.39858532786216
 20
-103.3842149264109
 30
0.0
 10
51.39669052534527
 20
-103.5006591538123
 30
0.0
 10
51.39669052534527
 20
-103.5451008855721
 30
0.0
 10
51.39669052534527
 20
-103.5451008855721
 30
0.0
 10
51.39669052534527
 20
-103.8920220009367
 30
0.0
 10
51.39669052534527
 20
-103.8920220009367
 30
0.0
 10
51.39669052534527
 20
-103.978838407165
 30
0.0
 10
51.39858532786216
 20
-104.1204318316088
 30
0.0
 10
51.40771483089807
 20
-104.2410101735925
 30
0.0
 10
51.40771483089807
 20
-104.2410101735925
 30
0.0
 10
51.24114446418624
 20
-104.2410101735925
 30
0.0
 10
51.24114446418624
 20
-104.2410101735925
 30
0.0
 10
51.24476181444576
 20
-104.1776204166639
 30
0.0
 10
51.24855141947953
 20
-104.1245659461911
 30
0.0
 10
51.25044622199642
 20
-104.0697889279756
 30
0.0
 10
51.25216876973904
 20
-103.9471435287007
 30
0.0
 10
51.25406357225593
 20
-103.9323296181141
 30
0.0
 10
51.25406357225593
 20
-103.8878878863544
 30
0.0
 10
51.25406357225593
 20
-103.8878878863544
 30
0.0
 10
51.25406357225593
 20
-103.5661159680321
 30
0.0
 10
51.25406357225593
 20
-103.5661159680321
 30
0.0
 10
51.25406357225593
 20
-103.5113389498166
 30
0.0
 10
51.24303926670313
 20
-103.2722493231403
 30
0.0
 10
51.24114446418624
 20
-103.2212619099586
 30
0.0
 10
51.24114446418624
 20
-103.2212619099586
 30
0.0
 10
51.41701658870825
 20
-103.2488226738406
 30
0.0
 10
51.41701658870825
 20
-103.2488226738406
 30
0.0
 10
51.4356201043286
 20
-103.2508897311317
 30
0.0
 10
51.46335312298486
 20
-103.2553683552625
 30
0.0
 10
51.46335312298486
 20
-103.2805175523049
 30
0.0
 10
51.46335312298486
 20
-103.3080783161869
 30
0.0
 10
51.41891139122514
 20
-103.3294379081954
 30
0.0
 10
51.40030787560479
 20
-103.33770613736
 30
0.0
  0
SPLINE
  5
5B
330
4B
100
AcDbEntity
  8
_U+30EC_U+30A4_U+30E4_U+30FC 1
370
     0
100
AcDbSpline
210
0.0
220
0.0
230
1.0
 70
    11
 71
     3
 72
    83
 73
    79
 74
     0
 42
0.0000000001
 43
0.0000000001
 12
1.0
 22
0.0
 32
0.0
 13
1.0
 23
0.0
 33
0.0
 40
0.0
 40
0.0
 40
0.0
 40
0.0
 40
1.0
 40
1.0
 40
1.0
 40
2.0
 40
2.0
 40
2.0
 40
3.0
 40
3.0
 40
3.0
 40
4.0
 40
4.0
 40
4.0
 40
5.0
 40
5.0
 40
5.0
 40
6.0
 40
6.0
 40
6.0
 40
7.0
 40
7.0
 40
7.0
 40
8.0
 40
8.0
 40
8.0
 40
9.0
 40
9.0
 40
9.0
 40
10.0
 40
10.0
 40
10.0
 40
11.0
 40
11.0
 40
11.0
 40
12.0
 40
12.0
 40
12.0
 40
13.0
 40
13.0
 40
13.0
 40
14.0
 40
14.0
 40
14.0
 40
15.0
 40
15.0
 40
15.0
 40
16.0
 40
16.0
 40
16.0
 40
17.0
 40
17.0
 40
17.0
 40
18.0
 40
18.0
 40
18.0
 40
19.0
 40
19.0
 40
19.0
 40
20.0
 40
20.0
 40
20.0
 40
21.0
 40
21.0
 40
21.0
 40
22.0
 40
22.0
 40
22.0
 40
23.0
 40
23.0
 40
23.0
 40
24.0
 40
24.0
 40
24.0
 40
25.0
 40
25.0
 40
25.0
 40
26.0
 40
26.0
 40
26.0
 40
26.0
 10
52.10224608072444
 20
-103.6594780556824
 30
0.0
 10
52.10224608072444
 20
-103.6594780556824
 30
0.0
 10
52.01697996746451
 20
-103.6594780556824
 30
0.0
 10
52.01697996746451
 20
-103.6594780556824
 30
0.0
 10
52.01697996746451
 20
-103.6594780556824
 30
0.0
 10
52.01697996746451
 20
-103.9068359115233
 30
0.0
 10
52.01697996746451
 20
-103.9068359115233
 30
0.0
 10
52.01697996746451
 20
-103.9068359115233
 30
0.0
 10
52.08915471788049
 20
-103.9068359115233
 30
0.0
 10
52.08915471788049
 20
-103.9068359115233
 30
0.0
 10
52.14668781248417
 20
-103.9068359115233
 30
0.0
 10
52.26881644743627
 20
-103.902701796941
 30
0.0
 10
52.35580510843883
 20
-103.8940890582279
 30
0.0
 10
52.35580510843883
 20
-103.8940890582279
 30
0.0
 10
52.35580510843883
 20
-104.0739230425579
 30
0.0
 10
52.35580510843883
 20
-104.0739230425579
 30
0.0
 10
52.27432860021267
 20
-104.0656548133933
 30
0.0
 10
52.14289820745039
 20
-104.0611761892625
 30
0.0
 10
52.08915471788049
 20
-104.0611761892625
 30
0.0
 10
52.08915471788049
 20
-104.0611761892625
 30
0.0
 10
51.82250432732216
 20
-104.0611761892625
 30
0.0
 10
51.82250432732216
 20
-104.0611761892625
 30
0.0
 10
51.77634004781981
 20
-104.0611761892625
 30
0.0
 10
51.64852700531704
 20
-104.0656548133933
 30
0.0
 10
51.55585393676382
 20
-104.0739230425579
 30
0.0
 10
51.55585393676382
 20
-104.0739230425579
 30
0.0
 10
51.55585393676382
 20
-103.8940890582279
 30
0.0
 10
51.55585393676382
 20
-103.8940890582279
 30
0.0
 10
51.64301485254064
 20
-103.902701796941
 30
0.0
 10
51.76514348749274
 20
-103.9068359115233
 30
0.0
 10
51.82250432732216
 20
-103.9068359115233
 30
0.0
 10
51.82250432732216
 20
-103.9068359115233
 30
0.0
 10
51.86143390630548
 20
-103.9068359115233
 30
0.0
 10
51.86143390630548
 20
-103.9068359115233
 30
0.0
 10
51.86143390630548
 20
-103.9068359115233
 30
0.0
 10
51.86143390630548
 20
-103.6594780556824
 30
0.0
 10
51.86143390630548
 20
-103.6594780556824
 30
0.0
 10
51.86143390630548
 20
-103.6594780556824
 30
0.0
 10
51.79666611118278
 20
-103.6594780556824
 30
0.0
 10
51.79666611118278
 20
-103.6594780556824
 30
0.0
 10
51.74292262161288
 20
-103.6594780556824
 30
0.0
 10
51.59667831826403
 20
-103.6636121702647
 30
0.0
 10
51.49108614164112
 20
-103.6718803994293
 30
0.0
 10
51.49108614164112
 20
-103.6718803994293
 30
0.0
 10
51.49108614164112
 20
-103.4944579819389
 30
0.0
 10
51.49108614164112
 20
-103.4944579819389
 30
0.0
 10
51.59116616548763
 20
-103.5006591538123
 30
0.0
 10
51.7300035135432
 20
-103.5047932683946
 30
0.0
 10
51.79666611118278
 20
-103.5047932683946
 30
0.0
 10
51.79666611118278
 20
-103.5047932683946
 30
0.0
 10
51.85953910378859
 20
-103.5047932683946
 30
0.0
 10
51.85953910378859
 20
-103.5047932683946
 30
0.0
 10
51.85592175352907
 20
-103.3525200479466
 30
0.0
 10
51.85402695101219
 20
-103.3187581121911
 30
0.0
 10
51.84851479823579
 20
-103.2257405340894
 30
0.0
 10
51.84851479823579
 20
-103.2257405340894
 30
0.0
 10
52.03368868056797
 20
-103.2488226738406
 30
0.0
 10
52.03368868056797
 20
-103.2488226738406
 30
0.0
 10
52.05590954644783
 20
-103.2508897311317
 30
0.0
 10
52.0762356098108
 20
-103.2553683552625
 30
0.0
 10
52.0762356098108
 20
-103.2784504950137
 30
0.0
 10
52.0762356098108
 20
-103.310145373478
 30
0.0
 10
52.03730603082748
 20
-103.3270263413557
 30
0.0
 10
52.01697996746451
 20
-103.3356390800689
 30
0.0
 10
52.01697996746451
 20
-103.3356390800689
 30
0.0
 10
52.01697996746451
 20
-103.5047932683946
 30
0.0
 10
52.01697996746451
 20
-103.5047932683946
 30
0.0
 10
52.01697996746451
 20
-103.5047932683946
 30
0.0
 10
52.10224608072444
 20
-103.5047932683946
 30
0.0
 10
52.10224608072444
 20
-103.5047932683946
 30
0.0
 10
52.16890867836403
 20
-103.5047932683946
 30
0.0
 10
52.30774602641959
 20
-103.5006591538123
 30
0.0
 10
52.40954859800873
 20
-103.4944579819389
 30
0.0
 10
52.40954859800873
 20
-103.4944579819389
 30
0.0
 10
52.40954859800873
 20
-103.6718803994293
 30
0.0
 10
52.40954859800873
 20
-103.6718803994293
 30
0.0
 10
52.31515298171288
 20
-103.6656792275558
 30
0.0
 10
52.16322427081337
 20
-103.6594780556824
 30
0.0
 10
52.10224608072444
 20
-103.6594780556824
 30
0.0
  0
SPLINE
  5
5C
330
4B
100
AcDbEntity
  8
_U+30EC_U+30A4_U+30E4_U+30FC 1
370
     0
100
AcDbSpline
210
0.0
220
0.0
230
1.0
 70
    11
 71
     3
 72
    17
 73
    13
 74
     0
 42
0.0000000001
 43
0.0000000001
 12
1.0
 22
0.0
 32
0.0
 13
1.0
 23
0.0
 33
0.0
 40
0.0
 40
0.0
 40
0.0
 40
0.0
 40
1.0
 40
1.0
 40
1.0
 40
2.0
 40
2.0
 40
2.0
 40
3.0
 40
3.0
 40
3.0
 40
4.0
 40
4.0
 40
4.0
 40
4.0
 10
51.88744437721911
 20
-104.4570176605177
 30
0.0
 10
51.88744437721911
 20
-104.4570176605177
 30
0.0
 10
51.70967745018022
 20
-104.4570176605177
 30
0.0
 10
51.70967745018022
 20
-104.4570176605177
 30
0.0
 10
51.73362086380271
 20
-104.5159287933155
 30
0.0
 10
51.78185220059621
 20
-104.5879312889572
 30
0.0
 10
51.80596786899296
 20
-104.6175591101303
 30
0.0
 10
51.82991128261544
 20
-104.6027451995438
 30
0.0
 10
51.92999130646195
 20
-104.5393554426152
 30
0.0
 10
52.00957301217122
 20
-104.4570176605177
 30
0.0
 10
52.00957301217122
 20
-104.4570176605177
 30
0.0
 10
51.88744437721911
 20
-104.4570176605177
 30
0.0
 10
51.88744437721911
 20
-104.4570176605177
 30
0.0
  0
HATCH
  5
5D
330
4B
100
AcDbEntity
  8
_U+30EC_U+30A4_U+30E4_U+30FC 1
 62
   179
420
  2234388
100
AcDbHatch
 10
0.0
 20
0.0
 30
0.0
210
0.0
220
0.0
230
1.0
  2
SOLID
 70
     1
 71
     0
 91
        6
 92
        1
 93
        1
 72
     4
 94
        3
 73
     0
 74
     1
 95
      113
 96
      109
 40
0.0
 40
0.0
 40
0.0
 40
0.0
 40
1.0
 40
1.0
 40
1.0
 40
2.0
 40
2.0
 40
2.0
 40
3.0
 40
3.0
 40
3.0
 40
4.0
 40
4.0
 40
4.0
 40
5.0
 40
5.0
 40
5.0
 40
6.0
 40
6.0
 40
6.0
 40
7.0
 40
7.0
 40
7.0
 40
8.0
 40
8.0
 40
8.0
 40
9.0
 40
9.0
 40
9.0
 40
10.0
 40
10.0
 40
10.0
 40
11.0
 40
11.0
 40
11.0
 40
12.0
 40
12.0
 40
12.0
 40
13.0
 40
13.0
 40
13.0
 40
14.0
 40
14.0
 40
14.0
 40
15.0
 40
15.0
 40
15.0
 40
16.0
 40
16.0
 40
16.0
 40
17.0
 40
17.0
 40
17.0
 40
18.0
 40
18.0
 40
18.0
 40
19.0
 40
19.0
 40
19.0
 40
20.0
 40
20.0
 40
20.0
 40
21.0
 40
21.0
 40
21.0
 40
22.0
 40
22.0
 40
22.0
 40
23.0
 40
23.0
 40
23.0
 40
24.0
 40
24.0
 40
24.0
 40
25.0
 40
25.0
 40
25.0
 40
26.0
 40
26.0
 40
26.0
 40
27.0
 40
27.0
 40
27.0
 40
28.0
 40
28.0
 40
28.0
 40
29.0
 40
29.0
 40
29.0
 40
30.0
 40
30.0
 40
30.0
 40
31.0
 40
31.0
 40
31.0
 40
32.0
 40
32.0
 40
32.0
 40
33.0
 40
33.0
 40
33.0
 40
34.0
 40
34.0
 40
34.0
 40
35.0
 40
35.0
 40
35.0
 40
36.0
 40
36.0
 40
36.0
 40
36.0
 10
52.06882865451752
 20
-104.4590847178088
 10
52.06882865451752
 20
-104.4590847178088
 10
52.15581731552007
 20
-104.558303467784
 10
52.15581731552007
 20
-104.558303467784
 10
52.16511907333025
 20
-104.5689832637883
 10
52.17442083114042
 20
-104.5817301170837
 10
52.17442083114042
 20
-104.5965440276703
 10
52.17442083114042
 20
-104.5986110849615
 10
52.17442083114042
 20
-104.6282389061346
 10
52.1410034049335
 20
-104.6282389061346
 10
52.13359644964022
 20
-104.6282389061346
 10
52.09845647569067
 20
-104.6241047915523
 10
52.09294432291426
 20
-104.6241047915523
 10
52.05780434896472
 20
-104.6557996700166
 10
52.01697996746451
 20
-104.6895616057721
 10
51.92999130646195
 20
-104.7467501908272
 10
52.05780434896472
 20
-104.8545816795155
 10
52.19664169702028
 20
-104.9117702645707
 10
52.43555906892237
 20
-104.9496663149084
 10
52.43555906892237
 20
-104.9496663149084
 10
52.30395642138582
 20
-105.1253661846562
 10
52.30395642138582
 20
-105.1253661846562
 10
52.07434080729391
 20
-105.0533636890144
 10
51.93739826175523
 20
-104.964480225495
 10
51.87073566411565
 20
-104.9117702645707
 10
51.73930527135337
 20
-104.8101399477558
 10
51.61338703136749
 20
-104.6471869313035
 10
51.5467244337279
 20
-104.48216685756
 10
51.48746879138161
 20
-104.5479681813283
 10
51.42252874148465
 20
-104.6006781422526
 10
51.35414359610244
 20
-104.6492539885946
 10
51.35414359610244
 20
-104.6492539885946
 10
51.35414359610244
 20
-104.9010904685664
 10
51.35414359610244
 20
-104.9010904685664
 10
51.49659829441752
 20
-104.8755967619755
 10
51.65955131086984
 20
-104.8311550302158
 10
51.71518960295662
 20
-104.8163411196293
 10
51.71518960295662
 20
-104.8163411196293
 10
51.68917913204299
 20
-104.9858398175035
 10
51.68917913204299
 20
-104.9858398175035
 10
51.68745658430036
 20
-104.9858398175035
 10
51.6707478711969
 20
-104.992040989377
 10
51.66885306868001
 20
-104.992040989377
 10
51.49487574667489
 20
-105.0302815492633
 10
51.2170287957895
 20
-105.095738363483
 10
51.044774021527
 20
-105.1315673565296
 10
51.03564451849109
 20
-105.1487928339559
 10
51.01514620035385
 20
-105.1804877124202
 10
50.99482013699088
 20
-105.1804877124202
 10
50.97070446859413
 20
-105.1804877124202
 10
50.96708711833462
 20
-105.1611951777028
 10
50.96519231581773
 20
-105.1422471525339
 10
50.96519231581773
 20
-105.1422471525339
 10
50.94297144993787
 20
-104.9689588496258
 10
50.94297144993787
 20
-104.9689588496258
 10
51.00773924506057
 20
-104.9603461109127
 10
51.10230711613067
 20
-104.9475992576173
 10
51.19670273242652
 20
-104.9265841751572
 10
51.19670273242652
 20
-104.9265841751572
 10
51.19670273242652
 20
-104.7488172481184
 10
51.19670273242652
 20
-104.7488172481184
 10
51.07078449244064
 20
-104.8208197437601
 10
50.98741318169759
 20
-104.8504475649332
 10
50.84306368086563
 20
-104.8800753861064
 10
50.84306368086563
 20
-104.8800753861064
 10
50.73747150424272
 20
-104.7105766882321
 10
50.73747150424272
 20
-104.7105766882321
 10
51.01514620035385
 20
-104.6833604338986
 10
51.18378362435683
 20
-104.5899983462483
 10
51.33932968551586
 20
-104.4570176605177
 10
51.2115166430131
 20
-104.4570176605177
 10
50.94848360271427
 20
-104.4611517751
 10
50.77640108322604
 20
-104.4673529469734
 10
50.77640108322604
 20
-104.4673529469734
 10
50.77640108322604
 20
-104.2895860199345
 10
50.77640108322604
 20
-104.2895860199345
 10
50.91144882624783
 20
-104.2961317013565
 10
51.17069226151288
 20
-104.30233287323
 10
51.33192273022258
 20
-104.30233287323
 10
51.33192273022258
 20
-104.30233287323
 10
51.51709661255476
 20
-104.30233287323
 10
51.51709661255476
 20
-104.30233287323
 10
51.51709661255476
 20
-104.2072482378371
 10
51.51520181003787
 20
-104.1566053342039
 10
51.50968965726147
 20
-104.110096545153
 10
51.50968965726147
 20
-104.110096545153
 10
51.69848088985316
 20
-104.1269775130308
 10
51.69848088985316
 20
-104.1269775130308
 10
51.741027819096
 20
-104.1311116276131
 10
51.74843477438928
 20
-104.1459255381996
 10
51.74843477438928
 20
-104.1607394487862
 10
51.74843477438928
 20
-104.1862331553771
 10
51.73362086380271
 20
-104.1945013845417
 10
51.68917913204299
 20
-104.2199950911325
 10
51.68745658430036
 20
-104.2451442881748
 10
51.68745658430036
 20
-104.2516899695968
 10
51.68556178178347
 20
-104.30233287323
 10
51.68556178178347
 20
-104.30233287323
 10
51.88744437721911
 20
-104.30233287323
 10
51.88744437721911
 20
-104.30233287323
 10
52.03179387805108
 20
-104.30233287323
 10
52.28741996305662
 20
-104.2961317013565
 10
52.44468857195827
 20
-104.2895860199345
 10
52.44468857195827
 20
-104.2895860199345
 10
52.44468857195827
 20
-104.4673529469734
 10
52.44468857195827
 20
-104.4673529469734
 10
52.33186169481634
 20
-104.4632188323911
 10
52.3113633766791
 20
-104.4632188323911
 10
52.06882865451752
 20
-104.4590847178088
 97
        0
 97
        0
 92
        1
 93
        1
 72
     4
 94
        3
 73
     0
 74
     1
 95
       23
 96
       19
 40
0.0
 40
0.0
 40
0.0
 40
0.0
 40
1.0
 40
1.0
 40
1.0
 40
2.0
 40
2.0
 40
2.0
 40
3.0
 40
3.0
 40
3.0
 40
4.0
 40
4.0
 40
4.0
 40
5.0
 40
5.0
 40
5.0
 40
6.0
 40
6.0
 40
6.0
 40
6.0
 10
50.94486625245476
 20
-104.1076849783134
 10
50.93005234186818
 20
-104.1479925954908
 10
50.92454018909179
 20
-104.1648735633685
 10
50.90593667347144
 20
-104.1648735633685
 10
50.89301756540175
 20
-104.1648735633685
 10
50.88371580759157
 20
-104.1479925954908
 10
50.87820365481517
 20
-104.1352457421954
 10
50.87820365481517
 20
-104.1352457421954
 10
50.79121499381262
 20
-103.9702256684519
 10
50.79121499381262
 20
-103.9702256684519
 10
50.88009845733206
 20
-103.9385307899876
 10
51.01152885009434
 20
-103.8834092622236
 10
51.18550617209946
 20
-103.7208007553198
 10
51.18550617209946
 20
-103.7208007553198
 10
51.23563231140984
 20
-103.8940890582279
 10
51.23563231140984
 20
-103.8940890582279
 10
51.15415580318368
 20
-103.9767713498739
 10
51.07629664521704
 20
-104.0336154253805
 10
50.94486625245476
 20
-104.1076849783134
 97
        0
 97
        0
 92
        1
 93
        1
 72
     4
 94
        3
 73
     0
 74
     1
 95
       17
 96
       13
 40
0.0
 40
0.0
 40
0.0
 40
0.0
 40
1.0
 40
1.0
 40
1.0
 40
2.0
 40
2.0
 40
2.0
 40
3.0
 40
3.0
 40
3.0
 40
4.0
 40
4.0
 40
4.0
 40
4.0
 10
51.07819144773393
 20
-103.6422525782561
 10
51.05218097682029
 20
-103.6022894706272
 10
50.99292533447399
 20
-103.5047932683946
 10
50.83376192305545
 20
-103.3948947224152
 10
50.83376192305545
 20
-103.3948947224152
 10
50.94486625245476
 20
-103.261569527136
 10
50.94486625245476
 20
-103.261569527136
 10
51.10781926890707
 20
-103.3631998439509
 10
51.15777315344319
 20
-103.4520833074703
 10
51.18188882183995
 20
-103.4944579819389
 10
51.18188882183995
 20
-103.4944579819389
 10
51.07819144773393
 20
-103.6422525782561
 10
51.07819144773393
 20
-103.6422525782561
 97
        0
 97
        0
 92
        1
 93
        1
 72
     4
 94
        3
 73
     0
 74
     1
 95
       38
 96
       34
 40
0.0
 40
0.0
 40
0.0
 40
0.0
 40
1.0
 40
1.0
 40
1.0
 40
2.0
 40
2.0
 40
2.0
 40
3.0
 40
3.0
 40
3.0
 40
4.0
 40
4.0
 40
4.0
 40
5.0
 40
5.0
 40
5.0
 40
6.0
 40
6.0
 40
6.0
 40
7.0
 40
7.0
 40
7.0
 40
8.0
 40
8.0
 40
8.0
 40
9.0
 40
9.0
 40
9.0
 40
10.0
 40
10.0
 40
10.0
 40
11.0
 40
11.0
 40
11.0
 40
11.0
 10
51.40030787560479
 20
-103.33770613736
 10
51.39858532786216
 20
-103.3842149264109
 10
51.39669052534527
 20
-103.5006591538123
 10
51.39669052534527
 20
-103.5451008855721
 10
51.39669052534527
 20
-103.5451008855721
 10
51.39669052534527
 20
-103.8920220009367
 10
51.39669052534527
 20
-103.8920220009367
 10
51.39669052534527
 20
-103.978838407165
 10
51.39858532786216
 20
-104.1204318316088
 10
51.40771483089807
 20
-104.2410101735925
 10
51.40771483089807
 20
-104.2410101735925
 10
51.24114446418624
 20
-104.2410101735925
 10
51.24114446418624
 20
-104.2410101735925
 10
51.24476181444576
 20
-104.1776204166639
 10
51.24855141947953
 20
-104.1245659461911
 10
51.25044622199642
 20
-104.0697889279756
 10
51.25216876973904
 20
-103.9471435287007
 10
51.25406357225593
 20
-103.9323296181141
 10
51.25406357225593
 20
-103.8878878863544
 10
51.25406357225593
 20
-103.8878878863544
 10
51.25406357225593
 20
-103.5661159680321
 10
51.25406357225593
 20
-103.5661159680321
 10
51.25406357225593
 20
-103.5113389498166
 10
51.24303926670313
 20
-103.2722493231403
 10
51.24114446418624
 20
-103.2212619099586
 10
51.24114446418624
 20
-103.2212619099586
 10
51.41701658870825
 20
-103.2488226738406
 10
51.41701658870825
 20
-103.2488226738406
 10
51.4356201043286
 20
-103.2508897311317
 10
51.46335312298486
 20
-103.2553683552625
 10
51.46335312298486
 20
-103.2805175523049
 10
51.46335312298486
 20
-103.3080783161869
 10
51.41891139122514
 20
-103.3294379081954
 10
51.40030787560479
 20
-103.33770613736
 97
        0
 97
        0
 92
        1
 93
        1
 72
     4
 94
        3
 73
     0
 74
     1
 95
       83
 96
       79
 40
0.0
 40
0.0
 40
0.0
 40
0.0
 40
1.0
 40
1.0
 40
1.0
 40
2.0
 40
2.0
 40
2.0
 40
3.0
 40
3.0
 40
3.0
 40
4.0
 40
4.0
 40
4.0
 40
5.0
 40
5.0
 40
5.0
 40
6.0
 40
6.0
 40
6.0
 40
7.0
 40
7.0
 40
7.0
 40
8.0
 40
8.0
 40
8.0
 40
9.0
 40
9.0
 40
9.0
 40
10.0
 40
10.0
 40
10.0
 40
11.0
 40
11.0
 40
11.0
 40
12.0
 40
12.0
 40
12.0
 40
13.0
 40
13.0
 40
13.0
 40
14.0
 40
14.0
 40
14.0
 40
15.0
 40
15.0
 40
15.0
 40
16.0
 40
16.0
 40
16.0
 40
17.0
 40
17.0
 40
17.0
 40
18.0
 40
18.0
 40
18.0
 40
19.0
 40
19.0
 40
19.0
 40
20.0
 40
20.0
 40
20.0
 40
21.0
 40
21.0
 40
21.0
 40
22.0
 40
22.0
 40
22.0
 40
23.0
 40
23.0
 40
23.0
 40
24.0
 40
24.0
 40
24.0
 40
25.0
 40
25.0
 40
25.0
 40
26.0
 40
26.0
 40
26.0
 40
26.0
 10
52.10224608072444
 20
-103.6594780556824
 10
52.10224608072444
 20
-103.6594780556824
 10
52.01697996746451
 20
-103.6594780556824
 10
52.01697996746451
 20
-103.6594780556824
 10
52.01697996746451
 20
-103.6594780556824
 10
52.01697996746451
 20
-103.9068359115233
 10
52.01697996746451
 20
-103.9068359115233
 10
52.01697996746451
 20
-103.9068359115233
 10
52.08915471788049
 20
-103.9068359115233
 10
52.08915471788049
 20
-103.9068359115233
 10
52.14668781248417
 20
-103.9068359115233
 10
52.26881644743627
 20
-103.902701796941
 10
52.35580510843883
 20
-103.8940890582279
 10
52.35580510843883
 20
-103.8940890582279
 10
52.35580510843883
 20
-104.0739230425579
 10
52.35580510843883
 20
-104.0739230425579
 10
52.27432860021267
 20
-104.0656548133933
 10
52.14289820745039
 20
-104.0611761892625
 10
52.08915471788049
 20
-104.0611761892625
 10
52.08915471788049
 20
-104.0611761892625
 10
51.82250432732216
 20
-104.0611761892625
 10
51.82250432732216
 20
-104.0611761892625
 10
51.77634004781981
 20
-104.0611761892625
 10
51.64852700531704
 20
-104.0656548133933
 10
51.55585393676382
 20
-104.0739230425579
 10
51.55585393676382
 20
-104.0739230425579
 10
51.55585393676382
 20
-103.8940890582279
 10
51.55585393676382
 20
-103.8940890582279
 10
51.64301485254064
 20
-103.902701796941
 10
51.76514348749274
 20
-103.9068359115233
 10
51.82250432732216
 20
-103.9068359115233
 10
51.82250432732216
 20
-103.9068359115233
 10
51.86143390630548
 20
-103.9068359115233
 10
51.86143390630548
 20
-103.9068359115233
 10
51.86143390630548
 20
-103.9068359115233
 10
51.86143390630548
 20
-103.6594780556824
 10
51.86143390630548
 20
-103.6594780556824
 10
51.86143390630548
 20
-103.6594780556824
 10
51.79666611118278
 20
-103.6594780556824
 10
51.79666611118278
 20
-103.6594780556824
 10
51.74292262161288
 20
-103.6594780556824
 10
51.59667831826403
 20
-103.6636121702647
 10
51.49108614164112
 20
-103.6718803994293
 10
51.49108614164112
 20
-103.6718803994293
 10
51.49108614164112
 20
-103.4944579819389
 10
51.49108614164112
 20
-103.4944579819389
 10
51.59116616548763
 20
-103.5006591538123
 10
51.7300035135432
 20
-103.5047932683946
 10
51.79666611118278
 20
-103.5047932683946
 10
51.79666611118278
 20
-103.5047932683946
 10
51.85953910378859
 20
-103.5047932683946
 10
51.85953910378859
 20
-103.5047932683946
 10
51.85592175352907
 20
-103.3525200479466
 10
51.85402695101219
 20
-103.3187581121911
 10
51.84851479823579
 20
-103.2257405340894
 10
51.84851479823579
 20
-103.2257405340894
 10
52.03368868056797
 20
-103.2488226738406
 10
52.03368868056797
 20
-103.2488226738406
 10
52.05590954644783
 20
-103.2508897311317
 10
52.0762356098108
 20
-103.2553683552625
 10
52.0762356098108
 20
-103.2784504950137
 10
52.0762356098108
 20
-103.310145373478
 10
52.03730603082748
 20
-103.3270263413557
 10
52.01697996746451
 20
-103.3356390800689
 10
52.01697996746451
 20
-103.3356390800689
 10
52.01697996746451
 20
-103.5047932683946
 10
52.01697996746451
 20
-103.5047932683946
 10
52.01697996746451
 20
-103.5047932683946
 10
52.10224608072444
 20
-103.5047932683946
 10
52.10224608072444
 20
-103.5047932683946
 10
52.16890867836403
 20
-103.5047932683946
 10
52.30774602641959
 20
-103.5006591538123
 10
52.40954859800873
 20
-103.4944579819389
 10
52.40954859800873
 20
-103.4944579819389
 10
52.40954859800873
 20
-103.6718803994293
 10
52.40954859800873
 20
-103.6718803994293
 10
52.31515298171288
 20
-103.6656792275558
 10
52.16322427081337
 20
-103.6594780556824
 10
52.10224608072444
 20
-103.6594780556824
 97
        0
 97
        0
 92
        1
 93
        1
 72
     4
 94
        3
 73
     0
 74
     1
 95
       17
 96
       13
 40
0.0
 40
0.0
 40
0.0
 40
0.0
 40
1.0
 40
1.0
 40
1.0
 40
2.0
 40
2.0
 40
2.0
 40
3.0
 40
3.0
 40
3.0
 40
4.0
 40
4.0
 40
4.0
 40
4.0
 10
51.88744437721911
 20
-104.4570176605177
 10
51.88744437721911
 20
-104.4570176605177
 10
51.70967745018022
 20
-104.4570176605177
 10
51.70967745018022
 20
-104.4570176605177
 10
51.73362086380271
 20
-104.5159287933155
 10
51.78185220059621
 20
-104.5879312889572
 10
51.80596786899296
 20
-104.6175591101303
 10
51.82991128261544
 20
-104.6027451995438
 10
51.92999130646195
 20
-104.5393554426152
 10
52.00957301217122
 20
-104.4570176605177
 10
52.00957301217122
 20
-104.4570176605177
 10
51.88744437721911
 20
-104.4570176605177
 10
51.88744437721911
 20
-104.4570176605177
 97
        0
 97
        0
 75
     2
 76
     1
 98
        0
  0
SPLINE
  5
5E
330
4B
100
AcDbEntity
  8
_U+30EC_U+30A4_U+30E4_U+30FC 1
370
     0
100
AcDbSpline
210
0.0
220
0.0
230
1.0
 70
    11
 71
     3
 72
    77
 73
    73
 74
     0
 42
0.0000000001
 43
0.0000000001
 12
1.0
 22
0.0
 32
0.0
 13
1.0
 23
0.0
 33
0.0
 40
0.0
 40
0.0
 40
0.0
 40
0.0
 40
1.0
 40
1.0
 40
1.0
 40
2.0
 40
2.0
 40
2.0
 40
3.0
 40
3.0
 40
3.0
 40
4.0
 40
4.0
 40
4.0
 40
5.0
 40
5.0
 40
5.0
 40
6.0
 40
6.0
 40
6.0
 40
7.0
 40
7.0
 40
7.0
 40
8.0
 40
8.0
 40
8.0
 40
9.0
 40
9.0
 40
9.0
 40
10.0
 40
10.0
 40
10.0
 40
11.0
 40
11.0
 40
11.0
 40
12.0
 40
12.0
 40
12.0
 40
13.0
 40
13.0
 40
13.0
 40
14.0
 40
14.0
 40
14.0
 40
15.0
 40
15.0
 40
15.0
 40
16.0
 40
16.0
 40
16.0
 40
17.0
 40
17.0
 40
17.0
 40
18.0
 40
18.0
 40
18.0
 40
19.0
 40
19.0
 40
19.0
 40
20.0
 40
20.0
 40
20.0
 40
21.0
 40
21.0
 40
21.0
 40
22.0
 40
22.0
 40
22.0
 40
23.0
 40
23.0
 40
23.0
 40
24.0
 40
24.0
 40
24.0
 40
24.0
 10
54.06905109325357
 20
-105.0871256247699
 30
0.0
 10
54.02839896652763
 20
-105.1126193313607
 30
0.0
 10
53.91918943964521
 20
-105.1253661846562
 30
0.0
 10
53.85063203948874
 20
-105.1253661846562
 30
0.0
 10
53.83943547916167
 20
-105.1253661846562
 30
0.0
 10
53.81721461328181
 20
-105.1253661846562
 30
0.0
 10
53.78758679210866
 20
-105.1212320700739
 30
0.0
 10
53.78758679210866
 20
-105.1212320700739
 30
0.0
 10
53.70249293362299
 20
-104.894889296693
 30
0.0
 10
53.70249293362299
 20
-104.894889296693
 30
0.0
 10
53.72833114976236
 20
-104.9010904685664
 30
0.0
 10
53.77845728907275
 20
-104.9097032072795
 30
0.0
 10
53.88025986066188
 20
-104.9097032072795
 30
0.0
 10
53.94881726081835
 20
-104.9097032072795
 30
0.0
 10
53.95053980856098
 20
-104.8673285328109
 30
0.0
 10
53.95053980856098
 20
-104.8101399477558
 30
0.0
 10
53.95053980856098
 20
-104.8101399477558
 30
0.0
 10
53.95053980856098
 20
-104.4611517751
 30
0.0
 10
53.95053980856098
 20
-104.4611517751
 30
0.0
 10
53.95053980856098
 20
-104.4611517751
 30
0.0
 10
53.54884167498085
 20
-104.4611517751
 30
0.0
 10
53.54884167498085
 20
-104.4611517751
 30
0.0
 10
53.55056422272347
 20
-104.5986110849615
 30
0.0
 10
53.55245902524036
 20
-104.7973930944604
 30
0.0
 10
53.55797117801676
 20
-104.9307182897395
 30
0.0
 10
53.55986598053364
 20
-104.9582790536216
 30
0.0
 10
53.55986598053364
 20
-105.0027207853813
 30
0.0
 10
53.57106254086071
 20
-105.0640434850187
 30
0.0
 10
53.57106254086071
 20
-105.0640434850187
 30
0.0
 10
53.3598781876149
 20
-105.0640434850187
 30
0.0
 10
53.3598781876149
 20
-105.0640434850187
 30
0.0
 10
53.38209905349476
 20
-104.9393310284527
 30
0.0
 10
53.38209905349476
 20
-104.5986110849615
 30
0.0
 10
53.38209905349476
 20
-104.4611517751
 30
0.0
 10
53.38209905349476
 20
-104.4611517751
 30
0.0
 10
52.99504257572693
 20
-104.4611517751
 30
0.0
 10
52.99504257572693
 20
-104.4611517751
 30
0.0
 10
52.97471651236396
 20
-104.668546523312
 30
0.0
 10
52.91735567253455
 20
-104.936919461613
 30
0.0
 10
52.74510089827206
 20
-105.1212320700739
 30
0.0
 10
52.74510089827206
 20
-105.1212320700739
 30
0.0
 10
52.58025307930286
 20
-104.998586670799
 30
0.0
 10
52.58025307930286
 20
-104.998586670799
 30
0.0
 10
52.80246173810147
 20
-104.7784450692915
 30
0.0
 10
52.830367011532
 20
-104.4463378645134
 30
0.0
 10
52.830367011532
 20
-104.1142306597353
 30
0.0
 10
52.830367011532
 20
-104.1142306597353
 30
0.0
 10
52.830367011532
 20
-103.6784260808512
 30
0.0
 10
52.830367011532
 20
-103.6784260808512
 30
0.0
 10
52.830367011532
 20
-103.6422525782561
 30
0.0
 10
52.8284722090151
 20
-103.4097086330017
 30
0.0
 10
52.82106525372182
 20
-103.3080783161869
 30
0.0
 10
52.94319388867392
 20
-103.3187581121911
 30
0.0
 10
53.15437824191974
 20
-103.3187581121911
 30
0.0
 10
53.28029648190562
 20
-103.3187581121911
 30
0.0
 10
53.28029648190562
 20
-103.3187581121911
 30
0.0
 10
53.68216687026002
 20
-103.3187581121911
 30
0.0
 10
53.68216687026002
 20
-103.3187581121911
 30
0.0
 10
53.6950859783297
 20
-103.3187581121911
 30
0.0
 10
54.00066594787136
 20
-103.3187581121911
 30
0.0
 10
54.13950329592693
 20
-103.3080783161869
 30
0.0
 10
54.13760849341004
 20
-103.3611327866597
 30
0.0
 10
54.13209634063364
 20
-103.5216742362724
 30
0.0
 10
54.13209634063364
 20
-103.5726616494541
 30
0.0
 10
54.13209634063364
 20
-103.5726616494541
 30
0.0
 10
54.13209634063364
 20
-104.1796874739551
 30
0.0
 10
54.13209634063364
 20
-104.1796874739551
 30
0.0
 10
54.13209634063364
 20
-104.198635499124
 30
0.0
 10
54.14139809844382
 20
-104.7698323305784
 30
0.0
 10
54.14139809844382
 20
-104.8821424433975
 30
0.0
 10
54.14139809844382
 20
-104.9393310284527
 30
0.0
 10
54.14139809844382
 20
-105.040616835719
 30
0.0
 10
54.06905109325357
 20
-105.0871256247699
 30
0.0
  0
POLYLINE
  5
5F
330
4B
100
AcDbEntity
  8
_U+30EC_U+30A4_U+30E4_U+30FC 1
370
     0
100
AcDb2dPolyline
 66
     1
 10
0.0
 20
0.0
 30
0.0
  0
VERTEX
  5
60
330
5F
100
AcDbEntity
  8
_U+30EC_U+30A4_U+30E4_U+30FC 1
370
     0
100
AcDbVertex
100
AcDb2dVertex
 10
53.38209905349476
 20
-103.5006591538123
 30
0.0
  0
VERTEX
  5
61
330
5F
100
AcDbEntity
  8
_U+30EC_U+30A4_U+30E4_U+30FC 1
370
     0
100
AcDbVertex
100
AcDb2dVertex
 10
52.99883218076071
 20
-103.5006591538123
 30
0.0
  0
VERTEX
  5
62
330
5F
100
AcDbEntity
  8
_U+30EC_U+30A4_U+30E4_U+30FC 1
370
     0
100
AcDbVertex
100
AcDb2dVertex
 10
52.99883218076071
 20
-103.8052055947084
 30
0.0
  0
VERTEX
  5
63
330
5F
100
AcDbEntity
  8
_U+30EC_U+30A4_U+30E4_U+30FC 1
370
     0
100
AcDbVertex
100
AcDb2dVertex
 10
53.38209905349476
 20
-103.8052055947084
 30
0.0
  0
VERTEX
  5
64
330
5F
100
AcDbEntity
  8
_U+30EC_U+30A4_U+30E4_U+30FC 1
370
     0
100
AcDbVertex
100
AcDb2dVertex
 10
53.38209905349476
 20
-103.5006591538123
 30
0.0
  0
SEQEND
  5
65
330
5F
100
AcDbEntity
  8
_U+30EC_U+30A4_U+30E4_U+30FC 1
370
     0
  0
POLYLINE
  5
66
330
4B
100
AcDbEntity
  8
_U+30EC_U+30A4_U+30E4_U+30FC 1
370
     0
100
AcDb2dPolyline
 66
     1
 10
0.0
 20
0.0
 30
0.0
  0
VERTEX
  5
67
330
66
100
AcDbEntity
  8
_U+30EC_U+30A4_U+30E4_U+30FC 1
370
     0
100
AcDbVertex
100
AcDb2dVertex
 10
53.38209905349476
 20
-103.972292725743
 30
0.0
  0
VERTEX
  5
68
330
66
100
AcDbEntity
  8
_U+30EC_U+30A4_U+30E4_U+30FC 1
370
     0
100
AcDbVertex
100
AcDb2dVertex
 10
52.99883218076071
 20
-103.972292725743
 30
0.0
  0
VERTEX
  5
69
330
66
100
AcDbEntity
  8
_U+30EC_U+30A4_U+30E4_U+30FC 1
370
     0
100
AcDbVertex
100
AcDb2dVertex
 10
52.99883218076071
 20
-104.2813177907699
 30
0.0
  0
VERTEX
  5
6A
330
66
100
AcDbEntity
  8
_U+30EC_U+30A4_U+30E4_U+30FC 1
370
     0
100
AcDbVertex
100
AcDb2dVertex
 10
53.38209905349476
 20
-104.2813177907699
 30
0.0
  0
VERTEX
  5
6B
330
66
100
AcDbEntity
  8
_U+30EC_U+30A4_U+30E4_U+30FC 1
370
     0
100
AcDbVertex
100
AcDb2dVertex
 10
53.38209905349476
 20
-103.972292725743
 30
0.0
  0
SEQEND
  5
6C
330
66
100
AcDbEntity
  8
_U+30EC_U+30A4_U+30E4_U+30FC 1
370
     0
  0
POLYLINE
  5
6D
330
4B
100
AcDbEntity
  8
_U+30EC_U+30A4_U+30E4_U+30FC 1
370
     0
100
AcDb2dPolyline
 66
     1
 10
0.0
 20
0.0
 30
0.0
  0
VERTEX
  5
6E
330
6D
100
AcDbEntity
  8
_U+30EC_U+30A4_U+30E4_U+30FC 1
370
     0
100
AcDbVertex
100
AcDb2dVertex
 10
53.95053980856098
 20
-103.5006591538123
 30
0.0
  0
VERTEX
  5
6F
330
6D
100
AcDbEntity
  8
_U+30EC_U+30A4_U+30E4_U+30FC 1
370
     0
100
AcDbVertex
100
AcDb2dVertex
 10
53.54884167498085
 20
-103.5006591538123
 30
0.0
  0
VERTEX
  5
70
330
6D
100
AcDbEntity
  8
_U+30EC_U+30A4_U+30E4_U+30FC 1
370
     0
100
AcDbVertex
100
AcDb2dVertex
 10
53.54884167498085
 20
-103.8052055947084
 30
0.0
  0
VERTEX
  5
71
330
6D
100
AcDbEntity
  8
_U+30EC_U+30A4_U+30E4_U+30FC 1
370
     0
100
AcDbVertex
100
AcDb2dVertex
 10
53.95053980856098
 20
-103.8052055947084
 30
0.0
  0
VERTEX
  5
72
330
6D
100
AcDbEntity
  8
_U+30EC_U+30A4_U+30E4_U+30FC 1
370
     0
100
AcDbVertex
100
AcDb2dVertex
 10
53.95053980856098
 20
-103.5006591538123
 30
0.0
  0
SEQEND
  5
73
330
6D
100
AcDbEntity
  8
_U+30EC_U+30A4_U+30E4_U+30FC 1
370
     0
  0
POLYLINE
  5
74
330
4B
100
AcDbEntity
  8
_U+30EC_U+30A4_U+30E4_U+30FC 1
370
     0
100
AcDb2dPolyline
 66
     1
 10
0.0
 20
0.0
 30
0.0
  0
VERTEX
  5
75
330
74
100
AcDbEntity
  8
_U+30EC_U+30A4_U+30E4_U+30FC 1
370
     0
100
AcDbVertex
100
AcDb2dVertex
 10
53.95053980856098
 20
-103.972292725743
 30
0.0
  0
VERTEX
  5
76
330
74
100
AcDbEntity
  8
_U+30EC_U+30A4_U+30E4_U+30FC 1
370
     0
100
AcDbVertex
100
AcDb2dVertex
 10
53.54884167498085
 20
-103.972292725743
 30
0.0
  0
VERTEX
  5
77
330
74
100
AcDbEntity
  8
_U+30EC_U+30A4_U+30E4_U+30FC 1
370
     0
100
AcDbVertex
100
AcDb2dVertex
 10
53.54884167498085
 20
-104.2813177907699
 30
0.0
  0
VERTEX
  5
78
330
74
100
AcDbEntity
  8
_U+30EC_U+30A4_U+30E4_U+30FC 1
370
     0
100
AcDbVertex
100
AcDb2dVertex
 10
53.95053980856098
 20
-104.2813177907699
 30
0.0
  0
VERTEX
  5
79
330
74
100
AcDbEntity
  8
_U+30EC_U+30A4_U+30E4_U+30FC 1
370
     0
100
AcDbVertex
100
AcDb2dVertex
 10
53.95053980856098
 20
-103.972292725743
 30
0.0
  0
SEQEND
  5
7A
330
74
100
AcDbEntity
  8
_U+30EC_U+30A4_U+30E4_U+30FC 1
370
     0
  0
HATCH
  5
7B
330
4B
100
AcDbEntity
  8
_U+30EC_U+30A4_U+30E4_U+30FC 1
 62
   179
420
  2234388
100
AcDbHatch
 10
0.0
 20
0.0
 30
0.0
210
0.0
220
0.0
230
1.0
  2
SOLID
 70
     1
 71
     0
 91
        5
 92
        1
 93
        1
 72
     4
 94
        3
 73
     0
 74
     1
 95
       77
 96
       73
 40
0.0
 40
0.0
 40
0.0
 40
0.0
 40
1.0
 40
1.0
 40
1.0
 40
2.0
 40
2.0
 40
2.0
 40
3.0
 40
3.0
 40
3.0
 40
4.0
 40
4.0
 40
4.0
 40
5.0
 40
5.0
 40
5.0
 40
6.0
 40
6.0
 40
6.0
 40
7.0
 40
7.0
 40
7.0
 40
8.0
 40
8.0
 40
8.0
 40
9.0
 40
9.0
 40
9.0
 40
10.0
 40
10.0
 40
10.0
 40
11.0
 40
11.0
 40
11.0
 40
12.0
 40
12.0
 40
12.0
 40
13.0
 40
13.0
 40
13.0
 40
14.0
 40
14.0
 40
14.0
 40
15.0
 40
15.0
 40
15.0
 40
16.0
 40
16.0
 40
16.0
 40
17.0
 40
17.0
 40
17.0
 40
18.0
 40
18.0
 40
18.0
 40
19.0
 40
19.0
 40
19.0
 40
20.0
 40
20.0
 40
20.0
 40
21.0
 40
21.0
 40
21.0
 40
22.0
 40
22.0
 40
22.0
 40
23.0
 40
23.0
 40
23.0
 40
24.0
 40
24.0
 40
24.0
 40
24.0
 10
54.06905109325357
 20
-105.0871256247699
 10
54.02839896652763
 20
-105.1126193313607
 10
53.91918943964521
 20
-105.1253661846562
 10
53.85063203948874
 20
-105.1253661846562
 10
53.83943547916167
 20
-105.1253661846562
 10
53.81721461328181
 20
-105.1253661846562
 10
53.78758679210866
 20
-105.1212320700739
 10
53.78758679210866
 20
-105.1212320700739
 10
53.70249293362299
 20
-104.894889296693
 10
53.70249293362299
 20
-104.894889296693
 10
53.72833114976236
 20
-104.9010904685664
 10
53.77845728907275
 20
-104.9097032072795
 10
53.88025986066188
 20
-104.9097032072795
 10
53.94881726081835
 20
-104.9097032072795
 10
53.95053980856098
 20
-104.8673285328109
 10
53.95053980856098
 20
-104.8101399477558
 10
53.95053980856098
 20
-104.8101399477558
 10
53.95053980856098
 20
-104.4611517751
 10
53.95053980856098
 20
-104.4611517751
 10
53.95053980856098
 20
-104.4611517751
 10
53.54884167498085
 20
-104.4611517751
 10
53.54884167498085
 20
-104.4611517751
 10
53.55056422272347
 20
-104.5986110849615
 10
53.55245902524036
 20
-104.7973930944604
 10
53.55797117801676
 20
-104.9307182897395
 10
53.55986598053364
 20
-104.9582790536216
 10
53.55986598053364
 20
-105.0027207853813
 10
53.57106254086071
 20
-105.0640434850187
 10
53.57106254086071
 20
-105.0640434850187
 10
53.3598781876149
 20
-105.0640434850187
 10
53.3598781876149
 20
-105.0640434850187
 10
53.38209905349476
 20
-104.9393310284527
 10
53.38209905349476
 20
-104.5986110849615
 10
53.38209905349476
 20
-104.4611517751
 10
53.38209905349476
 20
-104.4611517751
 10
52.99504257572693
 20
-104.4611517751
 10
52.99504257572693
 20
-104.4611517751
 10
52.97471651236396
 20
-104.668546523312
 10
52.91735567253455
 20
-104.936919461613
 10
52.74510089827206
 20
-105.1212320700739
 10
52.74510089827206
 20
-105.1212320700739
 10
52.58025307930286
 20
-104.998586670799
 10
52.58025307930286
 20
-104.998586670799
 10
52.80246173810147
 20
-104.7784450692915
 10
52.830367011532
 20
-104.4463378645134
 10
52.830367011532
 20
-104.1142306597353
 10
52.830367011532
 20
-104.1142306597353
 10
52.830367011532
 20
-103.6784260808512
 10
52.830367011532
 20
-103.6784260808512
 10
52.830367011532
 20
-103.6422525782561
 10
52.8284722090151
 20
-103.4097086330017
 10
52.82106525372182
 20
-103.3080783161869
 10
52.94319388867392
 20
-103.3187581121911
 10
53.15437824191974
 20
-103.3187581121911
 10
53.28029648190562
 20
-103.3187581121911
 10
53.28029648190562
 20
-103.3187581121911
 10
53.68216687026002
 20
-103.3187581121911
 10
53.68216687026002
 20
-103.3187581121911
 10
53.6950859783297
 20
-103.3187581121911
 10
54.00066594787136
 20
-103.3187581121911
 10
54.13950329592693
 20
-103.3080783161869
 10
54.13760849341004
 20
-103.3611327866597
 10
54.13209634063364
 20
-103.5216742362724
 10
54.13209634063364
 20
-103.5726616494541
 10
54.13209634063364
 20
-103.5726616494541
 10
54.13209634063364
 20
-104.1796874739551
 10
54.13209634063364
 20
-104.1796874739551
 10
54.13209634063364
 20
-104.198635499124
 10
54.14139809844382
 20
-104.7698323305784
 10
54.14139809844382
 20
-104.8821424433975
 10
54.14139809844382
 20
-104.9393310284527
 10
54.14139809844382
 20
-105.040616835719
 10
54.06905109325357
 20
-105.0871256247699
 97
        0
 97
        0
 92
        1
 93
        4
 72
     1
 10
53.38209905349476
 20
-103.5006591538123
 11
52.99883218076071
 21
-103.5006591538123
 72
     1
 10
52.99883218076071
 20
-103.5006591538123
 11
52.99883218076071
 21
-103.8052055947084
 72
     1
 10
52.99883218076071
 20
-103.8052055947084
 11
53.38209905349476
 21
-103.8052055947084
 72
     1
 10
53.38209905349476
 20
-103.8052055947084
 11
53.38209905349476
 21
-103.5006591538123
 97
        0
 92
        1
 93
        4
 72
     1
 10
53.38209905349476
 20
-103.972292725743
 11
52.99883218076071
 21
-103.972292725743
 72
     1
 10
52.99883218076071
 20
-103.972292725743
 11
52.99883218076071
 21
-104.2813177907699
 72
     1
 10
52.99883218076071
 20
-104.2813177907699
 11
53.38209905349476
 21
-104.2813177907699
 72
     1
 10
53.38209905349476
 20
-104.2813177907699
 11
53.38209905349476
 21
-103.972292725743
 97
        0
 92
        1
 93
        4
 72
     1
 10
53.95053980856098
 20
-103.5006591538123
 11
53.54884167498085
 21
-103.5006591538123
 72
     1
 10
53.54884167498085
 20
-103.5006591538123
 11
53.54884167498085
 21
-103.8052055947084
 72
     1
 10
53.54884167498085
 20
-103.8052055947084
 11
53.95053980856098
 21
-103.8052055947084
 72
     1
 10
53.95053980856098
 20
-103.8052055947084
 11
53.95053980856098
 21
-103.5006591538123
 97
        0
 92
        1
 93
        4
 72
     1
 10
53.95053980856098
 20
-103.972292725743
 11
53.54884167498085
 21
-103.972292725743
 72
     1
 10
53.54884167498085
 20
-103.972292725743
 11
53.54884167498085
 21
-104.2813177907699
 72
     1
 10
53.54884167498085
 20
-104.2813177907699
 11
53.95053980856098
 21
-104.2813177907699
 72
     1
 10
53.95053980856098
 20
-104.2813177907699
 11
53.95053980856098
 21
-103.972292725743
 97
        0
 75
     2
 76
     1
 98
        0
  0
SPLINE
  5
7C
330
4B
100
AcDbEntity
  8
_U+30EC_U+30A4_U+30E4_U+30FC 1
370
     0
100
AcDbSpline
210
0.0
220
0.0
230
1.0
 70
    11
 71
     3
 72
    44
 73
    40
 74
     0
 42
0.0000000001
 43
0.0000000001
 12
1.0
 22
0.0
 32
0.0
 13
1.0
 23
0.0
 33
0.0
 40
0.0
 40
0.0
 40
0.0
 40
0.0
 40
1.0
 40
1.0
 40
1.0
 40
2.0
 40
2.0
 40
2.0
 40
3.0
 40
3.0
 40
3.0
 40
4.0
 40
4.0
 40
4.0
 40
5.0
 40
5.0
 40
5.0
 40
6.0
 40
6.0
 40
6.0
 40
7.0
 40
7.0
 40
7.0
 40
8.0
 40
8.0
 40
8.0
 40
9.0
 40
9.0
 40
9.0
 40
10.0
 40
10.0
 40
10.0
 40
11.0
 40
11.0
 40
11.0
 40
12.0
 40
12.0
 40
12.0
 40
13.0
 40
13.0
 40
13.0
 40
13.0
 10
55.71373967791185
 20
-103.8369004731727
 30
0.0
 10
55.61555445658222
 20
-104.2051811805459
 30
0.0
 10
55.57111272482251
 20
-104.3636555728674
 30
0.0
 10
55.39903020533427
 20
-104.613424995548
 30
0.0
 10
55.23779973662458
 20
-104.8439018835113
 30
0.0
 10
55.03040498841254
 20
-105.0302815492633
 30
0.0
 10
54.78597546373406
 20
-105.123299127365
 30
0.0
 10
54.78597546373406
 20
-105.123299127365
 30
0.0
 10
54.61751029450534
 20
-104.943465143035
 30
0.0
 10
54.61751029450534
 20
-104.943465143035
 30
0.0
 10
55.17854409427828
 20
-104.7911919225869
 30
0.0
 10
55.46741535071648
 20
-104.2348090017191
 30
0.0
 10
55.52305364280327
 20
-103.7948703082527
 30
0.0
 10
55.52305364280327
 20
-103.7948703082527
 30
0.0
 10
54.85263806137365
 20
-103.7948703082527
 30
0.0
 10
54.85263806137365
 20
-103.7948703082527
 30
0.0
 10
54.77116155314749
 20
-103.7948703082527
 30
0.0
 10
54.61010333921206
 20
-103.799004422835
 30
0.0
 10
54.47316079367338
 20
-103.8179524480039
 30
0.0
 10
54.47316079367338
 20
-103.8179524480039
 30
0.0
 10
54.47316079367338
 20
-103.5978108464964
 30
0.0
 10
54.47316079367338
 20
-103.5978108464964
 30
0.0
 10
54.54895289434887
 20
-103.6191704385049
 30
0.0
 10
54.76943900540486
 20
-103.6191704385049
 30
0.0
 10
54.85642766640742
 20
-103.6191704385049
 30
0.0
 10
54.85642766640742
 20
-103.6191704385049
 30
0.0
 10
55.23418238636507
 20
-103.6191704385049
 30
0.0
 10
55.23418238636507
 20
-103.6191704385049
 30
0.0
 10
55.2712171628315
 20
-103.6191704385049
 30
0.0
 10
55.47671710852666
 20
-103.6171033812138
 30
0.0
 10
55.51013453473358
 20
-103.6105576997918
 30
0.0
 10
55.54716931120002
 20
-103.6043565279184
 30
0.0
 10
55.54889185894264
 20
-103.6022894706272
 30
0.0
 10
55.60263534851254
 20
-103.5619818534498
 30
0.0
 10
55.60263534851254
 20
-103.5619818534498
 30
0.0
 10
55.76748316748174
 20
-103.716322131189
 30
0.0
 10
55.76748316748174
 20
-103.716322131189
 30
0.0
 10
55.74147269656811
 20
-103.7459499523621
 30
0.0
 10
55.72855358849842
 20
-103.7776448308264
 30
0.0
 10
55.71373967791185
 20
-103.8369004731727
 30
0.0
  0
SPLINE
  5
7D
330
4B
100
AcDbEntity
  8
_U+30EC_U+30A4_U+30E4_U+30FC 1
370
     0
100
AcDbSpline
210
0.0
220
0.0
230
1.0
 70
    11
 71
     3
 72
    17
 73
    13
 74
     0
 42
0.0000000001
 43
0.0000000001
 12
1.0
 22
0.0
 32
0.0
 13
1.0
 23
0.0
 33
0.0
 40
0.0
 40
0.0
 40
0.0
 40
0.0
 40
1.0
 40
1.0
 40
1.0
 40
2.0
 40
2.0
 40
2.0
 40
3.0
 40
3.0
 40
3.0
 40
4.0
 40
4.0
 40
4.0
 40
4.0
 10
55.89701875772714
 20
-103.6381184636738
 30
0.0
 10
55.78591442832783
 20
-103.6381184636738
 30
0.0
 10
55.69703096480838
 20
-103.5364881468589
 30
0.0
 10
55.69703096480838
 20
-103.4097086330017
 30
0.0
 10
55.69703096480838
 20
-103.2829291191446
 30
0.0
 10
55.78591442832783
 20
-103.1792317450385
 30
0.0
 10
55.89701875772714
 20
-103.1792317450385
 30
0.0
 10
56.00812308712644
 20
-103.1792317450385
 30
0.0
 10
56.09890135316278
 20
-103.2829291191446
 30
0.0
 10
56.09890135316278
 20
-103.4097086330017
 30
0.0
 10
56.09890135316278
 20
-103.5364881468589
 30
0.0
 10
56.00812308712644
 20
-103.6381184636738
 30
0.0
 10
55.89701875772714
 20
-103.6381184636738
 30
0.0
  0
SPLINE
  5
7E
330
4B
100
AcDbEntity
  8
_U+30EC_U+30A4_U+30E4_U+30FC 1
370
     0
100
AcDbSpline
210
0.0
220
0.0
230
1.0
 70
    11
 71
     3
 72
    17
 73
    13
 74
     0
 42
0.0000000001
 43
0.0000000001
 12
1.0
 22
0.0
 32
0.0
 13
1.0
 23
0.0
 33
0.0
 40
0.0
 40
0.0
 40
0.0
 40
0.0
 40
1.0
 40
1.0
 40
1.0
 40
2.0
 40
2.0
 40
2.0
 40
3.0
 40
3.0
 40
3.0
 40
4.0
 40
4.0
 40
4.0
 40
4.0
 10
55.89529620998452
 20
-103.3080783161869
 30
0.0
 10
55.84706487319102
 20
-103.3080783161869
 30
0.0
 10
55.80813529420769
 20
-103.3525200479466
 30
0.0
 10
55.80813529420769
 20
-103.4076415757106
 30
0.0
 10
55.80813529420769
 20
-103.4648301607657
 30
0.0
 10
55.84706487319102
 20
-103.5134060071078
 30
0.0
 10
55.89891356024403
 20
-103.5134060071078
 30
0.0
 10
55.95076224729704
 20
-103.5134060071078
 30
0.0
 10
55.98590222124658
 20
-103.4624185939261
 30
0.0
 10
55.98590222124658
 20
-103.4097086330017
 30
0.0
 10
55.98590222124658
 20
-103.3525200479466
 30
0.0
 10
55.94525009452063
 20
-103.3080783161869
 30
0.0
 10
55.89529620998452
 20
-103.3080783161869
 30
0.0
  0
HATCH
  5
7F
330
4B
100
AcDbEntity
  8
_U+30EC_U+30A4_U+30E4_U+30FC 1
 62
   179
420
  2234388
100
AcDbHatch
 10
0.0
 20
0.0
 30
0.0
210
0.0
220
0.0
230
1.0
  2
SOLID
 70
     1
 71
     0
 91
        3
 92
        1
 93
        1
 72
     4
 94
        3
 73
     0
 74
     1
 95
       44
 96
       40
 40
0.0
 40
0.0
 40
0.0
 40
0.0
 40
1.0
 40
1.0
 40
1.0
 40
2.0
 40
2.0
 40
2.0
 40
3.0
 40
3.0
 40
3.0
 40
4.0
 40
4.0
 40
4.0
 40
5.0
 40
5.0
 40
5.0
 40
6.0
 40
6.0
 40
6.0
 40
7.0
 40
7.0
 40
7.0
 40
8.0
 40
8.0
 40
8.0
 40
9.0
 40
9.0
 40
9.0
 40
10.0
 40
10.0
 40
10.0
 40
11.0
 40
11.0
 40
11.0
 40
12.0
 40
12.0
 40
12.0
 40
13.0
 40
13.0
 40
13.0
 40
13.0
 10
55.71373967791185
 20
-103.8369004731727
 10
55.61555445658222
 20
-104.2051811805459
 10
55.57111272482251
 20
-104.3636555728674
 10
55.39903020533427
 20
-104.613424995548
 10
55.23779973662458
 20
-104.8439018835113
 10
55.03040498841254
 20
-105.0302815492633
 10
54.78597546373406
 20
-105.123299127365
 10
54.78597546373406
 20
-105.123299127365
 10
54.61751029450534
 20
-104.943465143035
 10
54.61751029450534
 20
-104.943465143035
 10
55.17854409427828
 20
-104.7911919225869
 10
55.46741535071648
 20
-104.2348090017191
 10
55.52305364280327
 20
-103.7948703082527
 10
55.52305364280327
 20
-103.7948703082527
 10
54.85263806137365
 20
-103.7948703082527
 10
54.85263806137365
 20
-103.7948703082527
 10
54.77116155314749
 20
-103.7948703082527
 10
54.61010333921206
 20
-103.799004422835
 10
54.47316079367338
 20
-103.8179524480039
 10
54.47316079367338
 20
-103.8179524480039
 10
54.47316079367338
 20
-103.5978108464964
 10
54.47316079367338
 20
-103.5978108464964
 10
54.54895289434887
 20
-103.6191704385049
 10
54.76943900540486
 20
-103.6191704385049
 10
54.85642766640742
 20
-103.6191704385049
 10
54.85642766640742
 20
-103.6191704385049
 10
55.23418238636507
 20
-103.6191704385049
 10
55.23418238636507
 20
-103.6191704385049
 10
55.2712171628315
 20
-103.6191704385049
 10
55.47671710852666
 20
-103.6171033812138
 10
55.51013453473358
 20
-103.6105576997918
 10
55.54716931120002
 20
-103.6043565279184
 10
55.54889185894264
 20
-103.6022894706272
 10
55.60263534851254
 20
-103.5619818534498
 10
55.60263534851254
 20
-103.5619818534498
 10
55.76748316748174
 20
-103.716322131189
 10
55.76748316748174
 20
-103.716322131189
 10
55.74147269656811
 20
-103.7459499523621
 10
55.72855358849842
 20
-103.7776448308264
 10
55.71373967791185
 20
-103.8369004731727
 97
        0
 97
        0
 92
        1
 93
        1
 72
     4
 94
        3
 73
     0
 74
     1
 95
       17
 96
       13
 40
0.0
 40
0.0
 40
0.0
 40
0.0
 40
1.0
 40
1.0
 40
1.0
 40
2.0
 40
2.0
 40
2.0
 40
3.0
 40
3.0
 40
3.0
 40
4.0
 40
4.0
 40
4.0
 40
4.0
 10
55.89701875772714
 20
-103.6381184636738
 10
55.78591442832783
 20
-103.6381184636738
 10
55.69703096480838
 20
-103.5364881468589
 10
55.69703096480838
 20
-103.4097086330017
 10
55.69703096480838
 20
-103.2829291191446
 10
55.78591442832783
 20
-103.1792317450385
 10
55.89701875772714
 20
-103.1792317450385
 10
56.00812308712644
 20
-103.1792317450385
 10
56.09890135316278
 20
-103.2829291191446
 10
56.09890135316278
 20
-103.4097086330017
 10
56.09890135316278
 20
-103.5364881468589
 10
56.00812308712644
 20
-103.6381184636738
 10
55.89701875772714
 20
-103.6381184636738
 97
        0
 97
        0
 92
        1
 93
        1
 72
     4
 94
        3
 73
     0
 74
     1
 95
       17
 96
       13
 40
0.0
 40
0.0
 40
0.0
 40
0.0
 40
1.0
 40
1.0
 40
1.0
 40
2.0
 40
2.0
 40
2.0
 40
3.0
 40
3.0
 40
3.0
 40
4.0
 40
4.0
 40
4.0
 40
4.0
 10
55.89529620998452
 20
-103.3080783161869
 10
55.84706487319102
 20
-103.3080783161869
 10
55.80813529420769
 20
-103.3525200479466
 10
55.80813529420769
 20
-103.4076415757106
 10
55.80813529420769
 20
-103.4648301607657
 10
55.84706487319102
 20
-103.5134060071078
 10
55.89891356024403
 20
-103.5134060071078
 10
55.95076224729704
 20
-103.5134060071078
 10
55.98590222124658
 20
-103.4624185939261
 10
55.98590222124658
 20
-103.4097086330017
 10
55.98590222124658
 20
-103.3525200479466
 10
55.94525009452063
 20
-103.3080783161869
 10
55.89529620998452
 20
-103.3080783161869
 97
        0
 97
        0
 75
     2
 76
     1
 98
        0
  0
SPLINE
  5
80
330
4B
100
AcDbEntity
  8
_U+30EC_U+30A4_U+30E4_U+30FC 1
370
     0
100
AcDbSpline
210
0.0
220
0.0
230
1.0
 70
    11
 71
     3
 72
    50
 73
    46
 74
     0
 42
0.0000000001
 43
0.0000000001
 12
1.0
 22
0.0
 32
0.0
 13
1.0
 23
0.0
 33
0.0
 40
0.0
 40
0.0
 40
0.0
 40
0.0
 40
1.0
 40
1.0
 40
1.0
 40
2.0
 40
2.0
 40
2.0
 40
3.0
 40
3.0
 40
3.0
 40
4.0
 40
4.0
 40
4.0
 40
5.0
 40
5.0
 40
5.0
 40
6.0
 40
6.0
 40
6.0
 40
7.0
 40
7.0
 40
7.0
 40
8.0
 40
8.0
 40
8.0
 40
9.0
 40
9.0
 40
9.0
 40
10.0
 40
10.0
 40
10.0
 40
11.0
 40
11.0
 40
11.0
 40
12.0
 40
12.0
 40
12.0
 40
13.0
 40
13.0
 40
13.0
 40
14.0
 40
14.0
 40
14.0
 40
15.0
 40
15.0
 40
15.0
 40
15.0
 10
57.46936033719516
 20
-104.1459255381996
 30
0.0
 10
57.40097519181295
 20
-104.3236924652385
 30
0.0
 10
57.28246390712036
 20
-104.530742703902
 30
0.0
 10
57.16205781991088
 20
-104.6706135806032
 30
0.0
 10
57.01391871404513
 20
-104.8418348262201
 30
0.0
 10
56.87129176095579
 20
-104.9307182897395
 30
0.0
 10
56.59172226232776
 20
-105.0723117141833
 30
0.0
 10
56.59172226232776
 20
-105.0723117141833
 30
0.0
 10
56.44358315646203
 20
-104.8842095006887
 30
0.0
 10
56.44358315646203
 20
-104.8842095006887
 30
0.0
 10
56.60653617291434
 20
-104.860782851389
 30
0.0
 10
56.75657008129697
 20
-104.7743109547092
 30
0.0
 10
56.88989527657614
 20
-104.668546523312
 30
0.0
 10
57.11951089066804
 20
-104.4866454816908
 30
0.0
 10
57.28608125737987
 20
-104.1734863020816
 30
0.0
 10
57.32862818662271
 20
-103.9915852604604
 30
0.0
 10
57.32862818662271
 20
-103.9915852604604
 30
0.0
 10
56.7417561707104
 20
-103.9915852604604
 30
0.0
 10
56.7417561707104
 20
-103.9915852604604
 30
0.0
 10
56.60274656788057
 20
-103.9915852604604
 30
0.0
 10
56.34729273764929
 20
-103.999853489625
 30
0.0
 10
56.21396754237012
 20
-104.0167344575028
 30
0.0
 10
56.21396754237012
 20
-104.0167344575028
 30
0.0
 10
56.21396754237012
 20
-103.7883246268307
 30
0.0
 10
56.21396754237012
 20
-103.7883246268307
 30
0.0
 10
56.24359536354327
 20
-103.7948703082527
 30
0.0
 10
56.26581622942313
 20
-103.8010714801261
 30
0.0
 10
56.31215276369974
 20
-103.8052055947084
 30
0.0
 10
56.40103622721919
 20
-103.8117512761304
 30
0.0
 10
56.57311874670742
 20
-103.8138183334216
 30
0.0
 10
56.64718829964029
 20
-103.8138183334216
 30
0.0
 10
56.64718829964029
 20
-103.8138183334216
 30
0.0
 10
57.0898830694949
 20
-103.8138183334216
 30
0.0
 10
57.0898830694949
 20
-103.8138183334216
 30
0.0
 10
57.14913871184119
 20
-103.8138183334216
 30
0.0
 10
57.2767794995697
 20
-103.8096842188393
 30
0.0
 10
57.3305229891396
 20
-103.8031385374173
 30
0.0
 10
57.39356823651966
 20
-103.7948703082527
 30
0.0
 10
57.41751165014215
 20
-103.7800563976661
 30
0.0
 10
57.4471394713153
 20
-103.7566297483664
 30
0.0
 10
57.4471394713153
 20
-103.7566297483664
 30
0.0
 10
57.59166122692153
 20
-103.923716879401
 30
0.0
 10
57.59166122692153
 20
-103.923716879401
 30
0.0
 10
57.53051078205835
 20
-103.9915852604604
 30
0.0
 10
57.4898586553324
 20
-104.0952826345665
 30
0.0
 10
57.46936033719516
 20
-104.1459255381996
 30
0.0
  0
SPLINE
  5
81
330
4B
100
AcDbEntity
  8
_U+30EC_U+30A4_U+30E4_U+30FC 1
370
     0
100
AcDbSpline
210
0.0
220
0.0
230
1.0
 70
    11
 71
     3
 72
    29
 73
    25
 74
     0
 42
0.0000000001
 43
0.0000000001
 12
1.0
 22
0.0
 32
0.0
 13
1.0
 23
0.0
 33
0.0
 40
0.0
 40
0.0
 40
0.0
 40
0.0
 40
1.0
 40
1.0
 40
1.0
 40
2.0
 40
2.0
 40
2.0
 40
3.0
 40
3.0
 40
3.0
 40
4.0
 40
4.0
 40
4.0
 40
5.0
 40
5.0
 40
5.0
 40
6.0
 40
6.0
 40
6.0
 40
7.0
 40
7.0
 40
7.0
 40
8.0
 40
8.0
 40
8.0
 40
8.0
 10
57.03803438244189
 20
-103.5196071789812
 30
0.0
 10
57.03803438244189
 20
-103.5196071789812
 30
0.0
 10
56.73986136819351
 20
-103.5196071789812
 30
0.0
 10
56.73986136819351
 20
-103.5196071789812
 30
0.0
 10
56.639781344347
 20
-103.5196071789812
 30
0.0
 10
56.53797877275787
 20
-103.524085803112
 30
0.0
 10
56.43807100368562
 20
-103.5388997136986
 30
0.0
 10
56.43807100368562
 20
-103.5388997136986
 30
0.0
 10
56.43807100368562
 20
-103.3294379081954
 30
0.0
 10
56.43807100368562
 20
-103.3294379081954
 30
0.0
 10
56.54176837779164
 20
-103.344251818782
 30
0.0
 10
56.6935248339169
 20
-103.3483859333643
 30
0.0
 10
56.73986136819351
 20
-103.3483859333643
 30
0.0
 10
56.73986136819351
 20
-103.3483859333643
 30
0.0
 10
57.03803438244189
 20
-103.3483859333643
 30
0.0
 10
57.03803438244189
 20
-103.3483859333643
 30
0.0
 10
57.13983695403102
 20
-103.3483859333643
 30
0.0
 10
57.24163952562015
 20
-103.344251818782
 30
0.0
 10
57.34344209720928
 20
-103.3294379081954
 30
0.0
 10
57.34344209720928
 20
-103.3294379081954
 30
0.0
 10
57.34344209720928
 20
-103.5388997136986
 30
0.0
 10
57.34344209720928
 20
-103.5388997136986
 30
0.0
 10
57.212011704447
 20
-103.5196071789812
 30
0.0
 10
57.05095349051157
 20
-103.5196071789812
 30
0.0
 10
57.03803438244189
 20
-103.5196071789812
 30
0.0
  0
HATCH
  5
82
330
4B
100
AcDbEntity
  8
_U+30EC_U+30A4_U+30E4_U+30FC 1
 62
   179
420
  2234388
100
AcDbHatch
 10
0.0
 20
0.0
 30
0.0
210
0.0
220
0.0
230
1.0
  2
SOLID
 70
     1
 71
     0
 91
        2
 92
        1
 93
        1
 72
     4
 94
        3
 73
     0
 74
     1
 95
       50
 96
       46
 40
0.0
 40
0.0
 40
0.0
 40
0.0
 40
1.0
 40
1.0
 40
1.0
 40
2.0
 40
2.0
 40
2.0
 40
3.0
 40
3.0
 40
3.0
 40
4.0
 40
4.0
 40
4.0
 40
5.0
 40
5.0
 40
5.0
 40
6.0
 40
6.0
 40
6.0
 40
7.0
 40
7.0
 40
7.0
 40
8.0
 40
8.0
 40
8.0
 40
9.0
 40
9.0
 40
9.0
 40
10.0
 40
10.0
 40
10.0
 40
11.0
 40
11.0
 40
11.0
 40
12.0
 40
12.0
 40
12.0
 40
13.0
 40
13.0
 40
13.0
 40
14.0
 40
14.0
 40
14.0
 40
15.0
 40
15.0
 40
15.0
 40
15.0
 10
57.46936033719516
 20
-104.1459255381996
 10
57.40097519181295
 20
-104.3236924652385
 10
57.28246390712036
 20
-104.530742703902
 10
57.16205781991088
 20
-104.6706135806032
 10
57.01391871404513
 20
-104.8418348262201
 10
56.87129176095579
 20
-104.9307182897395
 10
56.59172226232776
 20
-105.0723117141833
 10
56.59172226232776
 20
-105.0723117141833
 10
56.44358315646203
 20
-104.8842095006887
 10
56.44358315646203
 20
-104.8842095006887
 10
56.60653617291434
 20
-104.860782851389
 10
56.75657008129697
 20
-104.7743109547092
 10
56.88989527657614
 20
-104.668546523312
 10
57.11951089066804
 20
-104.4866454816908
 10
57.28608125737987
 20
-104.1734863020816
 10
57.32862818662271
 20
-103.9915852604604
 10
57.32862818662271
 20
-103.9915852604604
 10
56.7417561707104
 20
-103.9915852604604
 10
56.7417561707104
 20
-103.9915852604604
 10
56.60274656788057
 20
-103.9915852604604
 10
56.34729273764929
 20
-103.999853489625
 10
56.21396754237012
 20
-104.0167344575028
 10
56.21396754237012
 20
-104.0167344575028
 10
56.21396754237012
 20
-103.7883246268307
 10
56.21396754237012
 20
-103.7883246268307
 10
56.24359536354327
 20
-103.7948703082527
 10
56.26581622942313
 20
-103.8010714801261
 10
56.31215276369974
 20
-103.8052055947084
 10
56.40103622721919
 20
-103.8117512761304
 10
56.57311874670742
 20
-103.8138183334216
 10
56.64718829964029
 20
-103.8138183334216
 10
56.64718829964029
 20
-103.8138183334216
 10
57.0898830694949
 20
-103.8138183334216
 10
57.0898830694949
 20
-103.8138183334216
 10
57.14913871184119
 20
-103.8138183334216
 10
57.2767794995697
 20
-103.8096842188393
 10
57.3305229891396
 20
-103.8031385374173
 10
57.39356823651966
 20
-103.7948703082527
 10
57.41751165014215
 20
-103.7800563976661
 10
57.4471394713153
 20
-103.7566297483664
 10
57.4471394713153
 20
-103.7566297483664
 10
57.59166122692153
 20
-103.923716879401
 10
57.59166122692153
 20
-103.923716879401
 10
57.53051078205835
 20
-103.9915852604604
 10
57.4898586553324
 20
-104.0952826345665
 10
57.46936033719516
 20
-104.1459255381996
 97
        0
 97
        0
 92
        1
 93
        1
 72
     4
 94
        3
 73
     0
 74
     1
 95
       29
 96
       25
 40
0.0
 40
0.0
 40
0.0
 40
0.0
 40
1.0
 40
1.0
 40
1.0
 40
2.0
 40
2.0
 40
2.0
 40
3.0
 40
3.0
 40
3.0
 40
4.0
 40
4.0
 40
4.0
 40
5.0
 40
5.0
 40
5.0
 40
6.0
 40
6.0
 40
6.0
 40
7.0
 40
7.0
 40
7.0
 40
8.0
 40
8.0
 40
8.0
 40
8.0
 10
57.03803438244189
 20
-103.5196071789812
 10
57.03803438244189
 20
-103.5196071789812
 10
56.73986136819351
 20
-103.5196071789812
 10
56.73986136819351
 20
-103.5196071789812
 10
56.639781344347
 20
-103.5196071789812
 10
56.53797877275787
 20
-103.524085803112
 10
56.43807100368562
 20
-103.5388997136986
 10
56.43807100368562
 20
-103.5388997136986
 10
56.43807100368562
 20
-103.3294379081954
 10
56.43807100368562
 20
-103.3294379081954
 10
56.54176837779164
 20
-103.344251818782
 10
56.6935248339169
 20
-103.3483859333643
 10
56.73986136819351
 20
-103.3483859333643
 10
56.73986136819351
 20
-103.3483859333643
 10
57.03803438244189
 20
-103.3483859333643
 10
57.03803438244189
 20
-103.3483859333643
 10
57.13983695403102
 20
-103.3483859333643
 10
57.24163952562015
 20
-103.344251818782
 10
57.34344209720928
 20
-103.3294379081954
 10
57.34344209720928
 20
-103.3294379081954
 10
57.34344209720928
 20
-103.5388997136986
 10
57.34344209720928
 20
-103.5388997136986
 10
57.212011704447
 20
-103.5196071789812
 10
57.05095349051157
 20
-103.5196071789812
 10
57.03803438244189
 20
-103.5196071789812
 97
        0
 97
        0
 75
     2
 76
     1
 98
        0
  0
SPLINE
  5
83
330
4B
100
AcDbEntity
  8
_U+30EC_U+30A4_U+30E4_U+30FC 1
370
     0
100
AcDbSpline
210
0.0
220
0.0
230
1.0
 70
    11
 71
     3
 72
    50
 73
    46
 74
     0
 42
0.0000000001
 43
0.0000000001
 12
1.0
 22
0.0
 32
0.0
 13
1.0
 23
0.0
 33
0.0
 40
0.0
 40
0.0
 40
0.0
 40
0.0
 40
1.0
 40
1.0
 40
1.0
 40
2.0
 40
2.0
 40
2.0
 40
3.0
 40
3.0
 40
3.0
 40
4.0
 40
4.0
 40
4.0
 40
5.0
 40
5.0
 40
5.0
 40
6.0
 40
6.0
 40
6.0
 40
7.0
 40
7.0
 40
7.0
 40
8.0
 40
8.0
 40
8.0
 40
9.0
 40
9.0
 40
9.0
 40
10.0
 40
10.0
 40
10.0
 40
11.0
 40
11.0
 40
11.0
 40
12.0
 40
12.0
 40
12.0
 40
13.0
 40
13.0
 40
13.0
 40
14.0
 40
14.0
 40
14.0
 40
15.0
 40
15.0
 40
15.0
 40
15.0
 10
58.96746010895605
 20
-103.5047932683946
 30
0.0
 10
58.78418102914076
 20
-103.7183891884801
 30
0.0
 10
58.72130803653496
 20
-103.7903916841219
 30
0.0
 10
58.59711234429169
 20
-103.9089029688144
 30
0.0
 10
58.59711234429169
 20
-103.9089029688144
 30
0.0
 10
58.59711234429169
 20
-104.4759656856866
 30
0.0
 10
58.59711234429169
 20
-104.4759656856866
 30
0.0
 10
58.59711234429169
 20
-104.6261718488435
 30
0.0
 10
58.60279675184236
 20
-104.6451198740123
 30
0.0
 10
58.60641410210187
 20
-104.8228868010512
 30
0.0
 10
58.60830890461876
 20
-104.9541449390393
 30
0.0
 10
58.61382105739516
 20
-105.0027207853813
 30
0.0
 10
58.61933321017156
 20
-105.0619764277276
 30
0.0
 10
58.61933321017156
 20
-105.0619764277276
 30
0.0
 10
58.42124021976969
 20
-105.0619764277276
 30
0.0
 10
58.42124021976969
 20
-105.0619764277276
 30
0.0
 10
58.42502982480347
 20
-105.0175346959678
 30
0.0
 10
58.42864717506298
 20
-104.971025906917
 30
0.0
 10
58.42864717506298
 20
-104.9624131682039
 30
0.0
 10
58.42864717506298
 20
-104.8821424433975
 30
0.0
 10
58.43243678009676
 20
-104.530742703902
 30
0.0
 10
58.43243678009676
 20
-104.4590847178088
 30
0.0
 10
58.43243678009676
 20
-104.4590847178088
 30
0.0
 10
58.43243678009676
 20
-104.0529079600979
 30
0.0
 10
58.43243678009676
 20
-104.0529079600979
 30
0.0
 10
58.27310111390395
 20
-104.1776204166639
 30
0.0
 10
58.10274114215834
 20
-104.2875189626434
 30
0.0
 10
57.92497421511946
 20
-104.3743353688717
 30
0.0
 10
57.92497421511946
 20
-104.3743353688717
 30
0.0
 10
57.74720728808056
 20
-104.2113823524194
 30
0.0
 10
57.74720728808056
 20
-104.2113823524194
 30
0.0
 10
57.85469426722036
 20
-104.1755533593728
 30
0.0
 10
58.0786254737616
 20
-104.1014838064399
 30
0.0
 10
58.38058809304374
 20
-103.8455132118858
 30
0.0
 10
58.56937932563544
 20
-103.6866943100158
 30
0.0
 10
58.73784449486416
 20
-103.4985920965212
 30
0.0
 10
58.87116969014332
 20
-103.2784504950137
 30
0.0
 10
58.87116969014332
 20
-103.2784504950137
 30
0.0
 10
59.0398071141463
 20
-103.4224554862972
 30
0.0
 10
59.0398071141463
 20
-103.4224554862972
 30
0.0
 10
59.0508314196991
 20
-103.4327907727529
 30
0.0
 10
59.05823837499238
 20
-103.4476046833395
 30
0.0
 10
59.05823837499238
 20
-103.4603515366349
 30
0.0
 10
59.05823837499238
 20
-103.5006591538123
 30
0.0
 10
59.02499320355972
 20
-103.5006591538123
 30
0.0
 10
58.96746010895605
 20
-103.5047932683946
 30
0.0
  0
HATCH
  5
84
330
4B
100
AcDbEntity
  8
_U+30EC_U+30A4_U+30E4_U+30FC 1
 62
   179
420
  2234388
100
AcDbHatch
 10
0.0
 20
0.0
 30
0.0
210
0.0
220
0.0
230
1.0
  2
SOLID
 70
     1
 71
     0
 91
        1
 92
        1
 93
        1
 72
     4
 94
        3
 73
     0
 74
     1
 95
       50
 96
       46
 40
0.0
 40
0.0
 40
0.0
 40
0.0
 40
1.0
 40
1.0
 40
1.0
 40
2.0
 40
2.0
 40
2.0
 40
3.0
 40
3.0
 40
3.0
 40
4.0
 40
4.0
 40
4.0
 40
5.0
 40
5.0
 40
5.0
 40
6.0
 40
6.0
 40
6.0
 40
7.0
 40
7.0
 40
7.0
 40
8.0
 40
8.0
 40
8.0
 40
9.0
 40
9.0
 40
9.0
 40
10.0
 40
10.0
 40
10.0
 40
11.0
 40
11.0
 40
11.0
 40
12.0
 40
12.0
 40
12.0
 40
13.0
 40
13.0
 40
13.0
 40
14.0
 40
14.0
 40
14.0
 40
15.0
 40
15.0
 40
15.0
 40
15.0
 10
58.96746010895605
 20
-103.5047932683946
 10
58.78418102914076
 20
-103.7183891884801
 10
58.72130803653496
 20
-103.7903916841219
 10
58.59711234429169
 20
-103.9089029688144
 10
58.59711234429169
 20
-103.9089029688144
 10
58.59711234429169
 20
-104.4759656856866
 10
58.59711234429169
 20
-104.4759656856866
 10
58.59711234429169
 20
-104.6261718488435
 10
58.60279675184236
 20
-104.6451198740123
 10
58.60641410210187
 20
-104.8228868010512
 10
58.60830890461876
 20
-104.9541449390393
 10
58.61382105739516
 20
-105.0027207853813
 10
58.61933321017156
 20
-105.0619764277276
 10
58.61933321017156
 20
-105.0619764277276
 10
58.42124021976969
 20
-105.0619764277276
 10
58.42124021976969
 20
-105.0619764277276
 10
58.42502982480347
 20
-105.0175346959678
 10
58.42864717506298
 20
-104.971025906917
 10
58.42864717506298
 20
-104.9624131682039
 10
58.42864717506298
 20
-104.8821424433975
 10
58.43243678009676
 20
-104.530742703902
 10
58.43243678009676
 20
-104.4590847178088
 10
58.43243678009676
 20
-104.4590847178088
 10
58.43243678009676
 20
-104.0529079600979
 10
58.43243678009676
 20
-104.0529079600979
 10
58.27310111390395
 20
-104.1776204166639
 10
58.10274114215834
 20
-104.2875189626434
 10
57.92497421511946
 20
-104.3743353688717
 10
57.92497421511946
 20
-104.3743353688717
 10
57.74720728808056
 20
-104.2113823524194
 10
57.74720728808056
 20
-104.2113823524194
 10
57.85469426722036
 20
-104.1755533593728
 10
58.0786254737616
 20
-104.1014838064399
 10
58.38058809304374
 20
-103.8455132118858
 10
58.56937932563544
 20
-103.6866943100158
 10
58.73784449486416
 20
-103.4985920965212
 10
58.87116969014332
 20
-103.2784504950137
 10
58.87116969014332
 20
-103.2784504950137
 10
59.0398071141463
 20
-103.4224554862972
 10
59.0398071141463
 20
-103.4224554862972
 10
59.0508314196991
 20
-103.4327907727529
 10
59.05823837499238
 20
-103.4476046833395
 10
59.05823837499238
 20
-103.4603515366349
 10
59.05823837499238
 20
-103.5006591538123
 10
59.02499320355972
 20
-103.5006591538123
 10
58.96746010895605
 20
-103.5047932683946
 97
        0
 97
        0
 75
     2
 76
     1
 98
        0
  0
SPLINE
  5
85
330
4B
100
AcDbEntity
  8
_U+30EC_U+30A4_U+30E4_U+30FC 1
370
     0
100
AcDbSpline
210
0.0
220
0.0
230
1.0
 70
    11
 71
     3
 72
    50
 73
    46
 74
     0
 42
0.0000000001
 43
0.0000000001
 12
1.0
 22
0.0
 32
0.0
 13
1.0
 23
0.0
 33
0.0
 40
0.0
 40
0.0
 40
0.0
 40
0.0
 40
1.0
 40
1.0
 40
1.0
 40
2.0
 40
2.0
 40
2.0
 40
3.0
 40
3.0
 40
3.0
 40
4.0
 40
4.0
 40
4.0
 40
5.0
 40
5.0
 40
5.0
 40
6.0
 40
6.0
 40
6.0
 40
7.0
 40
7.0
 40
7.0
 40
8.0
 40
8.0
 40
8.0
 40
9.0
 40
9.0
 40
9.0
 40
10.0
 40
10.0
 40
10.0
 40
11.0
 40
11.0
 40
11.0
 40
12.0
 40
12.0
 40
12.0
 40
13.0
 40
13.0
 40
13.0
 40
14.0
 40
14.0
 40
14.0
 40
15.0
 40
15.0
 40
15.0
 40
15.0
 10
60.46383733297432
 20
-104.0315483680893
 30
0.0
 10
60.41009384340443
 20
-104.1035508637311
 30
0.0
 10
60.18237303182941
 20
-104.4208441579226
 30
0.0
 10
60.13224689251903
 20
-104.4842339148512
 30
0.0
 10
60.2063164454519
 20
-104.5817301170837
 30
0.0
 10
60.25075817721162
 20
-104.6451198740123
 30
0.0
 10
60.30829127181529
 20
-104.7360703948229
 30
0.0
 10
60.30829127181529
 20
-104.7360703948229
 30
0.0
 10
60.1470608031056
 20
-104.8735297046844
 30
0.0
 10
60.1470608031056
 20
-104.8735297046844
 30
0.0
 10
60.028549518413
 20
-104.6620008418901
 30
0.0
 10
59.87868786480464
 20
-104.4377251258003
 30
0.0
 10
59.62116697728221
 20
-104.2389431163014
 30
0.0
 10
59.62116697728221
 20
-104.2389431163014
 30
0.0
 10
59.75087482230187
 20
-104.0846028385622
 30
0.0
 10
59.75087482230187
 20
-104.0846028385622
 30
0.0
 10
59.8471652411146
 20
-104.1648735633685
 30
0.0
 10
59.93794350715093
 20
-104.253757026888
 30
0.0
 10
60.0230373656366
 20
-104.3488416622808
 30
0.0
 10
60.0822930079829
 20
-104.2727050520568
 30
0.0
 10
60.26005993502179
 20
-104.0294813107982
 30
0.0
 10
60.3766764171975
 20
-103.8010714801261
 30
0.0
 10
60.3766764171975
 20
-103.8010714801261
 30
0.0
 10
59.7879095987683
 20
-103.8010714801261
 30
0.0
 10
59.7879095987683
 20
-103.8010714801261
 30
0.0
 10
59.67870007188588
 20
-103.8010714801261
 30
0.0
 10
59.45821396082989
 20
-103.8096842188393
 30
0.0
 10
59.2749348810146
 20
-103.820019505295
 30
0.0
 10
59.2749348810146
 20
-103.820019505295
 30
0.0
 10
59.2749348810146
 20
-103.6002224133361
 30
0.0
 10
59.2749348810146
 20
-103.6002224133361
 30
0.0
 10
59.43599309495004
 20
-103.6191704385049
 30
0.0
 10
59.61565482450581
 20
-103.6233045530872
 30
0.0
 10
59.78050264347502
 20
-103.6233045530872
 30
0.0
 10
59.78050264347502
 20
-103.6233045530872
 30
0.0
 10
60.22113035603847
 20
-103.6233045530872
 30
0.0
 10
60.22113035603847
 20
-103.6233045530872
 30
0.0
 10
60.51740856776996
 20
-103.6233045530872
 30
0.0
 10
60.55633814675328
 20
-103.6084906425007
 30
0.0
 10
60.62851289716927
 20
-103.5685275348718
 30
0.0
 10
60.62851289716927
 20
-103.5685275348718
 30
0.0
 10
60.77492945529238
 20
-103.7270019271933
 30
0.0
 10
60.77492945529238
 20
-103.7270019271933
 30
0.0
 10
60.64160426001321
 20
-103.799004422835
 30
0.0
 10
60.51568602002733
 20
-103.9619574392873
 30
0.0
 10
60.46383733297432
 20
-104.0315483680893
 30
0.0
  0
HATCH
  5
86
330
4B
100
AcDbEntity
  8
_U+30EC_U+30A4_U+30E4_U+30FC 1
 62
   179
420
  2234388
100
AcDbHatch
 10
0.0
 20
0.0
 30
0.0
210
0.0
220
0.0
230
1.0
  2
SOLID
 70
     1
 71
     0
 91
        1
 92
        1
 93
        1
 72
     4
 94
        3
 73
     0
 74
     1
 95
       50
 96
       46
 40
0.0
 40
0.0
 40
0.0
 40
0.0
 40
1.0
 40
1.0
 40
1.0
 40
2.0
 40
2.0
 40
2.0
 40
3.0
 40
3.0
 40
3.0
 40
4.0
 40
4.0
 40
4.0
 40
5.0
 40
5.0
 40
5.0
 40
6.0
 40
6.0
 40
6.0
 40
7.0
 40
7.0
 40
7.0
 40
8.0
 40
8.0
 40
8.0
 40
9.0
 40
9.0
 40
9.0
 40
10.0
 40
10.0
 40
10.0
 40
11.0
 40
11.0
 40
11.0
 40
12.0
 40
12.0
 40
12.0
 40
13.0
 40
13.0
 40
13.0
 40
14.0
 40
14.0
 40
14.0
 40
15.0
 40
15.0
 40
15.0
 40
15.0
 10
60.46383733297432
 20
-104.0315483680893
 10
60.41009384340443
 20
-104.1035508637311
 10
60.18237303182941
 20
-104.4208441579226
 10
60.13224689251903
 20
-104.4842339148512
 10
60.2063164454519
 20
-104.5817301170837
 10
60.25075817721162
 20
-104.6451198740123
 10
60.30829127181529
 20
-104.7360703948229
 10
60.30829127181529
 20
-104.7360703948229
 10
60.1470608031056
 20
-104.8735297046844
 10
60.1470608031056
 20
-104.8735297046844
 10
60.028549518413
 20
-104.6620008418901
 10
59.87868786480464
 20
-104.4377251258003
 10
59.62116697728221
 20
-104.2389431163014
 10
59.62116697728221
 20
-104.2389431163014
 10
59.75087482230187
 20
-104.0846028385622
 10
59.75087482230187
 20
-104.0846028385622
 10
59.8471652411146
 20
-104.1648735633685
 10
59.93794350715093
 20
-104.253757026888
 10
60.0230373656366
 20
-104.3488416622808
 10
60.0822930079829
 20
-104.2727050520568
 10
60.26005993502179
 20
-104.0294813107982
 10
60.3766764171975
 20
-103.8010714801261
 10
60.3766764171975
 20
-103.8010714801261
 10
59.7879095987683
 20
-103.8010714801261
 10
59.7879095987683
 20
-103.8010714801261
 10
59.67870007188588
 20
-103.8010714801261
 10
59.45821396082989
 20
-103.8096842188393
 10
59.2749348810146
 20
-103.820019505295
 10
59.2749348810146
 20
-103.820019505295
 10
59.2749348810146
 20
-103.6002224133361
 10
59.2749348810146
 20
-103.6002224133361
 10
59.43599309495004
 20
-103.6191704385049
 10
59.61565482450581
 20
-103.6233045530872
 10
59.78050264347502
 20
-103.6233045530872
 10
59.78050264347502
 20
-103.6233045530872
 10
60.22113035603847
 20
-103.6233045530872
 10
60.22113035603847
 20
-103.6233045530872
 10
60.51740856776996
 20
-103.6233045530872
 10
60.55633814675328
 20
-103.6084906425007
 10
60.62851289716927
 20
-103.5685275348718
 10
60.62851289716927
 20
-103.5685275348718
 10
60.77492945529238
 20
-103.7270019271933
 10
60.77492945529238
 20
-103.7270019271933
 10
60.64160426001321
 20
-103.799004422835
 10
60.51568602002733
 20
-103.9619574392873
 10
60.46383733297432
 20
-104.0315483680893
 97
        0
 97
        0
 75
     2
 76
     1
 98
        0
  0
SPLINE
  5
87
330
4B
100
AcDbEntity
  8
_U+30EC_U+30A4_U+30E4_U+30FC 1
370
     0
100
AcDbSpline
210
0.0
220
0.0
230
1.0
 70
    11
 71
     3
 72
    29
 73
    25
 74
     0
 42
0.0000000001
 43
0.0000000001
 12
1.0
 22
0.0
 32
0.0
 13
1.0
 23
0.0
 33
0.0
 40
0.0
 40
0.0
 40
0.0
 40
0.0
 40
1.0
 40
1.0
 40
1.0
 40
2.0
 40
2.0
 40
2.0
 40
3.0
 40
3.0
 40
3.0
 40
4.0
 40
4.0
 40
4.0
 40
5.0
 40
5.0
 40
5.0
 40
6.0
 40
6.0
 40
6.0
 40
7.0
 40
7.0
 40
7.0
 40
8.0
 40
8.0
 40
8.0
 40
8.0
 10
61.88614500405971
 20
-104.274772109348
 30
0.0
 10
61.88614500405971
 20
-104.274772109348
 30
0.0
 10
61.46205374982546
 20
-104.274772109348
 30
0.0
 10
61.46205374982546
 20
-104.274772109348
 30
0.0
 10
61.43793808142871
 20
-104.274772109348
 30
0.0
 10
61.16026338531758
 20
-104.274772109348
 30
0.0
 10
60.9750895029854
 20
-104.3002658159388
 30
0.0
 10
60.9750895029854
 20
-104.3002658159388
 30
0.0
 10
60.9750895029854
 20
-104.0697889279756
 30
0.0
 10
60.9750895029854
 20
-104.0697889279756
 30
0.0
 10
61.11392685104097
 20
-104.0928710677268
 30
0.0
 10
61.28066947252706
 20
-104.0952826345665
 30
0.0
 10
61.46205374982546
 20
-104.0952826345665
 30
0.0
 10
61.46205374982546
 20
-104.0952826345665
 30
0.0
 10
61.88614500405971
 20
-104.0952826345665
 30
0.0
 10
61.88614500405971
 20
-104.0952826345665
 30
0.0
 10
62.04909802051203
 20
-104.0952826345665
 30
0.0
 10
62.21205103696435
 20
-104.0928710677268
 30
0.0
 10
62.37310925089978
 20
-104.0697889279756
 30
0.0
 10
62.37310925089978
 20
-104.0697889279756
 30
0.0
 10
62.37310925089978
 20
-104.3002658159388
 30
0.0
 10
62.37310925089978
 20
-104.3002658159388
 30
0.0
 10
62.21205103696435
 20
-104.2771836761876
 30
0.0
 10
61.99535453094214
 20
-104.274772109348
 30
0.0
 10
61.88614500405971
 20
-104.274772109348
 30
0.0
  0
HATCH
  5
88
330
4B
100
AcDbEntity
  8
_U+30EC_U+30A4_U+30E4_U+30FC 1
 62
   179
420
  2234388
100
AcDbHatch
 10
0.0
 20
0.0
 30
0.0
210
0.0
220
0.0
230
1.0
  2
SOLID
 70
     1
 71
     0
 91
        1
 92
        1
 93
        1
 72
     4
 94
        3
 73
     0
 74
     1
 95
       29
 96
       25
 40
0.0
 40
0.0
 40
0.0
 40
0.0
 40
1.0
 40
1.0
 40
1.0
 40
2.0
 40
2.0
 40
2.0
 40
3.0
 40
3.0
 40
3.0
 40
4.0
 40
4.0
 40
4.0
 40
5.0
 40
5.0
 40
5.0
 40
6.0
 40
6.0
 40
6.0
 40
7.0
 40
7.0
 40
7.0
 40
8.0
 40
8.0
 40
8.0
 40
8.0
 10
61.88614500405971
 20
-104.274772109348
 10
61.88614500405971
 20
-104.274772109348
 10
61.46205374982546
 20
-104.274772109348
 10
61.46205374982546
 20
-104.274772109348
 10
61.43793808142871
 20
-104.274772109348
 10
61.16026338531758
 20
-104.274772109348
 10
60.9750895029854
 20
-104.3002658159388
 10
60.9750895029854
 20
-104.3002658159388
 10
60.9750895029854
 20
-104.0697889279756
 10
60.9750895029854
 20
-104.0697889279756
 10
61.11392685104097
 20
-104.0928710677268
 10
61.28066947252706
 20
-104.0952826345665
 10
61.46205374982546
 20
-104.0952826345665
 10
61.46205374982546
 20
-104.0952826345665
 10
61.88614500405971
 20
-104.0952826345665
 10
61.88614500405971
 20
-104.0952826345665
 10
62.04909802051203
 20
-104.0952826345665
 10
62.21205103696435
 20
-104.0928710677268
 10
62.37310925089978
 20
-104.0697889279756
 10
62.37310925089978
 20
-104.0697889279756
 10
62.37310925089978
 20
-104.3002658159388
 10
62.37310925089978
 20
-104.3002658159388
 10
62.21205103696435
 20
-104.2771836761876
 10
61.99535453094214
 20
-104.274772109348
 10
61.88614500405971
 20
-104.274772109348
 97
        0
 97
        0
 75
     2
 76
     1
 98
        0
  0
ENDBLK
  5
4E
330
4B
100
AcDbEntity
  8
0
100
AcDbBlockEnd
  0
BLOCK
  5
8F
330
8D
100
AcDbEntity
  8
0
100
AcDbBlockBegin
  2
block 3
 70
     0
 10
0.0
 20
0.0
 30
0.0
  3
block 3
  1

  0
POLYLINE
  5
91
330
8D
100
AcDbEntity
  8
_U+30EC_U+30A4_U+30E4_U+30FC 1
 62
   179
420
  2234388
370
    25
100
AcDb2dPolyline
 66
     1
 10
0.0
 20
0.0
 30
0.0
  0
VERTEX
  5
92
330
91
100
AcDbEntity
  8
_U+30EC_U+30A4_U+30E4_U+30FC 1
 62
   179
420
  2234388
370
    25
100
AcDbVertex
100
AcDb2dVertex
 10
50.42757121348548
 20
-81.62018359070613
 30
0.0
  0
VERTEX
  5
93
330
91
100
AcDbEntity
  8
_U+30EC_U+30A4_U+30E4_U+30FC 1
 62
   179
420
  2234388
370
    25
100
AcDbVertex
100
AcDb2dVertex
 10
73.42772923781368
 20
-81.62018359070613
 30
0.0
  0
SEQEND
  5
94
330
91
100
AcDbEntity
  8
_U+30EC_U+30A4_U+30E4_U+30FC 1
 62
   179
420
  2234388
370
    25
  0
POLYLINE
  5
95
330
8D
100
AcDbEntity
  8
_U+30EC_U+30A4_U+30E4_U+30FC 1
 62
   179
420
  2234388
370
    25
100
AcDb2dPolyline
 66
     1
 10
0.0
 20
0.0
 30
0.0
  0
VERTEX
  5
96
330
95
100
AcDbEntity
  8
_U+30EC_U+30A4_U+30E4_U+30FC 1
 62
   179
420
  2234388
370
    25
100
AcDbVertex
100
AcDb2dVertex
 10
73.42772923781368
 20
-81.62018359070613
 30
0.0
  0
VERTEX
  5
97
330
95
100
AcDbEntity
  8
_U+30EC_U+30A4_U+30E4_U+30FC 1
 62
   179
420
  2234388
370
    25
100
AcDbVertex
100
AcDb2dVertex
 10
73.42772923781368
 20
-82.42010720161724
 30
0.0
  0
SEQEND
  5
98
330
95
100
AcDbEntity
  8
_U+30EC_U+30A4_U+30E4_U+30FC 1
 62
   179
420
  2234388
370
    25
  0
POLYLINE
  5
99
330
8D
100
AcDbEntity
  8
_U+30EC_U+30A4_U+30E4_U+30FC 1
 62
   179
420
  2234388
370
    25
100
AcDb2dPolyline
 66
     1
 10
0.0
 20
0.0
 30
0.0
  0
VERTEX
  5
9A
330
99
100
AcDbEntity
  8
_U+30EC_U+30A4_U+30E4_U+30FC 1
 62
   179
420
  2234388
370
    25
100
AcDbVertex
100
AcDb2dVertex
 10
51.19758054275631
 20
-82.42010720161724
 30
0.0
  0
VERTEX
  5
9B
330
99
100
AcDbEntity
  8
_U+30EC_U+30A4_U+30E4_U+30FC 1
 62
   179
420
  2234388
370
    25
100
AcDbVertex
100
AcDb2dVertex
 10
73.42772923781368
 20
-82.42010720161724
 30
0.0
  0
SEQEND
  5
9C
330
99
100
AcDbEntity
  8
_U+30EC_U+30A4_U+30E4_U+30FC 1
 62
   179
420
  2234388
370
    25
  0
POLYLINE
  5
9D
330
8D
100
AcDbEntity
  8
_U+30EC_U+30A4_U+30E4_U+30FC 1
 62
   179
420
  2234388
370
    25
100
AcDb2dPolyline
 66
     1
 10
0.0
 20
0.0
 30
0.0
  0
VERTEX
  5
9E
330
9D
100
AcDbEntity
  8
_U+30EC_U+30A4_U+30E4_U+30FC 1
 62
   179
420
  2234388
370
    25
100
AcDbVertex
100
AcDb2dVertex
 10
55.42745525259448
 20
-92.42019303245024
 30
0.0
  0
VERTEX
  5
9F
330
9D
100
AcDbEntity
  8
_U+30EC_U+30A4_U+30E4_U+30FC 1
 62
   179
420
  2234388
370
    25
100
AcDbVertex
100
AcDb2dVertex
 10
59.42721431721878
 20
-92.42019303245024
 30
0.0
  0
SEQEND
  5
A0
330
9D
100
AcDbEntity
  8
_U+30EC_U+30A4_U+30E4_U+30FC 1
 62
   179
420
  2234388
370
    25
  0
POLYLINE
  5
A1
330
8D
100
AcDbEntity
  8
_U+30EC_U+30A4_U+30E4_U+30FC 1
 62
   179
420
  2234388
370
    25
100
AcDb2dPolyline
 66
     1
 10
0.0
 20
0.0
 30
0.0
  0
VERTEX
  5
A2
330
A1
100
AcDbEntity
  8
_U+30EC_U+30A4_U+30E4_U+30FC 1
 62
   179
420
  2234388
370
    25
100
AcDbVertex
100
AcDb2dVertex
 10
49.42748151677767
 20
-95.42017997614523
 30
0.0
  0
VERTEX
  5
A3
330
A1
100
AcDbEntity
  8
_U+30EC_U+30A4_U+30E4_U+30FC 1
 62
   179
420
  2234388
370
    25
100
AcDbVertex
100
AcDb2dVertex
 10
59.42721431721878
 20
-95.42017997614523
 30
0.0
  0
SEQEND
  5
A4
330
A1
100
AcDbEntity
  8
_U+30EC_U+30A4_U+30E4_U+30FC 1
 62
   179
420
  2234388
370
    25
  0
POLYLINE
  5
A5
330
8D
100
AcDbEntity
  8
_U+30EC_U+30A4_U+30E4_U+30FC 1
 62
   179
420
  2234388
370
    25
100
AcDb2dPolyline
 66
     1
 10
0.0
 20
0.0
 30
0.0
  0
VERTEX
  5
A6
330
A5
100
AcDbEntity
  8
_U+30EC_U+30A4_U+30E4_U+30FC 1
 62
   179
420
  2234388
370
    25
100
AcDbVertex
100
AcDb2dVertex
 10
59.42721431721878
 20
-92.42019303245024
 30
0.0
  0
VERTEX
  5
A7
330
A5
100
AcDbEntity
  8
_U+30EC_U+30A4_U+30E4_U+30FC 1
 62
   179
420
  2234388
370
    25
100
AcDbVertex
100
AcDb2dVertex
 10
59.42721431721878
 20
-95.42017997614523
 30
0.0
  0
SEQEND
  5
A8
330
A5
100
AcDbEntity
  8
_U+30EC_U+30A4_U+30E4_U+30FC 1
 62
   179
420
  2234388
370
    25
  0
POLYLINE
  5
A9
330
8D
100
AcDbEntity
  8
_U+30EC_U+30A4_U+30E4_U+30FC 1
 62
   179
420
  2234388
370
    25
100
AcDb2dPolyline
 66
     1
 10
0.0
 20
0.0
 30
0.0
  0
VERTEX
  5
AA
330
A9
100
AcDbEntity
  8
_U+30EC_U+30A4_U+30E4_U+30FC 1
 62
   179
420
  2234388
370
    25
100
AcDbVertex
100
AcDb2dVertex
 10
55.42745525259448
 20
-92.42019303245024
 30
0.0
  0
VERTEX
  5
AB
330
A9
100
AcDbEntity
  8
_U+30EC_U+30A4_U+30E4_U+30FC 1
 62
   179
420
  2234388
370
    25
100
AcDbVertex
100
AcDb2dVertex
 10
55.42745525259448
 20
-93.22015192113952
 30
0.0
  0
SEQEND
  5
AC
330
A9
100
AcDbEntity
  8
_U+30EC_U+30A4_U+30E4_U+30FC 1
 62
   179
420
  2234388
370
    25
  0
POLYLINE
  5
AD
330
8D
100
AcDbEntity
  8
_U+30EC_U+30A4_U+30E4_U+30FC 1
 62
   179
420
  2234388
370
    25
100
AcDb2dPolyline
 66
     1
 10
0.0
 20
0.0
 30
0.0
  0
VERTEX
  5
AE
330
AD
100
AcDbEntity
  8
_U+30EC_U+30A4_U+30E4_U+30FC 1
 62
   179
420
  2234388
370
    25
100
AcDbVertex
100
AcDb2dVertex
 10
55.42745525259448
 20
-93.22015192113952
 30
0.0
  0
VERTEX
  5
AF
330
AD
100
AcDbEntity
  8
_U+30EC_U+30A4_U+30E4_U+30FC 1
 62
   179
420
  2234388
370
    25
100
AcDbVertex
100
AcDb2dVertex
 10
58.62725544873855
 20
-93.22015192113952
 30
0.0
  0
SEQEND
  5
B0
330
AD
100
AcDbEntity
  8
_U+30EC_U+30A4_U+30E4_U+30FC 1
 62
   179
420
  2234388
370
    25
  0
POLYLINE
  5
B1
330
8D
100
AcDbEntity
  8
_U+30EC_U+30A4_U+30E4_U+30FC 1
 62
   179
420
  2234388
370
    25
100
AcDb2dPolyline
 66
     1
 10
0.0
 20
0.0
 30
0.0
  0
VERTEX
  5
B2
330
B1
100
AcDbEntity
  8
_U+30EC_U+30A4_U+30E4_U+30FC 1
 62
   179
420
  2234388
370
    25
100
AcDbVertex
100
AcDb2dVertex
 10
49.42748151677767
 20
-94.62022108745597
 30
0.0
  0
VERTEX
  5
B3
330
B1
100
AcDbEntity
  8
_U+30EC_U+30A4_U+30E4_U+30FC 1
 62
   179
420
  2234388
370
    25
100
AcDbVertex
100
AcDb2dVertex
 10
49.92768511512752
 20
-94.62022108745597
 30
0.0
  0
SEQEND
  5
B4
330
B1
100
AcDbEntity
  8
_U+30EC_U+30A4_U+30E4_U+30FC 1
 62
   179
420
  2234388
370
    25
  0
POLYLINE
  5
B5
330
8D
100
AcDbEntity
  8
_U+30EC_U+30A4_U+30E4_U+30FC 1
 62
   179
420
  2234388
370
    25
100
AcDb2dPolyline
 66
     1
 10
0.0
 20
0.0
 30
0.0
  0
VERTEX
  5
B6
330
B5
100
AcDbEntity
  8
_U+30EC_U+30A4_U+30E4_U+30FC 1
 62
   179
420
  2234388
370
    25
100
AcDbVertex
100
AcDb2dVertex
 10
58.62725544873855
 20
-93.22015192113952
 30
0.0
  0
VERTEX
  5
B7
330
B5
100
AcDbEntity
  8
_U+30EC_U+30A4_U+30E4_U+30FC 1
 62
   179
420
  2234388
370
    25
100
AcDbVertex
100
AcDb2dVertex
 10
58.62725544873855
 20
-94.62022108745597
 30
0.0
  0
SEQEND
  5
B8
330
B5
100
AcDbEntity
  8
_U+30EC_U+30A4_U+30E4_U+30FC 1
 62
   179
420
  2234388
370
    25
  0
POLYLINE
  5
B9
330
8D
100
AcDbEntity
  8
_U+30EC_U+30A4_U+30E4_U+30FC 1
 62
   179
420
  2234388
370
    25
100
AcDb2dPolyline
 66
     1
 10
0.0
 20
0.0
 30
0.0
  0
VERTEX
  5
BA
330
B9
100
AcDbEntity
  8
_U+30EC_U+30A4_U+30E4_U+30FC 1
 62
   179
420
  2234388
370
    25
100
AcDbVertex
100
AcDb2dVertex
 10
49.42748151677767
 20
-94.62022108745597
 30
0.0
  0
VERTEX
  5
BB
330
B9
100
AcDbEntity
  8
_U+30EC_U+30A4_U+30E4_U+30FC 1
 62
   179
420
  2234388
370
    25
100
AcDbVertex
100
AcDb2dVertex
 10
49.42748151677767
 20
-95.42017997614523
 30
0.0
  0
SEQEND
  5
BC
330
B9
100
AcDbEntity
  8
_U+30EC_U+30A4_U+30E4_U+30FC 1
 62
   179
420
  2234388
370
    25
  0
POLYLINE
  5
BD
330
8D
100
AcDbEntity
  8
_U+30EC_U+30A4_U+30E4_U+30FC 1
 62
   179
420
  2234388
370
    25
100
AcDb2dPolyline
 66
     1
 10
0.0
 20
0.0
 30
0.0
  0
VERTEX
  5
BE
330
BD
100
AcDbEntity
  8
_U+30EC_U+30A4_U+30E4_U+30FC 1
 62
   179
420
  2234388
370
    25
100
AcDbVertex
100
AcDb2dVertex
 10
50.72834953914532
 20
-94.62022108745597
 30
0.0
  0
VERTEX
  5
BF
330
BD
100
AcDbEntity
  8
_U+30EC_U+30A4_U+30E4_U+30FC 1
 62
   179
420
  2234388
370
    25
100
AcDbVertex
100
AcDb2dVertex
 10
58.62725544873855
 20
-94.62022108745597
 30
0.0
  0
SEQEND
  5
C0
330
BD
100
AcDbEntity
  8
_U+30EC_U+30A4_U+30E4_U+30FC 1
 62
   179
420
  2234388
370
    25
  0
POLYLINE
  5
C1
330
8D
100
AcDbEntity
  8
_U+30EC_U+30A4_U+30E4_U+30FC 1
 62
   179
420
  2234388
370
    25
100
AcDb2dPolyline
 66
     1
 10
0.0
 20
0.0
 30
0.0
  0
VERTEX
  5
C2
330
C1
100
AcDbEntity
  8
_U+30EC_U+30A4_U+30E4_U+30FC 1
 62
   179
420
  2234388
370
    25
100
AcDbVertex
100
AcDb2dVertex
 10
50.42757121348548
 20
-81.62018359070613
 30
0.0
  0
VERTEX
  5
C3
330
C1
100
AcDbEntity
  8
_U+30EC_U+30A4_U+30E4_U+30FC 1
 62
   179
420
  2234388
370
    25
100
AcDbVertex
100
AcDb2dVertex
 10
49.92768511512752
 20
-94.62022108745597
 30
0.0
  0
SEQEND
  5
C4
330
C1
100
AcDbEntity
  8
_U+30EC_U+30A4_U+30E4_U+30FC 1
 62
   179
420
  2234388
370
    25
  0
POLYLINE
  5
C5
330
8D
100
AcDbEntity
  8
_U+30EC_U+30A4_U+30E4_U+30FC 1
 62
   179
420
  2234388
370
    25
100
AcDb2dPolyline
 66
     1
 10
0.0
 20
0.0
 30
0.0
  0
VERTEX
  5
C6
330
C5
100
AcDbEntity
  8
_U+30EC_U+30A4_U+30E4_U+30FC 1
 62
   179
420
  2234388
370
    25
100
AcDbVertex
100
AcDb2dVertex
 10
51.19758054275631
 20
-82.42010720161724
 30
0.0
  0
VERTEX
  5
C7
330
C5
100
AcDbEntity
  8
_U+30EC_U+30A4_U+30E4_U+30FC 1
 62
   179
420
  2234388
370
    25
100
AcDbVertex
100
AcDb2dVertex
 10
50.72834953914532
 20
-94.62022108745597
 30
0.0
  0
SEQEND
  5
C8
330
C5
100
AcDbEntity
  8
_U+30EC_U+30A4_U+30E4_U+30FC 1
 62
   179
420
  2234388
370
    25
  0
ENDBLK
  5
90
330
8D
100
AcDbEntity
  8
0
100
AcDbBlockEnd
  0
BLOCK
  5
DF
330
DD
100
AcDbEntity
  8
0
100
AcDbBlockBegin
  2
block 4
 70
     0
 10
0.0
 20
0.0
 30
0.0
  3
block 4
  1

  0
SPLINE
  5
E1
330
DD
100
AcDbEntity
  8
_U+30EC_U+30A4_U+30E4_U+30FC 1
370
     0
100
AcDbSpline
210
0.0
220
0.0
230
1.0
 70
    11
 71
     3
 72
    44
 73
    40
 74
     0
 42
0.0000000001
 43
0.0000000001
 12
1.0
 22
0.0
 32
0.0
 13
1.0
 23
0.0
 33
0.0
 40
0.0
 40
0.0
 40
0.0
 40
0.0
 40
1.0
 40
1.0
 40
1.0
 40
2.0
 40
2.0
 40
2.0
 40
3.0
 40
3.0
 40
3.0
 40
4.0
 40
4.0
 40
4.0
 40
5.0
 40
5.0
 40
5.0
 40
6.0
 40
6.0
 40
6.0
 40
7.0
 40
7.0
 40
7.0
 40
8.0
 40
8.0
 40
8.0
 40
9.0
 40
9.0
 40
9.0
 40
10.0
 40
10.0
 40
10.0
 40
11.0
 40
11.0
 40
11.0
 40
12.0
 40
12.0
 40
12.0
 40
13.0
 40
13.0
 40
13.0
 40
13.0
 10
61.39763046425129
 20
-75.68685300842203
 30
0.0
 10
61.1647420094484
 20
-75.8454996555178
 30
0.0
 10
61.06535100469894
 20
-75.91956920845067
 30
0.0
 10
61.01333006287167
 20
-76.06340194495985
 30
0.0
 10
61.01333006287167
 20
-76.06340194495985
 30
0.0
 10
61.84532062255951
 20
-76.06340194495985
 30
0.0
 10
61.84532062255951
 20
-76.06340194495985
 30
0.0
 10
61.84532062255951
 20
-76.06340194495985
 30
0.0
 10
61.84532062255951
 20
-76.26855738110648
 30
0.0
 10
61.84532062255951
 20
-76.26855738110648
 30
0.0
 10
61.84532062255951
 20
-76.26855738110648
 30
0.0
 10
60.74650741753907
 20
-76.26855738110648
 30
0.0
 10
60.74650741753907
 20
-76.26855738110648
 30
0.0
 10
60.78044160806878
 20
-75.91095646973754
 30
0.0
 10
60.85054930119362
 20
-75.83275280222237
 30
0.0
 10
61.26206595690671
 20
-75.53440753319974
 30
0.0
 10
61.53560653843554
 20
-75.33562552370081
 30
0.0
 10
61.60571423156038
 20
-75.26792939741566
 30
0.0
 10
61.60571423156038
 20
-75.13047008755419
 30
0.0
 10
61.60571423156038
 20
-75.0119588028616
 30
0.0
 10
61.52888860223931
 20
-74.88087291964784
 30
0.0
 10
61.31856552286481
 20
-74.88087291964784
 30
0.0
 10
61.04037406243088
 20
-74.88087291964784
 30
0.0
 10
61.03141681416923
 20
-75.11134980761105
 30
0.0
 10
61.02693819003841
 20
-75.2277940350125
 30
0.0
 10
61.02693819003841
 20
-75.2277940350125
 30
0.0
 10
60.78715954426502
 20
-75.2277940350125
 30
0.0
 10
60.78715954426502
 20
-75.2277940350125
 30
0.0
 10
60.79628904730093
 20
-75.10084226638104
 30
0.0
 10
60.80765786240225
 20
-74.98870440833616
 30
0.0
 10
60.89344073998497
 20
-74.87019312364356
 30
0.0
 10
61.01109075080626
 20
-74.70947941925667
 30
0.0
 10
61.21004501507944
 20
-74.67554522872695
 30
0.0
 10
61.33441296209696
 20
-74.67554522872695
 30
0.0
 10
61.63051891905418
 20
-74.67554522872695
 30
0.0
 10
61.85203855875574
 20
-74.85968558241355
 30
0.0
 10
61.85203855875574
 20
-75.13253714484534
 30
0.0
 10
61.85203855875574
 20
-75.36094697551741
 30
0.0
 10
61.72767061173823
 20
-75.46051023504113
 30
0.0
 10
61.39763046425129
 20
-75.68685300842203
 30
0.0
  0
HATCH
  5
E2
330
DD
100
AcDbEntity
  8
_U+30EC_U+30A4_U+30E4_U+30FC 1
 62
   179
420
  2234388
100
AcDbHatch
 10
0.0
 20
0.0
 30
0.0
210
0.0
220
0.0
230
1.0
  2
SOLID
 70
     1
 71
     0
 91
        1
 92
        1
 93
        1
 72
     4
 94
        3
 73
     0
 74
     1
 95
       44
 96
       40
 40
0.0
 40
0.0
 40
0.0
 40
0.0
 40
1.0
 40
1.0
 40
1.0
 40
2.0
 40
2.0
 40
2.0
 40
3.0
 40
3.0
 40
3.0
 40
4.0
 40
4.0
 40
4.0
 40
5.0
 40
5.0
 40
5.0
 40
6.0
 40
6.0
 40
6.0
 40
7.0
 40
7.0
 40
7.0
 40
8.0
 40
8.0
 40
8.0
 40
9.0
 40
9.0
 40
9.0
 40
10.0
 40
10.0
 40
10.0
 40
11.0
 40
11.0
 40
11.0
 40
12.0
 40
12.0
 40
12.0
 40
13.0
 40
13.0
 40
13.0
 40
13.0
 10
61.39763046425129
 20
-75.68685300842203
 10
61.1647420094484
 20
-75.8454996555178
 10
61.06535100469894
 20
-75.91956920845067
 10
61.01333006287167
 20
-76.06340194495985
 10
61.01333006287167
 20
-76.06340194495985
 10
61.84532062255951
 20
-76.06340194495985
 10
61.84532062255951
 20
-76.06340194495985
 10
61.84532062255951
 20
-76.06340194495985
 10
61.84532062255951
 20
-76.26855738110648
 10
61.84532062255951
 20
-76.26855738110648
 10
61.84532062255951
 20
-76.26855738110648
 10
60.74650741753907
 20
-76.26855738110648
 10
60.74650741753907
 20
-76.26855738110648
 10
60.78044160806878
 20
-75.91095646973754
 10
60.85054930119362
 20
-75.83275280222237
 10
61.26206595690671
 20
-75.53440753319974
 10
61.53560653843554
 20
-75.33562552370081
 10
61.60571423156038
 20
-75.26792939741566
 10
61.60571423156038
 20
-75.13047008755419
 10
61.60571423156038
 20
-75.0119588028616
 10
61.52888860223931
 20
-74.88087291964784
 10
61.31856552286481
 20
-74.88087291964784
 10
61.04037406243088
 20
-74.88087291964784
 10
61.03141681416923
 20
-75.11134980761105
 10
61.02693819003841
 20
-75.2277940350125
 10
61.02693819003841
 20
-75.2277940350125
 10
60.78715954426502
 20
-75.2277940350125
 10
60.78715954426502
 20
-75.2277940350125
 10
60.79628904730093
 20
-75.10084226638104
 10
60.80765786240225
 20
-74.98870440833616
 10
60.89344073998497
 20
-74.87019312364356
 10
61.01109075080626
 20
-74.70947941925667
 10
61.21004501507944
 20
-74.67554522872695
 10
61.33441296209696
 20
-74.67554522872695
 10
61.63051891905418
 20
-74.67554522872695
 10
61.85203855875574
 20
-74.85968558241355
 10
61.85203855875574
 20
-75.13253714484534
 10
61.85203855875574
 20
-75.36094697551741
 10
61.72767061173823
 20
-75.46051023504113
 10
61.39763046425129
 20
-75.68685300842203
 97
        0
 97
        0
 75
     2
 76
     1
 98
        0
  0
SPLINE
  5
E3
330
DD
100
AcDbEntity
  8
_U+30EC_U+30A4_U+30E4_U+30FC 1
370
     0
100
AcDbSpline
210
0.0
220
0.0
230
1.0
 70
    11
 71
     3
 72
    62
 73
    58
 74
     0
 42
0.0000000001
 43
0.0000000001
 12
1.0
 22
0.0
 32
0.0
 13
1.0
 23
0.0
 33
0.0
 40
0.0
 40
0.0
 40
0.0
 40
0.0
 40
1.0
 40
1.0
 40
1.0
 40
2.0
 40
2.0
 40
2.0
 40
3.0
 40
3.0
 40
3.0
 40
4.0
 40
4.0
 40
4.0
 40
5.0
 40
5.0
 40
5.0
 40
6.0
 40
6.0
 40
6.0
 40
7.0
 40
7.0
 40
7.0
 40
8.0
 40
8.0
 40
8.0
 40
9.0
 40
9.0
 40
9.0
 40
10.0
 40
10.0
 40
10.0
 40
11.0
 40
11.0
 40
11.0
 40
12.0
 40
12.0
 40
12.0
 40
13.0
 40
13.0
 40
13.0
 40
14.0
 40
14.0
 40
14.0
 40
15.0
 40
15.0
 40
15.0
 40
16.0
 40
16.0
 40
16.0
 40
17.0
 40
17.0
 40
17.0
 40
18.0
 40
18.0
 40
18.0
 40
19.0
 40
19.0
 40
19.0
 40
19.0
 10
62.54691431813063
 20
-76.3193725395139
 30
0.0
 10
62.44528400131576
 20
-76.3193725395139
 30
0.0
 10
62.21239554651287
 20
-76.29818520227963
 30
0.0
 10
62.07907035123371
 20
-76.11197779130187
 30
0.0
 10
61.99983315507296
 20
-75.999839933257
 30
0.0
 10
61.99535453094214
 20
-75.90044892850753
 30
0.0
 10
61.99087590681131
 20
-75.81587183434465
 30
0.0
 10
61.99087590681131
 20
-75.81587183434465
 30
0.0
 10
62.22583141890535
 20
-75.81587183434465
 30
0.0
 10
62.22583141890535
 20
-75.81587183434465
 30
0.0
 10
62.22824298574503
 20
-75.88994138727752
 30
0.0
 10
62.23961180084635
 20
-76.1247246445973
 30
0.0
 10
62.54243569399981
 20
-76.1247246445973
 30
0.0
 10
62.68954127121998
 20
-76.1247246445973
 30
0.0
 10
62.85214977812377
 20
-76.05496146102098
 30
0.0
 10
62.85214977812377
 20
-75.82637937557466
 30
0.0
 10
62.85214977812377
 20
-75.71010740294747
 30
0.0
 10
62.81149765139782
 20
-75.6613593018312
 30
0.0
 10
62.77739120609385
 20
-75.62966442336689
 30
0.0
 10
62.69849851948163
 20
-75.55559487043402
 30
0.0
 10
62.57413057246411
 20
-75.54302027191287
 30
0.0
 10
62.51521943966634
 20
-75.54302027191287
 30
0.0
 10
62.49489337630336
 20
-75.54302027191287
 30
0.0
 10
62.45665281641709
 20
-75.54508732920401
 30
0.0
 10
62.42702499524394
 20
-75.54922144378631
 30
0.0
 10
62.42702499524394
 20
-75.54922144378631
 30
0.0
 10
62.42702499524394
 20
-75.3545735488697
 30
0.0
 10
62.42702499524394
 20
-75.3545735488697
 30
0.0
 10
62.46767712196989
 20
-75.36094697551741
 30
0.0
 10
62.51315238237519
 20
-75.36318628758282
 30
0.0
 10
62.51969806379716
 20
-75.36318628758282
 30
0.0
 10
62.58997801169626
 20
-75.36318628758282
 30
0.0
 10
62.80254040313617
 20
-75.34199895034853
 30
0.0
 10
62.80254040313617
 20
-75.10497638096334
 30
0.0
 10
62.80254040313617
 20
-74.92738170869872
 30
0.0
 10
62.66232501688651
 20
-74.87226018093472
 30
0.0
 10
62.54484726083948
 20
-74.87226018093472
 30
0.0
 10
62.26200492150048
 20
-74.87226018093472
 30
0.0
 10
62.25304767323883
 20
-75.10497638096334
 30
0.0
 10
62.248569049108
 20
-75.17697887660506
 30
0.0
 10
62.248569049108
 20
-75.17697887660506
 30
0.0
 10
62.03152803353726
 20
-75.17697887660506
 30
0.0
 10
62.03152803353726
 20
-75.17697887660506
 30
0.0
 10
62.04048528179891
 20
-75.05209416526476
 30
0.0
 10
62.06976859342353
 20
-74.67554522872695
 30
0.0
 10
62.55828313323196
 20
-74.67554522872695
 30
0.0
 10
62.79806177900535
 20
-74.67554522872695
 30
0.0
 10
63.05575492130204
 20
-74.8024969973584
 30
0.0
 10
63.05575492130204
 20
-75.09860295431562
 30
0.0
 10
63.05575492130204
 20
-75.28481036529338
 30
0.0
 10
62.95378009493864
 20
-75.36732040216512
 30
0.0
 10
62.84767115399295
 20
-75.42864310180256
 30
0.0
 10
62.91312796821269
 20
-75.45620386568456
 30
0.0
 10
63.10777586312931
 20
-75.53664684526515
 30
0.0
 10
63.10777586312931
 20
-75.81380477705349
 30
0.0
 10
63.10777586312931
 20
-76.15228540847929
 30
0.0
 10
62.84319252986212
 20
-76.3193725395139
 30
0.0
 10
62.54691431813063
 20
-76.3193725395139
 30
0.0
  0
HATCH
  5
E4
330
DD
100
AcDbEntity
  8
_U+30EC_U+30A4_U+30E4_U+30FC 1
 62
   179
420
  2234388
100
AcDbHatch
 10
0.0
 20
0.0
 30
0.0
210
0.0
220
0.0
230
1.0
  2
SOLID
 70
     1
 71
     0
 91
        1
 92
        1
 93
        1
 72
     4
 94
        3
 73
     0
 74
     1
 95
       62
 96
       58
 40
0.0
 40
0.0
 40
0.0
 40
0.0
 40
1.0
 40
1.0
 40
1.0
 40
2.0
 40
2.0
 40
2.0
 40
3.0
 40
3.0
 40
3.0
 40
4.0
 40
4.0
 40
4.0
 40
5.0
 40
5.0
 40
5.0
 40
6.0
 40
6.0
 40
6.0
 40
7.0
 40
7.0
 40
7.0
 40
8.0
 40
8.0
 40
8.0
 40
9.0
 40
9.0
 40
9.0
 40
10.0
 40
10.0
 40
10.0
 40
11.0
 40
11.0
 40
11.0
 40
12.0
 40
12.0
 40
12.0
 40
13.0
 40
13.0
 40
13.0
 40
14.0
 40
14.0
 40
14.0
 40
15.0
 40
15.0
 40
15.0
 40
16.0
 40
16.0
 40
16.0
 40
17.0
 40
17.0
 40
17.0
 40
18.0
 40
18.0
 40
18.0
 40
19.0
 40
19.0
 40
19.0
 40
19.0
 10
62.54691431813063
 20
-76.3193725395139
 10
62.44528400131576
 20
-76.3193725395139
 10
62.21239554651287
 20
-76.29818520227963
 10
62.07907035123371
 20
-76.11197779130187
 10
61.99983315507296
 20
-75.999839933257
 10
61.99535453094214
 20
-75.90044892850753
 10
61.99087590681131
 20
-75.81587183434465
 10
61.99087590681131
 20
-75.81587183434465
 10
62.22583141890535
 20
-75.81587183434465
 10
62.22583141890535
 20
-75.81587183434465
 10
62.22824298574503
 20
-75.88994138727752
 10
62.23961180084635
 20
-76.1247246445973
 10
62.54243569399981
 20
-76.1247246445973
 10
62.68954127121998
 20
-76.1247246445973
 10
62.85214977812377
 20
-76.05496146102098
 10
62.85214977812377
 20
-75.82637937557466
 10
62.85214977812377
 20
-75.71010740294747
 10
62.81149765139782
 20
-75.6613593018312
 10
62.77739120609385
 20
-75.62966442336689
 10
62.69849851948163
 20
-75.55559487043402
 10
62.57413057246411
 20
-75.54302027191287
 10
62.51521943966634
 20
-75.54302027191287
 10
62.49489337630336
 20
-75.54302027191287
 10
62.45665281641709
 20
-75.54508732920401
 10
62.42702499524394
 20
-75.54922144378631
 10
62.42702499524394
 20
-75.54922144378631
 10
62.42702499524394
 20
-75.3545735488697
 10
62.42702499524394
 20
-75.3545735488697
 10
62.46767712196989
 20
-75.36094697551741
 10
62.51315238237519
 20
-75.36318628758282
 10
62.51969806379716
 20
-75.36318628758282
 10
62.58997801169626
 20
-75.36318628758282
 10
62.80254040313617
 20
-75.34199895034853
 10
62.80254040313617
 20
-75.10497638096334
 10
62.80254040313617
 20
-74.92738170869872
 10
62.66232501688651
 20
-74.87226018093472
 10
62.54484726083948
 20
-74.87226018093472
 10
62.26200492150048
 20
-74.87226018093472
 10
62.25304767323883
 20
-75.10497638096334
 10
62.248569049108
 20
-75.17697887660506
 10
62.248569049108
 20
-75.17697887660506
 10
62.03152803353726
 20
-75.17697887660506
 10
62.03152803353726
 20
-75.17697887660506
 10
62.04048528179891
 20
-75.05209416526476
 10
62.06976859342353
 20
-74.67554522872695
 10
62.55828313323196
 20
-74.67554522872695
 10
62.79806177900535
 20
-74.67554522872695
 10
63.05575492130204
 20
-74.8024969973584
 10
63.05575492130204
 20
-75.09860295431562
 10
63.05575492130204
 20
-75.28481036529338
 10
62.95378009493864
 20
-75.36732040216512
 10
62.84767115399295
 20
-75.42864310180256
 10
62.91312796821269
 20
-75.45620386568456
 10
63.10777586312931
 20
-75.53664684526515
 10
63.10777586312931
 20
-75.81380477705349
 10
63.10777586312931
 20
-76.15228540847929
 10
62.84319252986212
 20
-76.3193725395139
 10
62.54691431813063
 20
-76.3193725395139
 97
        0
 97
        0
 75
     2
 76
     1
 98
        0
  0
ENDBLK
  5
E0
330
DD
100
AcDbEntity
  8
0
100
AcDbBlockEnd
  0
BLOCK
  5
F3
330
F1
100
AcDbEntity
  8
0
100
AcDbBlockBegin
  2
block 5
 70
     0
 10
0.0
 20
0.0
 30
0.0
  3
block 5
  1

  0
SPLINE
  5
F5
330
F1
100
AcDbEntity
  8
_U+30EC_U+30A4_U+30E4_U+30FC 1
370
     0
100
AcDbSpline
210
0.0
220
0.0
230
1.0
 70
    11
 71
     3
 72
    26
 73
    22
 74
     0
 42
0.0000000001
 43
0.0000000001
 12
1.0
 22
0.0
 32
0.0
 13
1.0
 23
0.0
 33
0.0
 40
0.0
 40
0.0
 40
0.0
 40
0.0
 40
1.0
 40
1.0
 40
1.0
 40
2.0
 40
2.0
 40
2.0
 40
3.0
 40
3.0
 40
3.0
 40
4.0
 40
4.0
 40
4.0
 40
5.0
 40
5.0
 40
5.0
 40
6.0
 40
6.0
 40
6.0
 40
7.0
 40
7.0
 40
7.0
 40
7.0
 10
53.74624564628567
 20
-99.07956811759122
 30
0.0
 10
53.74624564628567
 20
-99.07956811759122
 30
0.0
 10
53.74624564628567
 20
-97.97541501456865
 30
0.0
 10
53.74624564628567
 20
-97.97541501456865
 30
0.0
 10
53.74624564628567
 20
-97.97541501456865
 30
0.0
 10
53.39346786859608
 20
-97.97541501456865
 30
0.0
 10
53.39346786859608
 20
-97.97541501456865
 30
0.0
 10
53.39346786859608
 20
-97.97541501456865
 30
0.0
 10
53.39346786859608
 20
-97.8272759087029
 30
0.0
 10
53.39346786859608
 20
-97.8272759087029
 30
0.0
 10
53.74848495835108
 20
-97.81246199811633
 30
0.0
 10
53.79826658811294
 20
-97.64950898166401
 30
0.0
 10
53.82978921180298
 20
-97.53513181155373
 30
0.0
 10
53.82978921180298
 20
-97.53513181155373
 30
0.0
 10
53.98585203728479
 20
-97.53513181155373
 30
0.0
 10
53.98585203728479
 20
-97.53513181155373
 30
0.0
 10
53.98585203728479
 20
-97.53513181155373
 30
0.0
 10
53.98585203728479
 20
-99.07956811759122
 30
0.0
 10
53.98585203728479
 20
-99.07956811759122
 30
0.0
 10
53.98585203728479
 20
-99.07956811759122
 30
0.0
 10
53.74624564628567
 20
-99.07956811759122
 30
0.0
 10
53.74624564628567
 20
-99.07956811759122
 30
0.0
  0
HATCH
  5
F6
330
F1
100
AcDbEntity
  8
_U+30EC_U+30A4_U+30E4_U+30FC 1
 62
   179
420
  2234388
100
AcDbHatch
 10
0.0
 20
0.0
 30
0.0
210
0.0
220
0.0
230
1.0
  2
SOLID
 70
     1
 71
     0
 91
        1
 92
        1
 93
        1
 72
     4
 94
        3
 73
     0
 74
     1
 95
       26
 96
       22
 40
0.0
 40
0.0
 40
0.0
 40
0.0
 40
1.0
 40
1.0
 40
1.0
 40
2.0
 40
2.0
 40
2.0
 40
3.0
 40
3.0
 40
3.0
 40
4.0
 40
4.0
 40
4.0
 40
5.0
 40
5.0
 40
5.0
 40
6.0
 40
6.0
 40
6.0
 40
7.0
 40
7.0
 40
7.0
 40
7.0
 10
53.74624564628567
 20
-99.07956811759122
 10
53.74624564628567
 20
-99.07956811759122
 10
53.74624564628567
 20
-97.97541501456865
 10
53.74624564628567
 20
-97.97541501456865
 10
53.74624564628567
 20
-97.97541501456865
 10
53.39346786859608
 20
-97.97541501456865
 10
53.39346786859608
 20
-97.97541501456865
 10
53.39346786859608
 20
-97.97541501456865
 10
53.39346786859608
 20
-97.8272759087029
 10
53.39346786859608
 20
-97.8272759087029
 10
53.74848495835108
 20
-97.81246199811633
 10
53.79826658811294
 20
-97.64950898166401
 10
53.82978921180298
 20
-97.53513181155373
 10
53.82978921180298
 20
-97.53513181155373
 10
53.98585203728479
 20
-97.53513181155373
 10
53.98585203728479
 20
-97.53513181155373
 10
53.98585203728479
 20
-97.53513181155373
 10
53.98585203728479
 20
-99.07956811759122
 10
53.98585203728479
 20
-99.07956811759122
 10
53.98585203728479
 20
-99.07956811759122
 10
53.74624564628567
 20
-99.07956811759122
 10
53.74624564628567
 20
-99.07956811759122
 97
        0
 97
        0
 75
     2
 76
     1
 98
        0
  0
SPLINE
  5
F7
330
F1
100
AcDbEntity
  8
_U+30EC_U+30A4_U+30E4_U+30FC 1
370
     0
100
AcDbSpline
210
0.0
220
0.0
230
1.0
 70
    11
 71
     3
 72
    29
 73
    25
 74
     0
 42
0.0000000001
 43
0.0000000001
 12
1.0
 22
0.0
 32
0.0
 13
1.0
 23
0.0
 33
0.0
 40
0.0
 40
0.0
 40
0.0
 40
0.0
 40
1.0
 40
1.0
 40
1.0
 40
2.0
 40
2.0
 40
2.0
 40
3.0
 40
3.0
 40
3.0
 40
4.0
 40
4.0
 40
4.0
 40
5.0
 40
5.0
 40
5.0
 40
6.0
 40
6.0
 40
6.0
 40
7.0
 40
7.0
 40
7.0
 40
8.0
 40
8.0
 40
8.0
 40
8.0
 10
55.48102347788322
 20
-98.90180119055233
 30
0.0
 10
55.36578503390161
 20
-99.11126299605552
 30
0.0
 10
55.18043889679517
 20
-99.1302110212244
 30
0.0
 10
55.05607094977765
 20
-99.1302110212244
 30
0.0
 10
54.88416068506368
 20
-99.1302110212244
 30
0.0
 10
54.73274873848695
 20
-99.08370223217352
 30
0.0
 10
54.63094616689782
 20
-98.90180119055233
 30
0.0
 10
54.52018634704704
 20
-98.70715329563572
 30
0.0
 10
54.49986028368406
 20
-98.47013072625053
 30
0.0
 10
54.49986028368406
 20
-98.30752221934674
 30
0.0
 10
54.49986028368406
 20
-98.1635172280633
 30
0.0
 10
54.51794703498162
 20
-97.91168074809153
 30
0.0
 10
54.63094616689782
 20
-97.71289873859261
 30
0.0
 10
54.74635686565369
 20
-97.5099826145114
 30
0.0
 10
54.9180948755934
 20
-97.48655596521169
 30
0.0
 10
55.05607094977765
 20
-97.48655596521169
 30
0.0
 10
55.22556964765194
 20
-97.48655596521169
 30
0.0
 10
55.37939316106835
 20
-97.53099769697143
 30
0.0
 10
55.48102347788322
 20
-97.71289873859261
 30
0.0
 10
55.58730467360318
 20
-97.90547957621808
 30
0.0
 10
55.61228161587124
 20
-98.13388940689015
 30
0.0
 10
55.61228161587124
 20
-98.30752221934674
 30
0.0
 10
55.61228161587124
 20
-98.47874346496366
 30
0.0
 10
55.58954398566859
 20
-98.70922035292686
 30
0.0
 10
55.48102347788322
 20
-98.90180119055233
 30
0.0
  0
SPLINE
  5
F8
330
F1
100
AcDbEntity
  8
_U+30EC_U+30A4_U+30E4_U+30FC 1
370
     0
100
AcDbSpline
210
0.0
220
0.0
230
1.0
 70
    11
 71
     3
 72
    17
 73
    13
 74
     0
 42
0.0000000001
 43
0.0000000001
 12
1.0
 22
0.0
 32
0.0
 13
1.0
 23
0.0
 33
0.0
 40
0.0
 40
0.0
 40
0.0
 40
0.0
 40
1.0
 40
1.0
 40
1.0
 40
2.0
 40
2.0
 40
2.0
 40
3.0
 40
3.0
 40
3.0
 40
4.0
 40
4.0
 40
4.0
 40
4.0
 10
55.05607094977765
 20
-97.67913680283716
 30
0.0
 10
54.78924830444505
 20
-97.67913680283716
 30
0.0
 10
54.73946667468319
 20
-97.96266816127323
 30
0.0
 10
54.73946667468319
 20
-98.30752221934674
 30
0.0
 10
54.73946667468319
 20
-98.6268825708294
 30
0.0
 10
54.77787948934373
 20
-98.93556312630778
 30
0.0
 10
55.05607094977765
 20
-98.93556312630778
 30
0.0
 10
55.32048202827058
 20
-98.93556312630778
 30
0.0
 10
55.37250297009785
 20
-98.65444333471139
 30
0.0
 10
55.37250297009785
 20
-98.30752221934674
 30
0.0
 10
55.37250297009785
 20
-97.98781735831555
 30
0.0
 10
55.3318508433719
 20
-97.67913680283716
 30
0.0
 10
55.05607094977765
 20
-97.67913680283716
 30
0.0
  0
HATCH
  5
F9
330
F1
100
AcDbEntity
  8
_U+30EC_U+30A4_U+30E4_U+30FC 1
 62
   179
420
  2234388
100
AcDbHatch
 10
0.0
 20
0.0
 30
0.0
210
0.0
220
0.0
230
1.0
  2
SOLID
 70
     1
 71
     0
 91
        2
 92
        1
 93
        1
 72
     4
 94
        3
 73
     0
 74
     1
 95
       29
 96
       25
 40
0.0
 40
0.0
 40
0.0
 40
0.0
 40
1.0
 40
1.0
 40
1.0
 40
2.0
 40
2.0
 40
2.0
 40
3.0
 40
3.0
 40
3.0
 40
4.0
 40
4.0
 40
4.0
 40
5.0
 40
5.0
 40
5.0
 40
6.0
 40
6.0
 40
6.0
 40
7.0
 40
7.0
 40
7.0
 40
8.0
 40
8.0
 40
8.0
 40
8.0
 10
55.48102347788322
 20
-98.90180119055233
 10
55.36578503390161
 20
-99.11126299605552
 10
55.18043889679517
 20
-99.1302110212244
 10
55.05607094977765
 20
-99.1302110212244
 10
54.88416068506368
 20
-99.1302110212244
 10
54.73274873848695
 20
-99.08370223217352
 10
54.63094616689782
 20
-98.90180119055233
 10
54.52018634704704
 20
-98.70715329563572
 10
54.49986028368406
 20
-98.47013072625053
 10
54.49986028368406
 20
-98.30752221934674
 10
54.49986028368406
 20
-98.1635172280633
 10
54.51794703498162
 20
-97.91168074809153
 10
54.63094616689782
 20
-97.71289873859261
 10
54.74635686565369
 20
-97.5099826145114
 10
54.9180948755934
 20
-97.48655596521169
 10
55.05607094977765
 20
-97.48655596521169
 10
55.22556964765194
 20
-97.48655596521169
 10
55.37939316106835
 20
-97.53099769697143
 10
55.48102347788322
 20
-97.71289873859261
 10
55.58730467360318
 20
-97.90547957621808
 10
55.61228161587124
 20
-98.13388940689015
 10
55.61228161587124
 20
-98.30752221934674
 10
55.61228161587124
 20
-98.47874346496366
 10
55.58954398566859
 20
-98.70922035292686
 10
55.48102347788322
 20
-98.90180119055233
 97
        0
 97
        0
 92
        1
 93
        1
 72
     4
 94
        3
 73
     0
 74
     1
 95
       17
 96
       13
 40
0.0
 40
0.0
 40
0.0
 40
0.0
 40
1.0
 40
1.0
 40
1.0
 40
2.0
 40
2.0
 40
2.0
 40
3.0
 40
3.0
 40
3.0
 40
4.0
 40
4.0
 40
4.0
 40
4.0
 10
55.05607094977765
 20
-97.67913680283716
 10
54.78924830444505
 20
-97.67913680283716
 10
54.73946667468319
 20
-97.96266816127323
 10
54.73946667468319
 20
-98.30752221934674
 10
54.73946667468319
 20
-98.6268825708294
 10
54.77787948934373
 20
-98.93556312630778
 10
55.05607094977765
 20
-98.93556312630778
 10
55.32048202827058
 20
-98.93556312630778
 10
55.37250297009785
 20
-98.65444333471139
 10
55.37250297009785
 20
-98.30752221934674
 10
55.37250297009785
 20
-97.98781735831555
 10
55.3318508433719
 20
-97.67913680283716
 10
55.05607094977765
 20
-97.67913680283716
 97
        0
 97
        0
 75
     2
 76
     1
 98
        0
  0
ENDBLK
  5
F4
330
F1
100
AcDbEntity
  8
0
100
AcDbBlockEnd
  0
BLOCK
  5
10C
330
10A
100
AcDbEntity
  8
0
100
AcDbBlockBegin
  2
block 6
 70
     0
 10
0.0
 20
0.0
 30
0.0
  3
block 6
  1

  0
SPLINE
  5
10E
330
10A
100
AcDbEntity
  8
_U+30EC_U+30A4_U+30E4_U+30FC 1
370
     0
100
AcDbSpline
210
0.0
220
0.0
230
1.0
 70
    11
 71
     3
 72
    29
 73
    25
 74
     0
 42
0.0000000001
 43
0.0000000001
 12
1.0
 22
0.0
 32
0.0
 13
1.0
 23
0.0
 33
0.0
 40
0.0
 40
0.0
 40
0.0
 40
0.0
 40
1.0
 40
1.0
 40
1.0
 40
2.0
 40
2.0
 40
2.0
 40
3.0
 40
3.0
 40
3.0
 40
4.0
 40
4.0
 40
4.0
 40
5.0
 40
5.0
 40
5.0
 40
6.0
 40
6.0
 40
6.0
 40
7.0
 40
7.0
 40
7.0
 40
8.0
 40
8.0
 40
8.0
 40
8.0
 10
75.89855412599064
 20
-79.11765134740808
 30
0.0
 10
76.10801593149384
 20
-79.23306204616397
 30
0.0
 10
76.1269639566627
 20
-79.4184081832704
 30
0.0
 10
76.1269639566627
 20
-79.54277613028792
 30
0.0
 10
76.1269639566627
 20
-79.71434188545336
 30
0.0
 10
76.08045516761183
 20
-79.86592608680435
 30
0.0
 10
75.89855412599064
 20
-79.96755640361923
 30
0.0
 10
75.70390623107403
 20
-80.07848847824427
 30
0.0
 10
75.46688366168884
 20
-80.09881454160724
 30
0.0
 10
75.30427515478505
 20
-80.09881454160724
 30
0.0
 10
75.16027016350161
 20
-80.09881454160724
 30
0.0
 10
74.90843368352984
 20
-80.08055553553542
 30
0.0
 10
74.70965167403092
 20
-79.96755640361923
 30
0.0
 10
74.50673554994971
 20
-79.85249021441189
 30
0.0
 10
74.48330890065002
 20
-79.68057994969791
 30
0.0
 10
74.48330890065002
 20
-79.54277613028792
 30
0.0
 10
74.48330890065002
 20
-79.3729329228651
 30
0.0
 10
74.52775063240973
 20
-79.21928166422296
 30
0.0
 10
74.70965167403092
 20
-79.11765134740808
 30
0.0
 10
74.9022325116564
 20
-79.01119789691387
 30
0.0
 10
75.13064234232846
 20
-78.98639320942007
 30
0.0
 10
75.30427515478505
 20
-78.98639320942007
 30
0.0
 10
75.47549640040197
 20
-78.98639320942007
 30
0.0
 10
75.70597328836517
 20
-79.00913083962273
 30
0.0
 10
75.89855412599064
 20
-79.11765134740808
 30
0.0
  0
SPLINE
  5
10F
330
10A
100
AcDbEntity
  8
_U+30EC_U+30A4_U+30E4_U+30FC 1
370
     0
100
AcDbSpline
210
0.0
220
0.0
230
1.0
 70
    11
 71
     3
 72
    17
 73
    13
 74
     0
 42
0.0000000001
 43
0.0000000001
 12
1.0
 22
0.0
 32
0.0
 13
1.0
 23
0.0
 33
0.0
 40
0.0
 40
0.0
 40
0.0
 40
0.0
 40
1.0
 40
1.0
 40
1.0
 40
2.0
 40
2.0
 40
2.0
 40
3.0
 40
3.0
 40
3.0
 40
4.0
 40
4.0
 40
4.0
 40
4.0
 10
74.67588973827547
 20
-79.54277613028792
 30
0.0
 10
74.67588973827547
 20
-79.80942652084626
 30
0.0
 10
74.95942109671154
 20
-79.85903589583386
 30
0.0
 10
75.30427515478505
 20
-79.85903589583386
 30
0.0
 10
75.6236355062677
 20
-79.85903589583386
 30
0.0
 10
75.93231606174609
 20
-79.82079533594758
 30
0.0
 10
75.93231606174609
 20
-79.54277613028792
 30
0.0
 10
75.93231606174609
 20
-79.27819279702074
 30
0.0
 10
75.65119627014971
 20
-79.22617185519346
 30
0.0
 10
75.30427515478505
 20
-79.22617185519346
 30
0.0
 10
74.98457029375386
 20
-79.22617185519346
 30
0.0
 10
74.67588973827547
 20
-79.26682398191942
 30
0.0
 10
74.67588973827547
 20
-79.54277613028792
 30
0.0
  0
HATCH
  5
110
330
10A
100
AcDbEntity
  8
_U+30EC_U+30A4_U+30E4_U+30FC 1
 62
   179
420
  2234388
100
AcDbHatch
 10
0.0
 20
0.0
 30
0.0
210
0.0
220
0.0
230
1.0
  2
SOLID
 70
     1
 71
     0
 91
        2
 92
        1
 93
        1
 72
     4
 94
        3
 73
     0
 74
     1
 95
       29
 96
       25
 40
0.0
 40
0.0
 40
0.0
 40
0.0
 40
1.0
 40
1.0
 40
1.0
 40
2.0
 40
2.0
 40
2.0
 40
3.0
 40
3.0
 40
3.0
 40
4.0
 40
4.0
 40
4.0
 40
5.0
 40
5.0
 40
5.0
 40
6.0
 40
6.0
 40
6.0
 40
7.0
 40
7.0
 40
7.0
 40
8.0
 40
8.0
 40
8.0
 40
8.0
 10
75.89855412599064
 20
-79.11765134740808
 10
76.10801593149384
 20
-79.23306204616397
 10
76.1269639566627
 20
-79.4184081832704
 10
76.1269639566627
 20
-79.54277613028792
 10
76.1269639566627
 20
-79.71434188545336
 10
76.08045516761183
 20
-79.86592608680435
 10
75.89855412599064
 20
-79.96755640361923
 10
75.70390623107403
 20
-80.07848847824427
 10
75.46688366168884
 20
-80.09881454160724
 10
75.30427515478505
 20
-80.09881454160724
 10
75.16027016350161
 20
-80.09881454160724
 10
74.90843368352984
 20
-80.08055553553542
 10
74.70965167403092
 20
-79.96755640361923
 10
74.50673554994971
 20
-79.85249021441189
 10
74.48330890065002
 20
-79.68057994969791
 10
74.48330890065002
 20
-79.54277613028792
 10
74.48330890065002
 20
-79.3729329228651
 10
74.52775063240973
 20
-79.21928166422296
 10
74.70965167403092
 20
-79.11765134740808
 10
74.9022325116564
 20
-79.01119789691387
 10
75.13064234232846
 20
-78.98639320942007
 10
75.30427515478505
 20
-78.98639320942007
 10
75.47549640040197
 20
-78.98639320942007
 10
75.70597328836517
 20
-79.00913083962273
 10
75.89855412599064
 20
-79.11765134740808
 97
        0
 97
        0
 92
        1
 93
        1
 72
     4
 94
        3
 73
     0
 74
     1
 95
       17
 96
       13
 40
0.0
 40
0.0
 40
0.0
 40
0.0
 40
1.0
 40
1.0
 40
1.0
 40
2.0
 40
2.0
 40
2.0
 40
3.0
 40
3.0
 40
3.0
 40
4.0
 40
4.0
 40
4.0
 40
4.0
 10
74.67588973827547
 20
-79.54277613028792
 10
74.67588973827547
 20
-79.80942652084626
 10
74.95942109671154
 20
-79.85903589583386
 10
75.30427515478505
 20
-79.85903589583386
 10
75.6236355062677
 20
-79.85903589583386
 10
75.93231606174609
 20
-79.82079533594758
 10
75.93231606174609
 20
-79.54277613028792
 10
75.93231606174609
 20
-79.27819279702074
 10
75.65119627014971
 20
-79.22617185519346
 10
75.30427515478505
 20
-79.22617185519346
 10
74.98457029375386
 20
-79.22617185519346
 10
74.67588973827547
 20
-79.26682398191942
 10
74.67588973827547
 20
-79.54277613028792
 97
        0
 97
        0
 75
     2
 76
     1
 98
        0
  0
POLYLINE
  5
111
330
10A
100
AcDbEntity
  8
_U+30EC_U+30A4_U+30E4_U+30FC 1
370
     0
100
AcDb2dPolyline
 66
     1
 10
0.0
 20
0.0
 30
0.0
  0
VERTEX
  5
112
330
111
100
AcDbEntity
  8
_U+30EC_U+30A4_U+30E4_U+30FC 1
370
     0
100
AcDbVertex
100
AcDb2dVertex
 10
76.07632105302953
 20
-78.75522730235981
 30
0.0
  0
VERTEX
  5
113
330
111
100
AcDbEntity
  8
_U+30EC_U+30A4_U+30E4_U+30FC 1
370
     0
100
AcDbVertex
100
AcDb2dVertex
 10
75.82448457305777
 20
-78.75522730235981
 30
0.0
  0
VERTEX
  5
114
330
111
100
AcDbEntity
  8
_U+30EC_U+30A4_U+30E4_U+30FC 1
370
     0
100
AcDbVertex
100
AcDb2dVertex
 10
75.82448457305777
 20
-78.48616534496179
 30
0.0
  0
VERTEX
  5
115
330
111
100
AcDbEntity
  8
_U+30EC_U+30A4_U+30E4_U+30FC 1
370
     0
100
AcDbVertex
100
AcDb2dVertex
 10
76.07632105302953
 20
-78.48616534496179
 30
0.0
  0
VERTEX
  5
116
330
111
100
AcDbEntity
  8
_U+30EC_U+30A4_U+30E4_U+30FC 1
370
     0
100
AcDbVertex
100
AcDb2dVertex
 10
76.07632105302953
 20
-78.75522730235981
 30
0.0
  0
SEQEND
  5
117
330
111
100
AcDbEntity
  8
_U+30EC_U+30A4_U+30E4_U+30FC 1
370
     0
  0
HATCH
  5
118
330
10A
100
AcDbEntity
  8
_U+30EC_U+30A4_U+30E4_U+30FC 1
 62
   179
420
  2234388
100
AcDbHatch
 10
0.0
 20
0.0
 30
0.0
210
0.0
220
0.0
230
1.0
  2
SOLID
 70
     1
 71
     0
 91
        1
 92
        1
 93
        4
 72
     1
 10
76.07632105302953
 20
-78.75522730235981
 11
75.82448457305777
 21
-78.75522730235981
 72
     1
 10
75.82448457305777
 20
-78.75522730235981
 11
75.82448457305777
 21
-78.48616534496179
 72
     1
 10
75.82448457305777
 20
-78.48616534496179
 11
76.07632105302953
 21
-78.48616534496179
 72
     1
 10
76.07632105302953
 20
-78.48616534496179
 11
76.07632105302953
 21
-78.75522730235981
 97
        0
 75
     2
 76
     1
 98
        0
  0
SPLINE
  5
119
330
10A
100
AcDbEntity
  8
_U+30EC_U+30A4_U+30E4_U+30FC 1
370
     0
100
AcDbSpline
210
0.0
220
0.0
230
1.0
 70
    11
 71
     3
 72
    29
 73
    25
 74
     0
 42
0.0000000001
 43
0.0000000001
 12
1.0
 22
0.0
 32
0.0
 13
1.0
 23
0.0
 33
0.0
 40
0.0
 40
0.0
 40
0.0
 40
0.0
 40
1.0
 40
1.0
 40
1.0
 40
2.0
 40
2.0
 40
2.0
 40
3.0
 40
3.0
 40
3.0
 40
4.0
 40
4.0
 40
4.0
 40
5.0
 40
5.0
 40
5.0
 40
6.0
 40
6.0
 40
6.0
 40
7.0
 40
7.0
 40
7.0
 40
8.0
 40
8.0
 40
8.0
 40
8.0
 10
76.1269639566627
 20
-77.69896102658221
 30
0.0
 10
76.1269639566627
 20
-77.98387042321237
 30
0.0
 10
75.98950464680124
 20
-78.25499943790153
 30
0.0
 10
75.64051647414543
 20
-78.25499943790153
 30
0.0
 10
75.38454587959137
 20
-78.25499943790153
 30
0.0
 10
75.28946124419848
 20
-78.10341523655053
 30
0.0
 10
75.22813854456102
 20
-77.99041610463435
 30
0.0
 10
75.16888290221473
 20
-78.12374129991352
 30
0.0
 10
75.05450573210443
 20
-78.20539006291393
 30
0.0
 10
74.89361977294327
 20
-78.20539006291393
 30
0.0
 10
74.61870115322033
 20
-78.20539006291393
 30
0.0
 10
74.48330890065002
 20
-77.99282767147402
 30
0.0
 10
74.48330890065002
 20
-77.69896102658221
 30
0.0
 10
74.48330890065002
 20
-77.39579262388023
 30
0.0
 10
74.62731389193345
 20
-77.19253199025049
 30
0.0
 10
74.89361977294327
 20
-77.19253199025049
 30
0.0
 10
75.05450573210443
 20
-77.19253199025049
 30
0.0
 10
75.16888290221473
 20
-77.27590330099353
 30
0.0
 10
75.22813854456102
 20
-77.40957300582122
 30
0.0
 10
75.2787814481942
 20
-77.31448837042832
 30
0.0
 10
75.37386608358709
 20
-77.14498967255403
 30
0.0
 10
75.63638235956313
 20
-77.14498967255403
 30
0.0
 10
76.01086423880979
 20
-77.14498967255403
 30
0.0
 10
76.1269639566627
 20
-77.44333494157667
 30
0.0
 10
76.1269639566627
 20
-77.69896102658221
 30
0.0
  0
SPLINE
  5
11A
330
10A
100
AcDbEntity
  8
_U+30EC_U+30A4_U+30E4_U+30FC 1
370
     0
100
AcDbSpline
210
0.0
220
0.0
230
1.0
 70
    11
 71
     3
 72
    17
 73
    13
 74
     0
 42
0.0000000001
 43
0.0000000001
 12
1.0
 22
0.0
 32
0.0
 13
1.0
 23
0.0
 33
0.0
 40
0.0
 40
0.0
 40
0.0
 40
0.0
 40
1.0
 40
1.0
 40
1.0
 40
2.0
 40
2.0
 40
2.0
 40
3.0
 40
3.0
 40
3.0
 40
4.0
 40
4.0
 40
4.0
 40
4.0
 10
74.67588973827547
 20
-77.69896102658221
 30
0.0
 10
74.67588973827547
 20
-77.87500540587847
 30
0.0
 10
74.77097437366837
 20
-77.96561141714055
 30
0.0
 10
74.9063666262387
 20
-77.96561141714055
 30
0.0
 10
75.02901202551358
 20
-77.96561141714055
 30
0.0
 10
75.14752331020618
 20
-77.88878578781947
 30
0.0
 10
75.14752331020618
 20
-77.69896102658221
 30
0.0
 10
75.14752331020618
 20
-77.50879175579642
 30
0.0
 10
75.02901202551358
 20
-77.43196612647534
 30
0.0
 10
74.9063666262387
 20
-77.43196612647534
 30
0.0
 10
74.77097437366837
 20
-77.43196612647534
 30
0.0
 10
74.67588973827547
 20
-77.52463919502857
 30
0.0
 10
74.67588973827547
 20
-77.69896102658221
 30
0.0
  0
SPLINE
  5
11B
330
10A
100
AcDbEntity
  8
_U+30EC_U+30A4_U+30E4_U+30FC 1
370
     0
100
AcDbSpline
210
0.0
220
0.0
230
1.0
 70
    11
 71
     3
 72
    17
 73
    13
 74
     0
 42
0.0000000001
 43
0.0000000001
 12
1.0
 22
0.0
 32
0.0
 13
1.0
 23
0.0
 33
0.0
 40
0.0
 40
0.0
 40
0.0
 40
0.0
 40
1.0
 40
1.0
 40
1.0
 40
2.0
 40
2.0
 40
2.0
 40
3.0
 40
3.0
 40
3.0
 40
4.0
 40
4.0
 40
4.0
 40
4.0
 10
75.33597003324934
 20
-77.69896102658221
 30
0.0
 10
75.33597003324934
 20
-77.85261228522435
 30
0.0
 10
75.42278643947763
 20
-78.01522079212815
 30
0.0
 10
75.62570256355886
 20
-78.01522079212815
 30
0.0
 10
75.83103025447974
 20
-78.01522079212815
 30
0.0
 10
75.93231606174609
 20
-77.87982853955782
 30
0.0
 10
75.93231606174609
 20
-77.69896102658221
 30
0.0
 10
75.93231606174609
 20
-77.49983450753477
 30
0.0
 10
75.80967066247119
 20
-77.38235675148775
 30
0.0
 10
75.6319037354323
 20
-77.38235675148775
 30
0.0
 10
75.41003958618222
 20
-77.38235675148775
 30
0.0
 10
75.33597003324934
 20
-77.55633407349286
 30
0.0
 10
75.33597003324934
 20
-77.69896102658221
 30
0.0
  0
HATCH
  5
11C
330
10A
100
AcDbEntity
  8
_U+30EC_U+30A4_U+30E4_U+30FC 1
 62
   179
420
  2234388
100
AcDbHatch
 10
0.0
 20
0.0
 30
0.0
210
0.0
220
0.0
230
1.0
  2
SOLID
 70
     1
 71
     0
 91
        3
 92
        1
 93
        1
 72
     4
 94
        3
 73
     0
 74
     1
 95
       29
 96
       25
 40
0.0
 40
0.0
 40
0.0
 40
0.0
 40
1.0
 40
1.0
 40
1.0
 40
2.0
 40
2.0
 40
2.0
 40
3.0
 40
3.0
 40
3.0
 40
4.0
 40
4.0
 40
4.0
 40
5.0
 40
5.0
 40
5.0
 40
6.0
 40
6.0
 40
6.0
 40
7.0
 40
7.0
 40
7.0
 40
8.0
 40
8.0
 40
8.0
 40
8.0
 10
76.1269639566627
 20
-77.69896102658221
 10
76.1269639566627
 20
-77.98387042321237
 10
75.98950464680124
 20
-78.25499943790153
 10
75.64051647414543
 20
-78.25499943790153
 10
75.38454587959137
 20
-78.25499943790153
 10
75.28946124419848
 20
-78.10341523655053
 10
75.22813854456102
 20
-77.99041610463435
 10
75.16888290221473
 20
-78.12374129991352
 10
75.05450573210443
 20
-78.20539006291393
 10
74.89361977294327
 20
-78.20539006291393
 10
74.61870115322033
 20
-78.20539006291393
 10
74.48330890065002
 20
-77.99282767147402
 10
74.48330890065002
 20
-77.69896102658221
 10
74.48330890065002
 20
-77.39579262388023
 10
74.62731389193345
 20
-77.19253199025049
 10
74.89361977294327
 20
-77.19253199025049
 10
75.05450573210443
 20
-77.19253199025049
 10
75.16888290221473
 20
-77.27590330099353
 10
75.22813854456102
 20
-77.40957300582122
 10
75.2787814481942
 20
-77.31448837042832
 10
75.37386608358709
 20
-77.14498967255403
 10
75.63638235956313
 20
-77.14498967255403
 10
76.01086423880979
 20
-77.14498967255403
 10
76.1269639566627
 20
-77.44333494157667
 10
76.1269639566627
 20
-77.69896102658221
 97
        0
 97
        0
 92
        1
 93
        1
 72
     4
 94
        3
 73
     0
 74
     1
 95
       17
 96
       13
 40
0.0
 40
0.0
 40
0.0
 40
0.0
 40
1.0
 40
1.0
 40
1.0
 40
2.0
 40
2.0
 40
2.0
 40
3.0
 40
3.0
 40
3.0
 40
4.0
 40
4.0
 40
4.0
 40
4.0
 10
74.67588973827547
 20
-77.69896102658221
 10
74.67588973827547
 20
-77.87500540587847
 10
74.77097437366837
 20
-77.96561141714055
 10
74.9063666262387
 20
-77.96561141714055
 10
75.02901202551358
 20
-77.96561141714055
 10
75.14752331020618
 20
-77.88878578781947
 10
75.14752331020618
 20
-77.69896102658221
 10
75.14752331020618
 20
-77.50879175579642
 10
75.02901202551358
 20
-77.43196612647534
 10
74.9063666262387
 20
-77.43196612647534
 10
74.77097437366837
 20
-77.43196612647534
 10
74.67588973827547
 20
-77.52463919502857
 10
74.67588973827547
 20
-77.69896102658221
 97
        0
 97
        0
 92
        1
 93
        1
 72
     4
 94
        3
 73
     0
 74
     1
 95
       17
 96
       13
 40
0.0
 40
0.0
 40
0.0
 40
0.0
 40
1.0
 40
1.0
 40
1.0
 40
2.0
 40
2.0
 40
2.0
 40
3.0
 40
3.0
 40
3.0
 40
4.0
 40
4.0
 40
4.0
 40
4.0
 10
75.33597003324934
 20
-77.69896102658221
 10
75.33597003324934
 20
-77.85261228522435
 10
75.42278643947763
 20
-78.01522079212815
 10
75.62570256355886
 20
-78.01522079212815
 10
75.83103025447974
 20
-78.01522079212815
 10
75.93231606174609
 20
-77.87982853955782
 10
75.93231606174609
 20
-77.69896102658221
 10
75.93231606174609
 20
-77.49983450753477
 10
75.80967066247119
 20
-77.38235675148775
 10
75.6319037354323
 20
-77.38235675148775
 10
75.41003958618222
 20
-77.38235675148775
 10
75.33597003324934
 20
-77.55633407349286
 10
75.33597003324934
 20
-77.69896102658221
 97
        0
 97
        0
 75
     2
 76
     1
 98
        0
  0
ENDBLK
  5
10D
330
10A
100
AcDbEntity
  8
0
100
AcDbBlockEnd
  0
BLOCK
  5
127
330
125
100
AcDbEntity
  8
0
100
AcDbBlockBegin
  2
block 7
 70
     0
 10
0.0
 20
0.0
 30
0.0
  3
block 7
  1

  0
SPLINE
  5
129
330
125
100
AcDbEntity
  8
_U+30EC_U+30A4_U+30E4_U+30FC 1
370
     0
100
AcDbSpline
210
0.0
220
0.0
230
1.0
 70
    11
 71
     3
 72
    62
 73
    58
 74
     0
 42
0.0000000001
 43
0.0000000001
 12
1.0
 22
0.0
 32
0.0
 13
1.0
 23
0.0
 33
0.0
 40
0.0
 40
0.0
 40
0.0
 40
0.0
 40
1.0
 40
1.0
 40
1.0
 40
2.0
 40
2.0
 40
2.0
 40
3.0
 40
3.0
 40
3.0
 40
4.0
 40
4.0
 40
4.0
 40
5.0
 40
5.0
 40
5.0
 40
6.0
 40
6.0
 40
6.0
 40
7.0
 40
7.0
 40
7.0
 40
8.0
 40
8.0
 40
8.0
 40
9.0
 40
9.0
 40
9.0
 40
10.0
 40
10.0
 40
10.0
 40
11.0
 40
11.0
 40
11.0
 40
12.0
 40
12.0
 40
12.0
 40
13.0
 40
13.0
 40
13.0
 40
14.0
 40
14.0
 40
14.0
 40
15.0
 40
15.0
 40
15.0
 40
16.0
 40
16.0
 40
16.0
 40
17.0
 40
17.0
 40
17.0
 40
18.0
 40
18.0
 40
18.0
 40
19.0
 40
19.0
 40
19.0
 40
19.0
 10
76.1269639566627
 20
-93.93018389578829
 30
0.0
 10
76.1269639566627
 20
-94.03181421260317
 30
0.0
 10
76.10594887420268
 20
-94.26470266740606
 30
0.0
 10
75.9199137179992
 20
-94.39802786268523
 30
0.0
 10
75.80760360518005
 20
-94.47726505884597
 30
0.0
 10
75.70838485520486
 20
-94.48174368297678
 30
0.0
 10
75.6236355062677
 20
-94.48622230710761
 30
0.0
 10
75.6236355062677
 20
-94.48622230710761
 30
0.0
 10
75.6236355062677
 20
-94.25126679501358
 30
0.0
 10
75.6236355062677
 20
-94.25126679501358
 30
0.0
 10
75.69770505920057
 20
-94.2488552281739
 30
0.0
 10
75.93231606174609
 20
-94.23748641307257
 30
0.0
 10
75.93231606174609
 20
-93.93466251991912
 30
0.0
 10
75.93231606174609
 20
-93.78755694269894
 30
0.0
 10
75.86272513294405
 20
-93.62494843579516
 30
0.0
 10
75.63431530227199
 20
-93.62494843579516
 30
0.0
 10
75.51787107487054
 20
-93.62494843579516
 30
0.0
 10
75.46929522852851
 20
-93.6656005625211
 30
0.0
 10
75.43760035006422
 20
-93.69970700782508
 30
0.0
 10
75.36353079713135
 20
-93.7785996944373
 30
0.0
 10
75.35078394383592
 20
-93.90296764145482
 30
0.0
 10
75.35078394383592
 20
-93.9618787742526
 30
0.0
 10
75.35078394383592
 20
-93.98220483761557
 30
0.0
 10
75.35285100112706
 20
-94.02044539750183
 30
0.0
 10
75.35698511570936
 20
-94.05007321867498
 30
0.0
 10
75.35698511570936
 20
-94.05007321867498
 30
0.0
 10
75.16233722079275
 20
-94.05007321867498
 30
0.0
 10
75.16233722079275
 20
-94.05007321867498
 30
0.0
 10
75.16888290221473
 20
-94.00942109194904
 30
0.0
 10
75.17094995950588
 20
-93.96394583154374
 30
0.0
 10
75.17094995950588
 20
-93.95740015012177
 30
0.0
 10
75.17094995950588
 20
-93.88712020222268
 30
0.0
 10
75.14959036749732
 20
-93.67455781078276
 30
0.0
 10
74.91291230766066
 20
-93.67455781078276
 30
0.0
 10
74.73514538062177
 20
-93.67455781078276
 30
0.0
 10
74.68002385285777
 20
-93.81477319703242
 30
0.0
 10
74.68002385285777
 20
-93.93225095307945
 30
0.0
 10
74.68002385285777
 20
-94.21509329241846
 30
0.0
 10
74.91291230766066
 20
-94.2240505406801
 30
0.0
 10
74.98457029375386
 20
-94.22852916481092
 30
0.0
 10
74.98457029375386
 20
-94.22852916481092
 30
0.0
 10
74.98457029375386
 20
-94.44557018038167
 30
0.0
 10
74.98457029375386
 20
-94.44557018038167
 30
0.0
 10
74.85985783718782
 20
-94.43661293212001
 30
0.0
 10
74.48330890065002
 20
-94.40732962049539
 30
0.0
 10
74.48330890065002
 20
-93.91881508068697
 30
0.0
 10
74.48330890065002
 20
-93.67903643491358
 30
0.0
 10
74.61043292405573
 20
-93.4213432926169
 30
0.0
 10
74.9063666262387
 20
-93.4213432926169
 30
0.0
 10
75.09274629199071
 20
-93.4213432926169
 30
0.0
 10
75.17508407408818
 20
-93.52331811898028
 30
0.0
 10
75.23640677372562
 20
-93.62942705992599
 30
0.0
 10
75.26396753760763
 20
-93.56397024570623
 30
0.0
 10
75.34423826241394
 20
-93.36932235078962
 30
0.0
 10
75.62156844897656
 20
-93.36932235078962
 30
0.0
 10
75.95987682562809
 20
-93.36932235078962
 30
0.0
 10
76.1269639566627
 20
-93.6339056840568
 30
0.0
 10
76.1269639566627
 20
-93.93018389578829
 30
0.0
  0
HATCH
  5
12A
330
125
100
AcDbEntity
  8
_U+30EC_U+30A4_U+30E4_U+30FC 1
 62
   179
420
  2234388
100
AcDbHatch
 10
0.0
 20
0.0
 30
0.0
210
0.0
220
0.0
230
1.0
  2
SOLID
 70
     1
 71
     0
 91
        1
 92
        1
 93
        1
 72
     4
 94
        3
 73
     0
 74
     1
 95
       62
 96
       58
 40
0.0
 40
0.0
 40
0.0
 40
0.0
 40
1.0
 40
1.0
 40
1.0
 40
2.0
 40
2.0
 40
2.0
 40
3.0
 40
3.0
 40
3.0
 40
4.0
 40
4.0
 40
4.0
 40
5.0
 40
5.0
 40
5.0
 40
6.0
 40
6.0
 40
6.0
 40
7.0
 40
7.0
 40
7.0
 40
8.0
 40
8.0
 40
8.0
 40
9.0
 40
9.0
 40
9.0
 40
10.0
 40
10.0
 40
10.0
 40
11.0
 40
11.0
 40
11.0
 40
12.0
 40
12.0
 40
12.0
 40
13.0
 40
13.0
 40
13.0
 40
14.0
 40
14.0
 40
14.0
 40
15.0
 40
15.0
 40
15.0
 40
16.0
 40
16.0
 40
16.0
 40
17.0
 40
17.0
 40
17.0
 40
18.0
 40
18.0
 40
18.0
 40
19.0
 40
19.0
 40
19.0
 40
19.0
 10
76.1269639566627
 20
-93.93018389578829
 10
76.1269639566627
 20
-94.03181421260317
 10
76.10594887420268
 20
-94.26470266740606
 10
75.9199137179992
 20
-94.39802786268523
 10
75.80760360518005
 20
-94.47726505884597
 10
75.70838485520486
 20
-94.48174368297678
 10
75.6236355062677
 20
-94.48622230710761
 10
75.6236355062677
 20
-94.48622230710761
 10
75.6236355062677
 20
-94.25126679501358
 10
75.6236355062677
 20
-94.25126679501358
 10
75.69770505920057
 20
-94.2488552281739
 10
75.93231606174609
 20
-94.23748641307257
 10
75.93231606174609
 20
-93.93466251991912
 10
75.93231606174609
 20
-93.78755694269894
 10
75.86272513294405
 20
-93.62494843579516
 10
75.63431530227199
 20
-93.62494843579516
 10
75.51787107487054
 20
-93.62494843579516
 10
75.46929522852851
 20
-93.6656005625211
 10
75.43760035006422
 20
-93.69970700782508
 10
75.36353079713135
 20
-93.7785996944373
 10
75.35078394383592
 20
-93.90296764145482
 10
75.35078394383592
 20
-93.9618787742526
 10
75.35078394383592
 20
-93.98220483761557
 10
75.35285100112706
 20
-94.02044539750183
 10
75.35698511570936
 20
-94.05007321867498
 10
75.35698511570936
 20
-94.05007321867498
 10
75.16233722079275
 20
-94.05007321867498
 10
75.16233722079275
 20
-94.05007321867498
 10
75.16888290221473
 20
-94.00942109194904
 10
75.17094995950588
 20
-93.96394583154374
 10
75.17094995950588
 20
-93.95740015012177
 10
75.17094995950588
 20
-93.88712020222268
 10
75.14959036749732
 20
-93.67455781078276
 10
74.91291230766066
 20
-93.67455781078276
 10
74.73514538062177
 20
-93.67455781078276
 10
74.68002385285777
 20
-93.81477319703242
 10
74.68002385285777
 20
-93.93225095307945
 10
74.68002385285777
 20
-94.21509329241846
 10
74.91291230766066
 20
-94.2240505406801
 10
74.98457029375386
 20
-94.22852916481092
 10
74.98457029375386
 20
-94.22852916481092
 10
74.98457029375386
 20
-94.44557018038167
 10
74.98457029375386
 20
-94.44557018038167
 10
74.85985783718782
 20
-94.43661293212001
 10
74.48330890065002
 20
-94.40732962049539
 10
74.48330890065002
 20
-93.91881508068697
 10
74.48330890065002
 20
-93.67903643491358
 10
74.61043292405573
 20
-93.4213432926169
 10
74.9063666262387
 20
-93.4213432926169
 10
75.09274629199071
 20
-93.4213432926169
 10
75.17508407408818
 20
-93.52331811898028
 10
75.23640677372562
 20
-93.62942705992599
 10
75.26396753760763
 20
-93.56397024570623
 10
75.34423826241394
 20
-93.36932235078962
 10
75.62156844897656
 20
-93.36932235078962
 10
75.95987682562809
 20
-93.36932235078962
 10
76.1269639566627
 20
-93.6339056840568
 10
76.1269639566627
 20
-93.93018389578829
 97
        0
 97
        0
 75
     2
 76
     1
 98
        0
  0
ENDBLK
  5
128
330
125
100
AcDbEntity
  8
0
100
AcDbBlockEnd
  0
BLOCK
  5
139
330
137
100
AcDbEntity
  8
0
100
AcDbBlockBegin
  2
block 8
 70
     0
 10
0.0
 20
0.0
 30
0.0
  3
block 8
  1

  0
SPLINE
  5
13B
330
137
100
AcDbEntity
  8
_U+30EC_U+30A4_U+30E4_U+30FC 1
370
     0
100
AcDbSpline
210
0.0
220
0.0
230
1.0
 70
    11
 71
     3
 72
    26
 73
    22
 74
     0
 42
0.0000000001
 43
0.0000000001
 12
1.0
 22
0.0
 32
0.0
 13
1.0
 23
0.0
 33
0.0
 40
0.0
 40
0.0
 40
0.0
 40
0.0
 40
1.0
 40
1.0
 40
1.0
 40
2.0
 40
2.0
 40
2.0
 40
3.0
 40
3.0
 40
3.0
 40
4.0
 40
4.0
 40
4.0
 40
5.0
 40
5.0
 40
5.0
 40
6.0
 40
6.0
 40
6.0
 40
7.0
 40
7.0
 40
7.0
 40
7.0
 10
76.075976543481
 20
-88.10177135384262
 30
0.0
 10
76.075976543481
 20
-88.10177135384262
 30
0.0
 10
74.97182344045844
 20
-88.10177135384262
 30
0.0
 10
74.97182344045844
 20
-88.10177135384262
 30
0.0
 10
74.97182344045844
 20
-88.10177135384262
 30
0.0
 10
74.97182344045844
 20
-88.45420462198368
 30
0.0
 10
74.97182344045844
 20
-88.45420462198368
 30
0.0
 10
74.97182344045844
 20
-88.45420462198368
 30
0.0
 10
74.8236843345927
 20
-88.45420462198368
 30
0.0
 10
74.8236843345927
 20
-88.45420462198368
 30
0.0
 10
74.80887042400612
 20
-88.09935978700294
 30
0.0
 10
74.6459174075538
 20
-88.04975041201534
 30
0.0
 10
74.53154023744351
 20
-88.01805553355105
 30
0.0
 10
74.53154023744351
 20
-88.01805553355105
 30
0.0
 10
74.53154023744351
 20
-87.86199270806922
 30
0.0
 10
74.53154023744351
 20
-87.86199270806922
 30
0.0
 10
74.53154023744351
 20
-87.86199270806922
 30
0.0
 10
76.075976543481
 20
-87.86199270806922
 30
0.0
 10
76.075976543481
 20
-87.86199270806922
 30
0.0
 10
76.075976543481
 20
-87.86199270806922
 30
0.0
 10
76.075976543481
 20
-88.10177135384262
 30
0.0
 10
76.075976543481
 20
-88.10177135384262
 30
0.0
  0
HATCH
  5
13C
330
137
100
AcDbEntity
  8
_U+30EC_U+30A4_U+30E4_U+30FC 1
 62
   179
420
  2234388
100
AcDbHatch
 10
0.0
 20
0.0
 30
0.0
210
0.0
220
0.0
230
1.0
  2
SOLID
 70
     1
 71
     0
 91
        1
 92
        1
 93
        1
 72
     4
 94
        3
 73
     0
 74
     1
 95
       26
 96
       22
 40
0.0
 40
0.0
 40
0.0
 40
0.0
 40
1.0
 40
1.0
 40
1.0
 40
2.0
 40
2.0
 40
2.0
 40
3.0
 40
3.0
 40
3.0
 40
4.0
 40
4.0
 40
4.0
 40
5.0
 40
5.0
 40
5.0
 40
6.0
 40
6.0
 40
6.0
 40
7.0
 40
7.0
 40
7.0
 40
7.0
 10
76.075976543481
 20
-88.10177135384262
 10
76.075976543481
 20
-88.10177135384262
 10
74.97182344045844
 20
-88.10177135384262
 10
74.97182344045844
 20
-88.10177135384262
 10
74.97182344045844
 20
-88.10177135384262
 10
74.97182344045844
 20
-88.45420462198368
 10
74.97182344045844
 20
-88.45420462198368
 10
74.97182344045844
 20
-88.45420462198368
 10
74.8236843345927
 20
-88.45420462198368
 10
74.8236843345927
 20
-88.45420462198368
 10
74.80887042400612
 20
-88.09935978700294
 10
74.6459174075538
 20
-88.04975041201534
 10
74.53154023744351
 20
-88.01805553355105
 10
74.53154023744351
 20
-88.01805553355105
 10
74.53154023744351
 20
-87.86199270806922
 10
74.53154023744351
 20
-87.86199270806922
 10
74.53154023744351
 20
-87.86199270806922
 10
76.075976543481
 20
-87.86199270806922
 10
76.075976543481
 20
-87.86199270806922
 10
76.075976543481
 20
-87.86199270806922
 10
76.075976543481
 20
-88.10177135384262
 10
76.075976543481
 20
-88.10177135384262
 97
        0
 97
        0
 75
     2
 76
     1
 98
        0
  0
SPLINE
  5
13D
330
137
100
AcDbEntity
  8
_U+30EC_U+30A4_U+30E4_U+30FC 1
370
     0
100
AcDbSpline
210
0.0
220
0.0
230
1.0
 70
    11
 71
     3
 72
    29
 73
    25
 74
     0
 42
0.0000000001
 43
0.0000000001
 12
1.0
 22
0.0
 32
0.0
 13
1.0
 23
0.0
 33
0.0
 40
0.0
 40
0.0
 40
0.0
 40
0.0
 40
1.0
 40
1.0
 40
1.0
 40
2.0
 40
2.0
 40
2.0
 40
3.0
 40
3.0
 40
3.0
 40
4.0
 40
4.0
 40
4.0
 40
5.0
 40
5.0
 40
5.0
 40
6.0
 40
6.0
 40
6.0
 40
7.0
 40
7.0
 40
7.0
 40
8.0
 40
8.0
 40
8.0
 40
8.0
 10
75.89820961644212
 20
-86.3668212674708
 30
0.0
 10
76.10767142194531
 20
-86.48223196622666
 30
0.0
 10
76.12661944711418
 20
-86.66757810333311
 30
0.0
 10
76.12661944711418
 20
-86.79194605035063
 30
0.0
 10
76.12661944711418
 20
-86.96351180551608
 30
0.0
 10
76.0801106580633
 20
-87.11509600686706
 30
0.0
 10
75.89820961644212
 20
-87.21672632368194
 30
0.0
 10
75.7035617215255
 20
-87.32765839830698
 30
0.0
 10
75.46688366168884
 20
-87.34798446166995
 30
0.0
 10
75.30393064523652
 20
-87.34798446166995
 30
0.0
 10
75.15992565395308
 20
-87.34798446166995
 30
0.0
 10
74.90808917398131
 20
-87.32972545559812
 30
0.0
 10
74.7093071644824
 20
-87.21672632368194
 30
0.0
 10
74.50639104040118
 20
-87.10166013447459
 30
0.0
 10
74.48296439110149
 20
-86.92974986976063
 30
0.0
 10
74.48296439110149
 20
-86.79194605035063
 30
0.0
 10
74.48296439110149
 20
-86.62210284292782
 30
0.0
 10
74.52740612286121
 20
-86.46845158428567
 30
0.0
 10
74.7093071644824
 20
-86.3668212674708
 30
0.0
 10
74.90188800210787
 20
-86.26036781697658
 30
0.0
 10
75.13029783277993
 20
-86.23556312948278
 30
0.0
 10
75.30393064523652
 20
-86.23556312948278
 30
0.0
 10
75.47515189085344
 20
-86.23556312948278
 30
0.0
 10
75.70562877881665
 20
-86.25830075968543
 30
0.0
 10
75.89820961644212
 20
-86.3668212674708
 30
0.0
  0
SPLINE
  5
13E
330
137
100
AcDbEntity
  8
_U+30EC_U+30A4_U+30E4_U+30FC 1
370
     0
100
AcDbSpline
210
0.0
220
0.0
230
1.0
 70
    11
 71
     3
 72
    17
 73
    13
 74
     0
 42
0.0000000001
 43
0.0000000001
 12
1.0
 22
0.0
 32
0.0
 13
1.0
 23
0.0
 33
0.0
 40
0.0
 40
0.0
 40
0.0
 40
0.0
 40
1.0
 40
1.0
 40
1.0
 40
2.0
 40
2.0
 40
2.0
 40
3.0
 40
3.0
 40
3.0
 40
4.0
 40
4.0
 40
4.0
 40
4.0
 10
74.67554522872695
 20
-86.79194605035063
 30
0.0
 10
74.67554522872695
 20
-87.05859644090897
 30
0.0
 10
74.95907658716301
 20
-87.10820581589657
 30
0.0
 10
75.30393064523652
 20
-87.10820581589657
 30
0.0
 10
75.62329099671918
 20
-87.10820581589657
 30
0.0
 10
75.93197155219757
 20
-87.06996525601029
 30
0.0
 10
75.93197155219757
 20
-86.79194605035063
 30
0.0
 10
75.93197155219757
 20
-86.52736271708343
 30
0.0
 10
75.65085176060118
 20
-86.47534177525617
 30
0.0
 10
75.30393064523652
 20
-86.47534177525617
 30
0.0
 10
74.98422578420534
 20
-86.47534177525617
 30
0.0
 10
74.67554522872695
 20
-86.51599390198211
 30
0.0
 10
74.67554522872695
 20
-86.79194605035063
 30
0.0
  0
HATCH
  5
13F
330
137
100
AcDbEntity
  8
_U+30EC_U+30A4_U+30E4_U+30FC 1
 62
   179
420
  2234388
100
AcDbHatch
 10
0.0
 20
0.0
 30
0.0
210
0.0
220
0.0
230
1.0
  2
SOLID
 70
     1
 71
     0
 91
        2
 92
        1
 93
        1
 72
     4
 94
        3
 73
     0
 74
     1
 95
       29
 96
       25
 40
0.0
 40
0.0
 40
0.0
 40
0.0
 40
1.0
 40
1.0
 40
1.0
 40
2.0
 40
2.0
 40
2.0
 40
3.0
 40
3.0
 40
3.0
 40
4.0
 40
4.0
 40
4.0
 40
5.0
 40
5.0
 40
5.0
 40
6.0
 40
6.0
 40
6.0
 40
7.0
 40
7.0
 40
7.0
 40
8.0
 40
8.0
 40
8.0
 40
8.0
 10
75.89820961644212
 20
-86.3668212674708
 10
76.10767142194531
 20
-86.48223196622666
 10
76.12661944711418
 20
-86.66757810333311
 10
76.12661944711418
 20
-86.79194605035063
 10
76.12661944711418
 20
-86.96351180551608
 10
76.0801106580633
 20
-87.11509600686706
 10
75.89820961644212
 20
-87.21672632368194
 10
75.7035617215255
 20
-87.32765839830698
 10
75.46688366168884
 20
-87.34798446166995
 10
75.30393064523652
 20
-87.34798446166995
 10
75.15992565395308
 20
-87.34798446166995
 10
74.90808917398131
 20
-87.32972545559812
 10
74.7093071644824
 20
-87.21672632368194
 10
74.50639104040118
 20
-87.10166013447459
 10
74.48296439110149
 20
-86.92974986976063
 10
74.48296439110149
 20
-86.79194605035063
 10
74.48296439110149
 20
-86.62210284292782
 10
74.52740612286121
 20
-86.46845158428567
 10
74.7093071644824
 20
-86.3668212674708
 10
74.90188800210787
 20
-86.26036781697658
 10
75.13029783277993
 20
-86.23556312948278
 10
75.30393064523652
 20
-86.23556312948278
 10
75.47515189085344
 20
-86.23556312948278
 10
75.70562877881665
 20
-86.25830075968543
 10
75.89820961644212
 20
-86.3668212674708
 97
        0
 97
        0
 92
        1
 93
        1
 72
     4
 94
        3
 73
     0
 74
     1
 95
       17
 96
       13
 40
0.0
 40
0.0
 40
0.0
 40
0.0
 40
1.0
 40
1.0
 40
1.0
 40
2.0
 40
2.0
 40
2.0
 40
3.0
 40
3.0
 40
3.0
 40
4.0
 40
4.0
 40
4.0
 40
4.0
 10
74.67554522872695
 20
-86.79194605035063
 10
74.67554522872695
 20
-87.05859644090897
 10
74.95907658716301
 20
-87.10820581589657
 10
75.30393064523652
 20
-87.10820581589657
 10
75.62329099671918
 20
-87.10820581589657
 10
75.93197155219757
 20
-87.06996525601029
 10
75.93197155219757
 20
-86.79194605035063
 10
75.93197155219757
 20
-86.52736271708343
 10
75.65085176060118
 20
-86.47534177525617
 10
75.30393064523652
 20
-86.47534177525617
 10
74.98422578420534
 20
-86.47534177525617
 10
74.67554522872695
 20
-86.51599390198211
 10
74.67554522872695
 20
-86.79194605035063
 97
        0
 97
        0
 75
     2
 76
     1
 98
        0
  0
ENDBLK
  5
13A
330
137
100
AcDbEntity
  8
0
100
AcDbBlockEnd
  0
ENDSEC
  0
SECTION
  2
ENTITIES
  0
POLYLINE
  5
41
330
1F
100
AcDbEntity
  8
_U+30EC_U+30A4_U+30E4_U+30FC 1
  6
AI-Linetype-1
 62
   154
420
    23468
370
    25
100
AcDb2dPolyline
 66
     1
 10
0.0
 20
0.0
 30
0.0
  0
VERTEX
  5
42
330
41
100
AcDbEntity
  8
_U+30EC_U+30A4_U+30E4_U+30FC 1
  6
AI-Linetype-1
 62
   154
420
    23468
370
    25
100
AcDbVertex
100
AcDb2dVertex
 10
60.02182124649354
 20
-95.44741442058277
 30
0.0
  0
VERTEX
  5
43
330
41
100
AcDbEntity
  8
_U+30EC_U+30A4_U+30E4_U+30FC 1
  6
AI-Linetype-1
 62
   154
420
    23468
370
    25
100
AcDbVertex
100
AcDb2dVertex
 10
60.02182124649354
 20
-92.30307081025784
 30
0.0
  0
SEQEND
  5
45
330
41
100
AcDbEntity
  8
_U+30EC_U+30A4_U+30E4_U+30FC 1
  6
AI-Linetype-1
 62
   154
420
    23468
370
    25
  0
POLYLINE
  5
46
330
1F
100
AcDbEntity
  8
_U+30EC_U+30A4_U+30E4_U+30FC 1
  6
AI-Linetype-2
 62
   154
420
    23468
370
    25
100
AcDb2dPolyline
 66
     1
 10
0.0
 20
0.0
 30
0.0
  0
VERTEX
  5
47
330
46
100
AcDbEntity
  8
_U+30EC_U+30A4_U+30E4_U+30FC 1
  6
AI-Linetype-2
 62
   154
420
    23468
370
    25
100
AcDbVertex
100
AcDb2dVertex
 10
49.25246846568707
 20
-96.00310997599917
 30
0.0
  0
VERTEX
  5
48
330
46
100
AcDbEntity
  8
_U+30EC_U+30A4_U+30E4_U+30FC 1
  6
AI-Linetype-2
 62
   154
420
    23468
370
    25
100
AcDbVertex
100
AcDb2dVertex
 10
60.08246374494642
 20
-96.00310997599917
 30
0.0
  0
SEQEND
  5
4A
330
46
100
AcDbEntity
  8
_U+30EC_U+30A4_U+30E4_U+30FC 1
  6
AI-Linetype-2
 62
   154
420
    23468
370
    25
  0
INSERT
  5
4C
330
1F
100
AcDbEntity
  8
_U+30EC_U+30A4_U+30E4_U+30FC 1
100
AcDbBlockReference
  2
block 2
 10
0.0
 20
0.0
 30
0.0
  0
POLYLINE
  5
89
330
1F
100
AcDbEntity
  8
_U+30EC_U+30A4_U+30E4_U+30FC 1
 62
   179
420
  2234388
370
     9
100
AcDb2dPolyline
 66
     1
 10
0.0
 20
0.0
 30
0.0
  0
VERTEX
  5
8A
330
89
100
AcDbEntity
  8
_U+30EC_U+30A4_U+30E4_U+30FC 1
 62
   179
420
  2234388
370
     9
100
AcDbVertex
100
AcDb2dVertex
 10
52.14048366978544
 20
-96.18052192039907
 30
0.0
  0
VERTEX
  5
8B
330
89
100
AcDbEntity
  8
_U+30EC_U+30A4_U+30E4_U+30FC 1
 62
   179
420
  2234388
370
     9
100
AcDbVertex
100
AcDb2dVertex
 10
50.76863676033972
 20
-102.7506552520898
 30
0.0
  0
SEQEND
  5
8C
330
89
100
AcDbEntity
  8
_U+30EC_U+30A4_U+30E4_U+30FC 1
 62
   179
420
  2234388
370
     9
  0
INSERT
  5
8E
330
1F
100
AcDbEntity
  8
_U+30EC_U+30A4_U+30E4_U+30FC 1
100
AcDbBlockReference
  2
block 3
 10
0.0
 20
0.0
 30
0.0
  0
SPLINE
  5
C9
330
1F
100
AcDbEntity
  8
_U+30EC_U+30A4_U+30E4_U+30FC 1
 62
   179
420
  2234388
370
     9
100
AcDbSpline
210
0.0
220
0.0
230
1.0
 70
    11
 71
     3
 72
    17
 73
    13
 74
     0
 42
0.0000000001
 43
0.0000000001
 12
1.0
 22
0.0
 32
0.0
 13
1.0
 23
0.0
 33
0.0
 40
0.0
 40
0.0
 40
0.0
 40
0.0
 40
1.0
 40
1.0
 40
1.0
 40
2.0
 40
2.0
 40
2.0
 40
3.0
 40
3.0
 40
3.0
 40
4.0
 40
4.0
 40
4.0
 40
4.0
 10
50.52747787760331
 20
-77.62007164726181
 30
0.0
 10
50.52747787760331
 20
-77.56493248060873
 30
0.0
 10
50.48271037874543
 20
-77.52016498061985
 30
0.0
 10
50.42757121348548
 20
-77.52016498061985
 30
0.0
 10
50.37211454823363
 20
-77.52016498061985
 30
0.0
 10
50.32734704937575
 20
-77.56493248060873
 30
0.0
 10
50.32734704937575
 20
-77.62007164726181
 30
0.0
 10
50.32734704937575
 20
-77.67517553613672
 30
0.0
 10
50.37211454823363
 20
-77.71997831390345
 30
0.0
 10
50.42757121348548
 20
-77.71997831390345
 30
0.0
 10
50.48271037874543
 20
-77.71997831390345
 30
0.0
 10
50.52747787760331
 20
-77.67517553613672
 30
0.0
 10
50.52747787760331
 20
-77.62007164726181
 30
0.0
  0
SPLINE
  5
CA
330
1F
100
AcDbEntity
  8
_U+30EC_U+30A4_U+30E4_U+30FC 1
 62
   179
420
  2234388
370
     9
100
AcDbSpline
210
0.0
220
0.0
230
1.0
 70
    11
 71
     3
 72
    17
 73
    13
 74
     0
 42
0.0000000001
 43
0.0000000001
 12
1.0
 22
0.0
 32
0.0
 13
1.0
 23
0.0
 33
0.0
 40
0.0
 40
0.0
 40
0.0
 40
0.0
 40
1.0
 40
1.0
 40
1.0
 40
2.0
 40
2.0
 40
2.0
 40
3.0
 40
3.0
 40
3.0
 40
4.0
 40
4.0
 40
4.0
 40
4.0
 10
73.5276359019315
 20
-77.62007164726181
 30
0.0
 10
73.5276359019315
 20
-77.56493248060873
 30
0.0
 10
73.48286840307362
 20
-77.52016498061985
 30
0.0
 10
73.42772923781368
 20
-77.52016498061985
 30
0.0
 10
73.3726253503306
 20
-77.52016498061985
 30
0.0
 10
73.32782257369584
 20
-77.56493248060873
 30
0.0
 10
73.32782257369584
 20
-77.62007164726181
 30
0.0
 10
73.32782257369584
 20
-77.67517553613672
 30
0.0
 10
73.3726253503306
 20
-77.71997831390345
 30
0.0
 10
73.42772923781368
 20
-77.71997831390345
 30
0.0
 10
73.48286840307362
 20
-77.71997831390345
 30
0.0
 10
73.5276359019315
 20
-77.67517553613672
 30
0.0
 10
73.5276359019315
 20
-77.62007164726181
 30
0.0
  0
SPLINE
  5
CB
330
1F
100
AcDbEntity
  8
_U+30EC_U+30A4_U+30E4_U+30FC 1
 62
   179
420
  2234388
370
     9
100
AcDbSpline
210
0.0
220
0.0
230
1.0
 70
    11
 71
     3
 72
    17
 73
    13
 74
     0
 42
0.0000000001
 43
0.0000000001
 12
1.0
 22
0.0
 32
0.0
 13
1.0
 23
0.0
 33
0.0
 40
0.0
 40
0.0
 40
0.0
 40
0.0
 40
1.0
 40
1.0
 40
1.0
 40
2.0
 40
2.0
 40
2.0
 40
3.0
 40
3.0
 40
3.0
 40
4.0
 40
4.0
 40
4.0
 40
4.0
 10
77.52739496655582
 20
-81.62018359070613
 30
0.0
 10
77.52739496655582
 20
-81.56504442405306
 30
0.0
 10
77.48259218992105
 20
-81.52027692406449
 30
0.0
 10
77.42748830243798
 20
-81.52027692406449
 30
0.0
 10
77.37234913717803
 20
-81.52027692406449
 30
0.0
 10
77.32758163832015
 20
-81.56504442405306
 30
0.0
 10
77.32758163832015
 20
-81.62018359070613
 30
0.0
 10
77.32758163832015
 20
-81.67564025735881
 30
0.0
 10
77.37234913717803
 20
-81.72040775734769
 30
0.0
 10
77.42748830243798
 20
-81.72040775734769
 30
0.0
 10
77.48259218992105
 20
-81.72040775734769
 30
0.0
 10
77.52739496655582
 20
-81.67564025735881
 30
0.0
 10
77.52739496655582
 20
-81.62018359070613
 30
0.0
  0
SPLINE
  5
CC
330
1F
100
AcDbEntity
  8
_U+30EC_U+30A4_U+30E4_U+30FC 1
 62
   179
420
  2234388
370
     9
100
AcDbSpline
210
0.0
220
0.0
230
1.0
 70
    11
 71
     3
 72
    17
 73
    13
 74
     0
 42
0.0000000001
 43
0.0000000001
 12
1.0
 22
0.0
 32
0.0
 13
1.0
 23
0.0
 33
0.0
 40
0.0
 40
0.0
 40
0.0
 40
0.0
 40
1.0
 40
1.0
 40
1.0
 40
2.0
 40
2.0
 40
2.0
 40
3.0
 40
3.0
 40
3.0
 40
4.0
 40
4.0
 40
4.0
 40
4.0
 10
77.52739496655582
 20
-82.42010720161724
 30
0.0
 10
77.52739496655582
 20
-82.365003312742
 30
0.0
 10
77.48259218992105
 20
-82.3202005349756
 30
0.0
 10
77.42748830243798
 20
-82.3202005349756
 30
0.0
 10
77.37234913717803
 20
-82.3202005349756
 30
0.0
 10
77.32758163832015
 20
-82.365003312742
 30
0.0
 10
77.32758163832015
 20
-82.42010720161724
 30
0.0
 10
77.32758163832015
 20
-82.47559914604776
 30
0.0
 10
77.37234913717803
 20
-82.52036664603663
 30
0.0
 10
77.42748830243798
 20
-82.52036664603663
 30
0.0
 10
77.48259218992105
 20
-82.52036664603663
 30
0.0
 10
77.52739496655582
 20
-82.47559914604776
 30
0.0
 10
77.52739496655582
 20
-82.42010720161724
 30
0.0
  0
SPLINE
  5
CD
330
1F
100
AcDbEntity
  8
_U+30EC_U+30A4_U+30E4_U+30FC 1
 62
   179
420
  2234388
370
     9
100
AcDbSpline
210
0.0
220
0.0
230
1.0
 70
    11
 71
     3
 72
    17
 73
    13
 74
     0
 42
0.0000000001
 43
0.0000000001
 12
1.0
 22
0.0
 32
0.0
 13
1.0
 23
0.0
 33
0.0
 40
0.0
 40
0.0
 40
0.0
 40
0.0
 40
1.0
 40
1.0
 40
1.0
 40
2.0
 40
2.0
 40
2.0
 40
3.0
 40
3.0
 40
3.0
 40
4.0
 40
4.0
 40
4.0
 40
4.0
 10
77.52739496655582
 20
-92.42019303245024
 30
0.0
 10
77.52739496655582
 20
-92.36508914357533
 30
0.0
 10
77.48259218992105
 20
-92.32028636580861
 30
0.0
 10
77.42748830243798
 20
-92.32028636580861
 30
0.0
 10
77.37234913717803
 20
-92.32028636580861
 30
0.0
 10
77.32758163832015
 20
-92.36508914357533
 30
0.0
 10
77.32758163832015
 20
-92.42019303245024
 30
0.0
 10
77.32758163832015
 20
-92.47533219910333
 30
0.0
 10
77.37234913717803
 20
-92.52009969909189
 30
0.0
 10
77.42748830243798
 20
-92.52009969909189
 30
0.0
 10
77.48259218992105
 20
-92.52009969909189
 30
0.0
 10
77.52739496655582
 20
-92.47533219910333
 30
0.0
 10
77.52739496655582
 20
-92.42019303245024
 30
0.0
  0
SPLINE
  5
CE
330
1F
100
AcDbEntity
  8
_U+30EC_U+30A4_U+30E4_U+30FC 1
 62
   179
420
  2234388
370
     9
100
AcDbSpline
210
0.0
220
0.0
230
1.0
 70
    11
 71
     3
 72
    17
 73
    13
 74
     0
 42
0.0000000001
 43
0.0000000001
 12
1.0
 22
0.0
 32
0.0
 13
1.0
 23
0.0
 33
0.0
 40
0.0
 40
0.0
 40
0.0
 40
0.0
 40
1.0
 40
1.0
 40
1.0
 40
2.0
 40
2.0
 40
2.0
 40
3.0
 40
3.0
 40
3.0
 40
4.0
 40
4.0
 40
4.0
 40
4.0
 10
77.52739496655582
 20
-95.42017997614523
 30
0.0
 10
77.52739496655582
 20
-95.36507608726967
 30
0.0
 10
77.48259218992105
 20
-95.32027330950295
 30
0.0
 10
77.42748830243798
 20
-95.32027330950295
 30
0.0
 10
77.37234913717803
 20
-95.32027330950295
 30
0.0
 10
77.32758163832015
 20
-95.36507608726967
 30
0.0
 10
77.32758163832015
 20
-95.42017997614523
 30
0.0
 10
77.32758163832015
 20
-95.47531914279767
 30
0.0
 10
77.37234913717803
 20
-95.52008664278688
 30
0.0
 10
77.42748830243798
 20
-95.52008664278688
 30
0.0
 10
77.48259218992105
 20
-95.52008664278688
 30
0.0
 10
77.52739496655582
 20
-95.47531914279767
 30
0.0
 10
77.52739496655582
 20
-95.42017997614523
 30
0.0
  0
SPLINE
  5
CF
330
1F
100
AcDbEntity
  8
_U+30EC_U+30A4_U+30E4_U+30FC 1
 62
   179
420
  2234388
370
     9
100
AcDbSpline
210
0.0
220
0.0
230
1.0
 70
    11
 71
     3
 72
    17
 73
    13
 74
     0
 42
0.0000000001
 43
0.0000000001
 12
1.0
 22
0.0
 32
0.0
 13
1.0
 23
0.0
 33
0.0
 40
0.0
 40
0.0
 40
0.0
 40
0.0
 40
1.0
 40
1.0
 40
1.0
 40
2.0
 40
2.0
 40
2.0
 40
3.0
 40
3.0
 40
3.0
 40
4.0
 40
4.0
 40
4.0
 40
4.0
 10
59.52712098133662
 20
-100.4310708082255
 30
0.0
 10
59.52712098133662
 20
-100.3756141415728
 30
0.0
 10
59.48231820470186
 20
-100.3308113638061
 30
0.0
 10
59.42721431721878
 20
-100.3308113638061
 30
0.0
 10
59.37207515195884
 20
-100.3308113638061
 30
0.0
 10
59.32730765310095
 20
-100.3756141415728
 30
0.0
 10
59.32730765310095
 20
-100.4310708082255
 30
0.0
 10
59.32730765310095
 20
-100.4862099748786
 30
0.0
 10
59.37207515195884
 20
-100.5309774748671
 30
0.0
 10
59.42721431721878
 20
-100.5309774748671
 30
0.0
 10
59.48231820470186
 20
-100.5309774748671
 30
0.0
 10
59.52712098133662
 20
-100.4862099748786
 30
0.0
 10
59.52712098133662
 20
-100.4310708082255
 30
0.0
  0
SPLINE
  5
D0
330
1F
100
AcDbEntity
  8
_U+30EC_U+30A4_U+30E4_U+30FC 1
 62
   179
420
  2234388
370
     9
100
AcDbSpline
210
0.0
220
0.0
230
1.0
 70
    11
 71
     3
 72
    17
 73
    13
 74
     0
 42
0.0000000001
 43
0.0000000001
 12
1.0
 22
0.0
 32
0.0
 13
1.0
 23
0.0
 33
0.0
 40
0.0
 40
0.0
 40
0.0
 40
0.0
 40
1.0
 40
1.0
 40
1.0
 40
2.0
 40
2.0
 40
2.0
 40
3.0
 40
3.0
 40
3.0
 40
4.0
 40
4.0
 40
4.0
 40
4.0
 10
49.52738818089551
 20
-100.4310708082255
 30
0.0
 10
49.52738818089551
 20
-100.3756141415728
 30
0.0
 10
49.48258540426074
 20
-100.3308113638061
 30
0.0
 10
49.42748151677767
 20
-100.3308113638061
 30
0.0
 10
49.37234235151772
 20
-100.3308113638061
 30
0.0
 10
49.32757485265984
 20
-100.3756141415728
 30
0.0
 10
49.32757485265984
 20
-100.4310708082255
 30
0.0
 10
49.32757485265984
 20
-100.4862099748786
 30
0.0
 10
49.37234235151772
 20
-100.5309774748671
 30
0.0
 10
49.42748151677767
 20
-100.5309774748671
 30
0.0
 10
49.48258540426074
 20
-100.5309774748671
 30
0.0
 10
49.52738818089551
 20
-100.4862099748786
 30
0.0
 10
49.52738818089551
 20
-100.4310708082255
 30
0.0
  0
POLYLINE
  5
D1
330
1F
100
AcDbEntity
  8
_U+30EC_U+30A4_U+30E4_U+30FC 1
 62
   179
420
  2234388
370
     9
100
AcDb2dPolyline
 66
     1
 10
0.0
 20
0.0
 30
0.0
  0
VERTEX
  5
D2
330
D1
100
AcDbEntity
  8
_U+30EC_U+30A4_U+30E4_U+30FC 1
 62
   179
420
  2234388
370
     9
100
AcDbVertex
100
AcDb2dVertex
 10
50.42757121348548
 20
-77.62007164726181
 30
0.0
  0
VERTEX
  5
D3
330
D1
100
AcDbEntity
  8
_U+30EC_U+30A4_U+30E4_U+30FC 1
 62
   179
420
  2234388
370
     9
100
AcDbVertex
100
AcDb2dVertex
 10
73.42772923781368
 20
-77.62007164726181
 30
0.0
  0
SEQEND
  5
D4
330
D1
100
AcDbEntity
  8
_U+30EC_U+30A4_U+30E4_U+30FC 1
 62
   179
420
  2234388
370
     9
  0
POLYLINE
  5
D5
330
1F
100
AcDbEntity
  8
_U+30EC_U+30A4_U+30E4_U+30FC 1
 62
   179
420
  2234388
370
     9
100
AcDb2dPolyline
 66
     1
 10
0.0
 20
0.0
 30
0.0
  0
VERTEX
  5
D6
330
D5
100
AcDbEntity
  8
_U+30EC_U+30A4_U+30E4_U+30FC 1
 62
   179
420
  2234388
370
     9
100
AcDbVertex
100
AcDb2dVertex
 10
50.42757121348548
 20
-79.08011303578552
 30
0.0
  0
VERTEX
  5
D7
330
D5
100
AcDbEntity
  8
_U+30EC_U+30A4_U+30E4_U+30FC 1
 62
   179
420
  2234388
370
     9
100
AcDbVertex
100
AcDb2dVertex
 10
50.42757121348548
 20
-76.62029942528928
 30
0.0
  0
SEQEND
  5
D8
330
D5
100
AcDbEntity
  8
_U+30EC_U+30A4_U+30E4_U+30FC 1
 62
   179
420
  2234388
370
     9
  0
POLYLINE
  5
D9
330
1F
100
AcDbEntity
  8
_U+30EC_U+30A4_U+30E4_U+30FC 1
 62
   179
420
  2234388
370
     9
100
AcDb2dPolyline
 66
     1
 10
0.0
 20
0.0
 30
0.0
  0
VERTEX
  5
DA
330
D9
100
AcDbEntity
  8
_U+30EC_U+30A4_U+30E4_U+30FC 1
 62
   179
420
  2234388
370
     9
100
AcDbVertex
100
AcDb2dVertex
 10
73.42772923781368
 20
-79.08011303578552
 30
0.0
  0
VERTEX
  5
DB
330
D9
100
AcDbEntity
  8
_U+30EC_U+30A4_U+30E4_U+30FC 1
 62
   179
420
  2234388
370
     9
100
AcDbVertex
100
AcDb2dVertex
 10
73.42772923781368
 20
-76.62029942528928
 30
0.0
  0
SEQEND
  5
DC
330
D9
100
AcDbEntity
  8
_U+30EC_U+30A4_U+30E4_U+30FC 1
 62
   179
420
  2234388
370
     9
  0
INSERT
  5
DE
330
1F
100
AcDbEntity
  8
_U+30EC_U+30A4_U+30E4_U+30FC 1
100
AcDbBlockReference
  2
block 4
 10
0.0
 20
0.0
 30
0.0
  0
POLYLINE
  5
E5
330
1F
100
AcDbEntity
  8
_U+30EC_U+30A4_U+30E4_U+30FC 1
 62
   179
420
  2234388
370
     9
100
AcDb2dPolyline
 66
     1
 10
0.0
 20
0.0
 30
0.0
  0
VERTEX
  5
E6
330
E5
100
AcDbEntity
  8
_U+30EC_U+30A4_U+30E4_U+30FC 1
 62
   179
420
  2234388
370
     9
100
AcDbVertex
100
AcDb2dVertex
 10
49.42748151677767
 20
-100.4310708082255
 30
0.0
  0
VERTEX
  5
E7
330
E5
100
AcDbEntity
  8
_U+30EC_U+30A4_U+30E4_U+30FC 1
 62
   179
420
  2234388
370
     9
100
AcDbVertex
100
AcDb2dVertex
 10
59.42721431721878
 20
-100.4310708082255
 30
0.0
  0
SEQEND
  5
E8
330
E5
100
AcDbEntity
  8
_U+30EC_U+30A4_U+30E4_U+30FC 1
 62
   179
420
  2234388
370
     9
  0
POLYLINE
  5
E9
330
1F
100
AcDbEntity
  8
_U+30EC_U+30A4_U+30E4_U+30FC 1
 62
   179
420
  2234388
370
     9
100
AcDb2dPolyline
 66
     1
 10
0.0
 20
0.0
 30
0.0
  0
VERTEX
  5
EA
330
E9
100
AcDbEntity
  8
_U+30EC_U+30A4_U+30E4_U+30FC 1
 62
   179
420
  2234388
370
     9
100
AcDbVertex
100
AcDb2dVertex
 10
49.42748151677767
 20
-98.9710646974793
 30
0.0
  0
VERTEX
  5
EB
330
E9
100
AcDbEntity
  8
_U+30EC_U+30A4_U+30E4_U+30FC 1
 62
   179
420
  2234388
370
     9
100
AcDbVertex
100
AcDb2dVertex
 10
49.42748151677767
 20
-101.430843030198
 30
0.0
  0
SEQEND
  5
EC
330
E9
100
AcDbEntity
  8
_U+30EC_U+30A4_U+30E4_U+30FC 1
 62
   179
420
  2234388
370
     9
  0
POLYLINE
  5
ED
330
1F
100
AcDbEntity
  8
_U+30EC_U+30A4_U+30E4_U+30FC 1
 62
   179
420
  2234388
370
     9
100
AcDb2dPolyline
 66
     1
 10
0.0
 20
0.0
 30
0.0
  0
VERTEX
  5
EE
330
ED
100
AcDbEntity
  8
_U+30EC_U+30A4_U+30E4_U+30FC 1
 62
   179
420
  2234388
370
     9
100
AcDbVertex
100
AcDb2dVertex
 10
59.42721431721878
 20
-98.9710646974793
 30
0.0
  0
VERTEX
  5
EF
330
ED
100
AcDbEntity
  8
_U+30EC_U+30A4_U+30E4_U+30FC 1
 62
   179
420
  2234388
370
     9
100
AcDbVertex
100
AcDb2dVertex
 10
59.42721431721878
 20
-101.430843030198
 30
0.0
  0
SEQEND
  5
F0
330
ED
100
AcDbEntity
  8
_U+30EC_U+30A4_U+30E4_U+30FC 1
 62
   179
420
  2234388
370
     9
  0
INSERT
  5
F2
330
1F
100
AcDbEntity
  8
_U+30EC_U+30A4_U+30E4_U+30FC 1
100
AcDbBlockReference
  2
block 5
 10
0.0
 20
0.0
 30
0.0
  0
POLYLINE
  5
FA
330
1F
100
AcDbEntity
  8
_U+30EC_U+30A4_U+30E4_U+30FC 1
 62
   179
420
  2234388
370
     9
100
AcDb2dPolyline
 66
     1
 10
0.0
 20
0.0
 30
0.0
  0
VERTEX
  5
FB
330
FA
100
AcDbEntity
  8
_U+30EC_U+30A4_U+30E4_U+30FC 1
 62
   179
420
  2234388
370
     9
100
AcDbVertex
100
AcDb2dVertex
 10
77.42748830243798
 20
-81.62018359070613
 30
0.0
  0
VERTEX
  5
FC
330
FA
100
AcDbEntity
  8
_U+30EC_U+30A4_U+30E4_U+30FC 1
 62
   179
420
  2234388
370
     9
100
AcDbVertex
100
AcDb2dVertex
 10
77.42748830243798
 20
-76.36259525868715
 30
0.0
  0
SEQEND
  5
FD
330
FA
100
AcDbEntity
  8
_U+30EC_U+30A4_U+30E4_U+30FC 1
 62
   179
420
  2234388
370
     9
  0
POLYLINE
  5
FE
330
1F
100
AcDbEntity
  8
_U+30EC_U+30A4_U+30E4_U+30FC 1
 62
   179
420
  2234388
370
     9
100
AcDb2dPolyline
 66
     1
 10
0.0
 20
0.0
 30
0.0
  0
VERTEX
  5
FF
330
FE
100
AcDbEntity
  8
_U+30EC_U+30A4_U+30E4_U+30FC 1
 62
   179
420
  2234388
370
     9
100
AcDbVertex
100
AcDb2dVertex
 10
77.42748830243798
 20
-81.62018359070613
 30
0.0
  0
VERTEX
  5
100
330
FE
100
AcDbEntity
  8
_U+30EC_U+30A4_U+30E4_U+30FC 1
 62
   179
420
  2234388
370
     9
100
AcDbVertex
100
AcDb2dVertex
 10
77.42748830243798
 20
-82.42010720161724
 30
0.0
  0
SEQEND
  5
101
330
FE
100
AcDbEntity
  8
_U+30EC_U+30A4_U+30E4_U+30FC 1
 62
   179
420
  2234388
370
     9
  0
POLYLINE
  5
102
330
1F
100
AcDbEntity
  8
_U+30EC_U+30A4_U+30E4_U+30FC 1
 62
   179
420
  2234388
370
     9
100
AcDb2dPolyline
 66
     1
 10
0.0
 20
0.0
 30
0.0
  0
VERTEX
  5
103
330
102
100
AcDbEntity
  8
_U+30EC_U+30A4_U+30E4_U+30FC 1
 62
   179
420
  2234388
370
     9
100
AcDbVertex
100
AcDb2dVertex
 10
75.96744695079785
 20
-81.62018359070613
 30
0.0
  0
VERTEX
  5
104
330
102
100
AcDbEntity
  8
_U+30EC_U+30A4_U+30E4_U+30FC 1
 62
   179
420
  2234388
370
     9
100
AcDbVertex
100
AcDb2dVertex
 10
78.42726049915389
 20
-81.62018359070613
 30
0.0
  0
SEQEND
  5
105
330
102
100
AcDbEntity
  8
_U+30EC_U+30A4_U+30E4_U+30FC 1
 62
   179
420
  2234388
370
     9
  0
POLYLINE
  5
106
330
1F
100
AcDbEntity
  8
_U+30EC_U+30A4_U+30E4_U+30FC 1
 62
   179
420
  2234388
370
     9
100
AcDb2dPolyline
 66
     1
 10
0.0
 20
0.0
 30
0.0
  0
VERTEX
  5
107
330
106
100
AcDbEntity
  8
_U+30EC_U+30A4_U+30E4_U+30FC 1
 62
   179
420
  2234388
370
     9
100
AcDbVertex
100
AcDb2dVertex
 10
75.96744695079785
 20
-82.42010720161724
 30
0.0
  0
VERTEX
  5
108
330
106
100
AcDbEntity
  8
_U+30EC_U+30A4_U+30E4_U+30FC 1
 62
   179
420
  2234388
370
     9
100
AcDbVertex
100
AcDb2dVertex
 10
78.42726049915389
 20
-82.42010720161724
 30
0.0
  0
SEQEND
  5
109
330
106
100
AcDbEntity
  8
_U+30EC_U+30A4_U+30E4_U+30FC 1
 62
   179
420
  2234388
370
     9
  0
INSERT
  5
10B
330
1F
100
AcDbEntity
  8
_U+30EC_U+30A4_U+30E4_U+30FC 1
100
AcDbBlockReference
  2
block 6
 10
0.0
 20
0.0
 30
0.0
  0
POLYLINE
  5
11D
330
1F
100
AcDbEntity
  8
_U+30EC_U+30A4_U+30E4_U+30FC 1
 62
   179
420
  2234388
370
     9
100
AcDb2dPolyline
 66
     1
 10
0.0
 20
0.0
 30
0.0
  0
VERTEX
  5
11E
330
11D
100
AcDbEntity
  8
_U+30EC_U+30A4_U+30E4_U+30FC 1
 62
   179
420
  2234388
370
     9
100
AcDbVertex
100
AcDb2dVertex
 10
77.42748830243798
 20
-92.42019303245024
 30
0.0
  0
VERTEX
  5
11F
330
11D
100
AcDbEntity
  8
_U+30EC_U+30A4_U+30E4_U+30FC 1
 62
   179
420
  2234388
370
     9
100
AcDbVertex
100
AcDb2dVertex
 10
77.42748830243798
 20
-95.42017997614523
 30
0.0
  0
SEQEND
  5
120
330
11D
100
AcDbEntity
  8
_U+30EC_U+30A4_U+30E4_U+30FC 1
 62
   179
420
  2234388
370
     9
  0
POLYLINE
  5
121
330
1F
100
AcDbEntity
  8
_U+30EC_U+30A4_U+30E4_U+30FC 1
 62
   179
420
  2234388
370
     9
100
AcDb2dPolyline
 66
     1
 10
0.0
 20
0.0
 30
0.0
  0
VERTEX
  5
122
330
121
100
AcDbEntity
  8
_U+30EC_U+30A4_U+30E4_U+30FC 1
 62
   179
420
  2234388
370
     9
100
AcDbVertex
100
AcDb2dVertex
 10
61.96763758574053
 20
-95.42017997614523
 30
0.0
  0
VERTEX
  5
123
330
121
100
AcDbEntity
  8
_U+30EC_U+30A4_U+30E4_U+30FC 1
 62
   179
420
  2234388
370
     9
100
AcDbVertex
100
AcDb2dVertex
 10
78.42726049915389
 20
-95.42017997614523
 30
0.0
  0
SEQEND
  5
124
330
121
100
AcDbEntity
  8
_U+30EC_U+30A4_U+30E4_U+30FC 1
 62
   179
420
  2234388
370
     9
  0
INSERT
  5
126
330
1F
100
AcDbEntity
  8
_U+30EC_U+30A4_U+30E4_U+30FC 1
100
AcDbBlockReference
  2
block 7
 10
0.0
 20
0.0
 30
0.0
  0
POLYLINE
  5
12B
330
1F
100
AcDbEntity
  8
_U+30EC_U+30A4_U+30E4_U+30FC 1
 62
   179
420
  2234388
370
     9
100
AcDb2dPolyline
 66
     1
 10
0.0
 20
0.0
 30
0.0
  0
VERTEX
  5
12C
330
12B
100
AcDbEntity
  8
_U+30EC_U+30A4_U+30E4_U+30FC 1
 62
   179
420
  2234388
370
     9
100
AcDbVertex
100
AcDb2dVertex
 10
77.42748830243798
 20
-82.42010720161724
 30
0.0
  0
VERTEX
  5
12D
330
12B
100
AcDbEntity
  8
_U+30EC_U+30A4_U+30E4_U+30FC 1
 62
   179
420
  2234388
370
     9
100
AcDbVertex
100
AcDb2dVertex
 10
77.42748830243798
 20
-92.42019303245024
 30
0.0
  0
SEQEND
  5
12E
330
12B
100
AcDbEntity
  8
_U+30EC_U+30A4_U+30E4_U+30FC 1
 62
   179
420
  2234388
370
     9
  0
POLYLINE
  5
12F
330
1F
100
AcDbEntity
  8
_U+30EC_U+30A4_U+30E4_U+30FC 1
 62
   179
420
  2234388
370
     9
100
AcDb2dPolyline
 66
     1
 10
0.0
 20
0.0
 30
0.0
  0
VERTEX
  5
130
330
12F
100
AcDbEntity
  8
_U+30EC_U+30A4_U+30E4_U+30FC 1
 62
   179
420
  2234388
370
     9
100
AcDbVertex
100
AcDb2dVertex
 10
75.96744695079785
 20
-82.42010720161724
 30
0.0
  0
VERTEX
  5
131
330
12F
100
AcDbEntity
  8
_U+30EC_U+30A4_U+30E4_U+30FC 1
 62
   179
420
  2234388
370
     9
100
AcDbVertex
100
AcDb2dVertex
 10
78.42726049915389
 20
-82.42010720161724
 30
0.0
  0
SEQEND
  5
132
330
12F
100
AcDbEntity
  8
_U+30EC_U+30A4_U+30E4_U+30FC 1
 62
   179
420
  2234388
370
     9
  0
POLYLINE
  5
133
330
1F
100
AcDbEntity
  8
_U+30EC_U+30A4_U+30E4_U+30FC 1
 62
   179
420
  2234388
370
     9
100
AcDb2dPolyline
 66
     1
 10
0.0
 20
0.0
 30
0.0
  0
VERTEX
  5
134
330
133
100
AcDbEntity
  8
_U+30EC_U+30A4_U+30E4_U+30FC 1
 62
   179
420
  2234388
370
     9
100
AcDbVertex
100
AcDb2dVertex
 10
61.96763758574053
 20
-92.42019303245024
 30
0.0
  0
VERTEX
  5
135
330
133
100
AcDbEntity
  8
_U+30EC_U+30A4_U+30E4_U+30FC 1
 62
   179
420
  2234388
370
     9
100
AcDbVertex
100
AcDb2dVertex
 10
78.42726049915389
 20
-92.42019303245024
 30
0.0
  0
SEQEND
  5
136
330
133
100
AcDbEntity
  8
_U+30EC_U+30A4_U+30E4_U+30FC 1
 62
   179
420
  2234388
370
     9
  0
INSERT
  5
138
330
1F
100
AcDbEntity
  8
_U+30EC_U+30A4_U+30E4_U+30FC 1
100
AcDbBlockReference
  2
block 8
 10
0.0
 20
0.0
 30
0.0
  0
ENDSEC
  0
SECTION
  2
OBJECTS
  0
DICTIONARY
  5
C
330
0
100
AcDbDictionary
281
     1
  3
ACAD_GROUP
350
D
  3
ACAD_LAYOUT
350
1A
  3
ACAD_MATERIAL
350
3B
  3
ACAD_MLEADERSTYLE
350
141
  3
ACAD_MLINESTYLE
350
17
  3
ACAD_PLOTSETTINGS
350
19
  3
ACAD_PLOTSTYLENAME
350
E
  3
ACAD_TABLESTYLE
350
140
  3
ACAD_VISUALSTYLE
350
2A
  0
SUN
  5
3F
330
29
100
AcDbSun
 90
        1
290
     0
 63
     7
421
 16777215
 40
1.0
291
     1
 91
  2455826
 92
 54000000
292
     0
 70
     2
 71
   256
280
     1
  0
DICTIONARY
  5
D
102
{ACAD_REACTORS
330
C
102
}
330
C
100
AcDbDictionary
281
     1
  0
DICTIONARY
  5
1A
102
{ACAD_REACTORS
330
C
102
}
330
C
100
AcDbDictionary
281
     1
  3
Layout1
350
1E
  3
Layout2
350
26
  3
Model
350
22
  0
DICTIONARY
  5
3B
102
{ACAD_REACTORS
330
C
102
}
330
C
100
AcDbDictionary
281
     1
  3
ByBlock
350
3D
  3
ByLayer
350
3C
  3
Global
350
3E
  0
DICTIONARY
  5
141
102
{ACAD_REACTORS
330
C
102
}
330
C
100
AcDbDictionary
281
     1
  0
DICTIONARY
  5
17
102
{ACAD_REACTORS
330
C
102
}
330
C
100
AcDbDictionary
281
     1
  3
Standard
350
18
  0
DICTIONARY
  5
19
102
{ACAD_REACTORS
330
C
102
}
330
C
100
AcDbDictionary
281
     1
  0
ACDBDICTIONARYWDFLT
  5
E
102
{ACAD_REACTORS
330
C
102
}
330
C
100
AcDbDictionary
281
     1
  3
Normal
350
F
100
AcDbDictionaryWithDefault
340
F
  0
DICTIONARY
  5
140
102
{ACAD_REACTORS
330
C
102
}
330
C
100
AcDbDictionary
281
     1
  0
DICTIONARY
  5
2A
102
{ACAD_REACTORS
330
C
102
}
330
C
100
AcDbDictionary
281
     1
  3
2dWireframe
350
2F
  3
3D Hidden
350
31
  3
3dWireframe
350
30
  3
Basic
350
32
  3
Brighten
350
36
  3
ColorChange
350
3A
  3
Conceptual
350
34
  3
Dim
350
35
  3
Facepattern
350
39
  3
Flat
350
2B
  3
FlatWithEdges
350
2C
  3
Gouraud
350
2D
  3
GouraudWithEdges
350
2E
  3
Linepattern
350
38
  3
Realistic
350
33
  3
Thicken
350
37
  0
LAYOUT
  5
1E
102
{ACAD_REACTORS
330
1A
102
}
330
1A
100
AcDbPlotSettings
  1

  2
none_device
  4

  6

 40
0.0
 41
0.0
 42
0.0
 43
0.0
 44
0.0
 45
0.0
 46
0.0
 47
0.0
 48
0.0
 49
0.0
140
0.0
141
0.0
142
1.0
143
1.0
 70
   688
 72
     0
 73
     0
 74
     5
  7

 75
    16
 76
     0
 77
     2
 78
   300
147
1.0
148
0.0
149
0.0
100
AcDbLayout
  1
Layout1
 70
     1
 71
     1
 10
0.0
 20
0.0
 11
12.0
 21
9.0
 12
0.0
 22
0.0
 32
0.0
 14
1.000000000000000E+20
 24
1.000000000000000E+20
 34
1.000000000000000E+20
 15
-1.000000000000000E+20
 25
-1.000000000000000E+20
 35
-1.000000000000000E+20
146
0.0
 13
0.0
 23
0.0
 33
0.0
 16
1.0
 26
0.0
 36
0.0
 17
0.0
 27
1.0
 37
0.0
 76
     0
330
1B
  0
LAYOUT
  5
26
102
{ACAD_REACTORS
330
1A
102
}
330
1A
100
AcDbPlotSettings
  1

  2
none_device
  4

  6

 40
0.0
 41
0.0
 42
0.0
 43
0.0
 44
0.0
 45
0.0
 46
0.0
 47
0.0
 48
0.0
 49
0.0
140
0.0
141
0.0
142
1.0
143
1.0
 70
   688
 72
     0
 73
     0
 74
     5
  7

 75
    16
 76
     0
 77
     2
 78
   300
147
1.0
148
0.0
149
0.0
100
AcDbLayout
  1
Layout2
 70
     1
 71
     2
 10
0.0
 20
0.0
 11
0.0
 21
0.0
 12
0.0
 22
0.0
 32
0.0
 14
0.0
 24
0.0
 34
0.0
 15
0.0
 25
0.0
 35
0.0
146
0.0
 13
0.0
 23
0.0
 33
0.0
 16
1.0
 26
0.0
 36
0.0
 17
0.0
 27
1.0
 37
0.0
 76
     0
330
23
  0
LAYOUT
  5
22
102
{ACAD_REACTORS
330
1A
102
}
330
1A
100
AcDbPlotSettings
  1

  2
none_device
  4

  6

 40
0.0
 41
0.0
 42
0.0
 43
0.0
 44
0.0
 45
0.0
 46
0.0
 47
0.0
 48
0.0
 49
0.0
140
0.0
141
0.0
142
1.0
143
1.0
 70
  1712
 72
     0
 73
     0
 74
     0
  7

 75
     0
 76
     0
 77
     2
 78
   300
147
1.0
148
0.0
149
0.0
100
AcDbLayout
  1
Model
 70
     1
 71
     0
 10
0.0
 20
0.0
 11
12.0
 21
9.0
 12
0.0
 22
0.0
 32
0.0
 14
1.000000000000000E+20
 24
1.000000000000000E+20
 34
1.000000000000000E+20
 15
-1.000000000000000E+20
 25
-1.000000000000000E+20
 35
-1.000000000000000E+20
146
0.0
 13
0.0
 23
0.0
 33
0.0
 16
1.0
 26
0.0
 36
0.0
 17
0.0
 27
1.0
 37
0.0
 76
     0
330
1F
331
29
  0
MATERIAL
  5
3D
102
{ACAD_REACTORS
330
3B
102
}
330
3B
100
AcDbMaterial
  1
ByBlock
 72
     1
 94
      127
  0
MATERIAL
  5
3C
102
{ACAD_REACTORS
330
3B
102
}
330
3B
100
AcDbMaterial
  1
ByLayer
 72
     1
 94
      127
  0
MATERIAL
  5
3E
102
{ACAD_REACTORS
330
3B
102
}
330
3B
100
AcDbMaterial
  1
Global
 72
     1
 94
      127
  0
MLINESTYLE
  5
18
102
{ACAD_REACTORS
330
17
102
}
330
17
100
AcDbMlineStyle
  2
Standard
 70
     0
  3

 62
   256
 51
90.0
 52
90.0
 71
     2
 49
0.5
 62
   256
  6
BYLAYER
 49
-0.5
 62
   256
  6
BYLAYER
  0
ACDBPLACEHOLDER
  5
F
102
{ACAD_REACTORS
330
E
102
}
330
E
  0
VISUALSTYLE
  5
2F
102
{ACAD_REACTORS
330
2A
102
}
330
2A
100
AcDbVisualStyle
  2
2dWireframe
 70
     4
177
     2
291
     0
 71
     0
176
     1
 72
     2
176
     1
 73
     0
176
     1
 90
        0
176
     1
 40
-0.6
176
     1
 41
-30.0
176
     1
 62
     5
 63
     7
421
 16777215
176
     1
 74
     1
176
     1
 91
        4
176
     1
 64
     7
176
     1
 65
   257
176
     1
 75
     1
176
     1
175
     1
176
     1
 42
1.0
176
     1
 92
        0
176
     1
 66
   257
176
     1
 43
1.0
176
     1
 76
     1
176
     1
 77
     6
176
     1
 78
     2
176
     1
 67
     7
176
     1
 79
     5
176
     1
170
     0
176
     1
171
     0
176
     1
290
     0
176
     1
 93
        1
176
     1
 44
0.0
176
     1
173
     0
176
     1
  0
VISUALSTYLE
  5
31
102
{ACAD_REACTORS
330
2A
102
}
330
2A
100
AcDbVisualStyle
  2
3D Hidden
 70
     6
177
     2
291
     0
 71
     1
176
     1
 72
     2
176
     1
 73
     2
176
     1
 90
        0
176
     1
 40
-0.6
176
     1
 41
-30.0
176
     1
 62
     5
 63
     7
421
 16777215
176
     1
 74
     2
176
     1
 91
        2
176
     1
 64
     7
176
     1
 65
   257
176
     1
 75
     2
176
     1
175
     1
176
     1
 42
40.0
176
     1
 92
        0
176
     1
 66
   257
176
     1
 43
1.0
176
     1
 76
     1
176
     1
 77
     6
176
     1
 78
     2
176
     1
 67
     7
176
     1
 79
     3
176
     1
170
     0
176
     1
171
     0
176
     1
290
     0
176
     1
 93
        1
176
     1
 44
0.0
176
     1
173
     0
176
     1
  0
VISUALSTYLE
  5
30
102
{ACAD_REACTORS
330
2A
102
}
330
2A
100
AcDbVisualStyle
  2
3dWireframe
 70
     5
177
     2
291
     0
 71
     0
176
     1
 72
     2
176
     1
 73
     0
176
     1
 90
        0
176
     1
 40
-0.6
176
     1
 41
-30.0
176
     1
 62
     5
 63
     7
421
 16777215
176
     1
 74
     1
176
     1
 91
        4
176
     1
 64
     7
176
     1
 65
   257
176
     1
 75
     1
176
     1
175
     1
176
     1
 42
1.0
176
     1
 92
        0
176
     1
 66
   257
176
     1
 43
1.0
176
     1
 76
     1
176
     1
 77
     6
176
     1
 78
     2
176
     1
 67
     7
176
     1
 79
     5
176
     1
170
     0
176
     1
171
     0
176
     1
290
     0
176
     1
 93
        1
176
     1
 44
0.0
176
     1
173
     0
176
     1
  0
VISUALSTYLE
  5
32
102
{ACAD_REACTORS
330
2A
102
}
330
2A
100
AcDbVisualStyle
  2
Basic
 70
     7
177
     2
291
     1
 71
     1
176
     1
 72
     0
176
     1
 73
     1
176
     1
 90
        0
176
     1
 40
-0.6
176
     1
 41
-30.0
176
     1
 62
     5
 63
     7
421
 16777215
176
     1
 74
     0
176
     1
 91
        4
176
     1
 64
     7
176
     1
 65
   257
176
     1
 75
     1
176
     1
175
     1
176
     1
 42
1.0
176
     1
 92
        8
176
     1
 66
     7
176
     1
 43
1.0
176
     1
 76
     1
176
     1
 77
     6
176
     1
 78
     2
176
     1
 67
     7
176
     1
 79
     5
176
     1
170
     0
176
     1
171
     0
176
     1
290
     0
176
     1
 93
        1
176
     1
 44
0.0
176
     1
173
     0
176
     1
  0
VISUALSTYLE
  5
36
102
{ACAD_REACTORS
330
2A
102
}
330
2A
100
AcDbVisualStyle
  2
Brighten
 70
    12
177
     2
291
     1
 71
     2
176
     1
 72
     2
176
     1
 73
     0
176
     1
 90
        0
176
     1
 40
-0.6
176
     1
 41
-30.0
176
     1
 62
     5
 63
     7
421
 16777215
176
     1
 74
     1
176
     1
 91
        4
176
     1
 64
     7
176
     1
 65
   257
176
     1
 75
     1
176
     1
175
     1
176
     1
 42
1.0
176
     1
 92
        8
176
     1
 66
     7
176
     1
 43
1.0
176
     1
 76
     1
176
     1
 77
     6
176
     1
 78
     2
176
     1
 67
     7
176
     1
 79
     5
176
     1
170
     0
176
     1
171
     0
176
     1
290
     0
176
     1
 93
        1
176
     1
 44
50.0
176
     1
173
     0
176
     1
  0
VISUALSTYLE
  5
3A
102
{ACAD_REACTORS
330
2A
102
}
330
2A
100
AcDbVisualStyle
  2
ColorChange
 70
    16
177
     2
291
     1
 71
     2
176
     1
 72
     2
176
     1
 73
     3
176
     1
 90
        0
176
     1
 40
-0.6
176
     1
 41
-30.0
176
     1
 62
     5
 63
     8
421
  8421504
176
     1
 74
     1
176
     1
 91
        4
176
     1
 64
     7
176
     1
 65
   257
176
     1
 75
     1
176
     1
175
     1
176
     1
 42
1.0
176
     1
 92
        8
176
     1
 66
     8
424
  8421504
176
     1
 43
1.0
176
     1
 76
     1
176
     1
 77
     6
176
     1
 78
     2
176
     1
 67
     7
176
     1
 79
     5
176
     1
170
     0
176
     1
171
     0
176
     1
290
     0
176
     1
 93
        1
176
     1
 44
0.0
176
     1
173
     0
176
     1
  0
VISUALSTYLE
  5
34
102
{ACAD_REACTORS
330
2A
102
}
330
2A
100
AcDbVisualStyle
  2
Conceptual
 70
     9
177
     2
291
     0
 71
     3
176
     1
 72
     2
176
     1
 73
     0
176
     1
 90
        0
176
     1
 40
-0.6
176
     1
 41
-30.0
176
     1
 62
     5
 63
     7
421
 16777215
176
     1
 74
     2
176
     1
 91
        2
176
     1
 64
     7
176
     1
 65
   257
176
     1
 75
     1
176
     1
175
     1
176
     1
 42
40.0
176
     1
 92
        8
176
     1
 66
     7
176
     1
 43
1.0
176
     1
 76
     1
176
     1
 77
     6
176
     1
 78
     2
176
     1
 67
     7
176
     1
 79
     3
176
     1
170
     0
176
     1
171
     0
176
     1
290
     0
176
     1
 93
        1
176
     1
 44
0.0
176
     1
173
     0
176
     1
  0
VISUALSTYLE
  5
35
102
{ACAD_REACTORS
330
2A
102
}
330
2A
100
AcDbVisualStyle
  2
Dim
 70
    11
177
     2
291
     1
 71
     2
176
     1
 72
     2
176
     1
 73
     0
176
     1
 90
        0
176
     1
 40
-0.6
176
     1
 41
-30.0
176
     1
 62
     5
 63
     7
421
 16777215
176
     1
 74
     1
176
     1
 91
        4
176
     1
 64
     7
176
     1
 65
   257
176
     1
 75
     1
176
     1
175
     1
176
     1
 42
1.0
176
     1
 92
        8
176
     1
 66
     7
176
     1
 43
1.0
176
     1
 76
     1
176
     1
 77
     6
176
     1
 78
     2
176
     1
 67
     7
176
     1
 79
     5
176
     1
170
     0
176
     1
171
     0
176
     1
290
     0
176
     1
 93
        1
176
     1
 44
-50.0
176
     1
173
     0
176
     1
  0
VISUALSTYLE
  5
39
102
{ACAD_REACTORS
330
2A
102
}
330
2A
100
AcDbVisualStyle
  2
Facepattern
 70
    15
177
     2
291
     1
 71
     2
176
     1
 72
     2
176
     1
 73
     0
176
     1
 90
        0
176
     1
 40
-0.6
176
     1
 41
-30.0
176
     1
 62
     5
 63
     7
421
 16777215
176
     1
 74
     1
176
     1
 91
        4
176
     1
 64
     7
176
     1
 65
   257
176
     1
 75
     1
176
     1
175
     1
176
     1
 42
1.0
176
     1
 92
        8
176
     1
 66
     7
176
     1
 43
1.0
176
     1
 76
     1
176
     1
 77
     6
176
     1
 78
     2
176
     1
 67
     7
176
     1
 79
     5
176
     1
170
     0
176
     1
171
     0
176
     1
290
     0
176
     1
 93
        1
176
     1
 44
0.0
176
     1
173
     0
176
     1
  0
VISUALSTYLE
  5
2B
102
{ACAD_REACTORS
330
2A
102
}
330
2A
100
AcDbVisualStyle
  2
Flat
 70
     0
177
     2
291
     1
 71
     2
176
     1
 72
     1
176
     1
 73
     1
176
     1
 90
        2
176
     1
 40
-0.6
176
     1
 41
30.0
176
     1
 62
     5
 63
     7
421
 16777215
176
     1
 74
     0
176
     1
 91
        4
176
     1
 64
     7
176
     1
 65
   257
176
     1
 75
     1
176
     1
175
     1
176
     1
 42
1.0
176
     1
 92
        8
176
     1
 66
     7
176
     1
 43
1.0
176
     1
 76
     1
176
     1
 77
     6
176
     1
 78
     2
176
     1
 67
     7
176
     1
 79
     5
176
     1
170
     0
176
     1
171
     0
176
     1
290
     0
176
     1
 93
       13
176
     1
 44
0.0
176
     1
173
     0
176
     1
  0
VISUALSTYLE
  5
2C
102
{ACAD_REACTORS
330
2A
102
}
330
2A
100
AcDbVisualStyle
  2
FlatWithEdges
 70
     1
177
     2
291
     1
 71
     2
176
     1
 72
     1
176
     1
 73
     1
176
     1
 90
        2
176
     1
 40
-0.6
176
     1
 41
30.0
176
     1
 62
     5
 63
     7
421
 16777215
176
     1
 74
     1
176
     1
 91
        4
176
     1
 64
     7
176
     1
 65
   257
176
     1
 75
     1
176
     1
175
     1
176
     1
 42
1.0
176
     1
 92
        0
176
     1
 66
   257
176
     1
 43
1.0
176
     1
 76
     1
176
     1
 77
     6
176
     1
 78
     2
176
     1
 67
     7
176
     1
 79
     5
176
     1
170
     0
176
     1
171
     0
176
     1
290
     0
176
     1
 93
       13
176
     1
 44
0.0
176
     1
173
     0
176
     1
  0
VISUALSTYLE
  5
2D
102
{ACAD_REACTORS
330
2A
102
}
330
2A
100
AcDbVisualStyle
  2
Gouraud
 70
     2
177
     2
291
     1
 71
     2
176
     1
 72
     2
176
     1
 73
     1
176
     1
 90
        2
176
     1
 40
-0.6
176
     1
 41
30.0
176
     1
 62
     5
 63
     7
421
 16777215
176
     1
 74
     0
176
     1
 91
        4
176
     1
 64
     7
176
     1
 65
   257
176
     1
 75
     1
176
     1
175
     1
176
     1
 42
1.0
176
     1
 92
        0
176
     1
 66
     7
176
     1
 43
1.0
176
     1
 76
     1
176
     1
 77
     6
176
     1
 78
     2
176
     1
 67
     7
176
     1
 79
     5
176
     1
170
     0
176
     1
171
     0
176
     1
290
     0
176
     1
 93
       13
176
     1
 44
0.0
176
     1
173
     0
176
     1
  0
VISUALSTYLE
  5
2E
102
{ACAD_REACTORS
330
2A
102
}
330
2A
100
AcDbVisualStyle
  2
GouraudWithEdges
 70
     3
177
     2
291
     1
 71
     2
176
     1
 72
     2
176
     1
 73
     1
176
     1
 90
        2
176
     1
 40
-0.6
176
     1
 41
30.0
176
     1
 62
     5
 63
     7
421
 16777215
176
     1
 74
     1
176
     1
 91
        4
176
     1
 64
     7
176
     1
 65
   257
176
     1
 75
     1
176
     1
175
     1
176
     1
 42
1.0
176
     1
 92
        0
176
     1
 66
   257
176
     1
 43
1.0
176
     1
 76
     1
176
     1
 77
     6
176
     1
 78
     2
176
     1
 67
     7
176
     1
 79
     5
176
     1
170
     0
176
     1
171
     0
176
     1
290
     0
176
     1
 93
       13
176
     1
 44
0.0
176
     1
173
     0
176
     1
  0
VISUALSTYLE
  5
38
102
{ACAD_REACTORS
330
2A
102
}
330
2A
100
AcDbVisualStyle
  2
Linepattern
 70
    14
177
     2
291
     1
 71
     2
176
     1
 72
     2
176
     1
 73
     0
176
     1
 90
        0
176
     1
 40
-0.6
176
     1
 41
-30.0
176
     1
 62
     5
 63
     7
421
 16777215
176
     1
 74
     1
176
     1
 91
        4
176
     1
 64
     7
176
     1
 65
   257
176
     1
 75
     7
176
     1
175
     7
176
     1
 42
1.0
176
     1
 92
        8
176
     1
 66
     7
176
     1
 43
1.0
176
     1
 76
     1
176
     1
 77
     6
176
     1
 78
     2
176
     1
 67
     7
176
     1
 79
     5
176
     1
170
     0
176
     1
171
     0
176
     1
290
     0
176
     1
 93
        1
176
     1
 44
0.0
176
     1
173
     0
176
     1
  0
VISUALSTYLE
  5
33
102
{ACAD_REACTORS
330
2A
102
}
330
2A
100
AcDbVisualStyle
  2
Realistic
 70
     8
177
     2
291
     0
 71
     2
176
     1
 72
     2
176
     1
 73
     0
176
     1
 90
        0
176
     1
 40
-0.6
176
     1
 41
-30.0
176
     1
 62
     5
 63
     7
421
 16777215
176
     1
 74
     1
176
     1
 91
        0
176
     1
 64
     7
176
     1
 65
   257
176
     1
 75
     1
176
     1
175
     1
176
     1
 42
1.0
176
     1
 92
        8
176
     1
 66
     8
424
  7895160
176
     1
 43
1.0
176
     1
 76
     1
176
     1
 77
     6
176
     1
 78
     2
176
     1
 67
     7
176
     1
 79
     5
176
     1
170
     0
176
     1
171
     0
176
     1
290
     0
176
     1
 93
       13
176
     1
 44
0.0
176
     1
173
     0
176
     1
  0
VISUALSTYLE
  5
37
102
{ACAD_REACTORS
330
2A
102
}
330
2A
100
AcDbVisualStyle
  2
Thicken
 70
    13
177
     2
291
     1
 71
     2
176
     1
 72
     2
176
     1
 73
     0
176
     1
 90
        0
176
     1
 40
-0.6
176
     1
 41
-30.0
176
     1
 62
     5
 63
     7
421
 16777215
176
     1
 74
     1
176
     1
 91
        4
176
     1
 64
     7
176
     1
 65
   257
176
     1
 75
     1
176
     1
175
     1
176
     1
 42
1.0
176
     1
 92
       12
176
     1
 66
     7
176
     1
 43
1.0
176
     1
 76
     1
176
     1
 77
     6
176
     1
 78
     2
176
     1
 67
     7
176
     1
 79
     5
176
     1
170
     0
176
     1
171
     0
176
     1
290
     0
176
     1
 93
        1
176
     1
 44
0.0
176
     1
173
     0
176
     1
  0
ENDSEC
  0
EOF
