  0
SECTION
  2
HEADER
  9
$ACADVER
  1
AC1024
  9
$ACADMAINTVER
 70
     6
  9
$DWGCODEPAGE
  3
UNDEFINED
  9
$INSBASE
 10
0.0
 20
0.0
 30
0.0
  9
$EXTMIN
 10
1.000000000000000E+20
 20
1.000000000000000E+20
 30
1.000000000000000E+20
  9
$EXTMAX
 10
-1.000000000000000E+20
 20
-1.000000000000000E+20
 30
-1.000000000000000E+20
  9
$LIMMIN
 10
0.0
 20
0.0
  9
$LIMMAX
 10
12.0
 20
9.0
  9
$ORTHOMODE
 70
     0
  9
$REGENMODE
 70
     1
  9
$FILLMODE
 70
     1
  9
$QTEXTMODE
 70
     0
  9
$MIRRTEXT
 70
     1
  9
$LTSCALE
 40
1.0
  9
$ATTMODE
 70
     1
  9
$TEXTSIZE
 40
0.2
  9
$TRACEWID
 40
0.05
  9
$TEXTSTYLE
  7
Standard
  9
$CLAYER
  8
0
  9
$CELTYPE
  6
ByLayer
  9
$CECOLOR
 62
   256
  9
$CELTSCALE
 40
1.0
  9
$DISPSILH
 70
     0
  9
$DIMSCALE
 40
1.0
  9
$DIMASZ
 40
0.18
  9
$DIMEXO
 40
0.0625
  9
$DIMDLI
 40
0.38
  9
$DIMRND
 40
0.0
  9
$DIMDLE
 40
0.0
  9
$DIMEXE
 40
0.18
  9
$DIMTP
 40
0.0
  9
$DIMTM
 40
0.0
  9
$DIMTXT
 40
0.18
  9
$DIMCEN
 40
0.09
  9
$DIMTSZ
 40
0.0
  9
$DIMTOL
 70
     0
  9
$DIMLIM
 70
     0
  9
$DIMTIH
 70
     1
  9
$DIMTOH
 70
     1
  9
$DIMSE1
 70
     0
  9
$DIMSE2
 70
     0
  9
$DIMTAD
 70
     0
  9
$DIMZIN
 70
     0
  9
$DIMBLK
  1

  9
$DIMASO
 70
     1
  9
$DIMSHO
 70
     1
  9
$DIMPOST
  1

  9
$DIMAPOST
  1

  9
$DIMALT
 70
     0
  9
$DIMALTD
 70
     2
  9
$DIMALTF
 40
25.4
  9
$DIMLFAC
 40
1.0
  9
$DIMTOFL
 70
     0
  9
$DIMTVP
 40
0.0
  9
$DIMTIX
 70
     0
  9
$DIMSOXD
 70
     0
  9
$DIMSAH
 70
     0
  9
$DIMBLK1
  1

  9
$DIMBLK2
  1

  9
$DIMSTYLE
  2
Standard
  9
$DIMCLRD
 70
     0
  9
$DIMCLRE
 70
     0
  9
$DIMCLRT
 70
     0
  9
$DIMTFAC
 40
1.0
  9
$DIMGAP
 40
0.09
  9
$DIMJUST
 70
     0
  9
$DIMSD1
 70
     0
  9
$DIMSD2
 70
     0
  9
$DIMTOLJ
 70
     1
  9
$DIMTZIN
 70
     0
  9
$DIMALTZ
 70
     0
  9
$DIMALTTZ
 70
     0
  9
$DIMUPT
 70
     0
  9
$DIMDEC
 70
     4
  9
$DIMTDEC
 70
     4
  9
$DIMALTU
 70
     2
  9
$DIMALTTD
 70
     2
  9
$DIMTXSTY
  7
Standard
  9
$DIMAUNIT
 70
     0
  9
$DIMADEC
 70
     0
  9
$DIMALTRND
 40
0.0
  9
$DIMAZIN
 70
     0
  9
$DIMDSEP
 70
    46
  9
$DIMATFIT
 70
     3
  9
$DIMFRAC
 70
     0
  9
$DIMLDRBLK
  1

  9
$DIMLUNIT
 70
     2
  9
$DIMLWD
 70
    -2
  9
$DIMLWE
 70
    -2
  9
$DIMTMOVE
 70
     0
  9
$DIMFXL
 40
1.0
  9
$DIMFXLON
 70
     0
  9
$DIMJOGANG
 40
0.7853981633974483
  9
$DIMTFILL
 70
     0
  9
$DIMTFILLCLR
 70
     0
  9
$DIMARCSYM
 70
     0
  9
$DIMLTYPE
  6

  9
$DIMLTEX1
  6

  9
$DIMLTEX2
  6

  9
$DIMTXTDIRECTION
 70
     0
  9
$LUNITS
 70
     2
  9
$LUPREC
 70
     4
  9
$SKETCHINC
 40
0.1
  9
$FILLETRAD
 40
0.5
  9
$AUNITS
 70
     0
  9
$AUPREC
 70
     0
  9
$MENU
  1
.
  9
$ELEVATION
 40
0.0
  9
$PELEVATION
 40
0.0
  9
$THICKNESS
 40
0.0
  9
$LIMCHECK
 70
     0
  9
$CHAMFERA
 40
0.5
  9
$CHAMFERB
 40
0.5
  9
$CHAMFERC
 40
1.0
  9
$CHAMFERD
 40
0.0
  9
$SKPOLY
 70
     0
  9
$TDCREATE
 40
2457917.592824062
  9
$TDUCREATE
 40
2457917.217824074
  9
$TDUPDATE
 40
2457917.592824062
  9
$TDUUPDATE
 40
2457917.217824074
  9
$TDINDWG
 40
0.0000000116
  9
$TDUSRTIMER
 40
0.0000000116
  9
$USRTIMER
 70
     1
  9
$ANGBASE
 50
0.0
  9
$ANGDIR
 70
     0
  9
$PDMODE
 70
     0
  9
$PDSIZE
 40
0.0
  9
$PLINEWID
 40
0.0
  9
$SPLFRAME
 70
     0
  9
$SPLINETYPE
 70
     6
  9
$SPLINESEGS
 70
     8
  9
$HANDSEED
  5
14A
  9
$SURFTAB1
 70
     6
  9
$SURFTAB2
 70
     6
  9
$SURFTYPE
 70
     6
  9
$SURFU
 70
     6
  9
$SURFV
 70
     6
  9
$UCSBASE
  2

  9
$UCSNAME
  2

  9
$UCSORG
 10
0.0
 20
0.0
 30
0.0
  9
$UCSXDIR
 10
1.0
 20
0.0
 30
0.0
  9
$UCSYDIR
 10
0.0
 20
1.0
 30
0.0
  9
$UCSORTHOREF
  2

  9
$UCSORTHOVIEW
 70
     0
  9
$UCSORGTOP
 10
0.0
 20
0.0
 30
0.0
  9
$UCSORGBOTTOM
 10
0.0
 20
0.0
 30
0.0
  9
$UCSORGLEFT
 10
0.0
 20
0.0
 30
0.0
  9
$UCSORGRIGHT
 10
0.0
 20
0.0
 30
0.0
  9
$UCSORGFRONT
 10
0.0
 20
0.0
 30
0.0
  9
$UCSORGBACK
 10
0.0
 20
0.0
 30
0.0
  9
$PUCSBASE
  2

  9
$PUCSNAME
  2

  9
$PUCSORG
 10
0.0
 20
0.0
 30
0.0
  9
$PUCSXDIR
 10
1.0
 20
0.0
 30
0.0
  9
$PUCSYDIR
 10
0.0
 20
1.0
 30
0.0
  9
$PUCSORTHOREF
  2

  9
$PUCSORTHOVIEW
 70
     0
  9
$PUCSORGTOP
 10
0.0
 20
0.0
 30
0.0
  9
$PUCSORGBOTTOM
 10
0.0
 20
0.0
 30
0.0
  9
$PUCSORGLEFT
 10
0.0
 20
0.0
 30
0.0
  9
$PUCSORGRIGHT
 10
0.0
 20
0.0
 30
0.0
  9
$PUCSORGFRONT
 10
0.0
 20
0.0
 30
0.0
  9
$PUCSORGBACK
 10
0.0
 20
0.0
 30
0.0
  9
$USERI1
 70
     0
  9
$USERI2
 70
     0
  9
$USERI3
 70
     0
  9
$USERI4
 70
     0
  9
$USERI5
 70
     0
  9
$USERR1
 40
0.0
  9
$USERR2
 40
0.0
  9
$USERR3
 40
0.0
  9
$USERR4
 40
0.0
  9
$USERR5
 40
0.0
  9
$WORLDVIEW
 70
     1
  9
$SHADEDGE
 70
     3
  9
$SHADEDIF
 70
    70
  9
$TILEMODE
 70
     1
  9
$MAXACTVP
 70
    64
  9
$PINSBASE
 10
0.0
 20
0.0
 30
0.0
  9
$PLIMCHECK
 70
     0
  9
$PEXTMIN
 10
1.000000000000000E+20
 20
1.000000000000000E+20
 30
1.000000000000000E+20
  9
$PEXTMAX
 10
-1.000000000000000E+20
 20
-1.000000000000000E+20
 30
-1.000000000000000E+20
  9
$PLIMMIN
 10
0.0
 20
0.0
  9
$PLIMMAX
 10
12.0
 20
9.0
  9
$UNITMODE
 70
     0
  9
$VISRETAIN
 70
     1
  9
$PLINEGEN
 70
     0
  9
$PSLTSCALE
 70
     1
  9
$TREEDEPTH
 70
  3020
  9
$CMLSTYLE
  2
Standard
  9
$CMLJUST
 70
     0
  9
$CMLSCALE
 40
1.0
  9
$PROXYGRAPHICS
 70
     1
  9
$MEASUREMENT
 70
     0
  9
$CELWEIGHT
370
    -1
  9
$ENDCAPS
280
     0
  9
$JOINSTYLE
280
     0
  9
$LWDISPLAY
290
     1
  9
$INSUNITS
 70
     1
  9
$HYPERLINKBASE
  1

  9
$STYLESHEET
  1

  9
$XEDIT
290
     1
  9
$CEPSNTYPE
380
     0
  9
$PSTYLEMODE
290
     1
  9
$FINGERPRINTGUID
  2
{A484B0DC-A4A5-A04A-F0F4-674C358B403C}
  9
$VERSIONGUID
  2
{FAEB1C32-E019-11D5-929B-00C0DF256EC4}
  9
$EXTNAMES
290
     1
  9
$PSVPSCALE
 40
0.0
  9
$OLESTARTUP
290
     0
  9
$SORTENTS
280
   127
  9
$INDEXCTL
280
     0
  9
$HIDETEXT
280
     1
  9
$XCLIPFRAME
280
     2
  9
$HALOGAP
280
     0
  9
$OBSCOLOR
 70
   257
  9
$OBSLTYPE
280
     0
  9
$INTERSECTIONDISPLAY
280
     0
  9
$INTERSECTIONCOLOR
 70
   257
  9
$DIMASSOC
280
     2
  9
$PROJECTNAME
  1

  9
$CAMERADISPLAY
290
     0
  9
$LENSLENGTH
 40
50.0
  9
$CAMERAHEIGHT
 40
0.0
  9
$STEPSPERSEC
 40
2.0
  9
$STEPSIZE
 40
6.0
  9
$3DDWFPREC
 40
2.0
  9
$PSOLWIDTH
 40
0.25
  9
$PSOLHEIGHT
 40
4.0
  9
$LOFTANG1
 40
1.570796326794897
  9
$LOFTANG2
 40
1.570796326794897
  9
$LOFTMAG1
 40
0.0
  9
$LOFTMAG2
 40
0.0
  9
$LOFTPARAM
 70
     7
  9
$LOFTNORMALS
280
     1
  9
$LATITUDE
 40
37.795
  9
$LONGITUDE
 40
-122.394
  9
$NORTHDIRECTION
 40
0.0
  9
$TIMEZONE
 70
 -8000
  9
$LIGHTGLYPHDISPLAY
280
     1
  9
$TILEMODELIGHTSYNCH
280
     1
  9
$CMATERIAL
347
3C
  9
$SOLIDHIST
280
     1
  9
$SHOWHIST
280
     1
  9
$DWFFRAME
280
     2
  9
$DGNFRAME
280
     2
  9
$REALWORLDSCALE
290
     1
  9
$INTERFERECOLOR
 62
   256
  9
$CSHADOW
280
     0
  9
$SHADOWPLANELOCATION
 40
0.0
  0
ENDSEC
  0
SECTION
  2
CLASSES
  0
CLASS
  1
ACDBDICTIONARYWDFLT
  2
AcDbDictionaryWithDefault
  3
ObjectDBX Classes
 90
        0
 91
        4
280
     0
281
     0
  0
CLASS
  1
VISUALSTYLE
  2
AcDbVisualStyle
  3
ObjectDBX Classes
 90
     4095
 91
        4
280
     0
281
     0
  0
CLASS
  1
MATERIAL
  2
AcDbMaterial
  3
ObjectDBX Classes
 90
     1153
 91
        4
280
     0
281
     0
  0
CLASS
  1
SUN
  2
AcDbSun
  3
SCENEOE
 90
     1024
 91
        4
280
     0
281
     0
  0
ENDSEC
  0
SECTION
  2
TABLES
  0
TABLE
  2
VPORT
  5
8
330
0
100
AcDbSymbolTable
 70
     1
  0
VPORT
  5
29
330
8
100
AcDbSymbolTableRecord
100
AcDbViewportTableRecord
  2
*Active
 70
     0
 10
0.0
 20
0.0
 11
1.0
 21
1.0
 12
0.0
 22
0.0
 13
0.0
 23
0.0
 14
0.5
 24
0.5
 15
0.5
 25
0.5
 16
0.0
 26
0.0
 36
1.0
 17
63.499999984125
 27
-89.00059456108309
 37
0.0
 40
178.0011891221662
 41
0.7134783795241226
 42
50.0
 43
0.0
 44
0.0
 50
0.0
 51
0.0
 71
     0
 72
   100
 73
     1
 74
     3
 75
     0
 76
     0
 77
     0
 78
     0
281
     0
 65
     1
110
0.0
120
0.0
130
0.0
111
1.0
121
0.0
131
0.0
112
0.0
122
1.0
132
0.0
 79
     0
146
0.0
 60
     3
 61
     5
292
     1
282
     1
141
0.0
142
0.0
 63
   250
361
3F
  0
ENDTAB
  0
TABLE
  2
LTYPE
  5
5
330
0
100
AcDbSymbolTable
 70
     3
  0
LTYPE
  5
14
330
5
100
AcDbSymbolTableRecord
100
AcDbLinetypeTableRecord
  2
ByBlock
 70
     0
  3

 72
    65
 73
     0
 40
0.0
  0
LTYPE
  5
15
330
5
100
AcDbSymbolTableRecord
100
AcDbLinetypeTableRecord
  2
ByLayer
 70
     0
  3

 72
    65
 73
     0
 40
0.0
  0
LTYPE
  5
16
330
5
100
AcDbSymbolTableRecord
100
AcDbLinetypeTableRecord
  2
Continuous
 70
     0
  3
Solid line
 72
    65
 73
     0
 40
0.0
  0
LTYPE
  5
44
330
5
100
AcDbSymbolTableRecord
100
AcDbLinetypeTableRecord
  2
AI-Linetype-1
 70
     0
  3
Adobe Illustrator Linetype No. 1
 72
    65
 73
     2
 40
1.411111110758333
 49
0.7055555553791667
 74
     0
 49
-0.7055555553791667
 74
     0
  0
LTYPE
  5
49
330
5
100
AcDbSymbolTableRecord
100
AcDbLinetypeTableRecord
  2
AI-Linetype-2
 70
     0
  3
Adobe Illustrator Linetype No. 2
 72
    65
 73
     2
 40
1.411111110758333
 49
0.7055555553791667
 74
     0
 49
-0.7055555553791667
 74
     0
  0
ENDTAB
  0
TABLE
  2
LAYER
  5
2
330
0
100
AcDbSymbolTable
 70
     2
  0
LAYER
  5
10
330
2
100
AcDbSymbolTableRecord
100
AcDbLayerTableRecord
  2
0
 70
     0
 62
     7
  6
Continuous
370
    -3
390
F
347
3E
  0
LAYER
  5
40
330
2
100
AcDbSymbolTableRecord
100
AcDbLayerTableRecord
  2
_U+30EC_U+30A4_U+30E4_U+30FC 1
 70
     0
 62
     7
  6
Continuous
370
    -3
390
F
347
3E
  0
ENDTAB
  0
TABLE
  2
STYLE
  5
3
330
0
100
AcDbSymbolTable
 70
     1
  0
STYLE
  5
11
330
3
100
AcDbSymbolTableRecord
100
AcDbTextStyleTableRecord
  2
Standard
 70
     0
 40
0.0
 41
1.0
 50
0.0
 71
     0
 42
0.2
  3
txt
  4

  0
ENDTAB
  0
TABLE
  2
VIEW
  5
6
330
0
100
AcDbSymbolTable
 70
     0
  0
ENDTAB
  0
TABLE
  2
UCS
  5
7
330
0
100
AcDbSymbolTable
 70
     0
  0
ENDTAB
  0
TABLE
  2
APPID
  5
9
330
0
100
AcDbSymbolTable
 70
     1
  0
APPID
  5
12
330
9
100
AcDbSymbolTableRecord
100
AcDbRegAppTableRecord
  2
ACAD
 70
     0
  0
ENDTAB
  0
TABLE
  2
DIMSTYLE
  5
A
330
0
100
AcDbSymbolTable
 70
     1
100
AcDbDimStyleTable
  0
DIMSTYLE
105
27
330
A
100
AcDbSymbolTableRecord
100
AcDbDimStyleTableRecord
  2
Standard
 70
     0
178
     0
340
11
  0
ENDTAB
  0
TABLE
  2
BLOCK_RECORD
  5
1
330
0
100
AcDbSymbolTable
 70
     8
  0
BLOCK_RECORD
  5
1F
330
1
100
AcDbSymbolTableRecord
100
AcDbBlockTableRecord
  2
*Model_Space
340
22
 70
     0
280
     1
281
     0
  0
BLOCK_RECORD
  5
1B
330
1
100
AcDbSymbolTableRecord
100
AcDbBlockTableRecord
  2
*Paper_Space
340
1E
 70
     0
280
     1
281
     0
  0
BLOCK_RECORD
  5
23
330
1
100
AcDbSymbolTableRecord
100
AcDbBlockTableRecord
  2
*Paper_Space0
340
26
 70
     0
280
     1
281
     0
  0
BLOCK_RECORD
  5
4B
330
1
100
AcDbSymbolTableRecord
100
AcDbBlockTableRecord
  2
block 2
340
0
102
{BLKREFS
331
4C
102
}
 70
     0
280
     1
281
     0
  0
BLOCK_RECORD
  5
9B
330
1
100
AcDbSymbolTableRecord
100
AcDbBlockTableRecord
  2
block 3
340
0
102
{BLKREFS
331
9C
102
}
 70
     0
280
     1
281
     0
  0
BLOCK_RECORD
  5
AF
330
1
100
AcDbSymbolTableRecord
100
AcDbBlockTableRecord
  2
block 4
340
0
102
{BLKREFS
331
B0
102
}
 70
     0
280
     1
281
     0
  0
BLOCK_RECORD
  5
C8
330
1
100
AcDbSymbolTableRecord
100
AcDbBlockTableRecord
  2
block 5
340
0
102
{BLKREFS
331
C9
102
}
 70
     0
280
     1
281
     0
  0
BLOCK_RECORD
  5
E3
330
1
100
AcDbSymbolTableRecord
100
AcDbBlockTableRecord
  2
block 6
340
0
102
{BLKREFS
331
E4
102
}
 70
     0
280
     1
281
     0
  0
BLOCK_RECORD
  5
F5
330
1
100
AcDbSymbolTableRecord
100
AcDbBlockTableRecord
  2
block 7
340
0
102
{BLKREFS
331
F6
102
}
 70
     0
280
     1
281
     0
  0
BLOCK_RECORD
  5
106
330
1
100
AcDbSymbolTableRecord
100
AcDbBlockTableRecord
  2
block 8
340
0
102
{BLKREFS
331
107
102
}
 70
     0
280
     1
281
     0
  0
ENDTAB
  0
ENDSEC
  0
SECTION
  2
BLOCKS
  0
BLOCK
  5
20
330
1F
100
AcDbEntity
  8
0
100
AcDbBlockBegin
  2
*Model_Space
 70
     0
 10
0.0
 20
0.0
 30
0.0
  3
*Model_Space
  1

  0
ENDBLK
  5
21
330
1F
100
AcDbEntity
  8
0
100
AcDbBlockEnd
  0
BLOCK
  5
1C
330
1B
100
AcDbEntity
 67
     1
  8
0
100
AcDbBlockBegin
  2
*Paper_Space
 70
     0
 10
0.0
 20
0.0
 30
0.0
  3
*Paper_Space
  1

  0
ENDBLK
  5
1D
330
1B
100
AcDbEntity
 67
     1
  8
0
100
AcDbBlockEnd
  0
BLOCK
  5
24
330
23
100
AcDbEntity
  8
0
100
AcDbBlockBegin
  2
*Paper_Space0
 70
     0
 10
0.0
 20
0.0
 30
0.0
  3
*Paper_Space0
  1

  0
ENDBLK
  5
25
330
23
100
AcDbEntity
  8
0
100
AcDbBlockEnd
  0
BLOCK
  5
4D
330
4B
100
AcDbEntity
  8
0
100
AcDbBlockBegin
  2
block 2
 70
     0
 10
0.0
 20
0.0
 30
0.0
  3
block 2
  1

  0
POLYLINE
  5
4F
330
4B
100
AcDbEntity
  8
_U+30EC_U+30A4_U+30E4_U+30FC 1
 62
   179
420
  2234388
370
    25
100
AcDb2dPolyline
 66
     1
 10
0.0
 20
0.0
 30
0.0
  0
VERTEX
  5
50
330
4F
100
AcDbEntity
  8
_U+30EC_U+30A4_U+30E4_U+30FC 1
 62
   179
420
  2234388
370
    25
100
AcDbVertex
100
AcDb2dVertex
 10
50.15575594264229
 20
-83.03870303479586
 30
0.0
  0
VERTEX
  5
51
330
4F
100
AcDbEntity
  8
_U+30EC_U+30A4_U+30E4_U+30FC 1
 62
   179
420
  2234388
370
    25
100
AcDbVertex
100
AcDb2dVertex
 10
73.1555611892017
 20
-83.03870303479586
 30
0.0
  0
SEQEND
  5
52
330
4F
100
AcDbEntity
  8
_U+30EC_U+30A4_U+30E4_U+30FC 1
 62
   179
420
  2234388
370
    25
  0
POLYLINE
  5
53
330
4B
100
AcDbEntity
  8
_U+30EC_U+30A4_U+30E4_U+30FC 1
 62
   179
420
  2234388
370
    25
100
AcDb2dPolyline
 66
     1
 10
0.0
 20
0.0
 30
0.0
  0
VERTEX
  5
54
330
53
100
AcDbEntity
  8
_U+30EC_U+30A4_U+30E4_U+30FC 1
 62
   179
420
  2234388
370
    25
100
AcDbVertex
100
AcDb2dVertex
 10
73.1555611892017
 20
-83.03870303479586
 30
0.0
  0
VERTEX
  5
55
330
53
100
AcDbEntity
  8
_U+30EC_U+30A4_U+30E4_U+30FC 1
 62
   179
420
  2234388
370
    25
100
AcDbVertex
100
AcDb2dVertex
 10
73.1555611892017
 20
-83.83862664570695
 30
0.0
  0
SEQEND
  5
56
330
53
100
AcDbEntity
  8
_U+30EC_U+30A4_U+30E4_U+30FC 1
 62
   179
420
  2234388
370
    25
  0
POLYLINE
  5
57
330
4B
100
AcDbEntity
  8
_U+30EC_U+30A4_U+30E4_U+30FC 1
 62
   179
420
  2234388
370
    25
100
AcDb2dPolyline
 66
     1
 10
0.0
 20
0.0
 30
0.0
  0
VERTEX
  5
58
330
57
100
AcDbEntity
  8
_U+30EC_U+30A4_U+30E4_U+30FC 1
 62
   179
420
  2234388
370
    25
100
AcDbVertex
100
AcDb2dVertex
 10
50.91472203439056
 20
-83.83862664570695
 30
0.0
  0
VERTEX
  5
59
330
57
100
AcDbEntity
  8
_U+30EC_U+30A4_U+30E4_U+30FC 1
 62
   179
420
  2234388
370
    25
100
AcDbVertex
100
AcDb2dVertex
 10
73.1555611892017
 20
-83.83862664570695
 30
0.0
  0
SEQEND
  5
5A
330
57
100
AcDbEntity
  8
_U+30EC_U+30A4_U+30E4_U+30FC 1
 62
   179
420
  2234388
370
    25
  0
POLYLINE
  5
5B
330
4B
100
AcDbEntity
  8
_U+30EC_U+30A4_U+30E4_U+30FC 1
 62
   179
420
  2234388
370
    25
100
AcDb2dPolyline
 66
     1
 10
0.0
 20
0.0
 30
0.0
  0
VERTEX
  5
5C
330
5B
100
AcDbEntity
  8
_U+30EC_U+30A4_U+30E4_U+30FC 1
 62
   179
420
  2234388
370
    25
100
AcDbVertex
100
AcDb2dVertex
 10
55.15563998175129
 20
-90.33866303297111
 30
0.0
  0
VERTEX
  5
5D
330
5B
100
AcDbEntity
  8
_U+30EC_U+30A4_U+30E4_U+30FC 1
 62
   179
420
  2234388
370
    25
100
AcDbVertex
100
AcDb2dVertex
 10
59.15539904637559
 20
-90.33866303297111
 30
0.0
  0
SEQEND
  5
5E
330
5B
100
AcDbEntity
  8
_U+30EC_U+30A4_U+30E4_U+30FC 1
 62
   179
420
  2234388
370
    25
  0
POLYLINE
  5
5F
330
4B
100
AcDbEntity
  8
_U+30EC_U+30A4_U+30E4_U+30FC 1
 62
   179
420
  2234388
370
    25
100
AcDb2dPolyline
 66
     1
 10
0.0
 20
0.0
 30
0.0
  0
VERTEX
  5
60
330
5F
100
AcDbEntity
  8
_U+30EC_U+30A4_U+30E4_U+30FC 1
 62
   179
420
  2234388
370
    25
100
AcDbVertex
100
AcDb2dVertex
 10
49.15566624593448
 20
-93.33864997666547
 30
0.0
  0
VERTEX
  5
61
330
5F
100
AcDbEntity
  8
_U+30EC_U+30A4_U+30E4_U+30FC 1
 62
   179
420
  2234388
370
    25
100
AcDbVertex
100
AcDb2dVertex
 10
59.15539904637559
 20
-93.33864997666547
 30
0.0
  0
SEQEND
  5
62
330
5F
100
AcDbEntity
  8
_U+30EC_U+30A4_U+30E4_U+30FC 1
 62
   179
420
  2234388
370
    25
  0
POLYLINE
  5
63
330
4B
100
AcDbEntity
  8
_U+30EC_U+30A4_U+30E4_U+30FC 1
 62
   179
420
  2234388
370
    25
100
AcDb2dPolyline
 66
     1
 10
0.0
 20
0.0
 30
0.0
  0
VERTEX
  5
64
330
63
100
AcDbEntity
  8
_U+30EC_U+30A4_U+30E4_U+30FC 1
 62
   179
420
  2234388
370
    25
100
AcDbVertex
100
AcDb2dVertex
 10
59.15539904637559
 20
-90.33866303297111
 30
0.0
  0
VERTEX
  5
65
330
63
100
AcDbEntity
  8
_U+30EC_U+30A4_U+30E4_U+30FC 1
 62
   179
420
  2234388
370
    25
100
AcDbVertex
100
AcDb2dVertex
 10
59.15539904637559
 20
-93.33864997666547
 30
0.0
  0
SEQEND
  5
66
330
63
100
AcDbEntity
  8
_U+30EC_U+30A4_U+30E4_U+30FC 1
 62
   179
420
  2234388
370
    25
  0
POLYLINE
  5
67
330
4B
100
AcDbEntity
  8
_U+30EC_U+30A4_U+30E4_U+30FC 1
 62
   179
420
  2234388
370
    25
100
AcDb2dPolyline
 66
     1
 10
0.0
 20
0.0
 30
0.0
  0
VERTEX
  5
68
330
67
100
AcDbEntity
  8
_U+30EC_U+30A4_U+30E4_U+30FC 1
 62
   179
420
  2234388
370
    25
100
AcDbVertex
100
AcDb2dVertex
 10
55.15563998175129
 20
-90.33866303297111
 30
0.0
  0
VERTEX
  5
69
330
67
100
AcDbEntity
  8
_U+30EC_U+30A4_U+30E4_U+30FC 1
 62
   179
420
  2234388
370
    25
100
AcDbVertex
100
AcDb2dVertex
 10
55.15563998175129
 20
-91.13862192165973
 30
0.0
  0
SEQEND
  5
6A
330
67
100
AcDbEntity
  8
_U+30EC_U+30A4_U+30E4_U+30FC 1
 62
   179
420
  2234388
370
    25
  0
POLYLINE
  5
6B
330
4B
100
AcDbEntity
  8
_U+30EC_U+30A4_U+30E4_U+30FC 1
 62
   179
420
  2234388
370
    25
100
AcDb2dPolyline
 66
     1
 10
0.0
 20
0.0
 30
0.0
  0
VERTEX
  5
6C
330
6B
100
AcDbEntity
  8
_U+30EC_U+30A4_U+30E4_U+30FC 1
 62
   179
420
  2234388
370
    25
100
AcDbVertex
100
AcDb2dVertex
 10
55.15563998175129
 20
-91.13862192165973
 30
0.0
  0
VERTEX
  5
6D
330
6B
100
AcDbEntity
  8
_U+30EC_U+30A4_U+30E4_U+30FC 1
 62
   179
420
  2234388
370
    25
100
AcDbVertex
100
AcDb2dVertex
 10
58.35544165207794
 20
-91.13862192165973
 30
0.0
  0
SEQEND
  5
6E
330
6B
100
AcDbEntity
  8
_U+30EC_U+30A4_U+30E4_U+30FC 1
 62
   179
420
  2234388
370
    25
  0
POLYLINE
  5
6F
330
4B
100
AcDbEntity
  8
_U+30EC_U+30A4_U+30E4_U+30FC 1
 62
   179
420
  2234388
370
    25
100
AcDb2dPolyline
 66
     1
 10
0.0
 20
0.0
 30
0.0
  0
VERTEX
  5
70
330
6F
100
AcDbEntity
  8
_U+30EC_U+30A4_U+30E4_U+30FC 1
 62
   179
420
  2234388
370
    25
100
AcDbVertex
100
AcDb2dVertex
 10
49.15566624593448
 20
-92.53872636575436
 30
0.0
  0
VERTEX
  5
71
330
6F
100
AcDbEntity
  8
_U+30EC_U+30A4_U+30E4_U+30FC 1
 62
   179
420
  2234388
370
    25
100
AcDbVertex
100
AcDb2dVertex
 10
49.65586984428433
 20
-92.53872636575436
 30
0.0
  0
SEQEND
  5
72
330
6F
100
AcDbEntity
  8
_U+30EC_U+30A4_U+30E4_U+30FC 1
 62
   179
420
  2234388
370
    25
  0
POLYLINE
  5
73
330
4B
100
AcDbEntity
  8
_U+30EC_U+30A4_U+30E4_U+30FC 1
 62
   179
420
  2234388
370
    25
100
AcDb2dPolyline
 66
     1
 10
0.0
 20
0.0
 30
0.0
  0
VERTEX
  5
74
330
73
100
AcDbEntity
  8
_U+30EC_U+30A4_U+30E4_U+30FC 1
 62
   179
420
  2234388
370
    25
100
AcDbVertex
100
AcDb2dVertex
 10
58.35544165207794
 20
-91.13862192165973
 30
0.0
  0
VERTEX
  5
75
330
73
100
AcDbEntity
  8
_U+30EC_U+30A4_U+30E4_U+30FC 1
 62
   179
420
  2234388
370
    25
100
AcDbVertex
100
AcDb2dVertex
 10
58.35544165207794
 20
-92.53872636575436
 30
0.0
  0
SEQEND
  5
76
330
73
100
AcDbEntity
  8
_U+30EC_U+30A4_U+30E4_U+30FC 1
 62
   179
420
  2234388
370
    25
  0
POLYLINE
  5
77
330
4B
100
AcDbEntity
  8
_U+30EC_U+30A4_U+30E4_U+30FC 1
 62
   179
420
  2234388
370
    25
100
AcDb2dPolyline
 66
     1
 10
0.0
 20
0.0
 30
0.0
  0
VERTEX
  5
78
330
77
100
AcDbEntity
  8
_U+30EC_U+30A4_U+30E4_U+30FC 1
 62
   179
420
  2234388
370
    25
100
AcDbVertex
100
AcDb2dVertex
 10
49.15566624593448
 20
-92.53872636575436
 30
0.0
  0
VERTEX
  5
79
330
77
100
AcDbEntity
  8
_U+30EC_U+30A4_U+30E4_U+30FC 1
 62
   179
420
  2234388
370
    25
100
AcDbVertex
100
AcDb2dVertex
 10
49.15566624593448
 20
-93.33864997666547
 30
0.0
  0
SEQEND
  5
7A
330
77
100
AcDbEntity
  8
_U+30EC_U+30A4_U+30E4_U+30FC 1
 62
   179
420
  2234388
370
    25
  0
POLYLINE
  5
7B
330
4B
100
AcDbEntity
  8
_U+30EC_U+30A4_U+30E4_U+30FC 1
 62
   179
420
  2234388
370
    25
100
AcDb2dPolyline
 66
     1
 10
0.0
 20
0.0
 30
0.0
  0
VERTEX
  5
7C
330
7B
100
AcDbEntity
  8
_U+30EC_U+30A4_U+30E4_U+30FC 1
 62
   179
420
  2234388
370
    25
100
AcDbVertex
100
AcDb2dVertex
 10
50.45685176829402
 20
-92.53872636575436
 30
0.0
  0
VERTEX
  5
7D
330
7B
100
AcDbEntity
  8
_U+30EC_U+30A4_U+30E4_U+30FC 1
 62
   179
420
  2234388
370
    25
100
AcDbVertex
100
AcDb2dVertex
 10
58.35544165207794
 20
-92.53872636575436
 30
0.0
  0
SEQEND
  5
7E
330
7B
100
AcDbEntity
  8
_U+30EC_U+30A4_U+30E4_U+30FC 1
 62
   179
420
  2234388
370
    25
  0
POLYLINE
  5
7F
330
4B
100
AcDbEntity
  8
_U+30EC_U+30A4_U+30E4_U+30FC 1
 62
   179
420
  2234388
370
    25
100
AcDb2dPolyline
 66
     1
 10
0.0
 20
0.0
 30
0.0
  0
VERTEX
  5
80
330
7F
100
AcDbEntity
  8
_U+30EC_U+30A4_U+30E4_U+30FC 1
 62
   179
420
  2234388
370
    25
100
AcDbVertex
100
AcDb2dVertex
 10
50.15575594264229
 20
-83.03870303479586
 30
0.0
  0
VERTEX
  5
81
330
7F
100
AcDbEntity
  8
_U+30EC_U+30A4_U+30E4_U+30FC 1
 62
   179
420
  2234388
370
    25
100
AcDbVertex
100
AcDb2dVertex
 10
49.65586984428433
 20
-92.53872636575436
 30
0.0
  0
SEQEND
  5
82
330
7F
100
AcDbEntity
  8
_U+30EC_U+30A4_U+30E4_U+30FC 1
 62
   179
420
  2234388
370
    25
  0
POLYLINE
  5
83
330
4B
100
AcDbEntity
  8
_U+30EC_U+30A4_U+30E4_U+30FC 1
 62
   179
420
  2234388
370
    25
100
AcDb2dPolyline
 66
     1
 10
0.0
 20
0.0
 30
0.0
  0
VERTEX
  5
84
330
83
100
AcDbEntity
  8
_U+30EC_U+30A4_U+30E4_U+30FC 1
 62
   179
420
  2234388
370
    25
100
AcDbVertex
100
AcDb2dVertex
 10
50.91472203439056
 20
-83.83862664570695
 30
0.0
  0
VERTEX
  5
85
330
83
100
AcDbEntity
  8
_U+30EC_U+30A4_U+30E4_U+30FC 1
 62
   179
420
  2234388
370
    25
100
AcDbVertex
100
AcDb2dVertex
 10
50.45685176829402
 20
-92.53872636575436
 30
0.0
  0
SEQEND
  5
86
330
83
100
AcDbEntity
  8
_U+30EC_U+30A4_U+30E4_U+30FC 1
 62
   179
420
  2234388
370
    25
  0
ENDBLK
  5
4E
330
4B
100
AcDbEntity
  8
0
100
AcDbBlockEnd
  0
BLOCK
  5
9D
330
9B
100
AcDbEntity
  8
0
100
AcDbBlockBegin
  2
block 3
 70
     0
 10
0.0
 20
0.0
 30
0.0
  3
block 3
  1

  0
SPLINE
  5
9F
330
9B
100
AcDbEntity
  8
_U+30EC_U+30A4_U+30E4_U+30FC 1
370
     0
100
AcDbSpline
210
0.0
220
0.0
230
1.0
 70
    11
 71
     3
 72
    44
 73
    40
 74
     0
 42
0.0000000001
 43
0.0000000001
 12
1.0
 22
0.0
 32
0.0
 13
1.0
 23
0.0
 33
0.0
 40
0.0
 40
0.0
 40
0.0
 40
0.0
 40
1.0
 40
1.0
 40
1.0
 40
2.0
 40
2.0
 40
2.0
 40
3.0
 40
3.0
 40
3.0
 40
4.0
 40
4.0
 40
4.0
 40
5.0
 40
5.0
 40
5.0
 40
6.0
 40
6.0
 40
6.0
 40
7.0
 40
7.0
 40
7.0
 40
8.0
 40
8.0
 40
8.0
 40
9.0
 40
9.0
 40
9.0
 40
10.0
 40
10.0
 40
10.0
 40
11.0
 40
11.0
 40
11.0
 40
12.0
 40
12.0
 40
12.0
 40
13.0
 40
13.0
 40
13.0
 40
13.0
 10
61.12581243046507
 20
-77.10554332924792
 30
0.0
 10
60.89292397566219
 20
-77.26418997634367
 30
0.0
 10
60.79353297091273
 20
-77.33825952927656
 30
0.0
 10
60.74151202908546
 20
-77.48209226578572
 30
0.0
 10
60.74151202908546
 20
-77.48209226578572
 30
0.0
 10
61.57350258877329
 20
-77.48209226578572
 30
0.0
 10
61.57350258877329
 20
-77.48209226578572
 30
0.0
 10
61.57350258877329
 20
-77.48209226578572
 30
0.0
 10
61.57350258877329
 20
-77.68724770193236
 30
0.0
 10
61.57350258877329
 20
-77.68724770193236
 30
0.0
 10
61.57350258877329
 20
-77.68724770193236
 30
0.0
 10
60.47468938375286
 20
-77.68724770193236
 30
0.0
 10
60.47468938375286
 20
-77.68724770193236
 30
0.0
 10
60.50862357428257
 20
-77.32964679056343
 30
0.0
 10
60.57873126740741
 20
-77.25144312304825
 30
0.0
 10
60.9902479231205
 20
-76.95309785402561
 30
0.0
 10
61.26378850464933
 20
-76.7543158445267
 30
0.0
 10
61.33389619777417
 20
-76.68661971824154
 30
0.0
 10
61.33389619777417
 20
-76.54916040838008
 30
0.0
 10
61.33389619777417
 20
-76.43064912368747
 30
0.0
 10
61.25707056845309
 20
-76.29956324047373
 30
0.0
 10
61.04674748907859
 20
-76.29956324047373
 30
0.0
 10
60.76855602864467
 20
-76.29956324047373
 30
0.0
 10
60.75959878038302
 20
-76.53004012843694
 30
0.0
 10
60.7551201562522
 20
-76.64648435583838
 30
0.0
 10
60.7551201562522
 20
-76.64648435583838
 30
0.0
 10
60.51534151047881
 20
-76.64648435583838
 30
0.0
 10
60.51534151047881
 20
-76.64648435583838
 30
0.0
 10
60.52447101351472
 20
-76.51953258720692
 30
0.0
 10
60.53583982861604
 20
-76.40739472916205
 30
0.0
 10
60.62162270619876
 20
-76.28888344446945
 30
0.0
 10
60.73927271702004
 20
-76.12816974008254
 30
0.0
 10
60.93822698129323
 20
-76.09423554955283
 30
0.0
 10
61.06259492831074
 20
-76.09423554955283
 30
0.0
 10
61.35870088526796
 20
-76.09423554955283
 30
0.0
 10
61.58022052496953
 20
-76.27837590323944
 30
0.0
 10
61.58022052496953
 20
-76.55122746567122
 30
0.0
 10
61.58022052496953
 20
-76.77963729634328
 30
0.0
 10
61.45585257795202
 20
-76.87920055586702
 30
0.0
 10
61.12581243046507
 20
-77.10554332924792
 30
0.0
  0
HATCH
  5
A0
330
9B
100
AcDbEntity
  8
_U+30EC_U+30A4_U+30E4_U+30FC 1
 62
   179
420
  2234388
100
AcDbHatch
 10
0.0
 20
0.0
 30
0.0
210
0.0
220
0.0
230
1.0
  2
SOLID
 70
     1
 71
     0
 91
        1
 92
        1
 93
        1
 72
     4
 94
        3
 73
     0
 74
     1
 95
       44
 96
       40
 40
0.0
 40
0.0
 40
0.0
 40
0.0
 40
1.0
 40
1.0
 40
1.0
 40
2.0
 40
2.0
 40
2.0
 40
3.0
 40
3.0
 40
3.0
 40
4.0
 40
4.0
 40
4.0
 40
5.0
 40
5.0
 40
5.0
 40
6.0
 40
6.0
 40
6.0
 40
7.0
 40
7.0
 40
7.0
 40
8.0
 40
8.0
 40
8.0
 40
9.0
 40
9.0
 40
9.0
 40
10.0
 40
10.0
 40
10.0
 40
11.0
 40
11.0
 40
11.0
 40
12.0
 40
12.0
 40
12.0
 40
13.0
 40
13.0
 40
13.0
 40
13.0
 10
61.12581243046507
 20
-77.10554332924792
 10
60.89292397566219
 20
-77.26418997634367
 10
60.79353297091273
 20
-77.33825952927656
 10
60.74151202908546
 20
-77.48209226578572
 10
60.74151202908546
 20
-77.48209226578572
 10
61.57350258877329
 20
-77.48209226578572
 10
61.57350258877329
 20
-77.48209226578572
 10
61.57350258877329
 20
-77.48209226578572
 10
61.57350258877329
 20
-77.68724770193236
 10
61.57350258877329
 20
-77.68724770193236
 10
61.57350258877329
 20
-77.68724770193236
 10
60.47468938375286
 20
-77.68724770193236
 10
60.47468938375286
 20
-77.68724770193236
 10
60.50862357428257
 20
-77.32964679056343
 10
60.57873126740741
 20
-77.25144312304825
 10
60.9902479231205
 20
-76.95309785402561
 10
61.26378850464933
 20
-76.7543158445267
 10
61.33389619777417
 20
-76.68661971824154
 10
61.33389619777417
 20
-76.54916040838008
 10
61.33389619777417
 20
-76.43064912368747
 10
61.25707056845309
 20
-76.29956324047373
 10
61.04674748907859
 20
-76.29956324047373
 10
60.76855602864467
 20
-76.29956324047373
 10
60.75959878038302
 20
-76.53004012843694
 10
60.7551201562522
 20
-76.64648435583838
 10
60.7551201562522
 20
-76.64648435583838
 10
60.51534151047881
 20
-76.64648435583838
 10
60.51534151047881
 20
-76.64648435583838
 10
60.52447101351472
 20
-76.51953258720692
 10
60.53583982861604
 20
-76.40739472916205
 10
60.62162270619876
 20
-76.28888344446945
 10
60.73927271702004
 20
-76.12816974008254
 10
60.93822698129323
 20
-76.09423554955283
 10
61.06259492831074
 20
-76.09423554955283
 10
61.35870088526796
 20
-76.09423554955283
 10
61.58022052496953
 20
-76.27837590323944
 10
61.58022052496953
 20
-76.55122746567122
 10
61.58022052496953
 20
-76.77963729634328
 10
61.45585257795202
 20
-76.87920055586702
 10
61.12581243046507
 20
-77.10554332924792
 97
        0
 97
        0
 75
     2
 76
     1
 98
        0
  0
SPLINE
  5
A1
330
9B
100
AcDbEntity
  8
_U+30EC_U+30A4_U+30E4_U+30FC 1
370
     0
100
AcDbSpline
210
0.0
220
0.0
230
1.0
 70
    11
 71
     3
 72
    62
 73
    58
 74
     0
 42
0.0000000001
 43
0.0000000001
 12
1.0
 22
0.0
 32
0.0
 13
1.0
 23
0.0
 33
0.0
 40
0.0
 40
0.0
 40
0.0
 40
0.0
 40
1.0
 40
1.0
 40
1.0
 40
2.0
 40
2.0
 40
2.0
 40
3.0
 40
3.0
 40
3.0
 40
4.0
 40
4.0
 40
4.0
 40
5.0
 40
5.0
 40
5.0
 40
6.0
 40
6.0
 40
6.0
 40
7.0
 40
7.0
 40
7.0
 40
8.0
 40
8.0
 40
8.0
 40
9.0
 40
9.0
 40
9.0
 40
10.0
 40
10.0
 40
10.0
 40
11.0
 40
11.0
 40
11.0
 40
12.0
 40
12.0
 40
12.0
 40
13.0
 40
13.0
 40
13.0
 40
14.0
 40
14.0
 40
14.0
 40
15.0
 40
15.0
 40
15.0
 40
16.0
 40
16.0
 40
16.0
 40
17.0
 40
17.0
 40
17.0
 40
18.0
 40
18.0
 40
18.0
 40
19.0
 40
19.0
 40
19.0
 40
19.0
 10
62.27509628434442
 20
-77.7380628603398
 30
0.0
 10
62.17346596752955
 20
-77.7380628603398
 30
0.0
 10
61.94057751272666
 20
-77.7168755231055
 30
0.0
 10
61.80725231744749
 20
-77.53066811212776
 30
0.0
 10
61.72801512128675
 20
-77.41853025408287
 30
0.0
 10
61.72353649715593
 20
-77.31913924933342
 30
0.0
 10
61.7190578730251
 20
-77.23456215517054
 30
0.0
 10
61.7190578730251
 20
-77.23456215517054
 30
0.0
 10
61.95401338511914
 20
-77.23456215517054
 30
0.0
 10
61.95401338511914
 20
-77.23456215517054
 30
0.0
 10
61.95642495195882
 20
-77.3086317081034
 30
0.0
 10
61.96779376706014
 20
-77.54341496542318
 30
0.0
 10
62.2706176602136
 20
-77.54341496542318
 30
0.0
 10
62.41772323743377
 20
-77.54341496542318
 30
0.0
 10
62.58033174433756
 20
-77.47365178184687
 30
0.0
 10
62.58033174433756
 20
-77.24506969640055
 30
0.0
 10
62.58033174433756
 20
-77.12879772377336
 30
0.0
 10
62.53967961761161
 20
-77.08004962265707
 30
0.0
 10
62.50557317230763
 20
-77.04835474419278
 30
0.0
 10
62.42668048569541
 20
-76.97428519125991
 30
0.0
 10
62.3023125386779
 20
-76.96171059273874
 30
0.0
 10
62.24340140588013
 20
-76.96171059273874
 30
0.0
 10
62.22307534251715
 20
-76.96171059273874
 30
0.0
 10
62.18483478263088
 20
-76.9637776500299
 30
0.0
 10
62.15520696145773
 20
-76.9679117646122
 30
0.0
 10
62.15520696145773
 20
-76.9679117646122
 30
0.0
 10
62.15520696145773
 20
-76.77326386969558
 30
0.0
 10
62.15520696145773
 20
-76.77326386969558
 30
0.0
 10
62.19585908818367
 20
-76.77963729634328
 30
0.0
 10
62.24133434858898
 20
-76.7818766084087
 30
0.0
 10
62.24788003001095
 20
-76.7818766084087
 30
0.0
 10
62.31815997791005
 20
-76.7818766084087
 30
0.0
 10
62.53072236934996
 20
-76.76068927117441
 30
0.0
 10
62.53072236934996
 20
-76.52366670178922
 30
0.0
 10
62.53072236934996
 20
-76.34607202952459
 30
0.0
 10
62.39050698310029
 20
-76.2909505017606
 30
0.0
 10
62.27302922705327
 20
-76.2909505017606
 30
0.0
 10
61.99018688771426
 20
-76.2909505017606
 30
0.0
 10
61.98122963945261
 20
-76.52366670178922
 30
0.0
 10
61.97675101532179
 20
-76.59566919743095
 30
0.0
 10
61.97675101532179
 20
-76.59566919743095
 30
0.0
 10
61.75970999975105
 20
-76.59566919743095
 30
0.0
 10
61.75970999975105
 20
-76.59566919743095
 30
0.0
 10
61.7686672480127
 20
-76.47078448609064
 30
0.0
 10
61.79795055963732
 20
-76.09423554955283
 30
0.0
 10
62.28646509944575
 20
-76.09423554955283
 30
0.0
 10
62.52624374521913
 20
-76.09423554955283
 30
0.0
 10
62.78393688751582
 20
-76.22118731818429
 30
0.0
 10
62.78393688751582
 20
-76.51729327514151
 30
0.0
 10
62.78393688751582
 20
-76.70350068611927
 30
0.0
 10
62.68196206115243
 20
-76.786010722991
 30
0.0
 10
62.57585312020674
 20
-76.84733342262845
 30
0.0
 10
62.64130993442648
 20
-76.87489418651045
 30
0.0
 10
62.83595782934309
 20
-76.95533716609103
 30
0.0
 10
62.83595782934309
 20
-77.23249509787938
 30
0.0
 10
62.83595782934309
 20
-77.57097572930518
 30
0.0
 10
62.57137449607591
 20
-77.7380628603398
 30
0.0
 10
62.27509628434442
 20
-77.7380628603398
 30
0.0
  0
HATCH
  5
A2
330
9B
100
AcDbEntity
  8
_U+30EC_U+30A4_U+30E4_U+30FC 1
 62
   179
420
  2234388
100
AcDbHatch
 10
0.0
 20
0.0
 30
0.0
210
0.0
220
0.0
230
1.0
  2
SOLID
 70
     1
 71
     0
 91
        1
 92
        1
 93
        1
 72
     4
 94
        3
 73
     0
 74
     1
 95
       62
 96
       58
 40
0.0
 40
0.0
 40
0.0
 40
0.0
 40
1.0
 40
1.0
 40
1.0
 40
2.0
 40
2.0
 40
2.0
 40
3.0
 40
3.0
 40
3.0
 40
4.0
 40
4.0
 40
4.0
 40
5.0
 40
5.0
 40
5.0
 40
6.0
 40
6.0
 40
6.0
 40
7.0
 40
7.0
 40
7.0
 40
8.0
 40
8.0
 40
8.0
 40
9.0
 40
9.0
 40
9.0
 40
10.0
 40
10.0
 40
10.0
 40
11.0
 40
11.0
 40
11.0
 40
12.0
 40
12.0
 40
12.0
 40
13.0
 40
13.0
 40
13.0
 40
14.0
 40
14.0
 40
14.0
 40
15.0
 40
15.0
 40
15.0
 40
16.0
 40
16.0
 40
16.0
 40
17.0
 40
17.0
 40
17.0
 40
18.0
 40
18.0
 40
18.0
 40
19.0
 40
19.0
 40
19.0
 40
19.0
 10
62.27509628434442
 20
-77.7380628603398
 10
62.17346596752955
 20
-77.7380628603398
 10
61.94057751272666
 20
-77.7168755231055
 10
61.80725231744749
 20
-77.53066811212776
 10
61.72801512128675
 20
-77.41853025408287
 10
61.72353649715593
 20
-77.31913924933342
 10
61.7190578730251
 20
-77.23456215517054
 10
61.7190578730251
 20
-77.23456215517054
 10
61.95401338511914
 20
-77.23456215517054
 10
61.95401338511914
 20
-77.23456215517054
 10
61.95642495195882
 20
-77.3086317081034
 10
61.96779376706014
 20
-77.54341496542318
 10
62.2706176602136
 20
-77.54341496542318
 10
62.41772323743377
 20
-77.54341496542318
 10
62.58033174433756
 20
-77.47365178184687
 10
62.58033174433756
 20
-77.24506969640055
 10
62.58033174433756
 20
-77.12879772377336
 10
62.53967961761161
 20
-77.08004962265707
 10
62.50557317230763
 20
-77.04835474419278
 10
62.42668048569541
 20
-76.97428519125991
 10
62.3023125386779
 20
-76.96171059273874
 10
62.24340140588013
 20
-76.96171059273874
 10
62.22307534251715
 20
-76.96171059273874
 10
62.18483478263088
 20
-76.9637776500299
 10
62.15520696145773
 20
-76.9679117646122
 10
62.15520696145773
 20
-76.9679117646122
 10
62.15520696145773
 20
-76.77326386969558
 10
62.15520696145773
 20
-76.77326386969558
 10
62.19585908818367
 20
-76.77963729634328
 10
62.24133434858898
 20
-76.7818766084087
 10
62.24788003001095
 20
-76.7818766084087
 10
62.31815997791005
 20
-76.7818766084087
 10
62.53072236934996
 20
-76.76068927117441
 10
62.53072236934996
 20
-76.52366670178922
 10
62.53072236934996
 20
-76.34607202952459
 10
62.39050698310029
 20
-76.2909505017606
 10
62.27302922705327
 20
-76.2909505017606
 10
61.99018688771426
 20
-76.2909505017606
 10
61.98122963945261
 20
-76.52366670178922
 10
61.97675101532179
 20
-76.59566919743095
 10
61.97675101532179
 20
-76.59566919743095
 10
61.75970999975105
 20
-76.59566919743095
 10
61.75970999975105
 20
-76.59566919743095
 10
61.7686672480127
 20
-76.47078448609064
 10
61.79795055963732
 20
-76.09423554955283
 10
62.28646509944575
 20
-76.09423554955283
 10
62.52624374521913
 20
-76.09423554955283
 10
62.78393688751582
 20
-76.22118731818429
 10
62.78393688751582
 20
-76.51729327514151
 10
62.78393688751582
 20
-76.70350068611927
 10
62.68196206115243
 20
-76.786010722991
 10
62.57585312020674
 20
-76.84733342262845
 10
62.64130993442648
 20
-76.87489418651045
 10
62.83595782934309
 20
-76.95533716609103
 10
62.83595782934309
 20
-77.23249509787938
 10
62.83595782934309
 20
-77.57097572930518
 10
62.57137449607591
 20
-77.7380628603398
 10
62.27509628434442
 20
-77.7380628603398
 97
        0
 97
        0
 75
     2
 76
     1
 98
        0
  0
ENDBLK
  5
9E
330
9B
100
AcDbEntity
  8
0
100
AcDbBlockEnd
  0
BLOCK
  5
B1
330
AF
100
AcDbEntity
  8
0
100
AcDbBlockBegin
  2
block 4
 70
     0
 10
0.0
 20
0.0
 30
0.0
  3
block 4
  1

  0
SPLINE
  5
B3
330
AF
100
AcDbEntity
  8
_U+30EC_U+30A4_U+30E4_U+30FC 1
370
     0
100
AcDbSpline
210
0.0
220
0.0
230
1.0
 70
    11
 71
     3
 72
    26
 73
    22
 74
     0
 42
0.0000000001
 43
0.0000000001
 12
1.0
 22
0.0
 32
0.0
 13
1.0
 23
0.0
 33
0.0
 40
0.0
 40
0.0
 40
0.0
 40
0.0
 40
1.0
 40
1.0
 40
1.0
 40
2.0
 40
2.0
 40
2.0
 40
3.0
 40
3.0
 40
3.0
 40
4.0
 40
4.0
 40
4.0
 40
5.0
 40
5.0
 40
5.0
 40
6.0
 40
6.0
 40
6.0
 40
7.0
 40
7.0
 40
7.0
 40
7.0
 10
53.47442761249945
 20
-97.07038843059352
 30
0.0
 10
53.47442761249945
 20
-97.07038843059352
 30
0.0
 10
53.47442761249945
 20
-95.96623532757094
 30
0.0
 10
53.47442761249945
 20
-95.96623532757094
 30
0.0
 10
53.47442761249945
 20
-95.96623532757094
 30
0.0
 10
53.12164983480987
 20
-95.96623532757094
 30
0.0
 10
53.12164983480987
 20
-95.96623532757094
 30
0.0
 10
53.12164983480987
 20
-95.96623532757094
 30
0.0
 10
53.12164983480987
 20
-95.8180962217052
 30
0.0
 10
53.12164983480987
 20
-95.8180962217052
 30
0.0
 10
53.47666692456486
 20
-95.80328231111862
 30
0.0
 10
53.52644855432673
 20
-95.64032929466632
 30
0.0
 10
53.55797117801676
 20
-95.52595212455601
 30
0.0
 10
53.55797117801676
 20
-95.52595212455601
 30
0.0
 10
53.71403400349858
 20
-95.52595212455601
 30
0.0
 10
53.71403400349858
 20
-95.52595212455601
 30
0.0
 10
53.71403400349858
 20
-95.52595212455601
 30
0.0
 10
53.71403400349858
 20
-97.07038843059352
 30
0.0
 10
53.71403400349858
 20
-97.07038843059352
 30
0.0
 10
53.71403400349858
 20
-97.07038843059352
 30
0.0
 10
53.47442761249945
 20
-97.07038843059352
 30
0.0
 10
53.47442761249945
 20
-97.07038843059352
 30
0.0
  0
HATCH
  5
B4
330
AF
100
AcDbEntity
  8
_U+30EC_U+30A4_U+30E4_U+30FC 1
 62
   179
420
  2234388
100
AcDbHatch
 10
0.0
 20
0.0
 30
0.0
210
0.0
220
0.0
230
1.0
  2
SOLID
 70
     1
 71
     0
 91
        1
 92
        1
 93
        1
 72
     4
 94
        3
 73
     0
 74
     1
 95
       26
 96
       22
 40
0.0
 40
0.0
 40
0.0
 40
0.0
 40
1.0
 40
1.0
 40
1.0
 40
2.0
 40
2.0
 40
2.0
 40
3.0
 40
3.0
 40
3.0
 40
4.0
 40
4.0
 40
4.0
 40
5.0
 40
5.0
 40
5.0
 40
6.0
 40
6.0
 40
6.0
 40
7.0
 40
7.0
 40
7.0
 40
7.0
 10
53.47442761249945
 20
-97.07038843059352
 10
53.47442761249945
 20
-97.07038843059352
 10
53.47442761249945
 20
-95.96623532757094
 10
53.47442761249945
 20
-95.96623532757094
 10
53.47442761249945
 20
-95.96623532757094
 10
53.12164983480987
 20
-95.96623532757094
 10
53.12164983480987
 20
-95.96623532757094
 10
53.12164983480987
 20
-95.96623532757094
 10
53.12164983480987
 20
-95.8180962217052
 10
53.12164983480987
 20
-95.8180962217052
 10
53.47666692456486
 20
-95.80328231111862
 10
53.52644855432673
 20
-95.64032929466632
 10
53.55797117801676
 20
-95.52595212455601
 10
53.55797117801676
 20
-95.52595212455601
 10
53.71403400349858
 20
-95.52595212455601
 10
53.71403400349858
 20
-95.52595212455601
 10
53.71403400349858
 20
-95.52595212455601
 10
53.71403400349858
 20
-97.07038843059352
 10
53.71403400349858
 20
-97.07038843059352
 10
53.71403400349858
 20
-97.07038843059352
 10
53.47442761249945
 20
-97.07038843059352
 10
53.47442761249945
 20
-97.07038843059352
 97
        0
 97
        0
 75
     2
 76
     1
 98
        0
  0
SPLINE
  5
B5
330
AF
100
AcDbEntity
  8
_U+30EC_U+30A4_U+30E4_U+30FC 1
370
     0
100
AcDbSpline
210
0.0
220
0.0
230
1.0
 70
    11
 71
     3
 72
    29
 73
    25
 74
     0
 42
0.0000000001
 43
0.0000000001
 12
1.0
 22
0.0
 32
0.0
 13
1.0
 23
0.0
 33
0.0
 40
0.0
 40
0.0
 40
0.0
 40
0.0
 40
1.0
 40
1.0
 40
1.0
 40
2.0
 40
2.0
 40
2.0
 40
3.0
 40
3.0
 40
3.0
 40
4.0
 40
4.0
 40
4.0
 40
5.0
 40
5.0
 40
5.0
 40
6.0
 40
6.0
 40
6.0
 40
7.0
 40
7.0
 40
7.0
 40
8.0
 40
8.0
 40
8.0
 40
8.0
 10
55.20920544409701
 20
-96.89262150355462
 30
0.0
 10
55.0939670001154
 20
-97.10208330905782
 30
0.0
 10
54.90862086300896
 20
-97.12103133422669
 30
0.0
 10
54.78425291599144
 20
-97.12103133422669
 30
0.0
 10
54.61234265127747
 20
-97.12103133422669
 30
0.0
 10
54.46093070470074
 20
-97.07452254517582
 30
0.0
 10
54.35912813311161
 20
-96.89262150355462
 30
0.0
 10
54.24836831326083
 20
-96.69797360863801
 30
0.0
 10
54.22804224989785
 20
-96.46095103925282
 30
0.0
 10
54.22804224989785
 20
-96.29834253234903
 30
0.0
 10
54.22804224989785
 20
-96.15433754106559
 30
0.0
 10
54.24612900119541
 20
-95.90250106109383
 30
0.0
 10
54.35912813311161
 20
-95.7037190515949
 30
0.0
 10
54.47453883186748
 20
-95.50080292751369
 30
0.0
 10
54.64627684180719
 20
-95.477376278214
 30
0.0
 10
54.78425291599144
 20
-95.477376278214
 30
0.0
 10
54.95375161386573
 20
-95.477376278214
 30
0.0
 10
55.10757512728214
 20
-95.52181800997371
 30
0.0
 10
55.20920544409701
 20
-95.7037190515949
 30
0.0
 10
55.31548663981697
 20
-95.89629988922037
 30
0.0
 10
55.34046358208503
 20
-96.12470971989244
 30
0.0
 10
55.34046358208503
 20
-96.29834253234903
 30
0.0
 10
55.34046358208503
 20
-96.46956377796594
 30
0.0
 10
55.31772595188237
 20
-96.70004066592917
 30
0.0
 10
55.20920544409701
 20
-96.89262150355462
 30
0.0
  0
SPLINE
  5
B6
330
AF
100
AcDbEntity
  8
_U+30EC_U+30A4_U+30E4_U+30FC 1
370
     0
100
AcDbSpline
210
0.0
220
0.0
230
1.0
 70
    11
 71
     3
 72
    17
 73
    13
 74
     0
 42
0.0000000001
 43
0.0000000001
 12
1.0
 22
0.0
 32
0.0
 13
1.0
 23
0.0
 33
0.0
 40
0.0
 40
0.0
 40
0.0
 40
0.0
 40
1.0
 40
1.0
 40
1.0
 40
2.0
 40
2.0
 40
2.0
 40
3.0
 40
3.0
 40
3.0
 40
4.0
 40
4.0
 40
4.0
 40
4.0
 10
54.78425291599144
 20
-95.66995711583947
 30
0.0
 10
54.51743027065884
 20
-95.66995711583947
 30
0.0
 10
54.46764864089698
 20
-95.95348847427552
 30
0.0
 10
54.46764864089698
 20
-96.29834253234903
 30
0.0
 10
54.46764864089698
 20
-96.61770288383168
 30
0.0
 10
54.50606145555751
 20
-96.92638343931007
 30
0.0
 10
54.78425291599144
 20
-96.92638343931007
 30
0.0
 10
55.04866399448436
 20
-96.92638343931007
 30
0.0
 10
55.10068493631164
 20
-96.64526364771369
 30
0.0
 10
55.10068493631164
 20
-96.29834253234903
 30
0.0
 10
55.10068493631164
 20
-95.97863767131784
 30
0.0
 10
55.06003280958569
 20
-95.66995711583947
 30
0.0
 10
54.78425291599144
 20
-95.66995711583947
 30
0.0
  0
HATCH
  5
B7
330
AF
100
AcDbEntity
  8
_U+30EC_U+30A4_U+30E4_U+30FC 1
 62
   179
420
  2234388
100
AcDbHatch
 10
0.0
 20
0.0
 30
0.0
210
0.0
220
0.0
230
1.0
  2
SOLID
 70
     1
 71
     0
 91
        2
 92
        1
 93
        1
 72
     4
 94
        3
 73
     0
 74
     1
 95
       29
 96
       25
 40
0.0
 40
0.0
 40
0.0
 40
0.0
 40
1.0
 40
1.0
 40
1.0
 40
2.0
 40
2.0
 40
2.0
 40
3.0
 40
3.0
 40
3.0
 40
4.0
 40
4.0
 40
4.0
 40
5.0
 40
5.0
 40
5.0
 40
6.0
 40
6.0
 40
6.0
 40
7.0
 40
7.0
 40
7.0
 40
8.0
 40
8.0
 40
8.0
 40
8.0
 10
55.20920544409701
 20
-96.89262150355462
 10
55.0939670001154
 20
-97.10208330905782
 10
54.90862086300896
 20
-97.12103133422669
 10
54.78425291599144
 20
-97.12103133422669
 10
54.61234265127747
 20
-97.12103133422669
 10
54.46093070470074
 20
-97.07452254517582
 10
54.35912813311161
 20
-96.89262150355462
 10
54.24836831326083
 20
-96.69797360863801
 10
54.22804224989785
 20
-96.46095103925282
 10
54.22804224989785
 20
-96.29834253234903
 10
54.22804224989785
 20
-96.15433754106559
 10
54.24612900119541
 20
-95.90250106109383
 10
54.35912813311161
 20
-95.7037190515949
 10
54.47453883186748
 20
-95.50080292751369
 10
54.64627684180719
 20
-95.477376278214
 10
54.78425291599144
 20
-95.477376278214
 10
54.95375161386573
 20
-95.477376278214
 10
55.10757512728214
 20
-95.52181800997371
 10
55.20920544409701
 20
-95.7037190515949
 10
55.31548663981697
 20
-95.89629988922037
 10
55.34046358208503
 20
-96.12470971989244
 10
55.34046358208503
 20
-96.29834253234903
 10
55.34046358208503
 20
-96.46956377796594
 10
55.31772595188237
 20
-96.70004066592917
 10
55.20920544409701
 20
-96.89262150355462
 97
        0
 97
        0
 92
        1
 93
        1
 72
     4
 94
        3
 73
     0
 74
     1
 95
       17
 96
       13
 40
0.0
 40
0.0
 40
0.0
 40
0.0
 40
1.0
 40
1.0
 40
1.0
 40
2.0
 40
2.0
 40
2.0
 40
3.0
 40
3.0
 40
3.0
 40
4.0
 40
4.0
 40
4.0
 40
4.0
 10
54.78425291599144
 20
-95.66995711583947
 10
54.51743027065884
 20
-95.66995711583947
 10
54.46764864089698
 20
-95.95348847427552
 10
54.46764864089698
 20
-96.29834253234903
 10
54.46764864089698
 20
-96.61770288383168
 10
54.50606145555751
 20
-96.92638343931007
 10
54.78425291599144
 20
-96.92638343931007
 10
55.04866399448436
 20
-96.92638343931007
 10
55.10068493631164
 20
-96.64526364771369
 10
55.10068493631164
 20
-96.29834253234903
 10
55.10068493631164
 20
-95.97863767131784
 10
55.06003280958569
 20
-95.66995711583947
 10
54.78425291599144
 20
-95.66995711583947
 97
        0
 97
        0
 75
     2
 76
     1
 98
        0
  0
ENDBLK
  5
B2
330
AF
100
AcDbEntity
  8
0
100
AcDbBlockEnd
  0
BLOCK
  5
CA
330
C8
100
AcDbEntity
  8
0
100
AcDbBlockBegin
  2
block 5
 70
     0
 10
0.0
 20
0.0
 30
0.0
  3
block 5
  1

  0
SPLINE
  5
CC
330
C8
100
AcDbEntity
  8
_U+30EC_U+30A4_U+30E4_U+30FC 1
370
     0
100
AcDbSpline
210
0.0
220
0.0
230
1.0
 70
    11
 71
     3
 72
    29
 73
    25
 74
     0
 42
0.0000000001
 43
0.0000000001
 12
1.0
 22
0.0
 32
0.0
 13
1.0
 23
0.0
 33
0.0
 40
0.0
 40
0.0
 40
0.0
 40
0.0
 40
1.0
 40
1.0
 40
1.0
 40
2.0
 40
2.0
 40
2.0
 40
3.0
 40
3.0
 40
3.0
 40
4.0
 40
4.0
 40
4.0
 40
5.0
 40
5.0
 40
5.0
 40
6.0
 40
6.0
 40
6.0
 40
7.0
 40
7.0
 40
7.0
 40
8.0
 40
8.0
 40
8.0
 40
8.0
 10
75.62673609220442
 20
-80.53703068733103
 30
0.0
 10
75.83619789770762
 20
-80.65244138608689
 30
0.0
 10
75.85514592287649
 20
-80.83778752319334
 30
0.0
 10
75.85514592287649
 20
-80.96215547021086
 30
0.0
 10
75.85514592287649
 20
-81.13372122537629
 30
0.0
 10
75.80863713382563
 20
-81.28530542672729
 30
0.0
 10
75.62673609220442
 20
-81.38693574354215
 30
0.0
 10
75.43208819728781
 20
-81.49786781816721
 30
0.0
 10
75.19506562790262
 20
-81.51819388153018
 30
0.0
 10
75.03245712099883
 20
-81.51819388153018
 30
0.0
 10
74.88845212971539
 20
-81.51819388153018
 30
0.0
 10
74.63661564974363
 20
-81.49993487545835
 30
0.0
 10
74.4378336402447
 20
-81.38693574354215
 30
0.0
 10
74.23491751616349
 20
-81.27186955433481
 30
0.0
 10
74.2114908668638
 20
-81.09995928962084
 30
0.0
 10
74.2114908668638
 20
-80.96215547021086
 30
0.0
 10
74.2114908668638
 20
-80.79231226278803
 30
0.0
 10
74.25593259862352
 20
-80.63866100414589
 30
0.0
 10
74.4378336402447
 20
-80.53703068733103
 30
0.0
 10
74.63041447787018
 20
-80.4305772368368
 30
0.0
 10
74.85882430854224
 20
-80.405772549343
 30
0.0
 10
75.03245712099883
 20
-80.405772549343
 30
0.0
 10
75.20367836661575
 20
-80.405772549343
 30
0.0
 10
75.43415525457897
 20
-80.42851017954565
 30
0.0
 10
75.62673609220442
 20
-80.53703068733103
 30
0.0
  0
SPLINE
  5
CD
330
C8
100
AcDbEntity
  8
_U+30EC_U+30A4_U+30E4_U+30FC 1
370
     0
100
AcDbSpline
210
0.0
220
0.0
230
1.0
 70
    11
 71
     3
 72
    17
 73
    13
 74
     0
 42
0.0000000001
 43
0.0000000001
 12
1.0
 22
0.0
 32
0.0
 13
1.0
 23
0.0
 33
0.0
 40
0.0
 40
0.0
 40
0.0
 40
0.0
 40
1.0
 40
1.0
 40
1.0
 40
2.0
 40
2.0
 40
2.0
 40
3.0
 40
3.0
 40
3.0
 40
4.0
 40
4.0
 40
4.0
 40
4.0
 10
74.40407170448927
 20
-80.96215547021086
 30
0.0
 10
74.40407170448927
 20
-81.22880586076919
 30
0.0
 10
74.68760306292532
 20
-81.27841523575678
 30
0.0
 10
75.03245712099883
 20
-81.27841523575678
 30
0.0
 10
75.3518174724815
 20
-81.27841523575678
 30
0.0
 10
75.66049802795987
 20
-81.24017467587052
 30
0.0
 10
75.66049802795987
 20
-80.96215547021086
 30
0.0
 10
75.66049802795987
 20
-80.69757213694366
 30
0.0
 10
75.3793782363635
 20
-80.6455511951164
 30
0.0
 10
75.03245712099883
 20
-80.6455511951164
 30
0.0
 10
74.71275225996764
 20
-80.6455511951164
 30
0.0
 10
74.40407170448927
 20
-80.68620332184234
 30
0.0
 10
74.40407170448927
 20
-80.96215547021086
 30
0.0
  0
HATCH
  5
CE
330
C8
100
AcDbEntity
  8
_U+30EC_U+30A4_U+30E4_U+30FC 1
 62
   179
420
  2234388
100
AcDbHatch
 10
0.0
 20
0.0
 30
0.0
210
0.0
220
0.0
230
1.0
  2
SOLID
 70
     1
 71
     0
 91
        2
 92
        1
 93
        1
 72
     4
 94
        3
 73
     0
 74
     1
 95
       29
 96
       25
 40
0.0
 40
0.0
 40
0.0
 40
0.0
 40
1.0
 40
1.0
 40
1.0
 40
2.0
 40
2.0
 40
2.0
 40
3.0
 40
3.0
 40
3.0
 40
4.0
 40
4.0
 40
4.0
 40
5.0
 40
5.0
 40
5.0
 40
6.0
 40
6.0
 40
6.0
 40
7.0
 40
7.0
 40
7.0
 40
8.0
 40
8.0
 40
8.0
 40
8.0
 10
75.62673609220442
 20
-80.53703068733103
 10
75.83619789770762
 20
-80.65244138608689
 10
75.85514592287649
 20
-80.83778752319334
 10
75.85514592287649
 20
-80.96215547021086
 10
75.85514592287649
 20
-81.13372122537629
 10
75.80863713382563
 20
-81.28530542672729
 10
75.62673609220442
 20
-81.38693574354215
 10
75.43208819728781
 20
-81.49786781816721
 10
75.19506562790262
 20
-81.51819388153018
 10
75.03245712099883
 20
-81.51819388153018
 10
74.88845212971539
 20
-81.51819388153018
 10
74.63661564974363
 20
-81.49993487545835
 10
74.4378336402447
 20
-81.38693574354215
 10
74.23491751616349
 20
-81.27186955433481
 10
74.2114908668638
 20
-81.09995928962084
 10
74.2114908668638
 20
-80.96215547021086
 10
74.2114908668638
 20
-80.79231226278803
 10
74.25593259862352
 20
-80.63866100414589
 10
74.4378336402447
 20
-80.53703068733103
 10
74.63041447787018
 20
-80.4305772368368
 10
74.85882430854224
 20
-80.405772549343
 10
75.03245712099883
 20
-80.405772549343
 10
75.20367836661575
 20
-80.405772549343
 10
75.43415525457897
 20
-80.42851017954565
 10
75.62673609220442
 20
-80.53703068733103
 97
        0
 97
        0
 92
        1
 93
        1
 72
     4
 94
        3
 73
     0
 74
     1
 95
       17
 96
       13
 40
0.0
 40
0.0
 40
0.0
 40
0.0
 40
1.0
 40
1.0
 40
1.0
 40
2.0
 40
2.0
 40
2.0
 40
3.0
 40
3.0
 40
3.0
 40
4.0
 40
4.0
 40
4.0
 40
4.0
 10
74.40407170448927
 20
-80.96215547021086
 10
74.40407170448927
 20
-81.22880586076919
 10
74.68760306292532
 20
-81.27841523575678
 10
75.03245712099883
 20
-81.27841523575678
 10
75.3518174724815
 20
-81.27841523575678
 10
75.66049802795987
 20
-81.24017467587052
 10
75.66049802795987
 20
-80.96215547021086
 10
75.66049802795987
 20
-80.69757213694366
 10
75.3793782363635
 20
-80.6455511951164
 10
75.03245712099883
 20
-80.6455511951164
 10
74.71275225996764
 20
-80.6455511951164
 10
74.40407170448927
 20
-80.68620332184234
 10
74.40407170448927
 20
-80.96215547021086
 97
        0
 97
        0
 75
     2
 76
     1
 98
        0
  0
POLYLINE
  5
CF
330
C8
100
AcDbEntity
  8
_U+30EC_U+30A4_U+30E4_U+30FC 1
370
     0
100
AcDb2dPolyline
 66
     1
 10
0.0
 20
0.0
 30
0.0
  0
VERTEX
  5
D0
330
CF
100
AcDbEntity
  8
_U+30EC_U+30A4_U+30E4_U+30FC 1
370
     0
100
AcDbVertex
100
AcDb2dVertex
 10
75.80450301924333
 20
-80.17460664228274
 30
0.0
  0
VERTEX
  5
D1
330
CF
100
AcDbEntity
  8
_U+30EC_U+30A4_U+30E4_U+30FC 1
370
     0
100
AcDbVertex
100
AcDb2dVertex
 10
75.55266653927156
 20
-80.17460664228274
 30
0.0
  0
VERTEX
  5
D2
330
CF
100
AcDbEntity
  8
_U+30EC_U+30A4_U+30E4_U+30FC 1
370
     0
100
AcDbVertex
100
AcDb2dVertex
 10
75.55266653927156
 20
-79.90554468488473
 30
0.0
  0
VERTEX
  5
D3
330
CF
100
AcDbEntity
  8
_U+30EC_U+30A4_U+30E4_U+30FC 1
370
     0
100
AcDbVertex
100
AcDb2dVertex
 10
75.80450301924333
 20
-79.90554468488473
 30
0.0
  0
VERTEX
  5
D4
330
CF
100
AcDbEntity
  8
_U+30EC_U+30A4_U+30E4_U+30FC 1
370
     0
100
AcDbVertex
100
AcDb2dVertex
 10
75.80450301924333
 20
-80.17460664228274
 30
0.0
  0
SEQEND
  5
D5
330
CF
100
AcDbEntity
  8
_U+30EC_U+30A4_U+30E4_U+30FC 1
370
     0
  0
HATCH
  5
D6
330
C8
100
AcDbEntity
  8
_U+30EC_U+30A4_U+30E4_U+30FC 1
 62
   179
420
  2234388
100
AcDbHatch
 10
0.0
 20
0.0
 30
0.0
210
0.0
220
0.0
230
1.0
  2
SOLID
 70
     1
 71
     0
 91
        1
 92
        1
 93
        4
 72
     1
 10
75.80450301924333
 20
-80.17460664228274
 11
75.55266653927156
 21
-80.17460664228274
 72
     1
 10
75.55266653927156
 20
-80.17460664228274
 11
75.55266653927156
 21
-79.90554468488473
 72
     1
 10
75.55266653927156
 20
-79.90554468488473
 11
75.80450301924333
 21
-79.90554468488473
 72
     1
 10
75.80450301924333
 20
-79.90554468488473
 11
75.80450301924333
 21
-80.17460664228274
 97
        0
 75
     2
 76
     1
 98
        0
  0
SPLINE
  5
D7
330
C8
100
AcDbEntity
  8
_U+30EC_U+30A4_U+30E4_U+30FC 1
370
     0
100
AcDbSpline
210
0.0
220
0.0
230
1.0
 70
    11
 71
     3
 72
    29
 73
    25
 74
     0
 42
0.0000000001
 43
0.0000000001
 12
1.0
 22
0.0
 32
0.0
 13
1.0
 23
0.0
 33
0.0
 40
0.0
 40
0.0
 40
0.0
 40
0.0
 40
1.0
 40
1.0
 40
1.0
 40
2.0
 40
2.0
 40
2.0
 40
3.0
 40
3.0
 40
3.0
 40
4.0
 40
4.0
 40
4.0
 40
5.0
 40
5.0
 40
5.0
 40
6.0
 40
6.0
 40
6.0
 40
7.0
 40
7.0
 40
7.0
 40
8.0
 40
8.0
 40
8.0
 40
8.0
 10
75.85514592287649
 20
-79.11834036650514
 30
0.0
 10
75.85514592287649
 20
-79.4032497631353
 30
0.0
 10
75.71768661301503
 20
-79.67437877782446
 30
0.0
 10
75.36869844035921
 20
-79.67437877782446
 30
0.0
 10
75.11272784580515
 20
-79.67437877782446
 30
0.0
 10
75.01764321041226
 20
-79.52279457647347
 30
0.0
 10
74.95632051077482
 20
-79.40979544455728
 30
0.0
 10
74.89706486842852
 20
-79.54312063983645
 30
0.0
 10
74.78268769831823
 20
-79.62476940283686
 30
0.0
 10
74.62180173915705
 20
-79.62476940283686
 30
0.0
 10
74.34688311943411
 20
-79.62476940283686
 30
0.0
 10
74.2114908668638
 20
-79.41220701139696
 30
0.0
 10
74.2114908668638
 20
-79.11834036650514
 30
0.0
 10
74.2114908668638
 20
-78.81517196380315
 30
0.0
 10
74.35549585814724
 20
-78.61191133017341
 30
0.0
 10
74.62180173915705
 20
-78.61191133017341
 30
0.0
 10
74.78268769831823
 20
-78.61191133017341
 30
0.0
 10
74.89706486842852
 20
-78.69528264091646
 30
0.0
 10
74.95632051077482
 20
-78.82895234574416
 30
0.0
 10
75.00696341440799
 20
-78.73386771035126
 30
0.0
 10
75.10204804980089
 20
-78.56436901247697
 30
0.0
 10
75.36456432577691
 20
-78.56436901247697
 30
0.0
 10
75.73904620502357
 20
-78.56436901247697
 30
0.0
 10
75.85514592287649
 20
-78.8627142814996
 30
0.0
 10
75.85514592287649
 20
-79.11834036650514
 30
0.0
  0
SPLINE
  5
D8
330
C8
100
AcDbEntity
  8
_U+30EC_U+30A4_U+30E4_U+30FC 1
370
     0
100
AcDbSpline
210
0.0
220
0.0
230
1.0
 70
    11
 71
     3
 72
    17
 73
    13
 74
     0
 42
0.0000000001
 43
0.0000000001
 12
1.0
 22
0.0
 32
0.0
 13
1.0
 23
0.0
 33
0.0
 40
0.0
 40
0.0
 40
0.0
 40
0.0
 40
1.0
 40
1.0
 40
1.0
 40
2.0
 40
2.0
 40
2.0
 40
3.0
 40
3.0
 40
3.0
 40
4.0
 40
4.0
 40
4.0
 40
4.0
 10
74.40407170448927
 20
-79.11834036650514
 30
0.0
 10
74.40407170448927
 20
-79.29438474580141
 30
0.0
 10
74.49915633988216
 20
-79.38499075706348
 30
0.0
 10
74.63454859245248
 20
-79.38499075706348
 30
0.0
 10
74.75719399172738
 20
-79.38499075706348
 30
0.0
 10
74.87570527641996
 20
-79.30816512774241
 30
0.0
 10
74.87570527641996
 20
-79.11834036650514
 30
0.0
 10
74.87570527641996
 20
-78.92817109571935
 30
0.0
 10
74.75719399172738
 20
-78.85134546639827
 30
0.0
 10
74.63454859245248
 20
-78.85134546639827
 30
0.0
 10
74.49915633988216
 20
-78.85134546639827
 30
0.0
 10
74.40407170448927
 20
-78.9440185349515
 30
0.0
 10
74.40407170448927
 20
-79.11834036650514
 30
0.0
  0
SPLINE
  5
D9
330
C8
100
AcDbEntity
  8
_U+30EC_U+30A4_U+30E4_U+30FC 1
370
     0
100
AcDbSpline
210
0.0
220
0.0
230
1.0
 70
    11
 71
     3
 72
    17
 73
    13
 74
     0
 42
0.0000000001
 43
0.0000000001
 12
1.0
 22
0.0
 32
0.0
 13
1.0
 23
0.0
 33
0.0
 40
0.0
 40
0.0
 40
0.0
 40
0.0
 40
1.0
 40
1.0
 40
1.0
 40
2.0
 40
2.0
 40
2.0
 40
3.0
 40
3.0
 40
3.0
 40
4.0
 40
4.0
 40
4.0
 40
4.0
 10
75.06415199946314
 20
-79.11834036650514
 30
0.0
 10
75.06415199946314
 20
-79.27199162514728
 30
0.0
 10
75.15096840569143
 20
-79.43460013205107
 30
0.0
 10
75.35388452977264
 20
-79.43460013205107
 30
0.0
 10
75.55921222069354
 20
-79.43460013205107
 30
0.0
 10
75.66049802795987
 20
-79.29920787948076
 30
0.0
 10
75.66049802795987
 20
-79.11834036650514
 30
0.0
 10
75.66049802795987
 20
-78.9192138474577
 30
0.0
 10
75.53785262868499
 20
-78.80173609141067
 30
0.0
 10
75.3600857016461
 20
-78.80173609141067
 30
0.0
 10
75.138221552396
 20
-78.80173609141067
 30
0.0
 10
75.06415199946314
 20
-78.9757134134158
 30
0.0
 10
75.06415199946314
 20
-79.11834036650514
 30
0.0
  0
HATCH
  5
DA
330
C8
100
AcDbEntity
  8
_U+30EC_U+30A4_U+30E4_U+30FC 1
 62
   179
420
  2234388
100
AcDbHatch
 10
0.0
 20
0.0
 30
0.0
210
0.0
220
0.0
230
1.0
  2
SOLID
 70
     1
 71
     0
 91
        3
 92
        1
 93
        1
 72
     4
 94
        3
 73
     0
 74
     1
 95
       29
 96
       25
 40
0.0
 40
0.0
 40
0.0
 40
0.0
 40
1.0
 40
1.0
 40
1.0
 40
2.0
 40
2.0
 40
2.0
 40
3.0
 40
3.0
 40
3.0
 40
4.0
 40
4.0
 40
4.0
 40
5.0
 40
5.0
 40
5.0
 40
6.0
 40
6.0
 40
6.0
 40
7.0
 40
7.0
 40
7.0
 40
8.0
 40
8.0
 40
8.0
 40
8.0
 10
75.85514592287649
 20
-79.11834036650514
 10
75.85514592287649
 20
-79.4032497631353
 10
75.71768661301503
 20
-79.67437877782446
 10
75.36869844035921
 20
-79.67437877782446
 10
75.11272784580515
 20
-79.67437877782446
 10
75.01764321041226
 20
-79.52279457647347
 10
74.95632051077482
 20
-79.40979544455728
 10
74.89706486842852
 20
-79.54312063983645
 10
74.78268769831823
 20
-79.62476940283686
 10
74.62180173915705
 20
-79.62476940283686
 10
74.34688311943411
 20
-79.62476940283686
 10
74.2114908668638
 20
-79.41220701139696
 10
74.2114908668638
 20
-79.11834036650514
 10
74.2114908668638
 20
-78.81517196380315
 10
74.35549585814724
 20
-78.61191133017341
 10
74.62180173915705
 20
-78.61191133017341
 10
74.78268769831823
 20
-78.61191133017341
 10
74.89706486842852
 20
-78.69528264091646
 10
74.95632051077482
 20
-78.82895234574416
 10
75.00696341440799
 20
-78.73386771035126
 10
75.10204804980089
 20
-78.56436901247697
 10
75.36456432577691
 20
-78.56436901247697
 10
75.73904620502357
 20
-78.56436901247697
 10
75.85514592287649
 20
-78.8627142814996
 10
75.85514592287649
 20
-79.11834036650514
 97
        0
 97
        0
 92
        1
 93
        1
 72
     4
 94
        3
 73
     0
 74
     1
 95
       17
 96
       13
 40
0.0
 40
0.0
 40
0.0
 40
0.0
 40
1.0
 40
1.0
 40
1.0
 40
2.0
 40
2.0
 40
2.0
 40
3.0
 40
3.0
 40
3.0
 40
4.0
 40
4.0
 40
4.0
 40
4.0
 10
74.40407170448927
 20
-79.11834036650514
 10
74.40407170448927
 20
-79.29438474580141
 10
74.49915633988216
 20
-79.38499075706348
 10
74.63454859245248
 20
-79.38499075706348
 10
74.75719399172738
 20
-79.38499075706348
 10
74.87570527641996
 20
-79.30816512774241
 10
74.87570527641996
 20
-79.11834036650514
 10
74.87570527641996
 20
-78.92817109571935
 10
74.75719399172738
 20
-78.85134546639827
 10
74.63454859245248
 20
-78.85134546639827
 10
74.49915633988216
 20
-78.85134546639827
 10
74.40407170448927
 20
-78.9440185349515
 10
74.40407170448927
 20
-79.11834036650514
 97
        0
 97
        0
 92
        1
 93
        1
 72
     4
 94
        3
 73
     0
 74
     1
 95
       17
 96
       13
 40
0.0
 40
0.0
 40
0.0
 40
0.0
 40
1.0
 40
1.0
 40
1.0
 40
2.0
 40
2.0
 40
2.0
 40
3.0
 40
3.0
 40
3.0
 40
4.0
 40
4.0
 40
4.0
 40
4.0
 10
75.06415199946314
 20
-79.11834036650514
 10
75.06415199946314
 20
-79.27199162514728
 10
75.15096840569143
 20
-79.43460013205107
 10
75.35388452977264
 20
-79.43460013205107
 10
75.55921222069354
 20
-79.43460013205107
 10
75.66049802795987
 20
-79.29920787948076
 10
75.66049802795987
 20
-79.11834036650514
 10
75.66049802795987
 20
-78.9192138474577
 10
75.53785262868499
 20
-78.80173609141067
 10
75.3600857016461
 20
-78.80173609141067
 10
75.138221552396
 20
-78.80173609141067
 10
75.06415199946314
 20
-78.9757134134158
 10
75.06415199946314
 20
-79.11834036650514
 97
        0
 97
        0
 75
     2
 76
     1
 98
        0
  0
ENDBLK
  5
CB
330
C8
100
AcDbEntity
  8
0
100
AcDbBlockEnd
  0
BLOCK
  5
E5
330
E3
100
AcDbEntity
  8
0
100
AcDbBlockBegin
  2
block 6
 70
     0
 10
0.0
 20
0.0
 30
0.0
  3
block 6
  1

  0
SPLINE
  5
E7
330
E3
100
AcDbEntity
  8
_U+30EC_U+30A4_U+30E4_U+30FC 1
370
     0
100
AcDbSpline
210
0.0
220
0.0
230
1.0
 70
    11
 71
     3
 72
    62
 73
    58
 74
     0
 42
0.0000000001
 43
0.0000000001
 12
1.0
 22
0.0
 32
0.0
 13
1.0
 23
0.0
 33
0.0
 40
0.0
 40
0.0
 40
0.0
 40
0.0
 40
1.0
 40
1.0
 40
1.0
 40
2.0
 40
2.0
 40
2.0
 40
3.0
 40
3.0
 40
3.0
 40
4.0
 40
4.0
 40
4.0
 40
5.0
 40
5.0
 40
5.0
 40
6.0
 40
6.0
 40
6.0
 40
7.0
 40
7.0
 40
7.0
 40
8.0
 40
8.0
 40
8.0
 40
9.0
 40
9.0
 40
9.0
 40
10.0
 40
10.0
 40
10.0
 40
11.0
 40
11.0
 40
11.0
 40
12.0
 40
12.0
 40
12.0
 40
13.0
 40
13.0
 40
13.0
 40
14.0
 40
14.0
 40
14.0
 40
15.0
 40
15.0
 40
15.0
 40
16.0
 40
16.0
 40
16.0
 40
17.0
 40
17.0
 40
17.0
 40
18.0
 40
18.0
 40
18.0
 40
19.0
 40
19.0
 40
19.0
 40
19.0
 10
75.85514592287649
 20
-91.84934622269739
 30
0.0
 10
75.85514592287649
 20
-91.95097653951225
 30
0.0
 10
75.83413084041648
 20
-92.18386499431514
 30
0.0
 10
75.64809568421298
 20
-92.31719018959431
 30
0.0
 10
75.53578557139383
 20
-92.39642738575506
 30
0.0
 10
75.43656682141864
 20
-92.40090600988589
 30
0.0
 10
75.3518174724815
 20
-92.40538463401671
 30
0.0
 10
75.3518174724815
 20
-92.40538463401671
 30
0.0
 10
75.3518174724815
 20
-92.17042912192268
 30
0.0
 10
75.3518174724815
 20
-92.17042912192268
 30
0.0
 10
75.42588702541437
 20
-92.168017555083
 30
0.0
 10
75.66049802795987
 20
-92.15664873998168
 30
0.0
 10
75.66049802795987
 20
-91.85382484682822
 30
0.0
 10
75.66049802795987
 20
-91.70671926960804
 30
0.0
 10
75.59090709915783
 20
-91.54411076270425
 30
0.0
 10
75.36249726848577
 20
-91.54411076270425
 30
0.0
 10
75.24605304108432
 20
-91.54411076270425
 30
0.0
 10
75.1974771947423
 20
-91.58476288943021
 30
0.0
 10
75.165782316278
 20
-91.61886933473417
 30
0.0
 10
75.09171276334513
 20
-91.69776202134639
 30
0.0
 10
75.0789659100497
 20
-91.82212996836391
 30
0.0
 10
75.0789659100497
 20
-91.88104110116168
 30
0.0
 10
75.0789659100497
 20
-91.90136716452466
 30
0.0
 10
75.08103296734086
 20
-91.93960772441093
 30
0.0
 10
75.08516708192316
 20
-91.96923554558408
 30
0.0
 10
75.08516708192316
 20
-91.96923554558408
 30
0.0
 10
74.89051918700655
 20
-91.96923554558408
 30
0.0
 10
74.89051918700655
 20
-91.96923554558408
 30
0.0
 10
74.89706486842852
 20
-91.92858341885814
 30
0.0
 10
74.89913192571966
 20
-91.88310815845284
 30
0.0
 10
74.89913192571966
 20
-91.87656247703086
 30
0.0
 10
74.89913192571966
 20
-91.80628252913176
 30
0.0
 10
74.87777233371112
 20
-91.59372013769185
 30
0.0
 10
74.64109427387446
 20
-91.59372013769185
 30
0.0
 10
74.46332734683556
 20
-91.59372013769185
 30
0.0
 10
74.40820581907157
 20
-91.73393552394153
 30
0.0
 10
74.40820581907157
 20
-91.85141327998853
 30
0.0
 10
74.40820581907157
 20
-92.13425561932755
 30
0.0
 10
74.64109427387446
 20
-92.1432128675892
 30
0.0
 10
74.71275225996764
 20
-92.14769149172002
 30
0.0
 10
74.71275225996764
 20
-92.14769149172002
 30
0.0
 10
74.71275225996764
 20
-92.36473250729077
 30
0.0
 10
74.71275225996764
 20
-92.36473250729077
 30
0.0
 10
74.5880398034016
 20
-92.35577525902912
 30
0.0
 10
74.2114908668638
 20
-92.32649194740449
 30
0.0
 10
74.2114908668638
 20
-91.83797740759607
 30
0.0
 10
74.2114908668638
 20
-91.59819876182267
 30
0.0
 10
74.33861489026951
 20
-91.34050561952598
 30
0.0
 10
74.63454859245248
 20
-91.34050561952598
 30
0.0
 10
74.82092825820449
 20
-91.34050561952598
 30
0.0
 10
74.90326604030196
 20
-91.44248044588939
 30
0.0
 10
74.96458873993942
 20
-91.54858938683508
 30
0.0
 10
74.99214950382141
 20
-91.48313257261533
 30
0.0
 10
75.07242022862773
 20
-91.28848467769872
 30
0.0
 10
75.34975041519034
 20
-91.28848467769872
 30
0.0
 10
75.68805879184188
 20
-91.28848467769872
 30
0.0
 10
75.85514592287649
 20
-91.5530680109659
 30
0.0
 10
75.85514592287649
 20
-91.84934622269739
 30
0.0
  0
HATCH
  5
E8
330
E3
100
AcDbEntity
  8
_U+30EC_U+30A4_U+30E4_U+30FC 1
 62
   179
420
  2234388
100
AcDbHatch
 10
0.0
 20
0.0
 30
0.0
210
0.0
220
0.0
230
1.0
  2
SOLID
 70
     1
 71
     0
 91
        1
 92
        1
 93
        1
 72
     4
 94
        3
 73
     0
 74
     1
 95
       62
 96
       58
 40
0.0
 40
0.0
 40
0.0
 40
0.0
 40
1.0
 40
1.0
 40
1.0
 40
2.0
 40
2.0
 40
2.0
 40
3.0
 40
3.0
 40
3.0
 40
4.0
 40
4.0
 40
4.0
 40
5.0
 40
5.0
 40
5.0
 40
6.0
 40
6.0
 40
6.0
 40
7.0
 40
7.0
 40
7.0
 40
8.0
 40
8.0
 40
8.0
 40
9.0
 40
9.0
 40
9.0
 40
10.0
 40
10.0
 40
10.0
 40
11.0
 40
11.0
 40
11.0
 40
12.0
 40
12.0
 40
12.0
 40
13.0
 40
13.0
 40
13.0
 40
14.0
 40
14.0
 40
14.0
 40
15.0
 40
15.0
 40
15.0
 40
16.0
 40
16.0
 40
16.0
 40
17.0
 40
17.0
 40
17.0
 40
18.0
 40
18.0
 40
18.0
 40
19.0
 40
19.0
 40
19.0
 40
19.0
 10
75.85514592287649
 20
-91.84934622269739
 10
75.85514592287649
 20
-91.95097653951225
 10
75.83413084041648
 20
-92.18386499431514
 10
75.64809568421298
 20
-92.31719018959431
 10
75.53578557139383
 20
-92.39642738575506
 10
75.43656682141864
 20
-92.40090600988589
 10
75.3518174724815
 20
-92.40538463401671
 10
75.3518174724815
 20
-92.40538463401671
 10
75.3518174724815
 20
-92.17042912192268
 10
75.3518174724815
 20
-92.17042912192268
 10
75.42588702541437
 20
-92.168017555083
 10
75.66049802795987
 20
-92.15664873998168
 10
75.66049802795987
 20
-91.85382484682822
 10
75.66049802795987
 20
-91.70671926960804
 10
75.59090709915783
 20
-91.54411076270425
 10
75.36249726848577
 20
-91.54411076270425
 10
75.24605304108432
 20
-91.54411076270425
 10
75.1974771947423
 20
-91.58476288943021
 10
75.165782316278
 20
-91.61886933473417
 10
75.09171276334513
 20
-91.69776202134639
 10
75.0789659100497
 20
-91.82212996836391
 10
75.0789659100497
 20
-91.88104110116168
 10
75.0789659100497
 20
-91.90136716452466
 10
75.08103296734086
 20
-91.93960772441093
 10
75.08516708192316
 20
-91.96923554558408
 10
75.08516708192316
 20
-91.96923554558408
 10
74.89051918700655
 20
-91.96923554558408
 10
74.89051918700655
 20
-91.96923554558408
 10
74.89706486842852
 20
-91.92858341885814
 10
74.89913192571966
 20
-91.88310815845284
 10
74.89913192571966
 20
-91.87656247703086
 10
74.89913192571966
 20
-91.80628252913176
 10
74.87777233371112
 20
-91.59372013769185
 10
74.64109427387446
 20
-91.59372013769185
 10
74.46332734683556
 20
-91.59372013769185
 10
74.40820581907157
 20
-91.73393552394153
 10
74.40820581907157
 20
-91.85141327998853
 10
74.40820581907157
 20
-92.13425561932755
 10
74.64109427387446
 20
-92.1432128675892
 10
74.71275225996764
 20
-92.14769149172002
 10
74.71275225996764
 20
-92.14769149172002
 10
74.71275225996764
 20
-92.36473250729077
 10
74.71275225996764
 20
-92.36473250729077
 10
74.5880398034016
 20
-92.35577525902912
 10
74.2114908668638
 20
-92.32649194740449
 10
74.2114908668638
 20
-91.83797740759607
 10
74.2114908668638
 20
-91.59819876182267
 10
74.33861489026951
 20
-91.34050561952598
 10
74.63454859245248
 20
-91.34050561952598
 10
74.82092825820449
 20
-91.34050561952598
 10
74.90326604030196
 20
-91.44248044588939
 10
74.96458873993942
 20
-91.54858938683508
 10
74.99214950382141
 20
-91.48313257261533
 10
75.07242022862773
 20
-91.28848467769872
 10
75.34975041519034
 20
-91.28848467769872
 10
75.68805879184188
 20
-91.28848467769872
 10
75.85514592287649
 20
-91.5530680109659
 10
75.85514592287649
 20
-91.84934622269739
 97
        0
 97
        0
 75
     2
 76
     1
 98
        0
  0
ENDBLK
  5
E6
330
E3
100
AcDbEntity
  8
0
100
AcDbBlockEnd
  0
BLOCK
  5
F7
330
F5
100
AcDbEntity
  8
0
100
AcDbBlockBegin
  2
block 7
 70
     0
 10
0.0
 20
0.0
 30
0.0
  3
block 7
  1

  0
SPLINE
  5
F9
330
F5
100
AcDbEntity
  8
_U+30EC_U+30A4_U+30E4_U+30FC 1
370
     0
100
AcDbSpline
210
0.0
220
0.0
230
1.0
 70
    11
 71
     3
 72
    32
 73
    28
 74
     0
 42
0.0000000001
 43
0.0000000001
 12
1.0
 22
0.0
 32
0.0
 13
1.0
 23
0.0
 33
0.0
 40
0.0
 40
0.0
 40
0.0
 40
0.0
 40
1.0
 40
1.0
 40
1.0
 40
2.0
 40
2.0
 40
2.0
 40
3.0
 40
3.0
 40
3.0
 40
4.0
 40
4.0
 40
4.0
 40
5.0
 40
5.0
 40
5.0
 40
6.0
 40
6.0
 40
6.0
 40
7.0
 40
7.0
 40
7.0
 40
8.0
 40
8.0
 40
8.0
 40
9.0
 40
9.0
 40
9.0
 40
9.0
 10
75.85514592287649
 20
-88.00772024709529
 30
0.0
 10
75.85514592287649
 20
-88.5592800342838
 30
0.0
 10
75.30117456884832
 20
-88.56823728254544
 30
0.0
 10
75.0872341392143
 20
-88.56823728254544
 30
0.0
 10
74.8567572512511
 20
-88.56823728254544
 30
0.0
 10
74.20942380957264
 20
-88.54791121918247
 30
0.0
 10
74.20942380957264
 20
-87.96672361082082
 30
0.0
 10
74.20942380957264
 20
-87.78137747371439
 30
0.0
 10
74.27935924792322
 20
-87.51920570728687
 30
0.0
 10
74.61146645270131
 20
-87.47855358056093
 30
0.0
 10
74.61146645270131
 20
-87.47855358056093
 30
0.0
 10
74.61146645270131
 20
-87.70696341123299
 30
0.0
 10
74.61146645270131
 20
-87.70696341123299
 30
0.0
 10
74.55427786764615
 20
-87.71833222633431
 30
0.0
 10
74.40613876178041
 20
-87.75209416208976
 30
0.0
 10
74.40613876178041
 20
-87.9691351776605
 30
0.0
 10
74.40613876178041
 20
-88.28126082862413
 30
0.0
 10
74.7341118519762
 20
-88.32398001264123
 30
0.0
 10
74.93909503334856
 20
-88.33776039458223
 30
0.0
 10
74.8608913658334
 20
-88.23819713505851
 30
0.0
 10
74.8016357234871
 20
-88.16585012986826
 30
0.0
 10
74.8016357234871
 20
-87.97120223495165
 30
0.0
 10
74.8016357234871
 20
-87.77931041642323
 30
0.0
 10
74.90981172172394
 20
-87.45581595035827
 30
0.0
 10
75.31598847943489
 20
-87.45581595035827
 30
0.0
 10
75.63534883091755
 20
-87.45581595035827
 30
0.0
 10
75.85514592287649
 20
-87.66837834179819
 30
0.0
 10
75.85514592287649
 20
-88.00772024709529
 30
0.0
  0
SPLINE
  5
FA
330
F5
100
AcDbEntity
  8
_U+30EC_U+30A4_U+30E4_U+30FC 1
370
     0
100
AcDbSpline
210
0.0
220
0.0
230
1.0
 70
    11
 71
     3
 72
    17
 73
    13
 74
     0
 42
0.0000000001
 43
0.0000000001
 12
1.0
 22
0.0
 32
0.0
 13
1.0
 23
0.0
 33
0.0
 40
0.0
 40
0.0
 40
0.0
 40
0.0
 40
1.0
 40
1.0
 40
1.0
 40
2.0
 40
2.0
 40
2.0
 40
3.0
 40
3.0
 40
3.0
 40
4.0
 40
4.0
 40
4.0
 40
4.0
 10
74.99628361840371
 20
-87.98946124102348
 30
0.0
 10
74.99628361840371
 20
-88.2698920135228
 30
0.0
 10
75.20781248119805
 20
-88.31054414024875
 30
0.0
 10
75.32425670859949
 20
-88.31054414024875
 30
0.0
 10
75.49995657834724
 20
-88.31054414024875
 30
0.0
 10
75.66290959479956
 20
-88.20891382343389
 30
0.0
 10
75.66290959479956
 20
-88.01219887122612
 30
0.0
 10
75.66290959479956
 20
-87.88335230007777
 30
0.0
 10
75.60365395245326
 20
-87.69559459613166
 30
0.0
 10
75.31805553672605
 20
-87.69559459613166
 30
0.0
 10
75.09377982063629
 20
-87.69559459613166
 30
0.0
 10
74.99628361840371
 20
-87.84476723064297
 30
0.0
 10
74.99628361840371
 20
-87.98946124102348
 30
0.0
  0
HATCH
  5
FB
330
F5
100
AcDbEntity
  8
_U+30EC_U+30A4_U+30E4_U+30FC 1
 62
   179
420
  2234388
100
AcDbHatch
 10
0.0
 20
0.0
 30
0.0
210
0.0
220
0.0
230
1.0
  2
SOLID
 70
     1
 71
     0
 91
        2
 92
        1
 93
        1
 72
     4
 94
        3
 73
     0
 74
     1
 95
       32
 96
       28
 40
0.0
 40
0.0
 40
0.0
 40
0.0
 40
1.0
 40
1.0
 40
1.0
 40
2.0
 40
2.0
 40
2.0
 40
3.0
 40
3.0
 40
3.0
 40
4.0
 40
4.0
 40
4.0
 40
5.0
 40
5.0
 40
5.0
 40
6.0
 40
6.0
 40
6.0
 40
7.0
 40
7.0
 40
7.0
 40
8.0
 40
8.0
 40
8.0
 40
9.0
 40
9.0
 40
9.0
 40
9.0
 10
75.85514592287649
 20
-88.00772024709529
 10
75.85514592287649
 20
-88.5592800342838
 10
75.30117456884832
 20
-88.56823728254544
 10
75.0872341392143
 20
-88.56823728254544
 10
74.8567572512511
 20
-88.56823728254544
 10
74.20942380957264
 20
-88.54791121918247
 10
74.20942380957264
 20
-87.96672361082082
 10
74.20942380957264
 20
-87.78137747371439
 10
74.27935924792322
 20
-87.51920570728687
 10
74.61146645270131
 20
-87.47855358056093
 10
74.61146645270131
 20
-87.47855358056093
 10
74.61146645270131
 20
-87.70696341123299
 10
74.61146645270131
 20
-87.70696341123299
 10
74.55427786764615
 20
-87.71833222633431
 10
74.40613876178041
 20
-87.75209416208976
 10
74.40613876178041
 20
-87.9691351776605
 10
74.40613876178041
 20
-88.28126082862413
 10
74.7341118519762
 20
-88.32398001264123
 10
74.93909503334856
 20
-88.33776039458223
 10
74.8608913658334
 20
-88.23819713505851
 10
74.8016357234871
 20
-88.16585012986826
 10
74.8016357234871
 20
-87.97120223495165
 10
74.8016357234871
 20
-87.77931041642323
 10
74.90981172172394
 20
-87.45581595035827
 10
75.31598847943489
 20
-87.45581595035827
 10
75.63534883091755
 20
-87.45581595035827
 10
75.85514592287649
 20
-87.66837834179819
 10
75.85514592287649
 20
-88.00772024709529
 97
        0
 97
        0
 92
        1
 93
        1
 72
     4
 94
        3
 73
     0
 74
     1
 95
       17
 96
       13
 40
0.0
 40
0.0
 40
0.0
 40
0.0
 40
1.0
 40
1.0
 40
1.0
 40
2.0
 40
2.0
 40
2.0
 40
3.0
 40
3.0
 40
3.0
 40
4.0
 40
4.0
 40
4.0
 40
4.0
 10
74.99628361840371
 20
-87.98946124102348
 10
74.99628361840371
 20
-88.2698920135228
 10
75.20781248119805
 20
-88.31054414024875
 10
75.32425670859949
 20
-88.31054414024875
 10
75.49995657834724
 20
-88.31054414024875
 10
75.66290959479956
 20
-88.20891382343389
 10
75.66290959479956
 20
-88.01219887122612
 10
75.66290959479956
 20
-87.88335230007777
 10
75.60365395245326
 20
-87.69559459613166
 10
75.31805553672605
 20
-87.69559459613166
 10
75.09377982063629
 20
-87.69559459613166
 10
74.99628361840371
 20
-87.84476723064297
 10
74.99628361840371
 20
-87.98946124102348
 97
        0
 97
        0
 75
     2
 76
     1
 98
        0
  0
POLYLINE
  5
FC
330
F5
100
AcDbEntity
  8
_U+30EC_U+30A4_U+30E4_U+30FC 1
370
     0
100
AcDb2dPolyline
 66
     1
 10
0.0
 20
0.0
 30
0.0
  0
VERTEX
  5
FD
330
FC
100
AcDbEntity
  8
_U+30EC_U+30A4_U+30E4_U+30FC 1
370
     0
100
AcDbVertex
100
AcDb2dVertex
 10
75.80450301924333
 20
-87.22465004329801
 30
0.0
  0
VERTEX
  5
FE
330
FC
100
AcDbEntity
  8
_U+30EC_U+30A4_U+30E4_U+30FC 1
370
     0
100
AcDbVertex
100
AcDb2dVertex
 10
75.55266653927156
 20
-87.22465004329801
 30
0.0
  0
VERTEX
  5
FF
330
FC
100
AcDbEntity
  8
_U+30EC_U+30A4_U+30E4_U+30FC 1
370
     0
100
AcDbVertex
100
AcDb2dVertex
 10
75.55266653927156
 20
-86.95558808589999
 30
0.0
  0
VERTEX
  5
100
330
FC
100
AcDbEntity
  8
_U+30EC_U+30A4_U+30E4_U+30FC 1
370
     0
100
AcDbVertex
100
AcDb2dVertex
 10
75.80450301924333
 20
-86.95558808589999
 30
0.0
  0
VERTEX
  5
101
330
FC
100
AcDbEntity
  8
_U+30EC_U+30A4_U+30E4_U+30FC 1
370
     0
100
AcDbVertex
100
AcDb2dVertex
 10
75.80450301924333
 20
-87.22465004329801
 30
0.0
  0
SEQEND
  5
102
330
FC
100
AcDbEntity
  8
_U+30EC_U+30A4_U+30E4_U+30FC 1
370
     0
  0
HATCH
  5
103
330
F5
100
AcDbEntity
  8
_U+30EC_U+30A4_U+30E4_U+30FC 1
 62
   179
420
  2234388
100
AcDbHatch
 10
0.0
 20
0.0
 30
0.0
210
0.0
220
0.0
230
1.0
  2
SOLID
 70
     1
 71
     0
 91
        1
 92
        1
 93
        4
 72
     1
 10
75.80450301924333
 20
-87.22465004329801
 11
75.55266653927156
 21
-87.22465004329801
 72
     1
 10
75.55266653927156
 20
-87.22465004329801
 11
75.55266653927156
 21
-86.95558808589999
 72
     1
 10
75.55266653927156
 20
-86.95558808589999
 11
75.80450301924333
 21
-86.95558808589999
 72
     1
 10
75.80450301924333
 20
-86.95558808589999
 11
75.80450301924333
 21
-87.22465004329801
 97
        0
 75
     2
 76
     1
 98
        0
  0
SPLINE
  5
104
330
F5
100
AcDbEntity
  8
_U+30EC_U+30A4_U+30E4_U+30FC 1
370
     0
100
AcDbSpline
210
0.0
220
0.0
230
1.0
 70
    11
 71
     3
 72
    53
 73
    49
 74
     0
 42
0.0000000001
 43
0.0000000001
 12
1.0
 22
0.0
 32
0.0
 13
1.0
 23
0.0
 33
0.0
 40
0.0
 40
0.0
 40
0.0
 40
0.0
 40
1.0
 40
1.0
 40
1.0
 40
2.0
 40
2.0
 40
2.0
 40
3.0
 40
3.0
 40
3.0
 40
4.0
 40
4.0
 40
4.0
 40
5.0
 40
5.0
 40
5.0
 40
6.0
 40
6.0
 40
6.0
 40
7.0
 40
7.0
 40
7.0
 40
8.0
 40
8.0
 40
8.0
 40
9.0
 40
9.0
 40
9.0
 40
10.0
 40
10.0
 40
10.0
 40
11.0
 40
11.0
 40
11.0
 40
12.0
 40
12.0
 40
12.0
 40
13.0
 40
13.0
 40
13.0
 40
14.0
 40
14.0
 40
14.0
 40
15.0
 40
15.0
 40
15.0
 40
16.0
 40
16.0
 40
16.0
 40
16.0
 10
75.85514592287649
 20
-86.18870983088338
 30
0.0
 10
75.85514592287649
 20
-86.27208114162643
 30
0.0
 10
75.83826495499878
 20
-86.38094615896033
 30
0.0
 10
75.77487519807018
 20
-86.48912215719717
 30
0.0
 10
75.6649766520907
 20
-86.67481280385213
 30
0.0
 10
75.53371851410269
 20
-86.69720592450626
 30
0.0
 10
75.42588702541437
 20
-86.71753198786924
 30
0.0
 10
75.42588702541437
 20
-86.71753198786924
 30
0.0
 10
75.42588702541437
 20
-86.48016490893552
 30
0.0
 10
75.42588702541437
 20
-86.48016490893552
 30
0.0
 10
75.62466903491328
 20
-86.42159828568627
 30
0.0
 10
75.65429685608643
 20
-86.28586152356743
 30
0.0
 10
75.65429685608643
 20
-86.18629826404371
 30
0.0
 10
75.65429685608643
 20
-86.03712562953238
 30
0.0
 10
75.55473359656271
 20
-85.8745171226286
 30
0.0
 10
75.32218965130835
 20
-85.8745171226286
 30
0.0
 10
75.06621905675428
 20
-85.8745171226286
 30
0.0
 10
74.99628361840371
 20
-86.06640894115701
 30
0.0
 10
74.99628361840371
 20
-86.19525551230535
 30
0.0
 10
74.99628361840371
 20
-86.22936195760933
 30
0.0
 10
74.99628361840371
 20
-86.38094615896033
 30
0.0
 10
75.12547469910058
 20
-86.4756862848047
 30
0.0
 10
75.12547469910058
 20
-86.4756862848047
 30
0.0
 10
75.10652667393171
 20
-86.66344398875081
 30
0.0
 10
75.10652667393171
 20
-86.66344398875081
 30
0.0
 10
75.10652667393171
 20
-86.66344398875081
 30
0.0
 10
74.26006671320582
 20
-86.53459741760247
 30
0.0
 10
74.26006671320582
 20
-86.53459741760247
 30
0.0
 10
74.26006671320582
 20
-86.53459741760247
 30
0.0
 10
74.26006671320582
 20
-85.70260685791463
 30
0.0
 10
74.26006671320582
 20
-85.70260685791463
 30
0.0
 10
74.26006671320582
 20
-85.70260685791463
 30
0.0
 10
74.45471460812243
 20
-85.70260685791463
 30
0.0
 10
74.45471460812243
 20
-85.70260685791463
 30
0.0
 10
74.45471460812243
 20
-85.70260685791463
 30
0.0
 10
74.45471460812243
 20
-86.36027558604883
 30
0.0
 10
74.45471460812243
 20
-86.36027558604883
 30
0.0
 10
74.45471460812243
 20
-86.36027558604883
 30
0.0
 10
74.87777233371112
 20
-86.43055553394792
 30
0.0
 10
74.87777233371112
 20
-86.43055553394792
 30
0.0
 10
74.84401039795567
 20
-86.36509871972818
 30
0.0
 10
74.80370278077824
 20
-86.27690427530578
 30
0.0
 10
74.80370278077824
 20
-86.15012476144858
 30
0.0
 10
74.80370278077824
 20
-85.87899574675941
 30
0.0
 10
74.99008244653027
 20
-85.62578122859355
 30
0.0
 10
75.30324162613947
 20
-85.62578122859355
 30
0.0
 10
75.62053492033098
 20
-85.62578122859355
 30
0.0
 10
75.85514592287649
 20
-85.86521536481843
 30
0.0
 10
75.85514592287649
 20
-86.18870983088338
 30
0.0
  0
HATCH
  5
105
330
F5
100
AcDbEntity
  8
_U+30EC_U+30A4_U+30E4_U+30FC 1
 62
   179
420
  2234388
100
AcDbHatch
 10
0.0
 20
0.0
 30
0.0
210
0.0
220
0.0
230
1.0
  2
SOLID
 70
     1
 71
     0
 91
        1
 92
        1
 93
        1
 72
     4
 94
        3
 73
     0
 74
     1
 95
       53
 96
       49
 40
0.0
 40
0.0
 40
0.0
 40
0.0
 40
1.0
 40
1.0
 40
1.0
 40
2.0
 40
2.0
 40
2.0
 40
3.0
 40
3.0
 40
3.0
 40
4.0
 40
4.0
 40
4.0
 40
5.0
 40
5.0
 40
5.0
 40
6.0
 40
6.0
 40
6.0
 40
7.0
 40
7.0
 40
7.0
 40
8.0
 40
8.0
 40
8.0
 40
9.0
 40
9.0
 40
9.0
 40
10.0
 40
10.0
 40
10.0
 40
11.0
 40
11.0
 40
11.0
 40
12.0
 40
12.0
 40
12.0
 40
13.0
 40
13.0
 40
13.0
 40
14.0
 40
14.0
 40
14.0
 40
15.0
 40
15.0
 40
15.0
 40
16.0
 40
16.0
 40
16.0
 40
16.0
 10
75.85514592287649
 20
-86.18870983088338
 10
75.85514592287649
 20
-86.27208114162643
 10
75.83826495499878
 20
-86.38094615896033
 10
75.77487519807018
 20
-86.48912215719717
 10
75.6649766520907
 20
-86.67481280385213
 10
75.53371851410269
 20
-86.69720592450626
 10
75.42588702541437
 20
-86.71753198786924
 10
75.42588702541437
 20
-86.71753198786924
 10
75.42588702541437
 20
-86.48016490893552
 10
75.42588702541437
 20
-86.48016490893552
 10
75.62466903491328
 20
-86.42159828568627
 10
75.65429685608643
 20
-86.28586152356743
 10
75.65429685608643
 20
-86.18629826404371
 10
75.65429685608643
 20
-86.03712562953238
 10
75.55473359656271
 20
-85.8745171226286
 10
75.32218965130835
 20
-85.8745171226286
 10
75.06621905675428
 20
-85.8745171226286
 10
74.99628361840371
 20
-86.06640894115701
 10
74.99628361840371
 20
-86.19525551230535
 10
74.99628361840371
 20
-86.22936195760933
 10
74.99628361840371
 20
-86.38094615896033
 10
75.12547469910058
 20
-86.4756862848047
 10
75.12547469910058
 20
-86.4756862848047
 10
75.10652667393171
 20
-86.66344398875081
 10
75.10652667393171
 20
-86.66344398875081
 10
75.10652667393171
 20
-86.66344398875081
 10
74.26006671320582
 20
-86.53459741760247
 10
74.26006671320582
 20
-86.53459741760247
 10
74.26006671320582
 20
-86.53459741760247
 10
74.26006671320582
 20
-85.70260685791463
 10
74.26006671320582
 20
-85.70260685791463
 10
74.26006671320582
 20
-85.70260685791463
 10
74.45471460812243
 20
-85.70260685791463
 10
74.45471460812243
 20
-85.70260685791463
 10
74.45471460812243
 20
-85.70260685791463
 10
74.45471460812243
 20
-86.36027558604883
 10
74.45471460812243
 20
-86.36027558604883
 10
74.45471460812243
 20
-86.36027558604883
 10
74.87777233371112
 20
-86.43055553394792
 10
74.87777233371112
 20
-86.43055553394792
 10
74.84401039795567
 20
-86.36509871972818
 10
74.80370278077824
 20
-86.27690427530578
 10
74.80370278077824
 20
-86.15012476144858
 10
74.80370278077824
 20
-85.87899574675941
 10
74.99008244653027
 20
-85.62578122859355
 10
75.30324162613947
 20
-85.62578122859355
 10
75.62053492033098
 20
-85.62578122859355
 10
75.85514592287649
 20
-85.86521536481843
 10
75.85514592287649
 20
-86.18870983088338
 97
        0
 97
        0
 75
     2
 76
     1
 98
        0
  0
ENDBLK
  5
F8
330
F5
100
AcDbEntity
  8
0
100
AcDbBlockEnd
  0
BLOCK
  5
108
330
106
100
AcDbEntity
  8
0
100
AcDbBlockBegin
  2
block 8
 70
     0
 10
0.0
 20
0.0
 30
0.0
  3
block 8
  1

  0
SPLINE
  5
10A
330
106
100
AcDbEntity
  8
_U+30EC_U+30A4_U+30E4_U+30FC 1
370
     0
100
AcDbSpline
210
0.0
220
0.0
230
1.0
 70
    11
 71
     3
 72
    17
 73
    13
 74
     0
 42
0.0000000001
 43
0.0000000001
 12
1.0
 22
0.0
 32
0.0
 13
1.0
 23
0.0
 33
0.0
 40
0.0
 40
0.0
 40
0.0
 40
0.0
 40
1.0
 40
1.0
 40
1.0
 40
2.0
 40
2.0
 40
2.0
 40
3.0
 40
3.0
 40
3.0
 40
4.0
 40
4.0
 40
4.0
 40
4.0
 10
49.01991915007141
 20
-101.9217718929223
 30
0.0
 10
48.92741833629245
 20
-101.8160074615252
 30
0.0
 10
48.8569661336191
 20
-101.7781114111874
 30
0.0
 10
48.77548962539294
 20
-101.7460720231746
 30
0.0
 10
48.77548962539294
 20
-101.7460720231746
 30
0.0
 10
48.87178004420567
 20
-101.5813964589797
 30
0.0
 10
48.87178004420567
 20
-101.5813964589797
 30
0.0
 10
48.95704615746561
 20
-101.6234266238997
 30
0.0
 10
49.06263833408851
 20
-101.7019748009634
 30
0.0
 10
49.10880261359086
 20
-101.7567518191789
 30
0.0
 10
49.10880261359086
 20
-101.7567518191789
 30
0.0
 10
49.01991915007141
 20
-101.9217718929223
 30
0.0
 10
49.01991915007141
 20
-101.9217718929223
 30
0.0
  0
SPLINE
  5
10B
330
106
100
AcDbEntity
  8
_U+30EC_U+30A4_U+30E4_U+30FC 1
370
     0
100
AcDbSpline
210
0.0
220
0.0
230
1.0
 70
    11
 71
     3
 72
   182
 73
   178
 74
     0
 42
0.0000000001
 43
0.0000000001
 12
1.0
 22
0.0
 32
0.0
 13
1.0
 23
0.0
 33
0.0
 40
0.0
 40
0.0
 40
0.0
 40
0.0
 40
1.0
 40
1.0
 40
1.0
 40
2.0
 40
2.0
 40
2.0
 40
3.0
 40
3.0
 40
3.0
 40
4.0
 40
4.0
 40
4.0
 40
5.0
 40
5.0
 40
5.0
 40
6.0
 40
6.0
 40
6.0
 40
7.0
 40
7.0
 40
7.0
 40
8.0
 40
8.0
 40
8.0
 40
9.0
 40
9.0
 40
9.0
 40
10.0
 40
10.0
 40
10.0
 40
11.0
 40
11.0
 40
11.0
 40
12.0
 40
12.0
 40
12.0
 40
13.0
 40
13.0
 40
13.0
 40
14.0
 40
14.0
 40
14.0
 40
15.0
 40
15.0
 40
15.0
 40
16.0
 40
16.0
 40
16.0
 40
17.0
 40
17.0
 40
17.0
 40
18.0
 40
18.0
 40
18.0
 40
19.0
 40
19.0
 40
19.0
 40
20.0
 40
20.0
 40
20.0
 40
21.0
 40
21.0
 40
21.0
 40
22.0
 40
22.0
 40
22.0
 40
23.0
 40
23.0
 40
23.0
 40
24.0
 40
24.0
 40
24.0
 40
25.0
 40
25.0
 40
25.0
 40
26.0
 40
26.0
 40
26.0
 40
27.0
 40
27.0
 40
27.0
 40
28.0
 40
28.0
 40
28.0
 40
29.0
 40
29.0
 40
29.0
 40
30.0
 40
30.0
 40
30.0
 40
31.0
 40
31.0
 40
31.0
 40
32.0
 40
32.0
 40
32.0
 40
33.0
 40
33.0
 40
33.0
 40
34.0
 40
34.0
 40
34.0
 40
35.0
 40
35.0
 40
35.0
 40
36.0
 40
36.0
 40
36.0
 40
37.0
 40
37.0
 40
37.0
 40
38.0
 40
38.0
 40
38.0
 40
39.0
 40
39.0
 40
39.0
 40
40.0
 40
40.0
 40
40.0
 40
41.0
 40
41.0
 40
41.0
 40
42.0
 40
42.0
 40
42.0
 40
43.0
 40
43.0
 40
43.0
 40
44.0
 40
44.0
 40
44.0
 40
45.0
 40
45.0
 40
45.0
 40
46.0
 40
46.0
 40
46.0
 40
47.0
 40
47.0
 40
47.0
 40
48.0
 40
48.0
 40
48.0
 40
49.0
 40
49.0
 40
49.0
 40
50.0
 40
50.0
 40
50.0
 40
51.0
 40
51.0
 40
51.0
 40
52.0
 40
52.0
 40
52.0
 40
53.0
 40
53.0
 40
53.0
 40
54.0
 40
54.0
 40
54.0
 40
55.0
 40
55.0
 40
55.0
 40
56.0
 40
56.0
 40
56.0
 40
57.0
 40
57.0
 40
57.0
 40
58.0
 40
58.0
 40
58.0
 40
59.0
 40
59.0
 40
59.0
 40
59.0
 10
49.93476425617951
 20
-103.0999945488778
 30
0.0
 10
49.93476425617951
 20
-103.0999945488778
 30
0.0
 10
49.37734780666608
 20
-103.0999945488778
 30
0.0
 10
49.37734780666608
 20
-103.0999945488778
 30
0.0
 10
49.19027912181701
 20
-103.0999945488778
 30
0.0
 10
49.00148788922532
 20
-103.1044731730086
 30
0.0
 10
48.81441920437626
 20
-103.117220026304
 30
0.0
 10
48.81441920437626
 20
-103.117220026304
 30
0.0
 10
48.81441920437626
 20
-102.909825278092
 30
0.0
 10
48.81441920437626
 20
-102.909825278092
 30
0.0
 10
49.00889484451861
 20
-102.9225721313874
 30
0.0
 10
49.29208169340615
 20
-102.9267062459697
 30
0.0
 10
49.37734780666608
 20
-102.9267062459697
 30
0.0
 10
49.37734780666608
 20
-102.9267062459697
 30
0.0
 10
49.56992864429155
 20
-102.9267062459697
 30
0.0
 10
49.56992864429155
 20
-102.9267062459697
 30
0.0
 10
49.56992864429155
 20
-102.9267062459697
 30
0.0
 10
49.56992864429155
 20
-102.7851128215259
 30
0.0
 10
49.56992864429155
 20
-102.7851128215259
 30
0.0
 10
49.56992864429155
 20
-102.7851128215259
 30
0.0
 10
49.42919649371909
 20
-102.7851128215259
 30
0.0
 10
49.42919649371909
 20
-102.7851128215259
 30
0.0
 10
49.28484699288713
 20
-102.7851128215259
 30
0.0
 10
49.14032523728089
 20
-102.7892469361082
 30
0.0
 10
48.99580348167466
 20
-102.8040608466948
 30
0.0
 10
48.99580348167466
 20
-102.8040608466948
 30
0.0
 10
48.99580348167466
 20
-102.5945990411916
 30
0.0
 10
48.99580348167466
 20
-102.5945990411916
 30
0.0
 10
49.1458373900573
 20
-102.6094129517782
 30
0.0
 10
49.3625338960795
 20
-102.6135470663605
 30
0.0
 10
49.42919649371909
 20
-102.6135470663605
 30
0.0
 10
49.42919649371909
 20
-102.6135470663605
 30
0.0
 10
49.56992864429155
 20
-102.6135470663605
 30
0.0
 10
49.56992864429155
 20
-102.6135470663605
 30
0.0
 10
49.56631129403203
 20
-102.5415445707188
 30
0.0
 10
49.56631129403203
 20
-102.5353433988453
 30
0.0
 10
49.56062688648137
 20
-102.4822889283725
 30
0.0
 10
49.56062688648137
 20
-102.4822889283725
 30
0.0
 10
49.68292777620774
 20
-102.4971028389591
 30
0.0
 10
49.68292777620774
 20
-102.4971028389591
 30
0.0
 10
49.68292777620774
 20
-102.4971028389591
 30
0.0
 10
49.59593911520518
 20
-102.3258815933421
 30
0.0
 10
49.59593911520518
 20
-102.3258815933421
 30
0.0
 10
49.63659124193114
 20
-102.3320827652156
 30
0.0
 10
49.70135903705383
 20
-102.3406955039287
 30
0.0
 10
49.7161729476404
 20
-102.3406955039287
 30
0.0
 10
49.76061467940013
 20
-102.3406955039287
 30
0.0
 10
49.7754285899867
 20
-102.3196804214687
 30
0.0
 10
49.7754285899867
 20
-102.2624918364135
 30
0.0
 10
49.7754285899867
 20
-102.2624918364135
 30
0.0
 10
49.7754285899867
 20
-102.1250325265521
 30
0.0
 10
49.7754285899867
 20
-102.1250325265521
 30
0.0
 10
49.7754285899867
 20
-102.1250325265521
 30
0.0
 10
49.68292777620774
 20
-102.1250325265521
 30
0.0
 10
49.68292777620774
 20
-102.1250325265521
 30
0.0
 10
49.56631129403203
 20
-102.1250325265521
 30
0.0
 10
49.42919649371909
 20
-102.1250325265521
 30
0.0
 10
49.3217095145793
 20
-102.137434870299
 30
0.0
 10
49.3217095145793
 20
-102.137434870299
 30
0.0
 10
49.3217095145793
 20
-101.9472655995132
 30
0.0
 10
49.3217095145793
 20
-101.9472655995132
 30
0.0
 10
49.46812607270242
 20
-101.9641465673909
 30
0.0
 10
49.67000866813805
 20
-101.9662136246821
 30
0.0
 10
49.68292777620774
 20
-101.9662136246821
 30
0.0
 10
49.68292777620774
 20
-101.9662136246821
 30
0.0
 10
49.7754285899867
 20
-101.9662136246821
 30
0.0
 10
49.7754285899867
 20
-101.9662136246821
 30
0.0
 10
49.7754285899867
 20
-101.9662136246821
 30
0.0
 10
49.7754285899867
 20
-101.834955486694
 30
0.0
 10
49.7754285899867
 20
-101.834955486694
 30
0.0
 10
49.7754285899867
 20
-101.834955486694
 30
0.0
 10
49.74218341855404
 20
-101.834955486694
 30
0.0
 10
49.74218341855404
 20
-101.834955486694
 30
0.0
 10
49.70325383957071
 20
-101.834955486694
 30
0.0
 10
49.5940443126883
 20
-101.8394341108249
 30
0.0
 10
49.51618515472165
 20
-101.8477023399895
 30
0.0
 10
49.51618515472165
 20
-101.8477023399895
 30
0.0
 10
49.51618515472165
 20
-101.7674316151831
 30
0.0
 10
49.51618515472165
 20
-101.7674316151831
 30
0.0
 10
49.46984862044504
 20
-101.8053276655209
 30
0.0
 10
49.44780000933944
 20
-101.8201415761075
 30
0.0
 10
49.41059297809874
 20
-101.8435682254072
 30
0.0
 10
49.41059297809874
 20
-101.8435682254072
 30
0.0
 10
49.2459174139038
 20
-101.7143771447103
 30
0.0
 10
49.2459174139038
 20
-101.7143771447103
 30
0.0
 10
49.31447481406028
 20
-101.6806152089548
 30
0.0
 10
49.45141735959896
 20
-101.6172254520262
 30
0.0
 10
49.58835990513764
 20
-101.4732204607428
 30
0.0
 10
49.66070691032788
 20
-101.3950167932276
 30
0.0
 10
49.72926431048435
 20
-101.310611953839
 30
0.0
 10
49.7754285899867
 20
-101.2089816370242
 30
0.0
 10
49.7754285899867
 20
-101.2089816370242
 30
0.0
 10
49.96060247231888
 20
-101.2703043366616
 30
0.0
 10
49.96060247231888
 20
-101.2703043366616
 30
0.0
 10
49.97731118542234
 20
-101.276505508535
 30
0.0
 10
49.98661294323252
 20
-101.2851182472482
 30
0.0
 10
49.98661294323252
 20
-101.2978651005436
 30
0.0
 10
49.98661294323252
 20
-101.3147460684213
 30
0.0
 10
49.97541638290545
 20
-101.3209472402948
 30
0.0
 10
49.95319551702559
 20
-101.3336940935902
 30
0.0
 10
50.02364771969895
 20
-101.4311902958228
 30
0.0
 10
50.16610241801403
 20
-101.5283419885068
 30
0.0
 10
50.19573023918718
 20
-101.5472900136757
 30
0.0
 10
50.32733288672372
 20
-101.6361734771951
 30
0.0
 10
50.42724065579597
 20
-101.6637342410771
 30
0.0
 10
50.49579805595244
 20
-101.682682266246
 30
0.0
 10
50.49579805595244
 20
-101.682682266246
 30
0.0
 10
50.39210068184642
 20
-101.8521809641203
 30
0.0
 10
50.39210068184642
 20
-101.8521809641203
 30
0.0
 10
50.31803112891355
 20
-101.8225531429471
 30
0.0
 10
50.27358939715383
 20
-101.8032606082297
 30
0.0
 10
50.16989202304781
 20
-101.73780379401
 30
0.0
 10
50.16989202304781
 20
-101.73780379401
 30
0.0
 10
50.16989202304781
 20
-101.8477023399895
 30
0.0
 10
50.16989202304781
 20
-101.8477023399895
 30
0.0
 10
50.09771727263183
 20
-101.8394341108249
 30
0.0
 10
49.98661294323252
 20
-101.834955486694
 30
0.0
 10
49.9402764089559
 20
-101.834955486694
 30
0.0
 10
49.9402764089559
 20
-101.834955486694
 30
0.0
 10
49.9402764089559
 20
-101.9662136246821
 30
0.0
 10
49.9402764089559
 20
-101.9662136246821
 30
0.0
 10
49.9402764089559
 20
-101.9662136246821
 30
0.0
 10
50.04586858557882
 20
-101.9662136246821
 30
0.0
 10
50.04586858557882
 20
-101.9662136246821
 30
0.0
 10
50.04759113332144
 20
-101.9662136246821
 30
0.0
 10
50.25136853127397
 20
-101.9641465673909
 30
0.0
 10
50.406914592433
 20
-101.9472655995132
 30
0.0
 10
50.406914592433
 20
-101.9472655995132
 30
0.0
 10
50.406914592433
 20
-102.137434870299
 30
0.0
 10
50.406914592433
 20
-102.137434870299
 30
0.0
 10
50.2939154605168
 20
-102.1250325265521
 30
0.0
 10
50.15697291497812
 20
-102.1250325265521
 30
0.0
 10
50.04586858557882
 20
-102.1250325265521
 30
0.0
 10
50.04586858557882
 20
-102.1250325265521
 30
0.0
 10
49.9402764089559
 20
-102.1250325265521
 30
0.0
 10
49.9402764089559
 20
-102.1250325265521
 30
0.0
 10
49.9402764089559
 20
-102.1250325265521
 30
0.0
 10
49.9402764089559
 20
-102.351375299933
 30
0.0
 10
49.9402764089559
 20
-102.351375299933
 30
0.0
 10
49.9402764089559
 20
-102.4698865846256
 30
0.0
 10
49.91805554307604
 20
-102.5057155776722
 30
0.0
 10
49.77732339250359
 20
-102.5205294882588
 30
0.0
 10
49.7809407427631
 20
-102.5394775134276
 30
0.0
 10
49.7754285899867
 20
-102.5501573094319
 30
0.0
 10
49.74218341855404
 20
-102.5732394491831
 30
0.0
 10
49.74028861603716
 20
-102.5925319839005
 30
0.0
 10
49.74028861603716
 20
-102.5987331557739
 30
0.0
 10
49.73839381352027
 20
-102.6135470663605
 30
0.0
 10
49.73839381352027
 20
-102.6135470663605
 30
0.0
 10
49.85879990072975
 20
-102.6135470663605
 30
0.0
 10
49.85879990072975
 20
-102.6135470663605
 30
0.0
 10
50.00314940156171
 20
-102.6135470663605
 30
0.0
 10
50.14956595968484
 20
-102.6094129517782
 30
0.0
 10
50.29581026303369
 20
-102.5945990411916
 30
0.0
 10
50.29581026303369
 20
-102.5945990411916
 30
0.0
 10
50.29581026303369
 20
-102.8019937894037
 30
0.0
 10
50.29581026303369
 20
-102.8019937894037
 30
0.0
 10
50.10684677566773
 20
-102.7851128215259
 30
0.0
 10
49.87550861383321
 20
-102.7851128215259
 30
0.0
 10
49.85879990072975
 20
-102.7851128215259
 30
0.0
 10
49.85879990072975
 20
-102.7851128215259
 30
0.0
 10
49.73649901100337
 20
-102.7851128215259
 30
0.0
 10
49.73649901100337
 20
-102.7851128215259
 30
0.0
 10
49.73649901100337
 20
-102.7851128215259
 30
0.0
 10
49.73649901100337
 20
-102.9267062459697
 30
0.0
 10
49.73649901100337
 20
-102.9267062459697
 30
0.0
 10
49.73649901100337
 20
-102.9267062459697
 30
0.0
 10
49.93476425617951
 20
-102.9267062459697
 30
0.0
 10
49.93476425617951
 20
-102.9267062459697
 30
0.0
 10
50.1235554887712
 20
-102.9267062459697
 30
0.0
 10
50.31424152387977
 20
-102.9225721313874
 30
0.0
 10
50.50320501124573
 20
-102.909825278092
 30
0.0
 10
50.50320501124573
 20
-102.909825278092
 30
0.0
 10
50.50320501124573
 20
-103.117220026304
 30
0.0
 10
50.50320501124573
 20
-103.117220026304
 30
0.0
 10
50.25688068405037
 20
-103.0999945488778
 30
0.0
 10
49.95509031954248
 20
-103.0999945488778
 30
0.0
 10
49.93476425617951
 20
-103.0999945488778
 30
0.0
  0
SPLINE
  5
10C
330
106
100
AcDbEntity
  8
_U+30EC_U+30A4_U+30E4_U+30FC 1
370
     0
100
AcDbSpline
210
0.0
220
0.0
230
1.0
 70
    11
 71
     3
 72
    23
 73
    19
 74
     0
 42
0.0000000001
 43
0.0000000001
 12
1.0
 22
0.0
 32
0.0
 13
1.0
 23
0.0
 33
0.0
 40
0.0
 40
0.0
 40
0.0
 40
0.0
 40
1.0
 40
1.0
 40
1.0
 40
2.0
 40
2.0
 40
2.0
 40
3.0
 40
3.0
 40
3.0
 40
4.0
 40
4.0
 40
4.0
 40
5.0
 40
5.0
 40
5.0
 40
6.0
 40
6.0
 40
6.0
 40
6.0
 10
48.95515135494871
 20
-102.4719536419167
 30
0.0
 10
48.95515135494871
 20
-102.4929687243768
 30
0.0
 10
48.95704615746561
 20
-102.531209284263
 30
0.0
 10
48.93482529158574
 20
-102.531209284263
 30
0.0
 10
48.92552353377557
 20
-102.531209284263
 30
0.0
 10
48.91811657848228
 20
-102.5246636028411
 30
0.0
 10
48.90881482067211
 20
-102.5077826349633
 30
0.0
 10
48.90881482067211
 20
-102.5077826349633
 30
0.0
 10
48.81803655463577
 20
-102.3258815933421
 30
0.0
 10
48.81803655463577
 20
-102.3258815933421
 30
0.0
 10
49.00700004200173
 20
-102.1966905126453
 30
0.0
 10
49.17925481626422
 20
-101.9197048356312
 30
0.0
 10
49.21990694299016
 20
-101.8477023399895
 30
0.0
 10
49.21990694299016
 20
-101.8477023399895
 30
0.0
 10
49.28295219037024
 20
-102.0275363243195
 30
0.0
 10
49.28295219037024
 20
-102.0275363243195
 30
0.0
 10
49.16633570819453
 20
-102.2242512765273
 30
0.0
 10
49.01251219477813
 20
-102.4082193754396
 30
0.0
 10
48.95515135494871
 20
-102.4719536419167
 30
0.0
  0
SPLINE
  5
10D
330
106
100
AcDbEntity
  8
_U+30EC_U+30A4_U+30E4_U+30FC 1
370
     0
100
AcDbSpline
210
0.0
220
0.0
230
1.0
 70
    11
 71
     3
 72
    17
 73
    13
 74
     0
 42
0.0000000001
 43
0.0000000001
 12
1.0
 22
0.0
 32
0.0
 13
1.0
 23
0.0
 33
0.0
 40
0.0
 40
0.0
 40
0.0
 40
0.0
 40
1.0
 40
1.0
 40
1.0
 40
2.0
 40
2.0
 40
2.0
 40
3.0
 40
3.0
 40
3.0
 40
4.0
 40
4.0
 40
4.0
 40
4.0
 10
49.17736001374733
 20
-101.5769178348488
 30
0.0
 10
49.12361652417743
 20
-101.5007812246248
 30
0.0
 10
49.01061739226124
 20
-101.4246446144008
 30
0.0
 10
48.92001138099916
 20
-101.3950167932276
 30
0.0
 10
48.92001138099916
 20
-101.3950167932276
 30
0.0
 10
49.00338269174221
 20
-101.2299967194842
 30
0.0
 10
49.00338269174221
 20
-101.2299967194842
 30
0.0
 10
49.09226615526165
 20
-101.2661702220793
 30
0.0
 10
49.18476696904062
 20
-101.3230142975859
 30
0.0
 10
49.262453872233
 20
-101.4036295319408
 30
0.0
 10
49.262453872233
 20
-101.4036295319408
 30
0.0
 10
49.17736001374733
 20
-101.5769178348488
 30
0.0
 10
49.17736001374733
 20
-101.5769178348488
 30
0.0
  0
SPLINE
  5
10E
330
106
100
AcDbEntity
  8
_U+30EC_U+30A4_U+30E4_U+30FC 1
370
     0
100
AcDbSpline
210
0.0
220
0.0
230
1.0
 70
    11
 71
     3
 72
    23
 73
    19
 74
     0
 42
0.0000000001
 43
0.0000000001
 12
1.0
 22
0.0
 32
0.0
 13
1.0
 23
0.0
 33
0.0
 40
0.0
 40
0.0
 40
0.0
 40
0.0
 40
1.0
 40
1.0
 40
1.0
 40
2.0
 40
2.0
 40
2.0
 40
3.0
 40
3.0
 40
3.0
 40
4.0
 40
4.0
 40
4.0
 40
5.0
 40
5.0
 40
5.0
 40
6.0
 40
6.0
 40
6.0
 40
6.0
 10
49.57354599455106
 20
-102.2814398615824
 30
0.0
 10
49.55511473370498
 20
-102.3048665108821
 30
0.0
 10
49.46984862044504
 20
-102.4168321141527
 30
0.0
 10
49.34771998549294
 20
-102.4971028389591
 30
0.0
 10
49.34771998549294
 20
-102.4971028389591
 30
0.0
 10
49.20147568214408
 20
-102.3765244969753
 30
0.0
 10
49.20147568214408
 20
-102.3765244969753
 30
0.0
 10
49.33290607490636
 20
-102.3003878867513
 30
0.0
 10
49.41989473590892
 20
-102.2053032513584
 30
0.0
 10
49.46261391992601
 20
-102.1522487808856
 30
0.0
 10
49.46261391992601
 20
-102.1522487808856
 30
0.0
 10
49.61437037605127
 20
-102.2349310725316
 30
0.0
 10
49.61437037605127
 20
-102.2349310725316
 30
0.0
 10
49.62177733134456
 20
-102.2390651871139
 30
0.0
 10
49.62918428663784
 20
-102.2456108685358
 30
0.0
 10
49.62918428663784
 20
-102.2559461549916
 30
0.0
 10
49.62918428663784
 20
-102.2814398615824
 30
0.0
 10
49.59766166294781
 20
-102.2814398615824
 30
0.0
 10
49.57354599455106
 20
-102.2814398615824
 30
0.0
  0
SPLINE
  5
10F
330
106
100
AcDbEntity
  8
_U+30EC_U+30A4_U+30E4_U+30FC 1
370
     0
100
AcDbSpline
210
0.0
220
0.0
230
1.0
 70
    11
 71
     3
 72
    20
 73
    16
 74
     0
 42
0.0000000001
 43
0.0000000001
 12
1.0
 22
0.0
 32
0.0
 13
1.0
 23
0.0
 33
0.0
 40
0.0
 40
0.0
 40
0.0
 40
0.0
 40
1.0
 40
1.0
 40
1.0
 40
2.0
 40
2.0
 40
2.0
 40
3.0
 40
3.0
 40
3.0
 40
4.0
 40
4.0
 40
4.0
 40
5.0
 40
5.0
 40
5.0
 40
5.0
 10
49.834684232333
 20
-101.4394585249874
 30
0.0
 10
49.80143906090034
 20
-101.4880343713294
 30
0.0
 10
49.74769557133044
 20
-101.5665825483931
 30
0.0
 10
49.62556693637833
 20
-101.6764810943725
 30
0.0
 10
49.69584688427743
 20
-101.6806152089548
 30
0.0
 10
49.72168510041681
 20
-101.6806152089548
 30
0.0
 10
49.74218341855404
 20
-101.6806152089548
 30
0.0
 10
49.74218341855404
 20
-101.6806152089548
 30
0.0
 10
49.94217121147279
 20
-101.6806152089548
 30
0.0
 10
49.94217121147279
 20
-101.6806152089548
 30
0.0
 10
49.96990423012905
 20
-101.6806152089548
 30
0.0
 10
50.01245115937189
 20
-101.6785481516637
 30
0.0
 10
50.07721895449458
 20
-101.6764810943725
 30
0.0
 10
49.97920598793923
 20
-101.6024115414397
 30
0.0
 10
49.93665905869639
 20
-101.5559027523888
 30
0.0
 10
49.834684232333
 20
-101.4394585249874
 30
0.0
  0
SPLINE
  5
110
330
106
100
AcDbEntity
  8
_U+30EC_U+30A4_U+30E4_U+30FC 1
370
     0
100
AcDbSpline
210
0.0
220
0.0
230
1.0
 70
    11
 71
     3
 72
    17
 73
    13
 74
     0
 42
0.0000000001
 43
0.0000000001
 12
1.0
 22
0.0
 32
0.0
 13
1.0
 23
0.0
 33
0.0
 40
0.0
 40
0.0
 40
0.0
 40
0.0
 40
1.0
 40
1.0
 40
1.0
 40
2.0
 40
2.0
 40
2.0
 40
3.0
 40
3.0
 40
3.0
 40
4.0
 40
4.0
 40
4.0
 40
4.0
 10
50.32543808420684
 20
-102.4950357816679
 30
0.0
 10
50.20692679951424
 20
-102.3830701783973
 30
0.0
 10
50.11442598573529
 20
-102.3196804214687
 30
0.0
 10
50.01072861162926
 20
-102.2559461549916
 30
0.0
 10
50.01072861162926
 20
-102.2559461549916
 30
0.0
 10
50.12166068625431
 20
-102.143980551721
 30
0.0
 10
50.12166068625431
 20
-102.143980551721
 30
0.0
 10
50.23655462068739
 20
-102.1904893407718
 30
0.0
 10
50.33284503950012
 20
-102.247677925827
 30
0.0
 10
50.44205456638255
 20
-102.3493082426418
 30
0.0
 10
50.44205456638255
 20
-102.3493082426418
 30
0.0
 10
50.32543808420684
 20
-102.4950357816679
 30
0.0
 10
50.32543808420684
 20
-102.4950357816679
 30
0.0
  0
HATCH
  5
111
330
106
100
AcDbEntity
  8
_U+30EC_U+30A4_U+30E4_U+30FC 1
 62
   179
420
  2234388
100
AcDbHatch
 10
0.0
 20
0.0
 30
0.0
210
0.0
220
0.0
230
1.0
  2
SOLID
 70
     1
 71
     0
 91
        7
 92
        1
 93
        1
 72
     4
 94
        3
 73
     0
 74
     1
 95
       17
 96
       13
 40
0.0
 40
0.0
 40
0.0
 40
0.0
 40
1.0
 40
1.0
 40
1.0
 40
2.0
 40
2.0
 40
2.0
 40
3.0
 40
3.0
 40
3.0
 40
4.0
 40
4.0
 40
4.0
 40
4.0
 10
49.01991915007141
 20
-101.9217718929223
 10
48.92741833629245
 20
-101.8160074615252
 10
48.8569661336191
 20
-101.7781114111874
 10
48.77548962539294
 20
-101.7460720231746
 10
48.77548962539294
 20
-101.7460720231746
 10
48.87178004420567
 20
-101.5813964589797
 10
48.87178004420567
 20
-101.5813964589797
 10
48.95704615746561
 20
-101.6234266238997
 10
49.06263833408851
 20
-101.7019748009634
 10
49.10880261359086
 20
-101.7567518191789
 10
49.10880261359086
 20
-101.7567518191789
 10
49.01991915007141
 20
-101.9217718929223
 10
49.01991915007141
 20
-101.9217718929223
 97
        0
 97
        0
 92
        1
 93
        1
 72
     4
 94
        3
 73
     0
 74
     1
 95
      182
 96
      178
 40
0.0
 40
0.0
 40
0.0
 40
0.0
 40
1.0
 40
1.0
 40
1.0
 40
2.0
 40
2.0
 40
2.0
 40
3.0
 40
3.0
 40
3.0
 40
4.0
 40
4.0
 40
4.0
 40
5.0
 40
5.0
 40
5.0
 40
6.0
 40
6.0
 40
6.0
 40
7.0
 40
7.0
 40
7.0
 40
8.0
 40
8.0
 40
8.0
 40
9.0
 40
9.0
 40
9.0
 40
10.0
 40
10.0
 40
10.0
 40
11.0
 40
11.0
 40
11.0
 40
12.0
 40
12.0
 40
12.0
 40
13.0
 40
13.0
 40
13.0
 40
14.0
 40
14.0
 40
14.0
 40
15.0
 40
15.0
 40
15.0
 40
16.0
 40
16.0
 40
16.0
 40
17.0
 40
17.0
 40
17.0
 40
18.0
 40
18.0
 40
18.0
 40
19.0
 40
19.0
 40
19.0
 40
20.0
 40
20.0
 40
20.0
 40
21.0
 40
21.0
 40
21.0
 40
22.0
 40
22.0
 40
22.0
 40
23.0
 40
23.0
 40
23.0
 40
24.0
 40
24.0
 40
24.0
 40
25.0
 40
25.0
 40
25.0
 40
26.0
 40
26.0
 40
26.0
 40
27.0
 40
27.0
 40
27.0
 40
28.0
 40
28.0
 40
28.0
 40
29.0
 40
29.0
 40
29.0
 40
30.0
 40
30.0
 40
30.0
 40
31.0
 40
31.0
 40
31.0
 40
32.0
 40
32.0
 40
32.0
 40
33.0
 40
33.0
 40
33.0
 40
34.0
 40
34.0
 40
34.0
 40
35.0
 40
35.0
 40
35.0
 40
36.0
 40
36.0
 40
36.0
 40
37.0
 40
37.0
 40
37.0
 40
38.0
 40
38.0
 40
38.0
 40
39.0
 40
39.0
 40
39.0
 40
40.0
 40
40.0
 40
40.0
 40
41.0
 40
41.0
 40
41.0
 40
42.0
 40
42.0
 40
42.0
 40
43.0
 40
43.0
 40
43.0
 40
44.0
 40
44.0
 40
44.0
 40
45.0
 40
45.0
 40
45.0
 40
46.0
 40
46.0
 40
46.0
 40
47.0
 40
47.0
 40
47.0
 40
48.0
 40
48.0
 40
48.0
 40
49.0
 40
49.0
 40
49.0
 40
50.0
 40
50.0
 40
50.0
 40
51.0
 40
51.0
 40
51.0
 40
52.0
 40
52.0
 40
52.0
 40
53.0
 40
53.0
 40
53.0
 40
54.0
 40
54.0
 40
54.0
 40
55.0
 40
55.0
 40
55.0
 40
56.0
 40
56.0
 40
56.0
 40
57.0
 40
57.0
 40
57.0
 40
58.0
 40
58.0
 40
58.0
 40
59.0
 40
59.0
 40
59.0
 40
59.0
 10
49.93476425617951
 20
-103.0999945488778
 10
49.93476425617951
 20
-103.0999945488778
 10
49.37734780666608
 20
-103.0999945488778
 10
49.37734780666608
 20
-103.0999945488778
 10
49.19027912181701
 20
-103.0999945488778
 10
49.00148788922532
 20
-103.1044731730086
 10
48.81441920437626
 20
-103.117220026304
 10
48.81441920437626
 20
-103.117220026304
 10
48.81441920437626
 20
-102.909825278092
 10
48.81441920437626
 20
-102.909825278092
 10
49.00889484451861
 20
-102.9225721313874
 10
49.29208169340615
 20
-102.9267062459697
 10
49.37734780666608
 20
-102.9267062459697
 10
49.37734780666608
 20
-102.9267062459697
 10
49.56992864429155
 20
-102.9267062459697
 10
49.56992864429155
 20
-102.9267062459697
 10
49.56992864429155
 20
-102.9267062459697
 10
49.56992864429155
 20
-102.7851128215259
 10
49.56992864429155
 20
-102.7851128215259
 10
49.56992864429155
 20
-102.7851128215259
 10
49.42919649371909
 20
-102.7851128215259
 10
49.42919649371909
 20
-102.7851128215259
 10
49.28484699288713
 20
-102.7851128215259
 10
49.14032523728089
 20
-102.7892469361082
 10
48.99580348167466
 20
-102.8040608466948
 10
48.99580348167466
 20
-102.8040608466948
 10
48.99580348167466
 20
-102.5945990411916
 10
48.99580348167466
 20
-102.5945990411916
 10
49.1458373900573
 20
-102.6094129517782
 10
49.3625338960795
 20
-102.6135470663605
 10
49.42919649371909
 20
-102.6135470663605
 10
49.42919649371909
 20
-102.6135470663605
 10
49.56992864429155
 20
-102.6135470663605
 10
49.56992864429155
 20
-102.6135470663605
 10
49.56631129403203
 20
-102.5415445707188
 10
49.56631129403203
 20
-102.5353433988453
 10
49.56062688648137
 20
-102.4822889283725
 10
49.56062688648137
 20
-102.4822889283725
 10
49.68292777620774
 20
-102.4971028389591
 10
49.68292777620774
 20
-102.4971028389591
 10
49.68292777620774
 20
-102.4971028389591
 10
49.59593911520518
 20
-102.3258815933421
 10
49.59593911520518
 20
-102.3258815933421
 10
49.63659124193114
 20
-102.3320827652156
 10
49.70135903705383
 20
-102.3406955039287
 10
49.7161729476404
 20
-102.3406955039287
 10
49.76061467940013
 20
-102.3406955039287
 10
49.7754285899867
 20
-102.3196804214687
 10
49.7754285899867
 20
-102.2624918364135
 10
49.7754285899867
 20
-102.2624918364135
 10
49.7754285899867
 20
-102.1250325265521
 10
49.7754285899867
 20
-102.1250325265521
 10
49.7754285899867
 20
-102.1250325265521
 10
49.68292777620774
 20
-102.1250325265521
 10
49.68292777620774
 20
-102.1250325265521
 10
49.56631129403203
 20
-102.1250325265521
 10
49.42919649371909
 20
-102.1250325265521
 10
49.3217095145793
 20
-102.137434870299
 10
49.3217095145793
 20
-102.137434870299
 10
49.3217095145793
 20
-101.9472655995132
 10
49.3217095145793
 20
-101.9472655995132
 10
49.46812607270242
 20
-101.9641465673909
 10
49.67000866813805
 20
-101.9662136246821
 10
49.68292777620774
 20
-101.9662136246821
 10
49.68292777620774
 20
-101.9662136246821
 10
49.7754285899867
 20
-101.9662136246821
 10
49.7754285899867
 20
-101.9662136246821
 10
49.7754285899867
 20
-101.9662136246821
 10
49.7754285899867
 20
-101.834955486694
 10
49.7754285899867
 20
-101.834955486694
 10
49.7754285899867
 20
-101.834955486694
 10
49.74218341855404
 20
-101.834955486694
 10
49.74218341855404
 20
-101.834955486694
 10
49.70325383957071
 20
-101.834955486694
 10
49.5940443126883
 20
-101.8394341108249
 10
49.51618515472165
 20
-101.8477023399895
 10
49.51618515472165
 20
-101.8477023399895
 10
49.51618515472165
 20
-101.7674316151831
 10
49.51618515472165
 20
-101.7674316151831
 10
49.46984862044504
 20
-101.8053276655209
 10
49.44780000933944
 20
-101.8201415761075
 10
49.41059297809874
 20
-101.8435682254072
 10
49.41059297809874
 20
-101.8435682254072
 10
49.2459174139038
 20
-101.7143771447103
 10
49.2459174139038
 20
-101.7143771447103
 10
49.31447481406028
 20
-101.6806152089548
 10
49.45141735959896
 20
-101.6172254520262
 10
49.58835990513764
 20
-101.4732204607428
 10
49.66070691032788
 20
-101.3950167932276
 10
49.72926431048435
 20
-101.310611953839
 10
49.7754285899867
 20
-101.2089816370242
 10
49.7754285899867
 20
-101.2089816370242
 10
49.96060247231888
 20
-101.2703043366616
 10
49.96060247231888
 20
-101.2703043366616
 10
49.97731118542234
 20
-101.276505508535
 10
49.98661294323252
 20
-101.2851182472482
 10
49.98661294323252
 20
-101.2978651005436
 10
49.98661294323252
 20
-101.3147460684213
 10
49.97541638290545
 20
-101.3209472402948
 10
49.95319551702559
 20
-101.3336940935902
 10
50.02364771969895
 20
-101.4311902958228
 10
50.16610241801403
 20
-101.5283419885068
 10
50.19573023918718
 20
-101.5472900136757
 10
50.32733288672372
 20
-101.6361734771951
 10
50.42724065579597
 20
-101.6637342410771
 10
50.49579805595244
 20
-101.682682266246
 10
50.49579805595244
 20
-101.682682266246
 10
50.39210068184642
 20
-101.8521809641203
 10
50.39210068184642
 20
-101.8521809641203
 10
50.31803112891355
 20
-101.8225531429471
 10
50.27358939715383
 20
-101.8032606082297
 10
50.16989202304781
 20
-101.73780379401
 10
50.16989202304781
 20
-101.73780379401
 10
50.16989202304781
 20
-101.8477023399895
 10
50.16989202304781
 20
-101.8477023399895
 10
50.09771727263183
 20
-101.8394341108249
 10
49.98661294323252
 20
-101.834955486694
 10
49.9402764089559
 20
-101.834955486694
 10
49.9402764089559
 20
-101.834955486694
 10
49.9402764089559
 20
-101.9662136246821
 10
49.9402764089559
 20
-101.9662136246821
 10
49.9402764089559
 20
-101.9662136246821
 10
50.04586858557882
 20
-101.9662136246821
 10
50.04586858557882
 20
-101.9662136246821
 10
50.04759113332144
 20
-101.9662136246821
 10
50.25136853127397
 20
-101.9641465673909
 10
50.406914592433
 20
-101.9472655995132
 10
50.406914592433
 20
-101.9472655995132
 10
50.406914592433
 20
-102.137434870299
 10
50.406914592433
 20
-102.137434870299
 10
50.2939154605168
 20
-102.1250325265521
 10
50.15697291497812
 20
-102.1250325265521
 10
50.04586858557882
 20
-102.1250325265521
 10
50.04586858557882
 20
-102.1250325265521
 10
49.9402764089559
 20
-102.1250325265521
 10
49.9402764089559
 20
-102.1250325265521
 10
49.9402764089559
 20
-102.1250325265521
 10
49.9402764089559
 20
-102.351375299933
 10
49.9402764089559
 20
-102.351375299933
 10
49.9402764089559
 20
-102.4698865846256
 10
49.91805554307604
 20
-102.5057155776722
 10
49.77732339250359
 20
-102.5205294882588
 10
49.7809407427631
 20
-102.5394775134276
 10
49.7754285899867
 20
-102.5501573094319
 10
49.74218341855404
 20
-102.5732394491831
 10
49.74028861603716
 20
-102.5925319839005
 10
49.74028861603716
 20
-102.5987331557739
 10
49.73839381352027
 20
-102.6135470663605
 10
49.73839381352027
 20
-102.6135470663605
 10
49.85879990072975
 20
-102.6135470663605
 10
49.85879990072975
 20
-102.6135470663605
 10
50.00314940156171
 20
-102.6135470663605
 10
50.14956595968484
 20
-102.6094129517782
 10
50.29581026303369
 20
-102.5945990411916
 10
50.29581026303369
 20
-102.5945990411916
 10
50.29581026303369
 20
-102.8019937894037
 10
50.29581026303369
 20
-102.8019937894037
 10
50.10684677566773
 20
-102.7851128215259
 10
49.87550861383321
 20
-102.7851128215259
 10
49.85879990072975
 20
-102.7851128215259
 10
49.85879990072975
 20
-102.7851128215259
 10
49.73649901100337
 20
-102.7851128215259
 10
49.73649901100337
 20
-102.7851128215259
 10
49.73649901100337
 20
-102.7851128215259
 10
49.73649901100337
 20
-102.9267062459697
 10
49.73649901100337
 20
-102.9267062459697
 10
49.73649901100337
 20
-102.9267062459697
 10
49.93476425617951
 20
-102.9267062459697
 10
49.93476425617951
 20
-102.9267062459697
 10
50.1235554887712
 20
-102.9267062459697
 10
50.31424152387977
 20
-102.9225721313874
 10
50.50320501124573
 20
-102.909825278092
 10
50.50320501124573
 20
-102.909825278092
 10
50.50320501124573
 20
-103.117220026304
 10
50.50320501124573
 20
-103.117220026304
 10
50.25688068405037
 20
-103.0999945488778
 10
49.95509031954248
 20
-103.0999945488778
 10
49.93476425617951
 20
-103.0999945488778
 97
        0
 97
        0
 92
        1
 93
        1
 72
     4
 94
        3
 73
     0
 74
     1
 95
       23
 96
       19
 40
0.0
 40
0.0
 40
0.0
 40
0.0
 40
1.0
 40
1.0
 40
1.0
 40
2.0
 40
2.0
 40
2.0
 40
3.0
 40
3.0
 40
3.0
 40
4.0
 40
4.0
 40
4.0
 40
5.0
 40
5.0
 40
5.0
 40
6.0
 40
6.0
 40
6.0
 40
6.0
 10
48.95515135494871
 20
-102.4719536419167
 10
48.95515135494871
 20
-102.4929687243768
 10
48.95704615746561
 20
-102.531209284263
 10
48.93482529158574
 20
-102.531209284263
 10
48.92552353377557
 20
-102.531209284263
 10
48.91811657848228
 20
-102.5246636028411
 10
48.90881482067211
 20
-102.5077826349633
 10
48.90881482067211
 20
-102.5077826349633
 10
48.81803655463577
 20
-102.3258815933421
 10
48.81803655463577
 20
-102.3258815933421
 10
49.00700004200173
 20
-102.1966905126453
 10
49.17925481626422
 20
-101.9197048356312
 10
49.21990694299016
 20
-101.8477023399895
 10
49.21990694299016
 20
-101.8477023399895
 10
49.28295219037024
 20
-102.0275363243195
 10
49.28295219037024
 20
-102.0275363243195
 10
49.16633570819453
 20
-102.2242512765273
 10
49.01251219477813
 20
-102.4082193754396
 10
48.95515135494871
 20
-102.4719536419167
 97
        0
 97
        0
 92
        1
 93
        1
 72
     4
 94
        3
 73
     0
 74
     1
 95
       17
 96
       13
 40
0.0
 40
0.0
 40
0.0
 40
0.0
 40
1.0
 40
1.0
 40
1.0
 40
2.0
 40
2.0
 40
2.0
 40
3.0
 40
3.0
 40
3.0
 40
4.0
 40
4.0
 40
4.0
 40
4.0
 10
49.17736001374733
 20
-101.5769178348488
 10
49.12361652417743
 20
-101.5007812246248
 10
49.01061739226124
 20
-101.4246446144008
 10
48.92001138099916
 20
-101.3950167932276
 10
48.92001138099916
 20
-101.3950167932276
 10
49.00338269174221
 20
-101.2299967194842
 10
49.00338269174221
 20
-101.2299967194842
 10
49.09226615526165
 20
-101.2661702220793
 10
49.18476696904062
 20
-101.3230142975859
 10
49.262453872233
 20
-101.4036295319408
 10
49.262453872233
 20
-101.4036295319408
 10
49.17736001374733
 20
-101.5769178348488
 10
49.17736001374733
 20
-101.5769178348488
 97
        0
 97
        0
 92
        1
 93
        1
 72
     4
 94
        3
 73
     0
 74
     1
 95
       23
 96
       19
 40
0.0
 40
0.0
 40
0.0
 40
0.0
 40
1.0
 40
1.0
 40
1.0
 40
2.0
 40
2.0
 40
2.0
 40
3.0
 40
3.0
 40
3.0
 40
4.0
 40
4.0
 40
4.0
 40
5.0
 40
5.0
 40
5.0
 40
6.0
 40
6.0
 40
6.0
 40
6.0
 10
49.57354599455106
 20
-102.2814398615824
 10
49.55511473370498
 20
-102.3048665108821
 10
49.46984862044504
 20
-102.4168321141527
 10
49.34771998549294
 20
-102.4971028389591
 10
49.34771998549294
 20
-102.4971028389591
 10
49.20147568214408
 20
-102.3765244969753
 10
49.20147568214408
 20
-102.3765244969753
 10
49.33290607490636
 20
-102.3003878867513
 10
49.41989473590892
 20
-102.2053032513584
 10
49.46261391992601
 20
-102.1522487808856
 10
49.46261391992601
 20
-102.1522487808856
 10
49.61437037605127
 20
-102.2349310725316
 10
49.61437037605127
 20
-102.2349310725316
 10
49.62177733134456
 20
-102.2390651871139
 10
49.62918428663784
 20
-102.2456108685358
 10
49.62918428663784
 20
-102.2559461549916
 10
49.62918428663784
 20
-102.2814398615824
 10
49.59766166294781
 20
-102.2814398615824
 10
49.57354599455106
 20
-102.2814398615824
 97
        0
 97
        0
 92
        1
 93
        1
 72
     4
 94
        3
 73
     0
 74
     1
 95
       20
 96
       16
 40
0.0
 40
0.0
 40
0.0
 40
0.0
 40
1.0
 40
1.0
 40
1.0
 40
2.0
 40
2.0
 40
2.0
 40
3.0
 40
3.0
 40
3.0
 40
4.0
 40
4.0
 40
4.0
 40
5.0
 40
5.0
 40
5.0
 40
5.0
 10
49.834684232333
 20
-101.4394585249874
 10
49.80143906090034
 20
-101.4880343713294
 10
49.74769557133044
 20
-101.5665825483931
 10
49.62556693637833
 20
-101.6764810943725
 10
49.69584688427743
 20
-101.6806152089548
 10
49.72168510041681
 20
-101.6806152089548
 10
49.74218341855404
 20
-101.6806152089548
 10
49.74218341855404
 20
-101.6806152089548
 10
49.94217121147279
 20
-101.6806152089548
 10
49.94217121147279
 20
-101.6806152089548
 10
49.96990423012905
 20
-101.6806152089548
 10
50.01245115937189
 20
-101.6785481516637
 10
50.07721895449458
 20
-101.6764810943725
 10
49.97920598793923
 20
-101.6024115414397
 10
49.93665905869639
 20
-101.5559027523888
 10
49.834684232333
 20
-101.4394585249874
 97
        0
 97
        0
 92
        1
 93
        1
 72
     4
 94
        3
 73
     0
 74
     1
 95
       17
 96
       13
 40
0.0
 40
0.0
 40
0.0
 40
0.0
 40
1.0
 40
1.0
 40
1.0
 40
2.0
 40
2.0
 40
2.0
 40
3.0
 40
3.0
 40
3.0
 40
4.0
 40
4.0
 40
4.0
 40
4.0
 10
50.32543808420684
 20
-102.4950357816679
 10
50.20692679951424
 20
-102.3830701783973
 10
50.11442598573529
 20
-102.3196804214687
 10
50.01072861162926
 20
-102.2559461549916
 10
50.01072861162926
 20
-102.2559461549916
 10
50.12166068625431
 20
-102.143980551721
 10
50.12166068625431
 20
-102.143980551721
 10
50.23655462068739
 20
-102.1904893407718
 10
50.33284503950012
 20
-102.247677925827
 10
50.44205456638255
 20
-102.3493082426418
 10
50.44205456638255
 20
-102.3493082426418
 10
50.32543808420684
 20
-102.4950357816679
 10
50.32543808420684
 20
-102.4950357816679
 97
        0
 97
        0
 75
     2
 76
     1
 98
        0
  0
SPLINE
  5
112
330
106
100
AcDbEntity
  8
_U+30EC_U+30A4_U+30E4_U+30FC 1
370
     0
100
AcDbSpline
210
0.0
220
0.0
230
1.0
 70
    11
 71
     3
 72
   113
 73
   109
 74
     0
 42
0.0000000001
 43
0.0000000001
 12
1.0
 22
0.0
 32
0.0
 13
1.0
 23
0.0
 33
0.0
 40
0.0
 40
0.0
 40
0.0
 40
0.0
 40
1.0
 40
1.0
 40
1.0
 40
2.0
 40
2.0
 40
2.0
 40
3.0
 40
3.0
 40
3.0
 40
4.0
 40
4.0
 40
4.0
 40
5.0
 40
5.0
 40
5.0
 40
6.0
 40
6.0
 40
6.0
 40
7.0
 40
7.0
 40
7.0
 40
8.0
 40
8.0
 40
8.0
 40
9.0
 40
9.0
 40
9.0
 40
10.0
 40
10.0
 40
10.0
 40
11.0
 40
11.0
 40
11.0
 40
12.0
 40
12.0
 40
12.0
 40
13.0
 40
13.0
 40
13.0
 40
14.0
 40
14.0
 40
14.0
 40
15.0
 40
15.0
 40
15.0
 40
16.0
 40
16.0
 40
16.0
 40
17.0
 40
17.0
 40
17.0
 40
18.0
 40
18.0
 40
18.0
 40
19.0
 40
19.0
 40
19.0
 40
20.0
 40
20.0
 40
20.0
 40
21.0
 40
21.0
 40
21.0
 40
22.0
 40
22.0
 40
22.0
 40
23.0
 40
23.0
 40
23.0
 40
24.0
 40
24.0
 40
24.0
 40
25.0
 40
25.0
 40
25.0
 40
26.0
 40
26.0
 40
26.0
 40
27.0
 40
27.0
 40
27.0
 40
28.0
 40
28.0
 40
28.0
 40
29.0
 40
29.0
 40
29.0
 40
30.0
 40
30.0
 40
30.0
 40
31.0
 40
31.0
 40
31.0
 40
32.0
 40
32.0
 40
32.0
 40
33.0
 40
33.0
 40
33.0
 40
34.0
 40
34.0
 40
34.0
 40
35.0
 40
35.0
 40
35.0
 40
36.0
 40
36.0
 40
36.0
 40
36.0
 10
51.972021471382
 20
-102.4719536419167
 30
0.0
 10
51.972021471382
 20
-102.4719536419167
 30
0.0
 10
52.05901013238456
 20
-102.5711723918919
 30
0.0
 10
52.05901013238456
 20
-102.5711723918919
 30
0.0
 10
52.06831189019473
 20
-102.5818521878962
 30
0.0
 10
52.07761364800491
 20
-102.5945990411916
 30
0.0
 10
52.07761364800491
 20
-102.6094129517782
 30
0.0
 10
52.07761364800491
 20
-102.6114800090694
 30
0.0
 10
52.07761364800491
 20
-102.6411078302425
 30
0.0
 10
52.04419622179798
 20
-102.6411078302425
 30
0.0
 10
52.03678926650469
 20
-102.6411078302425
 30
0.0
 10
52.00164929255514
 20
-102.6369737156602
 30
0.0
 10
51.99613713977875
 20
-102.6369737156602
 30
0.0
 10
51.9609971658292
 20
-102.6686685941245
 30
0.0
 10
51.92017278432899
 20
-102.7024305298799
 30
0.0
 10
51.83318412332643
 20
-102.7596191149351
 30
0.0
 10
51.9609971658292
 20
-102.8674506036234
 30
0.0
 10
52.09983451388477
 20
-102.9246391886786
 30
0.0
 10
52.33875188578684
 20
-102.9625352390163
 30
0.0
 10
52.33875188578684
 20
-102.9625352390163
 30
0.0
 10
52.2071492382503
 20
-103.1382351087641
 30
0.0
 10
52.2071492382503
 20
-103.1382351087641
 30
0.0
 10
51.9775336241584
 20
-103.0662326131223
 30
0.0
 10
51.84059107861972
 20
-102.9773491496029
 30
0.0
 10
51.77392848098013
 20
-102.9246391886786
 30
0.0
 10
51.64249808821785
 20
-102.8230088718637
 30
0.0
 10
51.51657984823197
 20
-102.6600558554114
 30
0.0
 10
51.44991725059239
 20
-102.4950357816679
 30
0.0
 10
51.39066160824608
 20
-102.5608371054362
 30
0.0
 10
51.32572155834913
 20
-102.6135470663605
 30
0.0
 10
51.25733641296692
 20
-102.6621229127025
 30
0.0
 10
51.25733641296692
 20
-102.6621229127025
 30
0.0
 10
51.25733641296692
 20
-102.9139593926743
 30
0.0
 10
51.25733641296692
 20
-102.9139593926743
 30
0.0
 10
51.399791111282
 20
-102.8884656860834
 30
0.0
 10
51.56274412773432
 20
-102.8440239543237
 30
0.0
 10
51.6183824198211
 20
-102.8292100437371
 30
0.0
 10
51.6183824198211
 20
-102.8292100437371
 30
0.0
 10
51.59237194890746
 20
-102.9987087416114
 30
0.0
 10
51.59237194890746
 20
-102.9987087416114
 30
0.0
 10
51.59064940116484
 20
-102.9987087416114
 30
0.0
 10
51.57394068806138
 20
-103.0049099134849
 30
0.0
 10
51.57204588554449
 20
-103.0049099134849
 30
0.0
 10
51.39806856353938
 20
-103.0431504733712
 30
0.0
 10
51.12022161265398
 20
-103.1086072875909
 30
0.0
 10
50.94796683839148
 20
-103.1444362806375
 30
0.0
 10
50.93883733535557
 20
-103.1616617580638
 30
0.0
 10
50.91833901721834
 20
-103.1933566365281
 30
0.0
 10
50.89801295385536
 20
-103.1933566365281
 30
0.0
 10
50.87389728545861
 20
-103.1933566365281
 30
0.0
 10
50.8702799351991
 20
-103.1740641018107
 30
0.0
 10
50.86838513268221
 20
-103.1551160766418
 30
0.0
 10
50.86838513268221
 20
-103.1551160766418
 30
0.0
 10
50.84616426680235
 20
-102.9818277737337
 30
0.0
 10
50.84616426680235
 20
-102.9818277737337
 30
0.0
 10
50.91093206192505
 20
-102.9732150350206
 30
0.0
 10
51.00549993299516
 20
-102.9604681817252
 30
0.0
 10
51.099895549291
 20
-102.9394530992651
 30
0.0
 10
51.099895549291
 20
-102.9394530992651
 30
0.0
 10
51.099895549291
 20
-102.7616861722262
 30
0.0
 10
51.099895549291
 20
-102.7616861722262
 30
0.0
 10
50.97397730930512
 20
-102.833688667868
 30
0.0
 10
50.89060599856207
 20
-102.8633164890411
 30
0.0
 10
50.7462564977301
 20
-102.8929443102143
 30
0.0
 10
50.7462564977301
 20
-102.8929443102143
 30
0.0
 10
50.6406643211072
 20
-102.72344561234
 30
0.0
 10
50.6406643211072
 20
-102.72344561234
 30
0.0
 10
50.91833901721834
 20
-102.6962293580065
 30
0.0
 10
51.08697644122132
 20
-102.6028672703562
 30
0.0
 10
51.24252250238035
 20
-102.4698865846256
 30
0.0
 10
51.11470945987757
 20
-102.4698865846256
 30
0.0
 10
50.85167641957875
 20
-102.4740206992079
 30
0.0
 10
50.67959390009052
 20
-102.4802218710813
 30
0.0
 10
50.67959390009052
 20
-102.4802218710813
 30
0.0
 10
50.67959390009052
 20
-102.3024549440425
 30
0.0
 10
50.67959390009052
 20
-102.3024549440425
 30
0.0
 10
50.81464164311232
 20
-102.3090006254644
 30
0.0
 10
51.07388507837737
 20
-102.3152017973379
 30
0.0
 10
51.23511554708706
 20
-102.3152017973379
 30
0.0
 10
51.23511554708706
 20
-102.3152017973379
 30
0.0
 10
51.42028942941923
 20
-102.3152017973379
 30
0.0
 10
51.42028942941923
 20
-102.3152017973379
 30
0.0
 10
51.42028942941923
 20
-102.220117161945
 30
0.0
 10
51.41839462690235
 20
-102.1694742583118
 30
0.0
 10
51.41288247412595
 20
-102.1229654692609
 30
0.0
 10
51.41288247412595
 20
-102.1229654692609
 30
0.0
 10
51.60167370671764
 20
-102.1398464371387
 30
0.0
 10
51.60167370671764
 20
-102.1398464371387
 30
0.0
 10
51.64422063596047
 20
-102.143980551721
 30
0.0
 10
51.65162759125376
 20
-102.1587944623075
 30
0.0
 10
51.65162759125376
 20
-102.1736083728941
 30
0.0
 10
51.65162759125376
 20
-102.1991020794849
 30
0.0
 10
51.63681368066719
 20
-102.2073703086495
 30
0.0
 10
51.59237194890746
 20
-102.2328640152404
 30
0.0
 10
51.59064940116484
 20
-102.2580132122827
 30
0.0
 10
51.59064940116484
 20
-102.2645588937047
 30
0.0
 10
51.58875459864795
 20
-102.3152017973379
 30
0.0
 10
51.58875459864795
 20
-102.3152017973379
 30
0.0
 10
51.79063719408359
 20
-102.3152017973379
 30
0.0
 10
51.79063719408359
 20
-102.3152017973379
 30
0.0
 10
51.93498669491556
 20
-102.3152017973379
 30
0.0
 10
52.1906127799211
 20
-102.3090006254644
 30
0.0
 10
52.34788138882276
 20
-102.3024549440425
 30
0.0
 10
52.34788138882276
 20
-102.3024549440425
 30
0.0
 10
52.34788138882276
 20
-102.4802218710813
 30
0.0
 10
52.34788138882276
 20
-102.4802218710813
 30
0.0
 10
52.23505451168082
 20
-102.476087756499
 30
0.0
 10
52.21455619354359
 20
-102.476087756499
 30
0.0
 10
51.972021471382
 20
-102.4719536419167
 30
0.0
  0
SPLINE
  5
113
330
106
100
AcDbEntity
  8
_U+30EC_U+30A4_U+30E4_U+30FC 1
370
     0
100
AcDbSpline
210
0.0
220
0.0
230
1.0
 70
    11
 71
     3
 72
    23
 73
    19
 74
     0
 42
0.0000000001
 43
0.0000000001
 12
1.0
 22
0.0
 32
0.0
 13
1.0
 23
0.0
 33
0.0
 40
0.0
 40
0.0
 40
0.0
 40
0.0
 40
1.0
 40
1.0
 40
1.0
 40
2.0
 40
2.0
 40
2.0
 40
3.0
 40
3.0
 40
3.0
 40
4.0
 40
4.0
 40
4.0
 40
5.0
 40
5.0
 40
5.0
 40
6.0
 40
6.0
 40
6.0
 40
6.0
 10
50.84805906931923
 20
-102.1205539024212
 30
0.0
 10
50.83324515873267
 20
-102.1608615195987
 30
0.0
 10
50.82773300595626
 20
-102.1777424874764
 30
0.0
 10
50.80912949033591
 20
-102.1777424874764
 30
0.0
 10
50.79621038226622
 20
-102.1777424874764
 30
0.0
 10
50.78690862445605
 20
-102.1608615195987
 30
0.0
 10
50.78139647167966
 20
-102.1481146663033
 30
0.0
 10
50.78139647167966
 20
-102.1481146663033
 30
0.0
 10
50.69440781067709
 20
-101.9830945925598
 30
0.0
 10
50.69440781067709
 20
-101.9830945925598
 30
0.0
 10
50.78329127419654
 20
-101.9513997140955
 30
0.0
 10
50.91472166695882
 20
-101.8962781863315
 30
0.0
 10
51.08869898896394
 20
-101.7336696794277
 30
0.0
 10
51.08869898896394
 20
-101.7336696794277
 30
0.0
 10
51.13882512827433
 20
-101.9069579823358
 30
0.0
 10
51.13882512827433
 20
-101.9069579823358
 30
0.0
 10
51.05734862004817
 20
-101.9896402739818
 30
0.0
 10
50.97948946208152
 20
-102.0464843494884
 30
0.0
 10
50.84805906931923
 20
-102.1205539024212
 30
0.0
  0
SPLINE
  5
114
330
106
100
AcDbEntity
  8
_U+30EC_U+30A4_U+30E4_U+30FC 1
370
     0
100
AcDbSpline
210
0.0
220
0.0
230
1.0
 70
    11
 71
     3
 72
    17
 73
    13
 74
     0
 42
0.0000000001
 43
0.0000000001
 12
1.0
 22
0.0
 32
0.0
 13
1.0
 23
0.0
 33
0.0
 40
0.0
 40
0.0
 40
0.0
 40
0.0
 40
1.0
 40
1.0
 40
1.0
 40
2.0
 40
2.0
 40
2.0
 40
3.0
 40
3.0
 40
3.0
 40
4.0
 40
4.0
 40
4.0
 40
4.0
 10
50.9813842645984
 20
-101.655121502364
 30
0.0
 10
50.95537379368477
 20
-101.6151583947351
 30
0.0
 10
50.89611815133847
 20
-101.5176621925025
 30
0.0
 10
50.73695473991993
 20
-101.4077636465231
 30
0.0
 10
50.73695473991993
 20
-101.4077636465231
 30
0.0
 10
50.84805906931923
 20
-101.2744384512439
 30
0.0
 10
50.84805906931923
 20
-101.2744384512439
 30
0.0
 10
51.01101208577155
 20
-101.3760687680588
 30
0.0
 10
51.06096597030768
 20
-101.4649522315782
 30
0.0
 10
51.08508163870442
 20
-101.5073269060468
 30
0.0
 10
51.08508163870442
 20
-101.5073269060468
 30
0.0
 10
50.9813842645984
 20
-101.655121502364
 30
0.0
 10
50.9813842645984
 20
-101.655121502364
 30
0.0
  0
SPLINE
  5
115
330
106
100
AcDbEntity
  8
_U+30EC_U+30A4_U+30E4_U+30FC 1
370
     0
100
AcDbSpline
210
0.0
220
0.0
230
1.0
 70
    11
 71
     3
 72
    38
 73
    34
 74
     0
 42
0.0000000001
 43
0.0000000001
 12
1.0
 22
0.0
 32
0.0
 13
1.0
 23
0.0
 33
0.0
 40
0.0
 40
0.0
 40
0.0
 40
0.0
 40
1.0
 40
1.0
 40
1.0
 40
2.0
 40
2.0
 40
2.0
 40
3.0
 40
3.0
 40
3.0
 40
4.0
 40
4.0
 40
4.0
 40
5.0
 40
5.0
 40
5.0
 40
6.0
 40
6.0
 40
6.0
 40
7.0
 40
7.0
 40
7.0
 40
8.0
 40
8.0
 40
8.0
 40
9.0
 40
9.0
 40
9.0
 40
10.0
 40
10.0
 40
10.0
 40
11.0
 40
11.0
 40
11.0
 40
11.0
 10
51.30350069246926
 20
-101.3505750614679
 30
0.0
 10
51.30177814472664
 20
-101.3970838505188
 30
0.0
 10
51.29988334220975
 20
-101.5135280779202
 30
0.0
 10
51.29988334220975
 20
-101.55796980968
 30
0.0
 10
51.29988334220975
 20
-101.55796980968
 30
0.0
 10
51.29988334220975
 20
-101.9048909250446
 30
0.0
 10
51.29988334220975
 20
-101.9048909250446
 30
0.0
 10
51.29988334220975
 20
-101.9917073312729
 30
0.0
 10
51.30177814472664
 20
-102.1333007557167
 30
0.0
 10
51.31090764776255
 20
-102.2538790977004
 30
0.0
 10
51.31090764776255
 20
-102.2538790977004
 30
0.0
 10
51.14433728105072
 20
-102.2538790977004
 30
0.0
 10
51.14433728105072
 20
-102.2538790977004
 30
0.0
 10
51.14795463131023
 20
-102.1904893407718
 30
0.0
 10
51.15174423634401
 20
-102.137434870299
 30
0.0
 10
51.1536390388609
 20
-102.0826578520835
 30
0.0
 10
51.15536158660353
 20
-101.9600124528086
 30
0.0
 10
51.15725638912041
 20
-101.945198542222
 30
0.0
 10
51.15725638912041
 20
-101.9007568104623
 30
0.0
 10
51.15725638912041
 20
-101.9007568104623
 30
0.0
 10
51.15725638912041
 20
-101.57898489214
 30
0.0
 10
51.15725638912041
 20
-101.57898489214
 30
0.0
 10
51.15725638912041
 20
-101.5242078739245
 30
0.0
 10
51.14623208356761
 20
-101.2851182472482
 30
0.0
 10
51.14433728105072
 20
-101.2341308340665
 30
0.0
 10
51.14433728105072
 20
-101.2341308340665
 30
0.0
 10
51.32020940557273
 20
-101.2616915979485
 30
0.0
 10
51.32020940557273
 20
-101.2616915979485
 30
0.0
 10
51.33881292119307
 20
-101.2637586552396
 30
0.0
 10
51.36654593984934
 20
-101.2682372793704
 30
0.0
 10
51.36654593984934
 20
-101.2933864764128
 30
0.0
 10
51.36654593984934
 20
-101.3209472402948
 30
0.0
 10
51.32210420808961
 20
-101.3423068323033
 30
0.0
 10
51.30350069246926
 20
-101.3505750614679
 30
0.0
  0
SPLINE
  5
116
330
106
100
AcDbEntity
  8
_U+30EC_U+30A4_U+30E4_U+30FC 1
370
     0
100
AcDbSpline
210
0.0
220
0.0
230
1.0
 70
    11
 71
     3
 72
    83
 73
    79
 74
     0
 42
0.0000000001
 43
0.0000000001
 12
1.0
 22
0.0
 32
0.0
 13
1.0
 23
0.0
 33
0.0
 40
0.0
 40
0.0
 40
0.0
 40
0.0
 40
1.0
 40
1.0
 40
1.0
 40
2.0
 40
2.0
 40
2.0
 40
3.0
 40
3.0
 40
3.0
 40
4.0
 40
4.0
 40
4.0
 40
5.0
 40
5.0
 40
5.0
 40
6.0
 40
6.0
 40
6.0
 40
7.0
 40
7.0
 40
7.0
 40
8.0
 40
8.0
 40
8.0
 40
9.0
 40
9.0
 40
9.0
 40
10.0
 40
10.0
 40
10.0
 40
11.0
 40
11.0
 40
11.0
 40
12.0
 40
12.0
 40
12.0
 40
13.0
 40
13.0
 40
13.0
 40
14.0
 40
14.0
 40
14.0
 40
15.0
 40
15.0
 40
15.0
 40
16.0
 40
16.0
 40
16.0
 40
17.0
 40
17.0
 40
17.0
 40
18.0
 40
18.0
 40
18.0
 40
19.0
 40
19.0
 40
19.0
 40
20.0
 40
20.0
 40
20.0
 40
21.0
 40
21.0
 40
21.0
 40
22.0
 40
22.0
 40
22.0
 40
23.0
 40
23.0
 40
23.0
 40
24.0
 40
24.0
 40
24.0
 40
25.0
 40
25.0
 40
25.0
 40
26.0
 40
26.0
 40
26.0
 40
26.0
 10
52.00543889758892
 20
-101.6723469797902
 30
0.0
 10
52.00543889758892
 20
-101.6723469797902
 30
0.0
 10
51.92017278432899
 20
-101.6723469797902
 30
0.0
 10
51.92017278432899
 20
-101.6723469797902
 30
0.0
 10
51.92017278432899
 20
-101.6723469797902
 30
0.0
 10
51.92017278432899
 20
-101.9197048356312
 30
0.0
 10
51.92017278432899
 20
-101.9197048356312
 30
0.0
 10
51.92017278432899
 20
-101.9197048356312
 30
0.0
 10
51.99234753474497
 20
-101.9197048356312
 30
0.0
 10
51.99234753474497
 20
-101.9197048356312
 30
0.0
 10
52.04988062934864
 20
-101.9197048356312
 30
0.0
 10
52.17200926430075
 20
-101.9155707210489
 30
0.0
 10
52.25899792530331
 20
-101.9069579823358
 30
0.0
 10
52.25899792530331
 20
-101.9069579823358
 30
0.0
 10
52.25899792530331
 20
-102.0867919666658
 30
0.0
 10
52.25899792530331
 20
-102.0867919666658
 30
0.0
 10
52.17752141707715
 20
-102.0785237375012
 30
0.0
 10
52.04609102431487
 20
-102.0740451133704
 30
0.0
 10
51.99234753474497
 20
-102.0740451133704
 30
0.0
 10
51.99234753474497
 20
-102.0740451133704
 30
0.0
 10
51.72569714418663
 20
-102.0740451133704
 30
0.0
 10
51.72569714418663
 20
-102.0740451133704
 30
0.0
 10
51.67953286468428
 20
-102.0740451133704
 30
0.0
 10
51.55171982218152
 20
-102.0785237375012
 30
0.0
 10
51.45904675362829
 20
-102.0867919666658
 30
0.0
 10
51.45904675362829
 20
-102.0867919666658
 30
0.0
 10
51.45904675362829
 20
-101.9069579823358
 30
0.0
 10
51.45904675362829
 20
-101.9069579823358
 30
0.0
 10
51.54620766940512
 20
-101.9155707210489
 30
0.0
 10
51.66833630435723
 20
-101.9197048356312
 30
0.0
 10
51.72569714418663
 20
-101.9197048356312
 30
0.0
 10
51.72569714418663
 20
-101.9197048356312
 30
0.0
 10
51.76462672316995
 20
-101.9197048356312
 30
0.0
 10
51.76462672316995
 20
-101.9197048356312
 30
0.0
 10
51.76462672316995
 20
-101.9197048356312
 30
0.0
 10
51.76462672316995
 20
-101.6723469797902
 30
0.0
 10
51.76462672316995
 20
-101.6723469797902
 30
0.0
 10
51.76462672316995
 20
-101.6723469797902
 30
0.0
 10
51.69985892804726
 20
-101.6723469797902
 30
0.0
 10
51.69985892804726
 20
-101.6723469797902
 30
0.0
 10
51.64611543847736
 20
-101.6723469797902
 30
0.0
 10
51.49987113512851
 20
-101.6764810943725
 30
0.0
 10
51.3942789585056
 20
-101.6847493235371
 30
0.0
 10
51.3942789585056
 20
-101.6847493235371
 30
0.0
 10
51.3942789585056
 20
-101.5073269060468
 30
0.0
 10
51.3942789585056
 20
-101.5073269060468
 30
0.0
 10
51.4943589823521
 20
-101.5135280779202
 30
0.0
 10
51.63319633040768
 20
-101.5176621925025
 30
0.0
 10
51.69985892804726
 20
-101.5176621925025
 30
0.0
 10
51.69985892804726
 20
-101.5176621925025
 30
0.0
 10
51.76273192065307
 20
-101.5176621925025
 30
0.0
 10
51.76273192065307
 20
-101.5176621925025
 30
0.0
 10
51.75911457039356
 20
-101.3653889720545
 30
0.0
 10
51.75721976787667
 20
-101.331627036299
 30
0.0
 10
51.75170761510027
 20
-101.2386094581973
 30
0.0
 10
51.75170761510027
 20
-101.2386094581973
 30
0.0
 10
51.93688149743245
 20
-101.2616915979485
 30
0.0
 10
51.93688149743245
 20
-101.2616915979485
 30
0.0
 10
51.95910236331231
 20
-101.2637586552396
 30
0.0
 10
51.97942842667528
 20
-101.2682372793704
 30
0.0
 10
51.97942842667528
 20
-101.2913194191216
 30
0.0
 10
51.97942842667528
 20
-101.3230142975859
 30
0.0
 10
51.94049884769196
 20
-101.3398952654636
 30
0.0
 10
51.92017278432899
 20
-101.3485080041768
 30
0.0
 10
51.92017278432899
 20
-101.3485080041768
 30
0.0
 10
51.92017278432899
 20
-101.5176621925025
 30
0.0
 10
51.92017278432899
 20
-101.5176621925025
 30
0.0
 10
51.92017278432899
 20
-101.5176621925025
 30
0.0
 10
52.00543889758892
 20
-101.5176621925025
 30
0.0
 10
52.00543889758892
 20
-101.5176621925025
 30
0.0
 10
52.0721014952285
 20
-101.5176621925025
 30
0.0
 10
52.21093884328408
 20
-101.5135280779202
 30
0.0
 10
52.31274141487321
 20
-101.5073269060468
 30
0.0
 10
52.31274141487321
 20
-101.5073269060468
 30
0.0
 10
52.31274141487321
 20
-101.6847493235371
 30
0.0
 10
52.31274141487321
 20
-101.6847493235371
 30
0.0
 10
52.21834579857736
 20
-101.6785481516637
 30
0.0
 10
52.06641708767784
 20
-101.6723469797902
 30
0.0
 10
52.00543889758892
 20
-101.6723469797902
 30
0.0
  0
SPLINE
  5
117
330
106
100
AcDbEntity
  8
_U+30EC_U+30A4_U+30E4_U+30FC 1
370
     0
100
AcDbSpline
210
0.0
220
0.0
230
1.0
 70
    11
 71
     3
 72
    17
 73
    13
 74
     0
 42
0.0000000001
 43
0.0000000001
 12
1.0
 22
0.0
 32
0.0
 13
1.0
 23
0.0
 33
0.0
 40
0.0
 40
0.0
 40
0.0
 40
0.0
 40
1.0
 40
1.0
 40
1.0
 40
2.0
 40
2.0
 40
2.0
 40
3.0
 40
3.0
 40
3.0
 40
4.0
 40
4.0
 40
4.0
 40
4.0
 10
51.79063719408359
 20
-102.4698865846256
 30
0.0
 10
51.79063719408359
 20
-102.4698865846256
 30
0.0
 10
51.6128702670447
 20
-102.4698865846256
 30
0.0
 10
51.6128702670447
 20
-102.4698865846256
 30
0.0
 10
51.63681368066719
 20
-102.5287977174234
 30
0.0
 10
51.68504501746069
 20
-102.6008002130651
 30
0.0
 10
51.70916068585743
 20
-102.6304280342382
 30
0.0
 10
51.73310409947992
 20
-102.6156141236517
 30
0.0
 10
51.83318412332643
 20
-102.5522243667231
 30
0.0
 10
51.9127658290357
 20
-102.4698865846256
 30
0.0
 10
51.9127658290357
 20
-102.4698865846256
 30
0.0
 10
51.79063719408359
 20
-102.4698865846256
 30
0.0
 10
51.79063719408359
 20
-102.4698865846256
 30
0.0
  0
HATCH
  5
118
330
106
100
AcDbEntity
  8
_U+30EC_U+30A4_U+30E4_U+30FC 1
 62
   179
420
  2234388
100
AcDbHatch
 10
0.0
 20
0.0
 30
0.0
210
0.0
220
0.0
230
1.0
  2
SOLID
 70
     1
 71
     0
 91
        6
 92
        1
 93
        1
 72
     4
 94
        3
 73
     0
 74
     1
 95
      113
 96
      109
 40
0.0
 40
0.0
 40
0.0
 40
0.0
 40
1.0
 40
1.0
 40
1.0
 40
2.0
 40
2.0
 40
2.0
 40
3.0
 40
3.0
 40
3.0
 40
4.0
 40
4.0
 40
4.0
 40
5.0
 40
5.0
 40
5.0
 40
6.0
 40
6.0
 40
6.0
 40
7.0
 40
7.0
 40
7.0
 40
8.0
 40
8.0
 40
8.0
 40
9.0
 40
9.0
 40
9.0
 40
10.0
 40
10.0
 40
10.0
 40
11.0
 40
11.0
 40
11.0
 40
12.0
 40
12.0
 40
12.0
 40
13.0
 40
13.0
 40
13.0
 40
14.0
 40
14.0
 40
14.0
 40
15.0
 40
15.0
 40
15.0
 40
16.0
 40
16.0
 40
16.0
 40
17.0
 40
17.0
 40
17.0
 40
18.0
 40
18.0
 40
18.0
 40
19.0
 40
19.0
 40
19.0
 40
20.0
 40
20.0
 40
20.0
 40
21.0
 40
21.0
 40
21.0
 40
22.0
 40
22.0
 40
22.0
 40
23.0
 40
23.0
 40
23.0
 40
24.0
 40
24.0
 40
24.0
 40
25.0
 40
25.0
 40
25.0
 40
26.0
 40
26.0
 40
26.0
 40
27.0
 40
27.0
 40
27.0
 40
28.0
 40
28.0
 40
28.0
 40
29.0
 40
29.0
 40
29.0
 40
30.0
 40
30.0
 40
30.0
 40
31.0
 40
31.0
 40
31.0
 40
32.0
 40
32.0
 40
32.0
 40
33.0
 40
33.0
 40
33.0
 40
34.0
 40
34.0
 40
34.0
 40
35.0
 40
35.0
 40
35.0
 40
36.0
 40
36.0
 40
36.0
 40
36.0
 10
51.972021471382
 20
-102.4719536419167
 10
51.972021471382
 20
-102.4719536419167
 10
52.05901013238456
 20
-102.5711723918919
 10
52.05901013238456
 20
-102.5711723918919
 10
52.06831189019473
 20
-102.5818521878962
 10
52.07761364800491
 20
-102.5945990411916
 10
52.07761364800491
 20
-102.6094129517782
 10
52.07761364800491
 20
-102.6114800090694
 10
52.07761364800491
 20
-102.6411078302425
 10
52.04419622179798
 20
-102.6411078302425
 10
52.03678926650469
 20
-102.6411078302425
 10
52.00164929255514
 20
-102.6369737156602
 10
51.99613713977875
 20
-102.6369737156602
 10
51.9609971658292
 20
-102.6686685941245
 10
51.92017278432899
 20
-102.7024305298799
 10
51.83318412332643
 20
-102.7596191149351
 10
51.9609971658292
 20
-102.8674506036234
 10
52.09983451388477
 20
-102.9246391886786
 10
52.33875188578684
 20
-102.9625352390163
 10
52.33875188578684
 20
-102.9625352390163
 10
52.2071492382503
 20
-103.1382351087641
 10
52.2071492382503
 20
-103.1382351087641
 10
51.9775336241584
 20
-103.0662326131223
 10
51.84059107861972
 20
-102.9773491496029
 10
51.77392848098013
 20
-102.9246391886786
 10
51.64249808821785
 20
-102.8230088718637
 10
51.51657984823197
 20
-102.6600558554114
 10
51.44991725059239
 20
-102.4950357816679
 10
51.39066160824608
 20
-102.5608371054362
 10
51.32572155834913
 20
-102.6135470663605
 10
51.25733641296692
 20
-102.6621229127025
 10
51.25733641296692
 20
-102.6621229127025
 10
51.25733641296692
 20
-102.9139593926743
 10
51.25733641296692
 20
-102.9139593926743
 10
51.399791111282
 20
-102.8884656860834
 10
51.56274412773432
 20
-102.8440239543237
 10
51.6183824198211
 20
-102.8292100437371
 10
51.6183824198211
 20
-102.8292100437371
 10
51.59237194890746
 20
-102.9987087416114
 10
51.59237194890746
 20
-102.9987087416114
 10
51.59064940116484
 20
-102.9987087416114
 10
51.57394068806138
 20
-103.0049099134849
 10
51.57204588554449
 20
-103.0049099134849
 10
51.39806856353938
 20
-103.0431504733712
 10
51.12022161265398
 20
-103.1086072875909
 10
50.94796683839148
 20
-103.1444362806375
 10
50.93883733535557
 20
-103.1616617580638
 10
50.91833901721834
 20
-103.1933566365281
 10
50.89801295385536
 20
-103.1933566365281
 10
50.87389728545861
 20
-103.1933566365281
 10
50.8702799351991
 20
-103.1740641018107
 10
50.86838513268221
 20
-103.1551160766418
 10
50.86838513268221
 20
-103.1551160766418
 10
50.84616426680235
 20
-102.9818277737337
 10
50.84616426680235
 20
-102.9818277737337
 10
50.91093206192505
 20
-102.9732150350206
 10
51.00549993299516
 20
-102.9604681817252
 10
51.099895549291
 20
-102.9394530992651
 10
51.099895549291
 20
-102.9394530992651
 10
51.099895549291
 20
-102.7616861722262
 10
51.099895549291
 20
-102.7616861722262
 10
50.97397730930512
 20
-102.833688667868
 10
50.89060599856207
 20
-102.8633164890411
 10
50.7462564977301
 20
-102.8929443102143
 10
50.7462564977301
 20
-102.8929443102143
 10
50.6406643211072
 20
-102.72344561234
 10
50.6406643211072
 20
-102.72344561234
 10
50.91833901721834
 20
-102.6962293580065
 10
51.08697644122132
 20
-102.6028672703562
 10
51.24252250238035
 20
-102.4698865846256
 10
51.11470945987757
 20
-102.4698865846256
 10
50.85167641957875
 20
-102.4740206992079
 10
50.67959390009052
 20
-102.4802218710813
 10
50.67959390009052
 20
-102.4802218710813
 10
50.67959390009052
 20
-102.3024549440425
 10
50.67959390009052
 20
-102.3024549440425
 10
50.81464164311232
 20
-102.3090006254644
 10
51.07388507837737
 20
-102.3152017973379
 10
51.23511554708706
 20
-102.3152017973379
 10
51.23511554708706
 20
-102.3152017973379
 10
51.42028942941923
 20
-102.3152017973379
 10
51.42028942941923
 20
-102.3152017973379
 10
51.42028942941923
 20
-102.220117161945
 10
51.41839462690235
 20
-102.1694742583118
 10
51.41288247412595
 20
-102.1229654692609
 10
51.41288247412595
 20
-102.1229654692609
 10
51.60167370671764
 20
-102.1398464371387
 10
51.60167370671764
 20
-102.1398464371387
 10
51.64422063596047
 20
-102.143980551721
 10
51.65162759125376
 20
-102.1587944623075
 10
51.65162759125376
 20
-102.1736083728941
 10
51.65162759125376
 20
-102.1991020794849
 10
51.63681368066719
 20
-102.2073703086495
 10
51.59237194890746
 20
-102.2328640152404
 10
51.59064940116484
 20
-102.2580132122827
 10
51.59064940116484
 20
-102.2645588937047
 10
51.58875459864795
 20
-102.3152017973379
 10
51.58875459864795
 20
-102.3152017973379
 10
51.79063719408359
 20
-102.3152017973379
 10
51.79063719408359
 20
-102.3152017973379
 10
51.93498669491556
 20
-102.3152017973379
 10
52.1906127799211
 20
-102.3090006254644
 10
52.34788138882276
 20
-102.3024549440425
 10
52.34788138882276
 20
-102.3024549440425
 10
52.34788138882276
 20
-102.4802218710813
 10
52.34788138882276
 20
-102.4802218710813
 10
52.23505451168082
 20
-102.476087756499
 10
52.21455619354359
 20
-102.476087756499
 10
51.972021471382
 20
-102.4719536419167
 97
        0
 97
        0
 92
        1
 93
        1
 72
     4
 94
        3
 73
     0
 74
     1
 95
       23
 96
       19
 40
0.0
 40
0.0
 40
0.0
 40
0.0
 40
1.0
 40
1.0
 40
1.0
 40
2.0
 40
2.0
 40
2.0
 40
3.0
 40
3.0
 40
3.0
 40
4.0
 40
4.0
 40
4.0
 40
5.0
 40
5.0
 40
5.0
 40
6.0
 40
6.0
 40
6.0
 40
6.0
 10
50.84805906931923
 20
-102.1205539024212
 10
50.83324515873267
 20
-102.1608615195987
 10
50.82773300595626
 20
-102.1777424874764
 10
50.80912949033591
 20
-102.1777424874764
 10
50.79621038226622
 20
-102.1777424874764
 10
50.78690862445605
 20
-102.1608615195987
 10
50.78139647167966
 20
-102.1481146663033
 10
50.78139647167966
 20
-102.1481146663033
 10
50.69440781067709
 20
-101.9830945925598
 10
50.69440781067709
 20
-101.9830945925598
 10
50.78329127419654
 20
-101.9513997140955
 10
50.91472166695882
 20
-101.8962781863315
 10
51.08869898896394
 20
-101.7336696794277
 10
51.08869898896394
 20
-101.7336696794277
 10
51.13882512827433
 20
-101.9069579823358
 10
51.13882512827433
 20
-101.9069579823358
 10
51.05734862004817
 20
-101.9896402739818
 10
50.97948946208152
 20
-102.0464843494884
 10
50.84805906931923
 20
-102.1205539024212
 97
        0
 97
        0
 92
        1
 93
        1
 72
     4
 94
        3
 73
     0
 74
     1
 95
       17
 96
       13
 40
0.0
 40
0.0
 40
0.0
 40
0.0
 40
1.0
 40
1.0
 40
1.0
 40
2.0
 40
2.0
 40
2.0
 40
3.0
 40
3.0
 40
3.0
 40
4.0
 40
4.0
 40
4.0
 40
4.0
 10
50.9813842645984
 20
-101.655121502364
 10
50.95537379368477
 20
-101.6151583947351
 10
50.89611815133847
 20
-101.5176621925025
 10
50.73695473991993
 20
-101.4077636465231
 10
50.73695473991993
 20
-101.4077636465231
 10
50.84805906931923
 20
-101.2744384512439
 10
50.84805906931923
 20
-101.2744384512439
 10
51.01101208577155
 20
-101.3760687680588
 10
51.06096597030768
 20
-101.4649522315782
 10
51.08508163870442
 20
-101.5073269060468
 10
51.08508163870442
 20
-101.5073269060468
 10
50.9813842645984
 20
-101.655121502364
 10
50.9813842645984
 20
-101.655121502364
 97
        0
 97
        0
 92
        1
 93
        1
 72
     4
 94
        3
 73
     0
 74
     1
 95
       38
 96
       34
 40
0.0
 40
0.0
 40
0.0
 40
0.0
 40
1.0
 40
1.0
 40
1.0
 40
2.0
 40
2.0
 40
2.0
 40
3.0
 40
3.0
 40
3.0
 40
4.0
 40
4.0
 40
4.0
 40
5.0
 40
5.0
 40
5.0
 40
6.0
 40
6.0
 40
6.0
 40
7.0
 40
7.0
 40
7.0
 40
8.0
 40
8.0
 40
8.0
 40
9.0
 40
9.0
 40
9.0
 40
10.0
 40
10.0
 40
10.0
 40
11.0
 40
11.0
 40
11.0
 40
11.0
 10
51.30350069246926
 20
-101.3505750614679
 10
51.30177814472664
 20
-101.3970838505188
 10
51.29988334220975
 20
-101.5135280779202
 10
51.29988334220975
 20
-101.55796980968
 10
51.29988334220975
 20
-101.55796980968
 10
51.29988334220975
 20
-101.9048909250446
 10
51.29988334220975
 20
-101.9048909250446
 10
51.29988334220975
 20
-101.9917073312729
 10
51.30177814472664
 20
-102.1333007557167
 10
51.31090764776255
 20
-102.2538790977004
 10
51.31090764776255
 20
-102.2538790977004
 10
51.14433728105072
 20
-102.2538790977004
 10
51.14433728105072
 20
-102.2538790977004
 10
51.14795463131023
 20
-102.1904893407718
 10
51.15174423634401
 20
-102.137434870299
 10
51.1536390388609
 20
-102.0826578520835
 10
51.15536158660353
 20
-101.9600124528086
 10
51.15725638912041
 20
-101.945198542222
 10
51.15725638912041
 20
-101.9007568104623
 10
51.15725638912041
 20
-101.9007568104623
 10
51.15725638912041
 20
-101.57898489214
 10
51.15725638912041
 20
-101.57898489214
 10
51.15725638912041
 20
-101.5242078739245
 10
51.14623208356761
 20
-101.2851182472482
 10
51.14433728105072
 20
-101.2341308340665
 10
51.14433728105072
 20
-101.2341308340665
 10
51.32020940557273
 20
-101.2616915979485
 10
51.32020940557273
 20
-101.2616915979485
 10
51.33881292119307
 20
-101.2637586552396
 10
51.36654593984934
 20
-101.2682372793704
 10
51.36654593984934
 20
-101.2933864764128
 10
51.36654593984934
 20
-101.3209472402948
 10
51.32210420808961
 20
-101.3423068323033
 10
51.30350069246926
 20
-101.3505750614679
 97
        0
 97
        0
 92
        1
 93
        1
 72
     4
 94
        3
 73
     0
 74
     1
 95
       83
 96
       79
 40
0.0
 40
0.0
 40
0.0
 40
0.0
 40
1.0
 40
1.0
 40
1.0
 40
2.0
 40
2.0
 40
2.0
 40
3.0
 40
3.0
 40
3.0
 40
4.0
 40
4.0
 40
4.0
 40
5.0
 40
5.0
 40
5.0
 40
6.0
 40
6.0
 40
6.0
 40
7.0
 40
7.0
 40
7.0
 40
8.0
 40
8.0
 40
8.0
 40
9.0
 40
9.0
 40
9.0
 40
10.0
 40
10.0
 40
10.0
 40
11.0
 40
11.0
 40
11.0
 40
12.0
 40
12.0
 40
12.0
 40
13.0
 40
13.0
 40
13.0
 40
14.0
 40
14.0
 40
14.0
 40
15.0
 40
15.0
 40
15.0
 40
16.0
 40
16.0
 40
16.0
 40
17.0
 40
17.0
 40
17.0
 40
18.0
 40
18.0
 40
18.0
 40
19.0
 40
19.0
 40
19.0
 40
20.0
 40
20.0
 40
20.0
 40
21.0
 40
21.0
 40
21.0
 40
22.0
 40
22.0
 40
22.0
 40
23.0
 40
23.0
 40
23.0
 40
24.0
 40
24.0
 40
24.0
 40
25.0
 40
25.0
 40
25.0
 40
26.0
 40
26.0
 40
26.0
 40
26.0
 10
52.00543889758892
 20
-101.6723469797902
 10
52.00543889758892
 20
-101.6723469797902
 10
51.92017278432899
 20
-101.6723469797902
 10
51.92017278432899
 20
-101.6723469797902
 10
51.92017278432899
 20
-101.6723469797902
 10
51.92017278432899
 20
-101.9197048356312
 10
51.92017278432899
 20
-101.9197048356312
 10
51.92017278432899
 20
-101.9197048356312
 10
51.99234753474497
 20
-101.9197048356312
 10
51.99234753474497
 20
-101.9197048356312
 10
52.04988062934864
 20
-101.9197048356312
 10
52.17200926430075
 20
-101.9155707210489
 10
52.25899792530331
 20
-101.9069579823358
 10
52.25899792530331
 20
-101.9069579823358
 10
52.25899792530331
 20
-102.0867919666658
 10
52.25899792530331
 20
-102.0867919666658
 10
52.17752141707715
 20
-102.0785237375012
 10
52.04609102431487
 20
-102.0740451133704
 10
51.99234753474497
 20
-102.0740451133704
 10
51.99234753474497
 20
-102.0740451133704
 10
51.72569714418663
 20
-102.0740451133704
 10
51.72569714418663
 20
-102.0740451133704
 10
51.67953286468428
 20
-102.0740451133704
 10
51.55171982218152
 20
-102.0785237375012
 10
51.45904675362829
 20
-102.0867919666658
 10
51.45904675362829
 20
-102.0867919666658
 10
51.45904675362829
 20
-101.9069579823358
 10
51.45904675362829
 20
-101.9069579823358
 10
51.54620766940512
 20
-101.9155707210489
 10
51.66833630435723
 20
-101.9197048356312
 10
51.72569714418663
 20
-101.9197048356312
 10
51.72569714418663
 20
-101.9197048356312
 10
51.76462672316995
 20
-101.9197048356312
 10
51.76462672316995
 20
-101.9197048356312
 10
51.76462672316995
 20
-101.9197048356312
 10
51.76462672316995
 20
-101.6723469797902
 10
51.76462672316995
 20
-101.6723469797902
 10
51.76462672316995
 20
-101.6723469797902
 10
51.69985892804726
 20
-101.6723469797902
 10
51.69985892804726
 20
-101.6723469797902
 10
51.64611543847736
 20
-101.6723469797902
 10
51.49987113512851
 20
-101.6764810943725
 10
51.3942789585056
 20
-101.6847493235371
 10
51.3942789585056
 20
-101.6847493235371
 10
51.3942789585056
 20
-101.5073269060468
 10
51.3942789585056
 20
-101.5073269060468
 10
51.4943589823521
 20
-101.5135280779202
 10
51.63319633040768
 20
-101.5176621925025
 10
51.69985892804726
 20
-101.5176621925025
 10
51.69985892804726
 20
-101.5176621925025
 10
51.76273192065307
 20
-101.5176621925025
 10
51.76273192065307
 20
-101.5176621925025
 10
51.75911457039356
 20
-101.3653889720545
 10
51.75721976787667
 20
-101.331627036299
 10
51.75170761510027
 20
-101.2386094581973
 10
51.75170761510027
 20
-101.2386094581973
 10
51.93688149743245
 20
-101.2616915979485
 10
51.93688149743245
 20
-101.2616915979485
 10
51.95910236331231
 20
-101.2637586552396
 10
51.97942842667528
 20
-101.2682372793704
 10
51.97942842667528
 20
-101.2913194191216
 10
51.97942842667528
 20
-101.3230142975859
 10
51.94049884769196
 20
-101.3398952654636
 10
51.92017278432899
 20
-101.3485080041768
 10
51.92017278432899
 20
-101.3485080041768
 10
51.92017278432899
 20
-101.5176621925025
 10
51.92017278432899
 20
-101.5176621925025
 10
51.92017278432899
 20
-101.5176621925025
 10
52.00543889758892
 20
-101.5176621925025
 10
52.00543889758892
 20
-101.5176621925025
 10
52.0721014952285
 20
-101.5176621925025
 10
52.21093884328408
 20
-101.5135280779202
 10
52.31274141487321
 20
-101.5073269060468
 10
52.31274141487321
 20
-101.5073269060468
 10
52.31274141487321
 20
-101.6847493235371
 10
52.31274141487321
 20
-101.6847493235371
 10
52.21834579857736
 20
-101.6785481516637
 10
52.06641708767784
 20
-101.6723469797902
 10
52.00543889758892
 20
-101.6723469797902
 97
        0
 97
        0
 92
        1
 93
        1
 72
     4
 94
        3
 73
     0
 74
     1
 95
       17
 96
       13
 40
0.0
 40
0.0
 40
0.0
 40
0.0
 40
1.0
 40
1.0
 40
1.0
 40
2.0
 40
2.0
 40
2.0
 40
3.0
 40
3.0
 40
3.0
 40
4.0
 40
4.0
 40
4.0
 40
4.0
 10
51.79063719408359
 20
-102.4698865846256
 10
51.79063719408359
 20
-102.4698865846256
 10
51.6128702670447
 20
-102.4698865846256
 10
51.6128702670447
 20
-102.4698865846256
 10
51.63681368066719
 20
-102.5287977174234
 10
51.68504501746069
 20
-102.6008002130651
 10
51.70916068585743
 20
-102.6304280342382
 10
51.73310409947992
 20
-102.6156141236517
 10
51.83318412332643
 20
-102.5522243667231
 10
51.9127658290357
 20
-102.4698865846256
 10
51.9127658290357
 20
-102.4698865846256
 10
51.79063719408359
 20
-102.4698865846256
 10
51.79063719408359
 20
-102.4698865846256
 97
        0
 97
        0
 75
     2
 76
     1
 98
        0
  0
SPLINE
  5
119
330
106
100
AcDbEntity
  8
_U+30EC_U+30A4_U+30E4_U+30FC 1
370
     0
100
AcDbSpline
210
0.0
220
0.0
230
1.0
 70
    11
 71
     3
 72
    77
 73
    73
 74
     0
 42
0.0000000001
 43
0.0000000001
 12
1.0
 22
0.0
 32
0.0
 13
1.0
 23
0.0
 33
0.0
 40
0.0
 40
0.0
 40
0.0
 40
0.0
 40
1.0
 40
1.0
 40
1.0
 40
2.0
 40
2.0
 40
2.0
 40
3.0
 40
3.0
 40
3.0
 40
4.0
 40
4.0
 40
4.0
 40
5.0
 40
5.0
 40
5.0
 40
6.0
 40
6.0
 40
6.0
 40
7.0
 40
7.0
 40
7.0
 40
8.0
 40
8.0
 40
8.0
 40
9.0
 40
9.0
 40
9.0
 40
10.0
 40
10.0
 40
10.0
 40
11.0
 40
11.0
 40
11.0
 40
12.0
 40
12.0
 40
12.0
 40
13.0
 40
13.0
 40
13.0
 40
14.0
 40
14.0
 40
14.0
 40
15.0
 40
15.0
 40
15.0
 40
16.0
 40
16.0
 40
16.0
 40
17.0
 40
17.0
 40
17.0
 40
18.0
 40
18.0
 40
18.0
 40
19.0
 40
19.0
 40
19.0
 40
20.0
 40
20.0
 40
20.0
 40
21.0
 40
21.0
 40
21.0
 40
22.0
 40
22.0
 40
22.0
 40
23.0
 40
23.0
 40
23.0
 40
24.0
 40
24.0
 40
24.0
 40
24.0
 10
53.97224391011805
 20
-103.0999945488778
 30
0.0
 10
53.93159178339211
 20
-103.1254882554686
 30
0.0
 10
53.82238225650968
 20
-103.1382351087641
 30
0.0
 10
53.75382485635321
 20
-103.1382351087641
 30
0.0
 10
53.74262829602615
 20
-103.1382351087641
 30
0.0
 10
53.72040743014629
 20
-103.1382351087641
 30
0.0
 10
53.69077960897314
 20
-103.1341009941818
 30
0.0
 10
53.69077960897314
 20
-103.1341009941818
 30
0.0
 10
53.60568575048747
 20
-102.9077582208008
 30
0.0
 10
53.60568575048747
 20
-102.9077582208008
 30
0.0
 10
53.63152396662684
 20
-102.9139593926743
 30
0.0
 10
53.68165010593723
 20
-102.9225721313874
 30
0.0
 10
53.78345267752636
 20
-102.9225721313874
 30
0.0
 10
53.85201007768283
 20
-102.9225721313874
 30
0.0
 10
53.85373262542546
 20
-102.8801974569189
 30
0.0
 10
53.85373262542546
 20
-102.8230088718637
 30
0.0
 10
53.85373262542546
 20
-102.8230088718637
 30
0.0
 10
53.85373262542546
 20
-102.4740206992079
 30
0.0
 10
53.85373262542546
 20
-102.4740206992079
 30
0.0
 10
53.85373262542546
 20
-102.4740206992079
 30
0.0
 10
53.45203449184532
 20
-102.4740206992079
 30
0.0
 10
53.45203449184532
 20
-102.4740206992079
 30
0.0
 10
53.45375703958796
 20
-102.6114800090694
 30
0.0
 10
53.45565184210484
 20
-102.8102620185683
 30
0.0
 10
53.46116399488124
 20
-102.9435872138474
 30
0.0
 10
53.46305879739813
 20
-102.9711479777294
 30
0.0
 10
53.46305879739813
 20
-103.0155897094892
 30
0.0
 10
53.47425535772519
 20
-103.0769124091266
 30
0.0
 10
53.47425535772519
 20
-103.0769124091266
 30
0.0
 10
53.26307100447937
 20
-103.0769124091266
 30
0.0
 10
53.26307100447937
 20
-103.0769124091266
 30
0.0
 10
53.28529187035924
 20
-102.9521999525606
 30
0.0
 10
53.28529187035924
 20
-102.6114800090694
 30
0.0
 10
53.28529187035924
 20
-102.4740206992079
 30
0.0
 10
53.28529187035924
 20
-102.4740206992079
 30
0.0
 10
52.89823539259142
 20
-102.4740206992079
 30
0.0
 10
52.89823539259142
 20
-102.4740206992079
 30
0.0
 10
52.87790932922844
 20
-102.6814154474199
 30
0.0
 10
52.82054848939903
 20
-102.9497883857209
 30
0.0
 10
52.64829371513654
 20
-103.1341009941818
 30
0.0
 10
52.64829371513654
 20
-103.1341009941818
 30
0.0
 10
52.48344589616733
 20
-103.0114555949069
 30
0.0
 10
52.48344589616733
 20
-103.0114555949069
 30
0.0
 10
52.70565455496595
 20
-102.7913139933994
 30
0.0
 10
52.73355982839647
 20
-102.4592067886213
 30
0.0
 10
52.73355982839647
 20
-102.1270995838432
 30
0.0
 10
52.73355982839647
 20
-102.1270995838432
 30
0.0
 10
52.73355982839647
 20
-101.6912950049591
 30
0.0
 10
52.73355982839647
 20
-101.6912950049591
 30
0.0
 10
52.73355982839647
 20
-101.655121502364
 30
0.0
 10
52.73166502587959
 20
-101.4225775571096
 30
0.0
 10
52.7242580705863
 20
-101.3209472402948
 30
0.0
 10
52.84638670553841
 20
-101.331627036299
 30
0.0
 10
53.05757105878422
 20
-101.331627036299
 30
0.0
 10
53.18348929877011
 20
-101.331627036299
 30
0.0
 10
53.18348929877011
 20
-101.331627036299
 30
0.0
 10
53.58535968712449
 20
-101.331627036299
 30
0.0
 10
53.58535968712449
 20
-101.331627036299
 30
0.0
 10
53.59827879519418
 20
-101.331627036299
 30
0.0
 10
53.90385876473584
 20
-101.331627036299
 30
0.0
 10
54.04269611279141
 20
-101.3209472402948
 30
0.0
 10
54.04080131027452
 20
-101.3740017107676
 30
0.0
 10
54.03528915749813
 20
-101.5345431603803
 30
0.0
 10
54.03528915749813
 20
-101.585530573562
 30
0.0
 10
54.03528915749813
 20
-101.585530573562
 30
0.0
 10
54.03528915749813
 20
-102.192556398063
 30
0.0
 10
54.03528915749813
 20
-102.192556398063
 30
0.0
 10
54.03528915749813
 20
-102.2115044232318
 30
0.0
 10
54.0445909153083
 20
-102.7827012546863
 30
0.0
 10
54.0445909153083
 20
-102.8950113675054
 30
0.0
 10
54.0445909153083
 20
-102.9521999525606
 30
0.0
 10
54.0445909153083
 20
-103.0534857598269
 30
0.0
 10
53.97224391011805
 20
-103.0999945488778
 30
0.0
  0
POLYLINE
  5
11A
330
106
100
AcDbEntity
  8
_U+30EC_U+30A4_U+30E4_U+30FC 1
370
     0
100
AcDb2dPolyline
 66
     1
 10
0.0
 20
0.0
 30
0.0
  0
VERTEX
  5
11B
330
11A
100
AcDbEntity
  8
_U+30EC_U+30A4_U+30E4_U+30FC 1
370
     0
100
AcDbVertex
100
AcDb2dVertex
 10
53.28529187035924
 20
-101.5135280779202
 30
0.0
  0
VERTEX
  5
11C
330
11A
100
AcDbEntity
  8
_U+30EC_U+30A4_U+30E4_U+30FC 1
370
     0
100
AcDbVertex
100
AcDb2dVertex
 10
52.90202499762519
 20
-101.5135280779202
 30
0.0
  0
VERTEX
  5
11D
330
11A
100
AcDbEntity
  8
_U+30EC_U+30A4_U+30E4_U+30FC 1
370
     0
100
AcDbVertex
100
AcDb2dVertex
 10
52.90202499762519
 20
-101.8180745188163
 30
0.0
  0
VERTEX
  5
11E
330
11A
100
AcDbEntity
  8
_U+30EC_U+30A4_U+30E4_U+30FC 1
370
     0
100
AcDbVertex
100
AcDb2dVertex
 10
53.28529187035924
 20
-101.8180745188163
 30
0.0
  0
VERTEX
  5
11F
330
11A
100
AcDbEntity
  8
_U+30EC_U+30A4_U+30E4_U+30FC 1
370
     0
100
AcDbVertex
100
AcDb2dVertex
 10
53.28529187035924
 20
-101.5135280779202
 30
0.0
  0
SEQEND
  5
120
330
11A
100
AcDbEntity
  8
_U+30EC_U+30A4_U+30E4_U+30FC 1
370
     0
  0
POLYLINE
  5
121
330
106
100
AcDbEntity
  8
_U+30EC_U+30A4_U+30E4_U+30FC 1
370
     0
100
AcDb2dPolyline
 66
     1
 10
0.0
 20
0.0
 30
0.0
  0
VERTEX
  5
122
330
121
100
AcDbEntity
  8
_U+30EC_U+30A4_U+30E4_U+30FC 1
370
     0
100
AcDbVertex
100
AcDb2dVertex
 10
53.28529187035924
 20
-101.9851616498509
 30
0.0
  0
VERTEX
  5
123
330
121
100
AcDbEntity
  8
_U+30EC_U+30A4_U+30E4_U+30FC 1
370
     0
100
AcDbVertex
100
AcDb2dVertex
 10
52.90202499762519
 20
-101.9851616498509
 30
0.0
  0
VERTEX
  5
124
330
121
100
AcDbEntity
  8
_U+30EC_U+30A4_U+30E4_U+30FC 1
370
     0
100
AcDbVertex
100
AcDb2dVertex
 10
52.90202499762519
 20
-102.2941867148779
 30
0.0
  0
VERTEX
  5
125
330
121
100
AcDbEntity
  8
_U+30EC_U+30A4_U+30E4_U+30FC 1
370
     0
100
AcDbVertex
100
AcDb2dVertex
 10
53.28529187035924
 20
-102.2941867148779
 30
0.0
  0
VERTEX
  5
126
330
121
100
AcDbEntity
  8
_U+30EC_U+30A4_U+30E4_U+30FC 1
370
     0
100
AcDbVertex
100
AcDb2dVertex
 10
53.28529187035924
 20
-101.9851616498509
 30
0.0
  0
SEQEND
  5
127
330
121
100
AcDbEntity
  8
_U+30EC_U+30A4_U+30E4_U+30FC 1
370
     0
  0
POLYLINE
  5
128
330
106
100
AcDbEntity
  8
_U+30EC_U+30A4_U+30E4_U+30FC 1
370
     0
100
AcDb2dPolyline
 66
     1
 10
0.0
 20
0.0
 30
0.0
  0
VERTEX
  5
129
330
128
100
AcDbEntity
  8
_U+30EC_U+30A4_U+30E4_U+30FC 1
370
     0
100
AcDbVertex
100
AcDb2dVertex
 10
53.85373262542546
 20
-101.5135280779202
 30
0.0
  0
VERTEX
  5
12A
330
128
100
AcDbEntity
  8
_U+30EC_U+30A4_U+30E4_U+30FC 1
370
     0
100
AcDbVertex
100
AcDb2dVertex
 10
53.45203449184532
 20
-101.5135280779202
 30
0.0
  0
VERTEX
  5
12B
330
128
100
AcDbEntity
  8
_U+30EC_U+30A4_U+30E4_U+30FC 1
370
     0
100
AcDbVertex
100
AcDb2dVertex
 10
53.45203449184532
 20
-101.8180745188163
 30
0.0
  0
VERTEX
  5
12C
330
128
100
AcDbEntity
  8
_U+30EC_U+30A4_U+30E4_U+30FC 1
370
     0
100
AcDbVertex
100
AcDb2dVertex
 10
53.85373262542546
 20
-101.8180745188163
 30
0.0
  0
VERTEX
  5
12D
330
128
100
AcDbEntity
  8
_U+30EC_U+30A4_U+30E4_U+30FC 1
370
     0
100
AcDbVertex
100
AcDb2dVertex
 10
53.85373262542546
 20
-101.5135280779202
 30
0.0
  0
SEQEND
  5
12E
330
128
100
AcDbEntity
  8
_U+30EC_U+30A4_U+30E4_U+30FC 1
370
     0
  0
POLYLINE
  5
12F
330
106
100
AcDbEntity
  8
_U+30EC_U+30A4_U+30E4_U+30FC 1
370
     0
100
AcDb2dPolyline
 66
     1
 10
0.0
 20
0.0
 30
0.0
  0
VERTEX
  5
130
330
12F
100
AcDbEntity
  8
_U+30EC_U+30A4_U+30E4_U+30FC 1
370
     0
100
AcDbVertex
100
AcDb2dVertex
 10
53.85373262542546
 20
-101.9851616498509
 30
0.0
  0
VERTEX
  5
131
330
12F
100
AcDbEntity
  8
_U+30EC_U+30A4_U+30E4_U+30FC 1
370
     0
100
AcDbVertex
100
AcDb2dVertex
 10
53.45203449184532
 20
-101.9851616498509
 30
0.0
  0
VERTEX
  5
132
330
12F
100
AcDbEntity
  8
_U+30EC_U+30A4_U+30E4_U+30FC 1
370
     0
100
AcDbVertex
100
AcDb2dVertex
 10
53.45203449184532
 20
-102.2941867148779
 30
0.0
  0
VERTEX
  5
133
330
12F
100
AcDbEntity
  8
_U+30EC_U+30A4_U+30E4_U+30FC 1
370
     0
100
AcDbVertex
100
AcDb2dVertex
 10
53.85373262542546
 20
-102.2941867148779
 30
0.0
  0
VERTEX
  5
134
330
12F
100
AcDbEntity
  8
_U+30EC_U+30A4_U+30E4_U+30FC 1
370
     0
100
AcDbVertex
100
AcDb2dVertex
 10
53.85373262542546
 20
-101.9851616498509
 30
0.0
  0
SEQEND
  5
135
330
12F
100
AcDbEntity
  8
_U+30EC_U+30A4_U+30E4_U+30FC 1
370
     0
  0
HATCH
  5
136
330
106
100
AcDbEntity
  8
_U+30EC_U+30A4_U+30E4_U+30FC 1
 62
   179
420
  2234388
100
AcDbHatch
 10
0.0
 20
0.0
 30
0.0
210
0.0
220
0.0
230
1.0
  2
SOLID
 70
     1
 71
     0
 91
        5
 92
        1
 93
        1
 72
     4
 94
        3
 73
     0
 74
     1
 95
       77
 96
       73
 40
0.0
 40
0.0
 40
0.0
 40
0.0
 40
1.0
 40
1.0
 40
1.0
 40
2.0
 40
2.0
 40
2.0
 40
3.0
 40
3.0
 40
3.0
 40
4.0
 40
4.0
 40
4.0
 40
5.0
 40
5.0
 40
5.0
 40
6.0
 40
6.0
 40
6.0
 40
7.0
 40
7.0
 40
7.0
 40
8.0
 40
8.0
 40
8.0
 40
9.0
 40
9.0
 40
9.0
 40
10.0
 40
10.0
 40
10.0
 40
11.0
 40
11.0
 40
11.0
 40
12.0
 40
12.0
 40
12.0
 40
13.0
 40
13.0
 40
13.0
 40
14.0
 40
14.0
 40
14.0
 40
15.0
 40
15.0
 40
15.0
 40
16.0
 40
16.0
 40
16.0
 40
17.0
 40
17.0
 40
17.0
 40
18.0
 40
18.0
 40
18.0
 40
19.0
 40
19.0
 40
19.0
 40
20.0
 40
20.0
 40
20.0
 40
21.0
 40
21.0
 40
21.0
 40
22.0
 40
22.0
 40
22.0
 40
23.0
 40
23.0
 40
23.0
 40
24.0
 40
24.0
 40
24.0
 40
24.0
 10
53.97224391011805
 20
-103.0999945488778
 10
53.93159178339211
 20
-103.1254882554686
 10
53.82238225650968
 20
-103.1382351087641
 10
53.75382485635321
 20
-103.1382351087641
 10
53.74262829602615
 20
-103.1382351087641
 10
53.72040743014629
 20
-103.1382351087641
 10
53.69077960897314
 20
-103.1341009941818
 10
53.69077960897314
 20
-103.1341009941818
 10
53.60568575048747
 20
-102.9077582208008
 10
53.60568575048747
 20
-102.9077582208008
 10
53.63152396662684
 20
-102.9139593926743
 10
53.68165010593723
 20
-102.9225721313874
 10
53.78345267752636
 20
-102.9225721313874
 10
53.85201007768283
 20
-102.9225721313874
 10
53.85373262542546
 20
-102.8801974569189
 10
53.85373262542546
 20
-102.8230088718637
 10
53.85373262542546
 20
-102.8230088718637
 10
53.85373262542546
 20
-102.4740206992079
 10
53.85373262542546
 20
-102.4740206992079
 10
53.85373262542546
 20
-102.4740206992079
 10
53.45203449184532
 20
-102.4740206992079
 10
53.45203449184532
 20
-102.4740206992079
 10
53.45375703958796
 20
-102.6114800090694
 10
53.45565184210484
 20
-102.8102620185683
 10
53.46116399488124
 20
-102.9435872138474
 10
53.46305879739813
 20
-102.9711479777294
 10
53.46305879739813
 20
-103.0155897094892
 10
53.47425535772519
 20
-103.0769124091266
 10
53.47425535772519
 20
-103.0769124091266
 10
53.26307100447937
 20
-103.0769124091266
 10
53.26307100447937
 20
-103.0769124091266
 10
53.28529187035924
 20
-102.9521999525606
 10
53.28529187035924
 20
-102.6114800090694
 10
53.28529187035924
 20
-102.4740206992079
 10
53.28529187035924
 20
-102.4740206992079
 10
52.89823539259142
 20
-102.4740206992079
 10
52.89823539259142
 20
-102.4740206992079
 10
52.87790932922844
 20
-102.6814154474199
 10
52.82054848939903
 20
-102.9497883857209
 10
52.64829371513654
 20
-103.1341009941818
 10
52.64829371513654
 20
-103.1341009941818
 10
52.48344589616733
 20
-103.0114555949069
 10
52.48344589616733
 20
-103.0114555949069
 10
52.70565455496595
 20
-102.7913139933994
 10
52.73355982839647
 20
-102.4592067886213
 10
52.73355982839647
 20
-102.1270995838432
 10
52.73355982839647
 20
-102.1270995838432
 10
52.73355982839647
 20
-101.6912950049591
 10
52.73355982839647
 20
-101.6912950049591
 10
52.73355982839647
 20
-101.655121502364
 10
52.73166502587959
 20
-101.4225775571096
 10
52.7242580705863
 20
-101.3209472402948
 10
52.84638670553841
 20
-101.331627036299
 10
53.05757105878422
 20
-101.331627036299
 10
53.18348929877011
 20
-101.331627036299
 10
53.18348929877011
 20
-101.331627036299
 10
53.58535968712449
 20
-101.331627036299
 10
53.58535968712449
 20
-101.331627036299
 10
53.59827879519418
 20
-101.331627036299
 10
53.90385876473584
 20
-101.331627036299
 10
54.04269611279141
 20
-101.3209472402948
 10
54.04080131027452
 20
-101.3740017107676
 10
54.03528915749813
 20
-101.5345431603803
 10
54.03528915749813
 20
-101.585530573562
 10
54.03528915749813
 20
-101.585530573562
 10
54.03528915749813
 20
-102.192556398063
 10
54.03528915749813
 20
-102.192556398063
 10
54.03528915749813
 20
-102.2115044232318
 10
54.0445909153083
 20
-102.7827012546863
 10
54.0445909153083
 20
-102.8950113675054
 10
54.0445909153083
 20
-102.9521999525606
 10
54.0445909153083
 20
-103.0534857598269
 10
53.97224391011805
 20
-103.0999945488778
 97
        0
 97
        0
 92
        1
 93
        4
 72
     1
 10
53.28529187035924
 20
-101.5135280779202
 11
52.90202499762519
 21
-101.5135280779202
 72
     1
 10
52.90202499762519
 20
-101.5135280779202
 11
52.90202499762519
 21
-101.8180745188163
 72
     1
 10
52.90202499762519
 20
-101.8180745188163
 11
53.28529187035924
 21
-101.8180745188163
 72
     1
 10
53.28529187035924
 20
-101.8180745188163
 11
53.28529187035924
 21
-101.5135280779202
 97
        0
 92
        1
 93
        4
 72
     1
 10
53.28529187035924
 20
-101.9851616498509
 11
52.90202499762519
 21
-101.9851616498509
 72
     1
 10
52.90202499762519
 20
-101.9851616498509
 11
52.90202499762519
 21
-102.2941867148779
 72
     1
 10
52.90202499762519
 20
-102.2941867148779
 11
53.28529187035924
 21
-102.2941867148779
 72
     1
 10
53.28529187035924
 20
-102.2941867148779
 11
53.28529187035924
 21
-101.9851616498509
 97
        0
 92
        1
 93
        4
 72
     1
 10
53.85373262542546
 20
-101.5135280779202
 11
53.45203449184532
 21
-101.5135280779202
 72
     1
 10
53.45203449184532
 20
-101.5135280779202
 11
53.45203449184532
 21
-101.8180745188163
 72
     1
 10
53.45203449184532
 20
-101.8180745188163
 11
53.85373262542546
 21
-101.8180745188163
 72
     1
 10
53.85373262542546
 20
-101.8180745188163
 11
53.85373262542546
 21
-101.5135280779202
 97
        0
 92
        1
 93
        4
 72
     1
 10
53.85373262542546
 20
-101.9851616498509
 11
53.45203449184532
 21
-101.9851616498509
 72
     1
 10
53.45203449184532
 20
-101.9851616498509
 11
53.45203449184532
 21
-102.2941867148779
 72
     1
 10
53.45203449184532
 20
-102.2941867148779
 11
53.85373262542546
 21
-102.2941867148779
 72
     1
 10
53.85373262542546
 20
-102.2941867148779
 11
53.85373262542546
 21
-101.9851616498509
 97
        0
 75
     2
 76
     1
 98
        0
  0
SPLINE
  5
137
330
106
100
AcDbEntity
  8
_U+30EC_U+30A4_U+30E4_U+30FC 1
370
     0
100
AcDbSpline
210
0.0
220
0.0
230
1.0
 70
    11
 71
     3
 72
    44
 73
    40
 74
     0
 42
0.0000000001
 43
0.0000000001
 12
1.0
 22
0.0
 32
0.0
 13
1.0
 23
0.0
 33
0.0
 40
0.0
 40
0.0
 40
0.0
 40
0.0
 40
1.0
 40
1.0
 40
1.0
 40
2.0
 40
2.0
 40
2.0
 40
3.0
 40
3.0
 40
3.0
 40
4.0
 40
4.0
 40
4.0
 40
5.0
 40
5.0
 40
5.0
 40
6.0
 40
6.0
 40
6.0
 40
7.0
 40
7.0
 40
7.0
 40
8.0
 40
8.0
 40
8.0
 40
9.0
 40
9.0
 40
9.0
 40
10.0
 40
10.0
 40
10.0
 40
11.0
 40
11.0
 40
11.0
 40
12.0
 40
12.0
 40
12.0
 40
13.0
 40
13.0
 40
13.0
 40
13.0
 10
55.61693249477632
 20
-101.8497693972806
 30
0.0
 10
55.51874727344671
 20
-102.2180501046538
 30
0.0
 10
55.47430554168698
 20
-102.3765244969753
 30
0.0
 10
55.30222302219875
 20
-102.6262939196559
 30
0.0
 10
55.14099255348906
 20
-102.8567708076191
 30
0.0
 10
54.93359780527702
 20
-103.0431504733712
 30
0.0
 10
54.68916828059854
 20
-103.1361680514729
 30
0.0
 10
54.68916828059854
 20
-103.1361680514729
 30
0.0
 10
54.52070311136983
 20
-102.9563340671429
 30
0.0
 10
54.52070311136983
 20
-102.9563340671429
 30
0.0
 10
55.08173691114276
 20
-102.8040608466948
 30
0.0
 10
55.37060816758096
 20
-102.247677925827
 30
0.0
 10
55.42624645966774
 20
-101.8077392323606
 30
0.0
 10
55.42624645966774
 20
-101.8077392323606
 30
0.0
 10
54.75583087823813
 20
-101.8077392323606
 30
0.0
 10
54.75583087823813
 20
-101.8077392323606
 30
0.0
 10
54.67435437001197
 20
-101.8077392323606
 30
0.0
 10
54.51329615607654
 20
-101.8118733469429
 30
0.0
 10
54.37635361053786
 20
-101.8308213721117
 30
0.0
 10
54.37635361053786
 20
-101.8308213721117
 30
0.0
 10
54.37635361053786
 20
-101.6106797706043
 30
0.0
 10
54.37635361053786
 20
-101.6106797706043
 30
0.0
 10
54.45214571121335
 20
-101.6320393626128
 30
0.0
 10
54.67263182226935
 20
-101.6320393626128
 30
0.0
 10
54.7596204832719
 20
-101.6320393626128
 30
0.0
 10
54.7596204832719
 20
-101.6320393626128
 30
0.0
 10
55.13737520322955
 20
-101.6320393626128
 30
0.0
 10
55.13737520322955
 20
-101.6320393626128
 30
0.0
 10
55.17440997969598
 20
-101.6320393626128
 30
0.0
 10
55.37990992539114
 20
-101.6299723053217
 30
0.0
 10
55.41332735159806
 20
-101.6234266238997
 30
0.0
 10
55.4503621280645
 20
-101.6172254520262
 30
0.0
 10
55.45208467580712
 20
-101.6151583947351
 30
0.0
 10
55.50582816537702
 20
-101.5748507775577
 30
0.0
 10
55.50582816537702
 20
-101.5748507775577
 30
0.0
 10
55.67067598434623
 20
-101.7291910552969
 30
0.0
 10
55.67067598434623
 20
-101.7291910552969
 30
0.0
 10
55.64466551343259
 20
-101.75881887647
 30
0.0
 10
55.6317464053629
 20
-101.7905137549343
 30
0.0
 10
55.61693249477632
 20
-101.8497693972806
 30
0.0
  0
SPLINE
  5
138
330
106
100
AcDbEntity
  8
_U+30EC_U+30A4_U+30E4_U+30FC 1
370
     0
100
AcDbSpline
210
0.0
220
0.0
230
1.0
 70
    11
 71
     3
 72
    17
 73
    13
 74
     0
 42
0.0000000001
 43
0.0000000001
 12
1.0
 22
0.0
 32
0.0
 13
1.0
 23
0.0
 33
0.0
 40
0.0
 40
0.0
 40
0.0
 40
0.0
 40
1.0
 40
1.0
 40
1.0
 40
2.0
 40
2.0
 40
2.0
 40
3.0
 40
3.0
 40
3.0
 40
4.0
 40
4.0
 40
4.0
 40
4.0
 10
55.80021157459161
 20
-101.6509873877817
 30
0.0
 10
55.68910724519231
 20
-101.6509873877817
 30
0.0
 10
55.60022378167287
 20
-101.5493570709668
 30
0.0
 10
55.60022378167287
 20
-101.4225775571096
 30
0.0
 10
55.60022378167287
 20
-101.2957980432524
 30
0.0
 10
55.68910724519231
 20
-101.1921006691464
 30
0.0
 10
55.80021157459161
 20
-101.1921006691464
 30
0.0
 10
55.91131590399092
 20
-101.1921006691464
 30
0.0
 10
56.00209417002726
 20
-101.2957980432524
 30
0.0
 10
56.00209417002726
 20
-101.4225775571096
 30
0.0
 10
56.00209417002726
 20
-101.5493570709668
 30
0.0
 10
55.91131590399092
 20
-101.6509873877817
 30
0.0
 10
55.80021157459161
 20
-101.6509873877817
 30
0.0
  0
SPLINE
  5
139
330
106
100
AcDbEntity
  8
_U+30EC_U+30A4_U+30E4_U+30FC 1
370
     0
100
AcDbSpline
210
0.0
220
0.0
230
1.0
 70
    11
 71
     3
 72
    17
 73
    13
 74
     0
 42
0.0000000001
 43
0.0000000001
 12
1.0
 22
0.0
 32
0.0
 13
1.0
 23
0.0
 33
0.0
 40
0.0
 40
0.0
 40
0.0
 40
0.0
 40
1.0
 40
1.0
 40
1.0
 40
2.0
 40
2.0
 40
2.0
 40
3.0
 40
3.0
 40
3.0
 40
4.0
 40
4.0
 40
4.0
 40
4.0
 10
55.79848902684899
 20
-101.3209472402948
 30
0.0
 10
55.75025769005549
 20
-101.3209472402948
 30
0.0
 10
55.71132811107217
 20
-101.3653889720545
 30
0.0
 10
55.71132811107217
 20
-101.4205104998185
 30
0.0
 10
55.71132811107217
 20
-101.4776990848736
 30
0.0
 10
55.75025769005549
 20
-101.5262749312157
 30
0.0
 10
55.8021063771085
 20
-101.5262749312157
 30
0.0
 10
55.85395506416151
 20
-101.5262749312157
 30
0.0
 10
55.88909503811107
 20
-101.475287518034
 30
0.0
 10
55.88909503811107
 20
-101.4225775571096
 30
0.0
 10
55.88909503811107
 20
-101.3653889720545
 30
0.0
 10
55.84844291138511
 20
-101.3209472402948
 30
0.0
 10
55.79848902684899
 20
-101.3209472402948
 30
0.0
  0
HATCH
  5
13A
330
106
100
AcDbEntity
  8
_U+30EC_U+30A4_U+30E4_U+30FC 1
 62
   179
420
  2234388
100
AcDbHatch
 10
0.0
 20
0.0
 30
0.0
210
0.0
220
0.0
230
1.0
  2
SOLID
 70
     1
 71
     0
 91
        3
 92
        1
 93
        1
 72
     4
 94
        3
 73
     0
 74
     1
 95
       44
 96
       40
 40
0.0
 40
0.0
 40
0.0
 40
0.0
 40
1.0
 40
1.0
 40
1.0
 40
2.0
 40
2.0
 40
2.0
 40
3.0
 40
3.0
 40
3.0
 40
4.0
 40
4.0
 40
4.0
 40
5.0
 40
5.0
 40
5.0
 40
6.0
 40
6.0
 40
6.0
 40
7.0
 40
7.0
 40
7.0
 40
8.0
 40
8.0
 40
8.0
 40
9.0
 40
9.0
 40
9.0
 40
10.0
 40
10.0
 40
10.0
 40
11.0
 40
11.0
 40
11.0
 40
12.0
 40
12.0
 40
12.0
 40
13.0
 40
13.0
 40
13.0
 40
13.0
 10
55.61693249477632
 20
-101.8497693972806
 10
55.51874727344671
 20
-102.2180501046538
 10
55.47430554168698
 20
-102.3765244969753
 10
55.30222302219875
 20
-102.6262939196559
 10
55.14099255348906
 20
-102.8567708076191
 10
54.93359780527702
 20
-103.0431504733712
 10
54.68916828059854
 20
-103.1361680514729
 10
54.68916828059854
 20
-103.1361680514729
 10
54.52070311136983
 20
-102.9563340671429
 10
54.52070311136983
 20
-102.9563340671429
 10
55.08173691114276
 20
-102.8040608466948
 10
55.37060816758096
 20
-102.247677925827
 10
55.42624645966774
 20
-101.8077392323606
 10
55.42624645966774
 20
-101.8077392323606
 10
54.75583087823813
 20
-101.8077392323606
 10
54.75583087823813
 20
-101.8077392323606
 10
54.67435437001197
 20
-101.8077392323606
 10
54.51329615607654
 20
-101.8118733469429
 10
54.37635361053786
 20
-101.8308213721117
 10
54.37635361053786
 20
-101.8308213721117
 10
54.37635361053786
 20
-101.6106797706043
 10
54.37635361053786
 20
-101.6106797706043
 10
54.45214571121335
 20
-101.6320393626128
 10
54.67263182226935
 20
-101.6320393626128
 10
54.7596204832719
 20
-101.6320393626128
 10
54.7596204832719
 20
-101.6320393626128
 10
55.13737520322955
 20
-101.6320393626128
 10
55.13737520322955
 20
-101.6320393626128
 10
55.17440997969598
 20
-101.6320393626128
 10
55.37990992539114
 20
-101.6299723053217
 10
55.41332735159806
 20
-101.6234266238997
 10
55.4503621280645
 20
-101.6172254520262
 10
55.45208467580712
 20
-101.6151583947351
 10
55.50582816537702
 20
-101.5748507775577
 10
55.50582816537702
 20
-101.5748507775577
 10
55.67067598434623
 20
-101.7291910552969
 10
55.67067598434623
 20
-101.7291910552969
 10
55.64466551343259
 20
-101.75881887647
 10
55.6317464053629
 20
-101.7905137549343
 10
55.61693249477632
 20
-101.8497693972806
 97
        0
 97
        0
 92
        1
 93
        1
 72
     4
 94
        3
 73
     0
 74
     1
 95
       17
 96
       13
 40
0.0
 40
0.0
 40
0.0
 40
0.0
 40
1.0
 40
1.0
 40
1.0
 40
2.0
 40
2.0
 40
2.0
 40
3.0
 40
3.0
 40
3.0
 40
4.0
 40
4.0
 40
4.0
 40
4.0
 10
55.80021157459161
 20
-101.6509873877817
 10
55.68910724519231
 20
-101.6509873877817
 10
55.60022378167287
 20
-101.5493570709668
 10
55.60022378167287
 20
-101.4225775571096
 10
55.60022378167287
 20
-101.2957980432524
 10
55.68910724519231
 20
-101.1921006691464
 10
55.80021157459161
 20
-101.1921006691464
 10
55.91131590399092
 20
-101.1921006691464
 10
56.00209417002726
 20
-101.2957980432524
 10
56.00209417002726
 20
-101.4225775571096
 10
56.00209417002726
 20
-101.5493570709668
 10
55.91131590399092
 20
-101.6509873877817
 10
55.80021157459161
 20
-101.6509873877817
 97
        0
 97
        0
 92
        1
 93
        1
 72
     4
 94
        3
 73
     0
 74
     1
 95
       17
 96
       13
 40
0.0
 40
0.0
 40
0.0
 40
0.0
 40
1.0
 40
1.0
 40
1.0
 40
2.0
 40
2.0
 40
2.0
 40
3.0
 40
3.0
 40
3.0
 40
4.0
 40
4.0
 40
4.0
 40
4.0
 10
55.79848902684899
 20
-101.3209472402948
 10
55.75025769005549
 20
-101.3209472402948
 10
55.71132811107217
 20
-101.3653889720545
 10
55.71132811107217
 20
-101.4205104998185
 10
55.71132811107217
 20
-101.4776990848736
 10
55.75025769005549
 20
-101.5262749312157
 10
55.8021063771085
 20
-101.5262749312157
 10
55.85395506416151
 20
-101.5262749312157
 10
55.88909503811107
 20
-101.475287518034
 10
55.88909503811107
 20
-101.4225775571096
 10
55.88909503811107
 20
-101.3653889720545
 10
55.84844291138511
 20
-101.3209472402948
 10
55.79848902684899
 20
-101.3209472402948
 97
        0
 97
        0
 75
     2
 76
     1
 98
        0
  0
SPLINE
  5
13B
330
106
100
AcDbEntity
  8
_U+30EC_U+30A4_U+30E4_U+30FC 1
370
     0
100
AcDbSpline
210
0.0
220
0.0
230
1.0
 70
    11
 71
     3
 72
    50
 73
    46
 74
     0
 42
0.0000000001
 43
0.0000000001
 12
1.0
 22
0.0
 32
0.0
 13
1.0
 23
0.0
 33
0.0
 40
0.0
 40
0.0
 40
0.0
 40
0.0
 40
1.0
 40
1.0
 40
1.0
 40
2.0
 40
2.0
 40
2.0
 40
3.0
 40
3.0
 40
3.0
 40
4.0
 40
4.0
 40
4.0
 40
5.0
 40
5.0
 40
5.0
 40
6.0
 40
6.0
 40
6.0
 40
7.0
 40
7.0
 40
7.0
 40
8.0
 40
8.0
 40
8.0
 40
9.0
 40
9.0
 40
9.0
 40
10.0
 40
10.0
 40
10.0
 40
11.0
 40
11.0
 40
11.0
 40
12.0
 40
12.0
 40
12.0
 40
13.0
 40
13.0
 40
13.0
 40
14.0
 40
14.0
 40
14.0
 40
15.0
 40
15.0
 40
15.0
 40
15.0
 10
57.37255315405964
 20
-102.1587944623075
 30
0.0
 10
57.30416800867744
 20
-102.3365613893464
 30
0.0
 10
57.18565672398484
 20
-102.5436116280099
 30
0.0
 10
57.06525063677535
 20
-102.6834825047111
 30
0.0
 10
56.91711153090962
 20
-102.854703750328
 30
0.0
 10
56.77448457782027
 20
-102.9435872138474
 30
0.0
 10
56.49491507919225
 20
-103.0851806382912
 30
0.0
 10
56.49491507919225
 20
-103.0851806382912
 30
0.0
 10
56.3467759733265
 20
-102.8970784247966
 30
0.0
 10
56.3467759733265
 20
-102.8970784247966
 30
0.0
 10
56.50972898977882
 20
-102.8736517754969
 30
0.0
 10
56.65976289816145
 20
-102.7871798788171
 30
0.0
 10
56.79308809344062
 20
-102.6814154474199
 30
0.0
 10
57.02270370753252
 20
-102.4995144057987
 30
0.0
 10
57.18927407424435
 20
-102.1863552261895
 30
0.0
 10
57.23182100348718
 20
-102.0044541845683
 30
0.0
 10
57.23182100348718
 20
-102.0044541845683
 30
0.0
 10
56.64494898757488
 20
-102.0044541845683
 30
0.0
 10
56.64494898757488
 20
-102.0044541845683
 30
0.0
 10
56.50593938474505
 20
-102.0044541845683
 30
0.0
 10
56.25048555451377
 20
-102.0127224137329
 30
0.0
 10
56.1171603592346
 20
-102.0296033816107
 30
0.0
 10
56.1171603592346
 20
-102.0296033816107
 30
0.0
 10
56.1171603592346
 20
-101.8011935509386
 30
0.0
 10
56.1171603592346
 20
-101.8011935509386
 30
0.0
 10
56.14678818040775
 20
-101.8077392323606
 30
0.0
 10
56.16900904628761
 20
-101.813940404234
 30
0.0
 10
56.21534558056423
 20
-101.8180745188163
 30
0.0
 10
56.30422904408367
 20
-101.8246202002383
 30
0.0
 10
56.4763115635719
 20
-101.8266872575294
 30
0.0
 10
56.55038111650477
 20
-101.8266872575294
 30
0.0
 10
56.55038111650477
 20
-101.8266872575294
 30
0.0
 10
56.99307588635937
 20
-101.8266872575294
 30
0.0
 10
56.99307588635937
 20
-101.8266872575294
 30
0.0
 10
57.05233152870567
 20
-101.8266872575294
 30
0.0
 10
57.17997231643417
 20
-101.8225531429471
 30
0.0
 10
57.23371580600407
 20
-101.8160074615252
 30
0.0
 10
57.29676105338415
 20
-101.8077392323606
 30
0.0
 10
57.32070446700664
 20
-101.792925321774
 30
0.0
 10
57.35033228817978
 20
-101.7694986724743
 30
0.0
 10
57.35033228817978
 20
-101.7694986724743
 30
0.0
 10
57.49485404378601
 20
-101.9365858035089
 30
0.0
 10
57.49485404378601
 20
-101.9365858035089
 30
0.0
 10
57.43370359892283
 20
-102.0044541845683
 30
0.0
 10
57.39305147219688
 20
-102.1081515586744
 30
0.0
 10
57.37255315405964
 20
-102.1587944623075
 30
0.0
  0
SPLINE
  5
13C
330
106
100
AcDbEntity
  8
_U+30EC_U+30A4_U+30E4_U+30FC 1
370
     0
100
AcDbSpline
210
0.0
220
0.0
230
1.0
 70
    11
 71
     3
 72
    29
 73
    25
 74
     0
 42
0.0000000001
 43
0.0000000001
 12
1.0
 22
0.0
 32
0.0
 13
1.0
 23
0.0
 33
0.0
 40
0.0
 40
0.0
 40
0.0
 40
0.0
 40
1.0
 40
1.0
 40
1.0
 40
2.0
 40
2.0
 40
2.0
 40
3.0
 40
3.0
 40
3.0
 40
4.0
 40
4.0
 40
4.0
 40
5.0
 40
5.0
 40
5.0
 40
6.0
 40
6.0
 40
6.0
 40
7.0
 40
7.0
 40
7.0
 40
8.0
 40
8.0
 40
8.0
 40
8.0
 10
56.94122719930636
 20
-101.5324761030891
 30
0.0
 10
56.94122719930636
 20
-101.5324761030891
 30
0.0
 10
56.64305418505799
 20
-101.5324761030891
 30
0.0
 10
56.64305418505799
 20
-101.5324761030891
 30
0.0
 10
56.54297416121148
 20
-101.5324761030891
 30
0.0
 10
56.44117158962235
 20
-101.5369547272199
 30
0.0
 10
56.3412638205501
 20
-101.5517686378065
 30
0.0
 10
56.3412638205501
 20
-101.5517686378065
 30
0.0
 10
56.3412638205501
 20
-101.3423068323033
 30
0.0
 10
56.3412638205501
 20
-101.3423068323033
 30
0.0
 10
56.44496119465612
 20
-101.3571207428899
 30
0.0
 10
56.59671765078138
 20
-101.3612548574722
 30
0.0
 10
56.64305418505799
 20
-101.3612548574722
 30
0.0
 10
56.64305418505799
 20
-101.3612548574722
 30
0.0
 10
56.94122719930636
 20
-101.3612548574722
 30
0.0
 10
56.94122719930636
 20
-101.3612548574722
 30
0.0
 10
57.04302977089549
 20
-101.3612548574722
 30
0.0
 10
57.14483234248463
 20
-101.3571207428899
 30
0.0
 10
57.24663491407376
 20
-101.3423068323033
 30
0.0
 10
57.24663491407376
 20
-101.3423068323033
 30
0.0
 10
57.24663491407376
 20
-101.5517686378065
 30
0.0
 10
57.24663491407376
 20
-101.5517686378065
 30
0.0
 10
57.11520452131148
 20
-101.5324761030891
 30
0.0
 10
56.95414630737605
 20
-101.5324761030891
 30
0.0
 10
56.94122719930636
 20
-101.5324761030891
 30
0.0
  0
HATCH
  5
13D
330
106
100
AcDbEntity
  8
_U+30EC_U+30A4_U+30E4_U+30FC 1
 62
   179
420
  2234388
100
AcDbHatch
 10
0.0
 20
0.0
 30
0.0
210
0.0
220
0.0
230
1.0
  2
SOLID
 70
     1
 71
     0
 91
        2
 92
        1
 93
        1
 72
     4
 94
        3
 73
     0
 74
     1
 95
       50
 96
       46
 40
0.0
 40
0.0
 40
0.0
 40
0.0
 40
1.0
 40
1.0
 40
1.0
 40
2.0
 40
2.0
 40
2.0
 40
3.0
 40
3.0
 40
3.0
 40
4.0
 40
4.0
 40
4.0
 40
5.0
 40
5.0
 40
5.0
 40
6.0
 40
6.0
 40
6.0
 40
7.0
 40
7.0
 40
7.0
 40
8.0
 40
8.0
 40
8.0
 40
9.0
 40
9.0
 40
9.0
 40
10.0
 40
10.0
 40
10.0
 40
11.0
 40
11.0
 40
11.0
 40
12.0
 40
12.0
 40
12.0
 40
13.0
 40
13.0
 40
13.0
 40
14.0
 40
14.0
 40
14.0
 40
15.0
 40
15.0
 40
15.0
 40
15.0
 10
57.37255315405964
 20
-102.1587944623075
 10
57.30416800867744
 20
-102.3365613893464
 10
57.18565672398484
 20
-102.5436116280099
 10
57.06525063677535
 20
-102.6834825047111
 10
56.91711153090962
 20
-102.854703750328
 10
56.77448457782027
 20
-102.9435872138474
 10
56.49491507919225
 20
-103.0851806382912
 10
56.49491507919225
 20
-103.0851806382912
 10
56.3467759733265
 20
-102.8970784247966
 10
56.3467759733265
 20
-102.8970784247966
 10
56.50972898977882
 20
-102.8736517754969
 10
56.65976289816145
 20
-102.7871798788171
 10
56.79308809344062
 20
-102.6814154474199
 10
57.02270370753252
 20
-102.4995144057987
 10
57.18927407424435
 20
-102.1863552261895
 10
57.23182100348718
 20
-102.0044541845683
 10
57.23182100348718
 20
-102.0044541845683
 10
56.64494898757488
 20
-102.0044541845683
 10
56.64494898757488
 20
-102.0044541845683
 10
56.50593938474505
 20
-102.0044541845683
 10
56.25048555451377
 20
-102.0127224137329
 10
56.1171603592346
 20
-102.0296033816107
 10
56.1171603592346
 20
-102.0296033816107
 10
56.1171603592346
 20
-101.8011935509386
 10
56.1171603592346
 20
-101.8011935509386
 10
56.14678818040775
 20
-101.8077392323606
 10
56.16900904628761
 20
-101.813940404234
 10
56.21534558056423
 20
-101.8180745188163
 10
56.30422904408367
 20
-101.8246202002383
 10
56.4763115635719
 20
-101.8266872575294
 10
56.55038111650477
 20
-101.8266872575294
 10
56.55038111650477
 20
-101.8266872575294
 10
56.99307588635937
 20
-101.8266872575294
 10
56.99307588635937
 20
-101.8266872575294
 10
57.05233152870567
 20
-101.8266872575294
 10
57.17997231643417
 20
-101.8225531429471
 10
57.23371580600407
 20
-101.8160074615252
 10
57.29676105338415
 20
-101.8077392323606
 10
57.32070446700664
 20
-101.792925321774
 10
57.35033228817978
 20
-101.7694986724743
 10
57.35033228817978
 20
-101.7694986724743
 10
57.49485404378601
 20
-101.9365858035089
 10
57.49485404378601
 20
-101.9365858035089
 10
57.43370359892283
 20
-102.0044541845683
 10
57.39305147219688
 20
-102.1081515586744
 10
57.37255315405964
 20
-102.1587944623075
 97
        0
 97
        0
 92
        1
 93
        1
 72
     4
 94
        3
 73
     0
 74
     1
 95
       29
 96
       25
 40
0.0
 40
0.0
 40
0.0
 40
0.0
 40
1.0
 40
1.0
 40
1.0
 40
2.0
 40
2.0
 40
2.0
 40
3.0
 40
3.0
 40
3.0
 40
4.0
 40
4.0
 40
4.0
 40
5.0
 40
5.0
 40
5.0
 40
6.0
 40
6.0
 40
6.0
 40
7.0
 40
7.0
 40
7.0
 40
8.0
 40
8.0
 40
8.0
 40
8.0
 10
56.94122719930636
 20
-101.5324761030891
 10
56.94122719930636
 20
-101.5324761030891
 10
56.64305418505799
 20
-101.5324761030891
 10
56.64305418505799
 20
-101.5324761030891
 10
56.54297416121148
 20
-101.5324761030891
 10
56.44117158962235
 20
-101.5369547272199
 10
56.3412638205501
 20
-101.5517686378065
 10
56.3412638205501
 20
-101.5517686378065
 10
56.3412638205501
 20
-101.3423068323033
 10
56.3412638205501
 20
-101.3423068323033
 10
56.44496119465612
 20
-101.3571207428899
 10
56.59671765078138
 20
-101.3612548574722
 10
56.64305418505799
 20
-101.3612548574722
 10
56.64305418505799
 20
-101.3612548574722
 10
56.94122719930636
 20
-101.3612548574722
 10
56.94122719930636
 20
-101.3612548574722
 10
57.04302977089549
 20
-101.3612548574722
 10
57.14483234248463
 20
-101.3571207428899
 10
57.24663491407376
 20
-101.3423068323033
 10
57.24663491407376
 20
-101.3423068323033
 10
57.24663491407376
 20
-101.5517686378065
 10
57.24663491407376
 20
-101.5517686378065
 10
57.11520452131148
 20
-101.5324761030891
 10
56.95414630737605
 20
-101.5324761030891
 10
56.94122719930636
 20
-101.5324761030891
 97
        0
 97
        0
 75
     2
 76
     1
 98
        0
  0
SPLINE
  5
13E
330
106
100
AcDbEntity
  8
_U+30EC_U+30A4_U+30E4_U+30FC 1
370
     0
100
AcDbSpline
210
0.0
220
0.0
230
1.0
 70
    11
 71
     3
 72
    50
 73
    46
 74
     0
 42
0.0000000001
 43
0.0000000001
 12
1.0
 22
0.0
 32
0.0
 13
1.0
 23
0.0
 33
0.0
 40
0.0
 40
0.0
 40
0.0
 40
0.0
 40
1.0
 40
1.0
 40
1.0
 40
2.0
 40
2.0
 40
2.0
 40
3.0
 40
3.0
 40
3.0
 40
4.0
 40
4.0
 40
4.0
 40
5.0
 40
5.0
 40
5.0
 40
6.0
 40
6.0
 40
6.0
 40
7.0
 40
7.0
 40
7.0
 40
8.0
 40
8.0
 40
8.0
 40
9.0
 40
9.0
 40
9.0
 40
10.0
 40
10.0
 40
10.0
 40
11.0
 40
11.0
 40
11.0
 40
12.0
 40
12.0
 40
12.0
 40
13.0
 40
13.0
 40
13.0
 40
14.0
 40
14.0
 40
14.0
 40
15.0
 40
15.0
 40
15.0
 40
15.0
 10
58.87065292582054
 20
-101.5176621925025
 30
0.0
 10
58.68737384600524
 20
-101.731258112588
 30
0.0
 10
58.62450085339943
 20
-101.8032606082297
 30
0.0
 10
58.50030516115618
 20
-101.9217718929223
 30
0.0
 10
58.50030516115618
 20
-101.9217718929223
 30
0.0
 10
58.50030516115618
 20
-102.4888346097945
 30
0.0
 10
58.50030516115618
 20
-102.4888346097945
 30
0.0
 10
58.50030516115618
 20
-102.6390407729514
 30
0.0
 10
58.50598956870684
 20
-102.6579887981202
 30
0.0
 10
58.50960691896635
 20
-102.8357557251591
 30
0.0
 10
58.51150172148323
 20
-102.9670138631471
 30
0.0
 10
58.51701387425964
 20
-103.0155897094892
 30
0.0
 10
58.52252602703604
 20
-103.0748453518355
 30
0.0
 10
58.52252602703604
 20
-103.0748453518355
 30
0.0
 10
58.32443303663418
 20
-103.0748453518355
 30
0.0
 10
58.32443303663418
 20
-103.0748453518355
 30
0.0
 10
58.32822264166795
 20
-103.0304036200757
 30
0.0
 10
58.33183999192746
 20
-102.9838948310249
 30
0.0
 10
58.33183999192746
 20
-102.9752820923117
 30
0.0
 10
58.33183999192746
 20
-102.8950113675054
 30
0.0
 10
58.33562959696123
 20
-102.5436116280099
 30
0.0
 10
58.33562959696123
 20
-102.4719536419167
 30
0.0
 10
58.33562959696123
 20
-102.4719536419167
 30
0.0
 10
58.33562959696123
 20
-102.0657768842058
 30
0.0
 10
58.33562959696123
 20
-102.0657768842058
 30
0.0
 10
58.17629393076843
 20
-102.1904893407718
 30
0.0
 10
58.00593395902283
 20
-102.3003878867513
 30
0.0
 10
57.82816703198393
 20
-102.3872042929796
 30
0.0
 10
57.82816703198393
 20
-102.3872042929796
 30
0.0
 10
57.65040010494504
 20
-102.2242512765273
 30
0.0
 10
57.65040010494504
 20
-102.2242512765273
 30
0.0
 10
57.75788708408484
 20
-102.1884222834807
 30
0.0
 10
57.98181829062607
 20
-102.1143527305478
 30
0.0
 10
58.28378090990822
 20
-101.8583821359937
 30
0.0
 10
58.47257214249991
 20
-101.6995632341237
 30
0.0
 10
58.64103731172863
 20
-101.5114610206291
 30
0.0
 10
58.7743625070078
 20
-101.2913194191216
 30
0.0
 10
58.7743625070078
 20
-101.2913194191216
 30
0.0
 10
58.94299993101078
 20
-101.4353244104051
 30
0.0
 10
58.94299993101078
 20
-101.4353244104051
 30
0.0
 10
58.95402423656358
 20
-101.4456596968608
 30
0.0
 10
58.96143119185687
 20
-101.4604736074474
 30
0.0
 10
58.96143119185687
 20
-101.4732204607428
 30
0.0
 10
58.96143119185687
 20
-101.5135280779202
 30
0.0
 10
58.92818602042421
 20
-101.5135280779202
 30
0.0
 10
58.87065292582054
 20
-101.5176621925025
 30
0.0
  0
HATCH
  5
13F
330
106
100
AcDbEntity
  8
_U+30EC_U+30A4_U+30E4_U+30FC 1
 62
   179
420
  2234388
100
AcDbHatch
 10
0.0
 20
0.0
 30
0.0
210
0.0
220
0.0
230
1.0
  2
SOLID
 70
     1
 71
     0
 91
        1
 92
        1
 93
        1
 72
     4
 94
        3
 73
     0
 74
     1
 95
       50
 96
       46
 40
0.0
 40
0.0
 40
0.0
 40
0.0
 40
1.0
 40
1.0
 40
1.0
 40
2.0
 40
2.0
 40
2.0
 40
3.0
 40
3.0
 40
3.0
 40
4.0
 40
4.0
 40
4.0
 40
5.0
 40
5.0
 40
5.0
 40
6.0
 40
6.0
 40
6.0
 40
7.0
 40
7.0
 40
7.0
 40
8.0
 40
8.0
 40
8.0
 40
9.0
 40
9.0
 40
9.0
 40
10.0
 40
10.0
 40
10.0
 40
11.0
 40
11.0
 40
11.0
 40
12.0
 40
12.0
 40
12.0
 40
13.0
 40
13.0
 40
13.0
 40
14.0
 40
14.0
 40
14.0
 40
15.0
 40
15.0
 40
15.0
 40
15.0
 10
58.87065292582054
 20
-101.5176621925025
 10
58.68737384600524
 20
-101.731258112588
 10
58.62450085339943
 20
-101.8032606082297
 10
58.50030516115618
 20
-101.9217718929223
 10
58.50030516115618
 20
-101.9217718929223
 10
58.50030516115618
 20
-102.4888346097945
 10
58.50030516115618
 20
-102.4888346097945
 10
58.50030516115618
 20
-102.6390407729514
 10
58.50598956870684
 20
-102.6579887981202
 10
58.50960691896635
 20
-102.8357557251591
 10
58.51150172148323
 20
-102.9670138631471
 10
58.51701387425964
 20
-103.0155897094892
 10
58.52252602703604
 20
-103.0748453518355
 10
58.52252602703604
 20
-103.0748453518355
 10
58.32443303663418
 20
-103.0748453518355
 10
58.32443303663418
 20
-103.0748453518355
 10
58.32822264166795
 20
-103.0304036200757
 10
58.33183999192746
 20
-102.9838948310249
 10
58.33183999192746
 20
-102.9752820923117
 10
58.33183999192746
 20
-102.8950113675054
 10
58.33562959696123
 20
-102.5436116280099
 10
58.33562959696123
 20
-102.4719536419167
 10
58.33562959696123
 20
-102.4719536419167
 10
58.33562959696123
 20
-102.0657768842058
 10
58.33562959696123
 20
-102.0657768842058
 10
58.17629393076843
 20
-102.1904893407718
 10
58.00593395902283
 20
-102.3003878867513
 10
57.82816703198393
 20
-102.3872042929796
 10
57.82816703198393
 20
-102.3872042929796
 10
57.65040010494504
 20
-102.2242512765273
 10
57.65040010494504
 20
-102.2242512765273
 10
57.75788708408484
 20
-102.1884222834807
 10
57.98181829062607
 20
-102.1143527305478
 10
58.28378090990822
 20
-101.8583821359937
 10
58.47257214249991
 20
-101.6995632341237
 10
58.64103731172863
 20
-101.5114610206291
 10
58.7743625070078
 20
-101.2913194191216
 10
58.7743625070078
 20
-101.2913194191216
 10
58.94299993101078
 20
-101.4353244104051
 10
58.94299993101078
 20
-101.4353244104051
 10
58.95402423656358
 20
-101.4456596968608
 10
58.96143119185687
 20
-101.4604736074474
 10
58.96143119185687
 20
-101.4732204607428
 10
58.96143119185687
 20
-101.5135280779202
 10
58.92818602042421
 20
-101.5135280779202
 10
58.87065292582054
 20
-101.5176621925025
 97
        0
 97
        0
 75
     2
 76
     1
 98
        0
  0
SPLINE
  5
140
330
106
100
AcDbEntity
  8
_U+30EC_U+30A4_U+30E4_U+30FC 1
370
     0
100
AcDbSpline
210
0.0
220
0.0
230
1.0
 70
    11
 71
     3
 72
    50
 73
    46
 74
     0
 42
0.0000000001
 43
0.0000000001
 12
1.0
 22
0.0
 32
0.0
 13
1.0
 23
0.0
 33
0.0
 40
0.0
 40
0.0
 40
0.0
 40
0.0
 40
1.0
 40
1.0
 40
1.0
 40
2.0
 40
2.0
 40
2.0
 40
3.0
 40
3.0
 40
3.0
 40
4.0
 40
4.0
 40
4.0
 40
5.0
 40
5.0
 40
5.0
 40
6.0
 40
6.0
 40
6.0
 40
7.0
 40
7.0
 40
7.0
 40
8.0
 40
8.0
 40
8.0
 40
9.0
 40
9.0
 40
9.0
 40
10.0
 40
10.0
 40
10.0
 40
11.0
 40
11.0
 40
11.0
 40
12.0
 40
12.0
 40
12.0
 40
13.0
 40
13.0
 40
13.0
 40
14.0
 40
14.0
 40
14.0
 40
15.0
 40
15.0
 40
15.0
 40
15.0
 10
60.3670301498388
 20
-102.0444172921972
 30
0.0
 10
60.3132866602689
 20
-102.116419787839
 30
0.0
 10
60.08556584869389
 20
-102.4337130820305
 30
0.0
 10
60.0354397093835
 20
-102.4971028389591
 30
0.0
 10
60.10950926231637
 20
-102.5945990411916
 30
0.0
 10
60.1539509940761
 20
-102.6579887981202
 30
0.0
 10
60.21148408867977
 20
-102.7489393189308
 30
0.0
 10
60.21148408867977
 20
-102.7489393189308
 30
0.0
 10
60.05025361997008
 20
-102.8863986287923
 30
0.0
 10
60.05025361997008
 20
-102.8863986287923
 30
0.0
 10
59.93174233527748
 20
-102.674869765998
 30
0.0
 10
59.78188068166912
 20
-102.4505940499082
 30
0.0
 10
59.52435979414669
 20
-102.2518120404093
 30
0.0
 10
59.52435979414669
 20
-102.2518120404093
 30
0.0
 10
59.65406763916635
 20
-102.0974717626701
 30
0.0
 10
59.65406763916635
 20
-102.0974717626701
 30
0.0
 10
59.75035805797908
 20
-102.1777424874764
 30
0.0
 10
59.84113632401542
 20
-102.2666259509958
 30
0.0
 10
59.92623018250109
 20
-102.3617105863887
 30
0.0
 10
59.98548582484738
 20
-102.2855739761647
 30
0.0
 10
60.16325275188628
 20
-102.0423502349061
 30
0.0
 10
60.27986923406198
 20
-101.813940404234
 30
0.0
 10
60.27986923406198
 20
-101.813940404234
 30
0.0
 10
59.69110241563278
 20
-101.813940404234
 30
0.0
 10
59.69110241563278
 20
-101.813940404234
 30
0.0
 10
59.58189288875036
 20
-101.813940404234
 30
0.0
 10
59.36140677769437
 20
-101.8225531429471
 30
0.0
 10
59.17812769787908
 20
-101.8328884294029
 30
0.0
 10
59.17812769787908
 20
-101.8328884294029
 30
0.0
 10
59.17812769787908
 20
-101.6130913374439
 30
0.0
 10
59.17812769787908
 20
-101.6130913374439
 30
0.0
 10
59.33918591181451
 20
-101.6320393626128
 30
0.0
 10
59.51884764137029
 20
-101.6361734771951
 30
0.0
 10
59.68369546033949
 20
-101.6361734771951
 30
0.0
 10
59.68369546033949
 20
-101.6361734771951
 30
0.0
 10
60.12432317290295
 20
-101.6361734771951
 30
0.0
 10
60.12432317290295
 20
-101.6361734771951
 30
0.0
 10
60.42060138463444
 20
-101.6361734771951
 30
0.0
 10
60.45953096361776
 20
-101.6213595666085
 30
0.0
 10
60.53170571403374
 20
-101.5813964589797
 30
0.0
 10
60.53170571403374
 20
-101.5813964589797
 30
0.0
 10
60.67812227215686
 20
-101.7398708513011
 30
0.0
 10
60.67812227215686
 20
-101.7398708513011
 30
0.0
 10
60.54479707687769
 20
-101.8118733469429
 30
0.0
 10
60.41887883689181
 20
-101.9748263633952
 30
0.0
 10
60.3670301498388
 20
-102.0444172921972
 30
0.0
  0
HATCH
  5
141
330
106
100
AcDbEntity
  8
_U+30EC_U+30A4_U+30E4_U+30FC 1
 62
   179
420
  2234388
100
AcDbHatch
 10
0.0
 20
0.0
 30
0.0
210
0.0
220
0.0
230
1.0
  2
SOLID
 70
     1
 71
     0
 91
        1
 92
        1
 93
        1
 72
     4
 94
        3
 73
     0
 74
     1
 95
       50
 96
       46
 40
0.0
 40
0.0
 40
0.0
 40
0.0
 40
1.0
 40
1.0
 40
1.0
 40
2.0
 40
2.0
 40
2.0
 40
3.0
 40
3.0
 40
3.0
 40
4.0
 40
4.0
 40
4.0
 40
5.0
 40
5.0
 40
5.0
 40
6.0
 40
6.0
 40
6.0
 40
7.0
 40
7.0
 40
7.0
 40
8.0
 40
8.0
 40
8.0
 40
9.0
 40
9.0
 40
9.0
 40
10.0
 40
10.0
 40
10.0
 40
11.0
 40
11.0
 40
11.0
 40
12.0
 40
12.0
 40
12.0
 40
13.0
 40
13.0
 40
13.0
 40
14.0
 40
14.0
 40
14.0
 40
15.0
 40
15.0
 40
15.0
 40
15.0
 10
60.3670301498388
 20
-102.0444172921972
 10
60.3132866602689
 20
-102.116419787839
 10
60.08556584869389
 20
-102.4337130820305
 10
60.0354397093835
 20
-102.4971028389591
 10
60.10950926231637
 20
-102.5945990411916
 10
60.1539509940761
 20
-102.6579887981202
 10
60.21148408867977
 20
-102.7489393189308
 10
60.21148408867977
 20
-102.7489393189308
 10
60.05025361997008
 20
-102.8863986287923
 10
60.05025361997008
 20
-102.8863986287923
 10
59.93174233527748
 20
-102.674869765998
 10
59.78188068166912
 20
-102.4505940499082
 10
59.52435979414669
 20
-102.2518120404093
 10
59.52435979414669
 20
-102.2518120404093
 10
59.65406763916635
 20
-102.0974717626701
 10
59.65406763916635
 20
-102.0974717626701
 10
59.75035805797908
 20
-102.1777424874764
 10
59.84113632401542
 20
-102.2666259509958
 10
59.92623018250109
 20
-102.3617105863887
 10
59.98548582484738
 20
-102.2855739761647
 10
60.16325275188628
 20
-102.0423502349061
 10
60.27986923406198
 20
-101.813940404234
 10
60.27986923406198
 20
-101.813940404234
 10
59.69110241563278
 20
-101.813940404234
 10
59.69110241563278
 20
-101.813940404234
 10
59.58189288875036
 20
-101.813940404234
 10
59.36140677769437
 20
-101.8225531429471
 10
59.17812769787908
 20
-101.8328884294029
 10
59.17812769787908
 20
-101.8328884294029
 10
59.17812769787908
 20
-101.6130913374439
 10
59.17812769787908
 20
-101.6130913374439
 10
59.33918591181451
 20
-101.6320393626128
 10
59.51884764137029
 20
-101.6361734771951
 10
59.68369546033949
 20
-101.6361734771951
 10
59.68369546033949
 20
-101.6361734771951
 10
60.12432317290295
 20
-101.6361734771951
 10
60.12432317290295
 20
-101.6361734771951
 10
60.42060138463444
 20
-101.6361734771951
 10
60.45953096361776
 20
-101.6213595666085
 10
60.53170571403374
 20
-101.5813964589797
 10
60.53170571403374
 20
-101.5813964589797
 10
60.67812227215686
 20
-101.7398708513011
 10
60.67812227215686
 20
-101.7398708513011
 10
60.54479707687769
 20
-101.8118733469429
 10
60.41887883689181
 20
-101.9748263633952
 10
60.3670301498388
 20
-102.0444172921972
 97
        0
 97
        0
 75
     2
 76
     1
 98
        0
  0
SPLINE
  5
142
330
106
100
AcDbEntity
  8
_U+30EC_U+30A4_U+30E4_U+30FC 1
370
     0
100
AcDbSpline
210
0.0
220
0.0
230
1.0
 70
    11
 71
     3
 72
    29
 73
    25
 74
     0
 42
0.0000000001
 43
0.0000000001
 12
1.0
 22
0.0
 32
0.0
 13
1.0
 23
0.0
 33
0.0
 40
0.0
 40
0.0
 40
0.0
 40
0.0
 40
1.0
 40
1.0
 40
1.0
 40
2.0
 40
2.0
 40
2.0
 40
3.0
 40
3.0
 40
3.0
 40
4.0
 40
4.0
 40
4.0
 40
5.0
 40
5.0
 40
5.0
 40
6.0
 40
6.0
 40
6.0
 40
7.0
 40
7.0
 40
7.0
 40
8.0
 40
8.0
 40
8.0
 40
8.0
 10
61.7893378209242
 20
-102.2876410334559
 30
0.0
 10
61.7893378209242
 20
-102.2876410334559
 30
0.0
 10
61.36524656668994
 20
-102.2876410334559
 30
0.0
 10
61.36524656668994
 20
-102.2876410334559
 30
0.0
 10
61.34113089829319
 20
-102.2876410334559
 30
0.0
 10
61.06345620218205
 20
-102.2876410334559
 30
0.0
 10
60.87828231984987
 20
-102.3131347400467
 30
0.0
 10
60.87828231984987
 20
-102.3131347400467
 30
0.0
 10
60.87828231984987
 20
-102.0826578520835
 30
0.0
 10
60.87828231984987
 20
-102.0826578520835
 30
0.0
 10
61.01711966790545
 20
-102.1057399918347
 30
0.0
 10
61.18386228939153
 20
-102.1081515586744
 30
0.0
 10
61.36524656668994
 20
-102.1081515586744
 30
0.0
 10
61.36524656668994
 20
-102.1081515586744
 30
0.0
 10
61.7893378209242
 20
-102.1081515586744
 30
0.0
 10
61.7893378209242
 20
-102.1081515586744
 30
0.0
 10
61.95229083737652
 20
-102.1081515586744
 30
0.0
 10
62.11524385382883
 20
-102.1057399918347
 30
0.0
 10
62.27630206776426
 20
-102.0826578520835
 30
0.0
 10
62.27630206776426
 20
-102.0826578520835
 30
0.0
 10
62.27630206776426
 20
-102.3131347400467
 30
0.0
 10
62.27630206776426
 20
-102.3131347400467
 30
0.0
 10
62.11524385382883
 20
-102.2900526002956
 30
0.0
 10
61.89854734780661
 20
-102.2876410334559
 30
0.0
 10
61.7893378209242
 20
-102.2876410334559
 30
0.0
  0
HATCH
  5
143
330
106
100
AcDbEntity
  8
_U+30EC_U+30A4_U+30E4_U+30FC 1
 62
   179
420
  2234388
100
AcDbHatch
 10
0.0
 20
0.0
 30
0.0
210
0.0
220
0.0
230
1.0
  2
SOLID
 70
     1
 71
     0
 91
        1
 92
        1
 93
        1
 72
     4
 94
        3
 73
     0
 74
     1
 95
       29
 96
       25
 40
0.0
 40
0.0
 40
0.0
 40
0.0
 40
1.0
 40
1.0
 40
1.0
 40
2.0
 40
2.0
 40
2.0
 40
3.0
 40
3.0
 40
3.0
 40
4.0
 40
4.0
 40
4.0
 40
5.0
 40
5.0
 40
5.0
 40
6.0
 40
6.0
 40
6.0
 40
7.0
 40
7.0
 40
7.0
 40
8.0
 40
8.0
 40
8.0
 40
8.0
 10
61.7893378209242
 20
-102.2876410334559
 10
61.7893378209242
 20
-102.2876410334559
 10
61.36524656668994
 20
-102.2876410334559
 10
61.36524656668994
 20
-102.2876410334559
 10
61.34113089829319
 20
-102.2876410334559
 10
61.06345620218205
 20
-102.2876410334559
 10
60.87828231984987
 20
-102.3131347400467
 10
60.87828231984987
 20
-102.3131347400467
 10
60.87828231984987
 20
-102.0826578520835
 10
60.87828231984987
 20
-102.0826578520835
 10
61.01711966790545
 20
-102.1057399918347
 10
61.18386228939153
 20
-102.1081515586744
 10
61.36524656668994
 20
-102.1081515586744
 10
61.36524656668994
 20
-102.1081515586744
 10
61.7893378209242
 20
-102.1081515586744
 10
61.7893378209242
 20
-102.1081515586744
 10
61.95229083737652
 20
-102.1081515586744
 10
62.11524385382883
 20
-102.1057399918347
 10
62.27630206776426
 20
-102.0826578520835
 10
62.27630206776426
 20
-102.0826578520835
 10
62.27630206776426
 20
-102.3131347400467
 10
62.27630206776426
 20
-102.3131347400467
 10
62.11524385382883
 20
-102.2900526002956
 10
61.89854734780661
 20
-102.2876410334559
 10
61.7893378209242
 20
-102.2876410334559
 97
        0
 97
        0
 75
     2
 76
     1
 98
        0
  0
ENDBLK
  5
109
330
106
100
AcDbEntity
  8
0
100
AcDbBlockEnd
  0
ENDSEC
  0
SECTION
  2
ENTITIES
  0
POLYLINE
  5
41
330
1F
100
AcDbEntity
  8
_U+30EC_U+30A4_U+30E4_U+30FC 1
  6
AI-Linetype-1
 62
   154
420
    23468
370
    25
100
AcDb2dPolyline
 66
     1
 10
0.0
 20
0.0
 30
0.0
  0
VERTEX
  5
42
330
41
100
AcDbEntity
  8
_U+30EC_U+30A4_U+30E4_U+30FC 1
  6
AI-Linetype-1
 62
   154
420
    23468
370
    25
100
AcDbVertex
100
AcDb2dVertex
 10
59.92466624897217
 20
-93.45993497663534
 30
0.0
  0
VERTEX
  5
43
330
41
100
AcDbEntity
  8
_U+30EC_U+30A4_U+30E4_U+30FC 1
  6
AI-Linetype-1
 62
   154
420
    23468
370
    25
100
AcDbVertex
100
AcDb2dVertex
 10
59.92466624897217
 20
-90.31594414408751
 30
0.0
  0
SEQEND
  5
45
330
41
100
AcDbEntity
  8
_U+30EC_U+30A4_U+30E4_U+30FC 1
  6
AI-Linetype-1
 62
   154
420
    23468
370
    25
  0
POLYLINE
  5
46
330
1F
100
AcDbEntity
  8
_U+30EC_U+30A4_U+30E4_U+30FC 1
  6
AI-Linetype-2
 62
   154
420
    23468
370
    25
100
AcDb2dPolyline
 66
     1
 10
0.0
 20
0.0
 30
0.0
  0
VERTEX
  5
47
330
46
100
AcDbEntity
  8
_U+30EC_U+30A4_U+30E4_U+30FC 1
  6
AI-Linetype-2
 62
   154
420
    23468
370
    25
100
AcDbVertex
100
AcDb2dVertex
 10
49.15566624593448
 20
-94.01598330982948
 30
0.0
  0
VERTEX
  5
48
330
46
100
AcDbEntity
  8
_U+30EC_U+30A4_U+30E4_U+30FC 1
  6
AI-Linetype-2
 62
   154
420
    23468
370
    25
100
AcDbVertex
100
AcDb2dVertex
 10
59.98566152519383
 20
-94.01598330982948
 30
0.0
  0
SEQEND
  5
4A
330
46
100
AcDbEntity
  8
_U+30EC_U+30A4_U+30E4_U+30FC 1
  6
AI-Linetype-2
 62
   154
420
    23468
370
    25
  0
INSERT
  5
4C
330
1F
100
AcDbEntity
  8
_U+30EC_U+30A4_U+30E4_U+30FC 1
100
AcDbBlockReference
  2
block 2
 10
0.0
 20
0.0
 30
0.0
  0
SPLINE
  5
87
330
1F
100
AcDbEntity
  8
_U+30EC_U+30A4_U+30E4_U+30FC 1
 62
   179
420
  2234388
370
     9
100
AcDbSpline
210
0.0
220
0.0
230
1.0
 70
    11
 71
     3
 72
    17
 73
    13
 74
     0
 42
0.0000000001
 43
0.0000000001
 12
1.0
 22
0.0
 32
0.0
 13
1.0
 23
0.0
 33
0.0
 40
0.0
 40
0.0
 40
0.0
 40
0.0
 40
1.0
 40
1.0
 40
1.0
 40
2.0
 40
2.0
 40
2.0
 40
3.0
 40
3.0
 40
3.0
 40
4.0
 40
4.0
 40
4.0
 40
4.0
 10
50.25566387632509
 20
-79.03894386912928
 30
0.0
 10
50.25566387632509
 20
-78.9838047024762
 30
0.0
 10
50.21089510790223
 20
-78.93903720248733
 30
0.0
 10
50.15575594264229
 20
-78.93903720248733
 30
0.0
 10
50.10029927739043
 20
-78.93903720248733
 30
0.0
 10
50.05549650075567
 20
-78.9838047024762
 30
0.0
 10
50.05549650075567
 20
-79.03894386912928
 30
0.0
 10
50.05549650075567
 20
-79.09404775800421
 30
0.0
 10
50.10029927739043
 20
-79.13885053577093
 30
0.0
 10
50.15575594264229
 20
-79.13885053577093
 30
0.0
 10
50.21089510790223
 20
-79.13885053577093
 30
0.0
 10
50.25566387632509
 20
-79.09404775800421
 30
0.0
 10
50.25566387632509
 20
-79.03894386912928
 30
0.0
  0
SPLINE
  5
88
330
1F
100
AcDbEntity
  8
_U+30EC_U+30A4_U+30E4_U+30FC 1
 62
   179
420
  2234388
370
     9
100
AcDbSpline
210
0.0
220
0.0
230
1.0
 70
    11
 71
     3
 72
    17
 73
    13
 74
     0
 42
0.0000000001
 43
0.0000000001
 12
1.0
 22
0.0
 32
0.0
 13
1.0
 23
0.0
 33
0.0
 40
0.0
 40
0.0
 40
0.0
 40
0.0
 40
1.0
 40
1.0
 40
1.0
 40
2.0
 40
2.0
 40
2.0
 40
3.0
 40
3.0
 40
3.0
 40
4.0
 40
4.0
 40
4.0
 40
4.0
 10
73.25546785331954
 20
-79.03894386912928
 30
0.0
 10
73.25546785331954
 20
-78.9838047024762
 30
0.0
 10
73.21070035446165
 20
-78.93903720248733
 30
0.0
 10
73.1555611892017
 20
-78.93903720248733
 30
0.0
 10
73.10045730171863
 20
-78.93903720248733
 30
0.0
 10
73.05565452508387
 20
-78.9838047024762
 30
0.0
 10
73.05565452508387
 20
-79.03894386912928
 30
0.0
 10
73.05565452508387
 20
-79.09404775800421
 30
0.0
 10
73.10045730171863
 20
-79.13885053577093
 30
0.0
 10
73.1555611892017
 20
-79.13885053577093
 30
0.0
 10
73.21070035446165
 20
-79.13885053577093
 30
0.0
 10
73.25546785331954
 20
-79.09404775800421
 30
0.0
 10
73.25546785331954
 20
-79.03894386912928
 30
0.0
  0
SPLINE
  5
89
330
1F
100
AcDbEntity
  8
_U+30EC_U+30A4_U+30E4_U+30FC 1
 62
   179
420
  2234388
370
     9
100
AcDbSpline
210
0.0
220
0.0
230
1.0
 70
    11
 71
     3
 72
    17
 73
    13
 74
     0
 42
0.0000000001
 43
0.0000000001
 12
1.0
 22
0.0
 32
0.0
 13
1.0
 23
0.0
 33
0.0
 40
0.0
 40
0.0
 40
0.0
 40
0.0
 40
1.0
 40
1.0
 40
1.0
 40
2.0
 40
2.0
 40
2.0
 40
3.0
 40
3.0
 40
3.0
 40
4.0
 40
4.0
 40
4.0
 40
4.0
 10
77.25593247348141
 20
-83.03870303479586
 30
0.0
 10
77.25593247348141
 20
-82.9835638681431
 30
0.0
 10
77.21112969684664
 20
-82.93879636815421
 30
0.0
 10
77.15602775848846
 20
-82.93879636815421
 30
0.0
 10
77.10021636634295
 20
-82.93879636815421
 30
0.0
 10
77.05541358970818
 20
-82.9835638681431
 30
0.0
 10
77.05541358970818
 20
-83.03870303479586
 30
0.0
 10
77.05541358970818
 20
-83.0938069236711
 30
0.0
 10
77.10021636634295
 20
-83.13860970143749
 30
0.0
 10
77.15602775848846
 20
-83.13860970143749
 30
0.0
 10
77.21112969684664
 20
-83.13860970143749
 30
0.0
 10
77.25593247348141
 20
-83.0938069236711
 30
0.0
 10
77.25593247348141
 20
-83.03870303479586
 30
0.0
  0
SPLINE
  5
8A
330
1F
100
AcDbEntity
  8
_U+30EC_U+30A4_U+30E4_U+30FC 1
 62
   179
420
  2234388
370
     9
100
AcDbSpline
210
0.0
220
0.0
230
1.0
 70
    11
 71
     3
 72
    17
 73
    13
 74
     0
 42
0.0000000001
 43
0.0000000001
 12
1.0
 22
0.0
 32
0.0
 13
1.0
 23
0.0
 33
0.0
 40
0.0
 40
0.0
 40
0.0
 40
0.0
 40
1.0
 40
1.0
 40
1.0
 40
2.0
 40
2.0
 40
2.0
 40
3.0
 40
3.0
 40
3.0
 40
4.0
 40
4.0
 40
4.0
 40
4.0
 10
77.25593247348141
 20
-83.83862664570695
 30
0.0
 10
77.25593247348141
 20
-83.78352275683204
 30
0.0
 10
77.21112969684664
 20
-83.73871997906532
 30
0.0
 10
77.15602775848846
 20
-83.73871997906532
 30
0.0
 10
77.10021636634295
 20
-83.73871997906532
 30
0.0
 10
77.05541358970818
 20
-83.78352275683204
 30
0.0
 10
77.05541358970818
 20
-83.83862664570695
 30
0.0
 10
77.05541358970818
 20
-83.89411859013748
 30
0.0
 10
77.10021636634295
 20
-83.93888609012636
 30
0.0
 10
77.15602775848846
 20
-83.93888609012636
 30
0.0
 10
77.21112969684664
 20
-83.93888609012636
 30
0.0
 10
77.25593247348141
 20
-83.89411859013748
 30
0.0
 10
77.25593247348141
 20
-83.83862664570695
 30
0.0
  0
SPLINE
  5
8B
330
1F
100
AcDbEntity
  8
_U+30EC_U+30A4_U+30E4_U+30FC 1
 62
   179
420
  2234388
370
     9
100
AcDbSpline
210
0.0
220
0.0
230
1.0
 70
    11
 71
     3
 72
    17
 73
    13
 74
     0
 42
0.0000000001
 43
0.0000000001
 12
1.0
 22
0.0
 32
0.0
 13
1.0
 23
0.0
 33
0.0
 40
0.0
 40
0.0
 40
0.0
 40
0.0
 40
1.0
 40
1.0
 40
1.0
 40
2.0
 40
2.0
 40
2.0
 40
3.0
 40
3.0
 40
3.0
 40
4.0
 40
4.0
 40
4.0
 40
4.0
 10
77.25593247348141
 20
-90.33866303297111
 30
0.0
 10
77.25593247348141
 20
-90.28355914409556
 30
0.0
 10
77.21112969684664
 20
-90.23875636632948
 30
0.0
 10
77.15602775848846
 20
-90.23875636632948
 30
0.0
 10
77.10021636634295
 20
-90.23875636632948
 30
0.0
 10
77.05541358970818
 20
-90.28355914409556
 30
0.0
 10
77.05541358970818
 20
-90.33866303297111
 30
0.0
 10
77.05541358970818
 20
-90.39380219962355
 30
0.0
 10
77.10021636634295
 20
-90.43856969961276
 30
0.0
 10
77.15602775848846
 20
-90.43856969961276
 30
0.0
 10
77.21112969684664
 20
-90.43856969961276
 30
0.0
 10
77.25593247348141
 20
-90.39380219962355
 30
0.0
 10
77.25593247348141
 20
-90.33866303297111
 30
0.0
  0
SPLINE
  5
8C
330
1F
100
AcDbEntity
  8
_U+30EC_U+30A4_U+30E4_U+30FC 1
 62
   179
420
  2234388
370
     9
100
AcDbSpline
210
0.0
220
0.0
230
1.0
 70
    11
 71
     3
 72
    17
 73
    13
 74
     0
 42
0.0000000001
 43
0.0000000001
 12
1.0
 22
0.0
 32
0.0
 13
1.0
 23
0.0
 33
0.0
 40
0.0
 40
0.0
 40
0.0
 40
0.0
 40
1.0
 40
1.0
 40
1.0
 40
2.0
 40
2.0
 40
2.0
 40
3.0
 40
3.0
 40
3.0
 40
4.0
 40
4.0
 40
4.0
 40
4.0
 10
77.25593247348141
 20
-93.33864997666547
 30
0.0
 10
77.25593247348141
 20
-93.28354608779054
 30
0.0
 10
77.21112969684664
 20
-93.23874331002382
 30
0.0
 10
77.15602775848846
 20
-93.23874331002382
 30
0.0
 10
77.10021636634295
 20
-93.23874331002382
 30
0.0
 10
77.05541358970818
 20
-93.28354608779054
 30
0.0
 10
77.05541358970818
 20
-93.33864997666547
 30
0.0
 10
77.05541358970818
 20
-93.39378914331854
 30
0.0
 10
77.10021636634295
 20
-93.4385566433071
 30
0.0
 10
77.15602775848846
 20
-93.4385566433071
 30
0.0
 10
77.21112969684664
 20
-93.4385566433071
 30
0.0
 10
77.25593247348141
 20
-93.39378914331854
 30
0.0
 10
77.25593247348141
 20
-93.33864997666547
 30
0.0
  0
SPLINE
  5
8D
330
1F
100
AcDbEntity
  8
_U+30EC_U+30A4_U+30E4_U+30FC 1
 62
   179
420
  2234388
370
     9
100
AcDbSpline
210
0.0
220
0.0
230
1.0
 70
    11
 71
     3
 72
    17
 73
    13
 74
     0
 42
0.0000000001
 43
0.0000000001
 12
1.0
 22
0.0
 32
0.0
 13
1.0
 23
0.0
 33
0.0
 40
0.0
 40
0.0
 40
0.0
 40
0.0
 40
1.0
 40
1.0
 40
1.0
 40
2.0
 40
2.0
 40
2.0
 40
3.0
 40
3.0
 40
3.0
 40
4.0
 40
4.0
 40
4.0
 40
4.0
 10
59.25530571049343
 20
-98.42224830872799
 30
0.0
 10
59.25530571049343
 20
-98.36643886429755
 30
0.0
 10
59.21050293385866
 20
-98.32163608653083
 30
0.0
 10
59.15539904637559
 20
-98.32163608653083
 30
0.0
 10
59.10025988111565
 20
-98.32163608653083
 30
0.0
 10
59.05549238225776
 20
-98.36643886429755
 30
0.0
 10
59.05549238225776
 20
-98.42224830872799
 30
0.0
 10
59.05549238225776
 20
-98.4773521976029
 30
0.0
 10
59.10025988111565
 20
-98.52215497536962
 30
0.0
 10
59.15539904637559
 20
-98.52215497536962
 30
0.0
 10
59.21050293385866
 20
-98.52215497536962
 30
0.0
 10
59.25530571049343
 20
-98.4773521976029
 30
0.0
 10
59.25530571049343
 20
-98.42224830872799
 30
0.0
  0
SPLINE
  5
8E
330
1F
100
AcDbEntity
  8
_U+30EC_U+30A4_U+30E4_U+30FC 1
 62
   179
420
  2234388
370
     9
100
AcDbSpline
210
0.0
220
0.0
230
1.0
 70
    11
 71
     3
 72
    17
 73
    13
 74
     0
 42
0.0000000001
 43
0.0000000001
 12
1.0
 22
0.0
 32
0.0
 13
1.0
 23
0.0
 33
0.0
 40
0.0
 40
0.0
 40
0.0
 40
0.0
 40
1.0
 40
1.0
 40
1.0
 40
2.0
 40
2.0
 40
2.0
 40
3.0
 40
3.0
 40
3.0
 40
4.0
 40
4.0
 40
4.0
 40
4.0
 10
49.25557291005232
 20
-98.42224830872799
 30
0.0
 10
49.25557291005232
 20
-98.36643886429755
 30
0.0
 10
49.21077013341755
 20
-98.32163608653083
 30
0.0
 10
49.15566624593448
 20
-98.32163608653083
 30
0.0
 10
49.10052708067452
 20
-98.32163608653083
 30
0.0
 10
49.05575958181664
 20
-98.36643886429755
 30
0.0
 10
49.05575958181664
 20
-98.42224830872799
 30
0.0
 10
49.05575958181664
 20
-98.4773521976029
 30
0.0
 10
49.10052708067452
 20
-98.52215497536962
 30
0.0
 10
49.15566624593448
 20
-98.52215497536962
 30
0.0
 10
49.21077013341755
 20
-98.52215497536962
 30
0.0
 10
49.25557291005232
 20
-98.4773521976029
 30
0.0
 10
49.25557291005232
 20
-98.42224830872799
 30
0.0
  0
POLYLINE
  5
8F
330
1F
100
AcDbEntity
  8
_U+30EC_U+30A4_U+30E4_U+30FC 1
 62
   179
420
  2234388
370
     9
100
AcDb2dPolyline
 66
     1
 10
0.0
 20
0.0
 30
0.0
  0
VERTEX
  5
90
330
8F
100
AcDbEntity
  8
_U+30EC_U+30A4_U+30E4_U+30FC 1
 62
   179
420
  2234388
370
     9
100
AcDbVertex
100
AcDb2dVertex
 10
50.15575594264229
 20
-79.03894386912928
 30
0.0
  0
VERTEX
  5
91
330
8F
100
AcDbEntity
  8
_U+30EC_U+30A4_U+30E4_U+30FC 1
 62
   179
420
  2234388
370
     9
100
AcDbVertex
100
AcDb2dVertex
 10
73.1555611892017
 20
-79.03894386912928
 30
0.0
  0
SEQEND
  5
92
330
8F
100
AcDbEntity
  8
_U+30EC_U+30A4_U+30E4_U+30FC 1
 62
   179
420
  2234388
370
     9
  0
POLYLINE
  5
93
330
1F
100
AcDbEntity
  8
_U+30EC_U+30A4_U+30E4_U+30FC 1
 62
   179
420
  2234388
370
     9
100
AcDb2dPolyline
 66
     1
 10
0.0
 20
0.0
 30
0.0
  0
VERTEX
  5
94
330
93
100
AcDbEntity
  8
_U+30EC_U+30A4_U+30E4_U+30FC 1
 62
   179
420
  2234388
370
     9
100
AcDbVertex
100
AcDb2dVertex
 10
50.15575594264229
 20
-80.49894997987516
 30
0.0
  0
VERTEX
  5
95
330
93
100
AcDbEntity
  8
_U+30EC_U+30A4_U+30E4_U+30FC 1
 62
   179
420
  2234388
370
     9
100
AcDbVertex
100
AcDb2dVertex
 10
50.15575594264229
 20
-78.03881886937931
 30
0.0
  0
SEQEND
  5
96
330
93
100
AcDbEntity
  8
_U+30EC_U+30A4_U+30E4_U+30FC 1
 62
   179
420
  2234388
370
     9
  0
POLYLINE
  5
97
330
1F
100
AcDbEntity
  8
_U+30EC_U+30A4_U+30E4_U+30FC 1
 62
   179
420
  2234388
370
     9
100
AcDb2dPolyline
 66
     1
 10
0.0
 20
0.0
 30
0.0
  0
VERTEX
  5
98
330
97
100
AcDbEntity
  8
_U+30EC_U+30A4_U+30E4_U+30FC 1
 62
   179
420
  2234388
370
     9
100
AcDbVertex
100
AcDb2dVertex
 10
73.1555611892017
 20
-80.49894997987516
 30
0.0
  0
VERTEX
  5
99
330
97
100
AcDbEntity
  8
_U+30EC_U+30A4_U+30E4_U+30FC 1
 62
   179
420
  2234388
370
     9
100
AcDbVertex
100
AcDb2dVertex
 10
73.1555611892017
 20
-78.03881886937931
 30
0.0
  0
SEQEND
  5
9A
330
97
100
AcDbEntity
  8
_U+30EC_U+30A4_U+30E4_U+30FC 1
 62
   179
420
  2234388
370
     9
  0
INSERT
  5
9C
330
1F
100
AcDbEntity
  8
_U+30EC_U+30A4_U+30E4_U+30FC 1
100
AcDbBlockReference
  2
block 3
 10
0.0
 20
0.0
 30
0.0
  0
POLYLINE
  5
A3
330
1F
100
AcDbEntity
  8
_U+30EC_U+30A4_U+30E4_U+30FC 1
 62
   179
420
  2234388
370
     9
100
AcDb2dPolyline
 66
     1
 10
0.0
 20
0.0
 30
0.0
  0
VERTEX
  5
A4
330
A3
100
AcDbEntity
  8
_U+30EC_U+30A4_U+30E4_U+30FC 1
 62
   179
420
  2234388
370
     9
100
AcDbVertex
100
AcDb2dVertex
 10
49.15566624593448
 20
-98.42224830872799
 30
0.0
  0
VERTEX
  5
A5
330
A3
100
AcDbEntity
  8
_U+30EC_U+30A4_U+30E4_U+30FC 1
 62
   179
420
  2234388
370
     9
100
AcDbVertex
100
AcDb2dVertex
 10
59.15539904637559
 20
-98.42224830872799
 30
0.0
  0
SEQEND
  5
A6
330
A3
100
AcDbEntity
  8
_U+30EC_U+30A4_U+30E4_U+30FC 1
 62
   179
420
  2234388
370
     9
  0
POLYLINE
  5
A7
330
1F
100
AcDbEntity
  8
_U+30EC_U+30A4_U+30E4_U+30FC 1
 62
   179
420
  2234388
370
     9
100
AcDb2dPolyline
 66
     1
 10
0.0
 20
0.0
 30
0.0
  0
VERTEX
  5
A8
330
A7
100
AcDbEntity
  8
_U+30EC_U+30A4_U+30E4_U+30FC 1
 62
   179
420
  2234388
370
     9
100
AcDbVertex
100
AcDb2dVertex
 10
49.15566624593448
 20
-96.96220692020364
 30
0.0
  0
VERTEX
  5
A9
330
A7
100
AcDbEntity
  8
_U+30EC_U+30A4_U+30E4_U+30FC 1
 62
   179
420
  2234388
370
     9
100
AcDbVertex
100
AcDb2dVertex
 10
49.15566624593448
 20
-99.42202053069988
 30
0.0
  0
SEQEND
  5
AA
330
A7
100
AcDbEntity
  8
_U+30EC_U+30A4_U+30E4_U+30FC 1
 62
   179
420
  2234388
370
     9
  0
POLYLINE
  5
AB
330
1F
100
AcDbEntity
  8
_U+30EC_U+30A4_U+30E4_U+30FC 1
 62
   179
420
  2234388
370
     9
100
AcDb2dPolyline
 66
     1
 10
0.0
 20
0.0
 30
0.0
  0
VERTEX
  5
AC
330
AB
100
AcDbEntity
  8
_U+30EC_U+30A4_U+30E4_U+30FC 1
 62
   179
420
  2234388
370
     9
100
AcDbVertex
100
AcDb2dVertex
 10
59.15539904637559
 20
-96.96220692020364
 30
0.0
  0
VERTEX
  5
AD
330
AB
100
AcDbEntity
  8
_U+30EC_U+30A4_U+30E4_U+30FC 1
 62
   179
420
  2234388
370
     9
100
AcDbVertex
100
AcDb2dVertex
 10
59.15539904637559
 20
-99.42202053069988
 30
0.0
  0
SEQEND
  5
AE
330
AB
100
AcDbEntity
  8
_U+30EC_U+30A4_U+30E4_U+30FC 1
 62
   179
420
  2234388
370
     9
  0
INSERT
  5
B0
330
1F
100
AcDbEntity
  8
_U+30EC_U+30A4_U+30E4_U+30FC 1
100
AcDbBlockReference
  2
block 4
 10
0.0
 20
0.0
 30
0.0
  0
POLYLINE
  5
B8
330
1F
100
AcDbEntity
  8
_U+30EC_U+30A4_U+30E4_U+30FC 1
 62
   179
420
  2234388
370
     9
100
AcDb2dPolyline
 66
     1
 10
0.0
 20
0.0
 30
0.0
  0
VERTEX
  5
B9
330
B8
100
AcDbEntity
  8
_U+30EC_U+30A4_U+30E4_U+30FC 1
 62
   179
420
  2234388
370
     9
100
AcDbVertex
100
AcDb2dVertex
 10
77.15602775848846
 20
-83.03870303479586
 30
0.0
  0
VERTEX
  5
BA
330
B8
100
AcDbEntity
  8
_U+30EC_U+30A4_U+30E4_U+30FC 1
 62
   179
420
  2234388
370
     9
100
AcDbVertex
100
AcDb2dVertex
 10
77.15602775848846
 20
-77.78079720277694
 30
0.0
  0
SEQEND
  5
BB
330
B8
100
AcDbEntity
  8
_U+30EC_U+30A4_U+30E4_U+30FC 1
 62
   179
420
  2234388
370
     9
  0
POLYLINE
  5
BC
330
1F
100
AcDbEntity
  8
_U+30EC_U+30A4_U+30E4_U+30FC 1
 62
   179
420
  2234388
370
     9
100
AcDb2dPolyline
 66
     1
 10
0.0
 20
0.0
 30
0.0
  0
VERTEX
  5
BD
330
BC
100
AcDbEntity
  8
_U+30EC_U+30A4_U+30E4_U+30FC 1
 62
   179
420
  2234388
370
     9
100
AcDbVertex
100
AcDb2dVertex
 10
77.15602775848846
 20
-83.03870303479586
 30
0.0
  0
VERTEX
  5
BE
330
BC
100
AcDbEntity
  8
_U+30EC_U+30A4_U+30E4_U+30FC 1
 62
   179
420
  2234388
370
     9
100
AcDbVertex
100
AcDb2dVertex
 10
77.15602775848846
 20
-83.83862664570695
 30
0.0
  0
SEQEND
  5
BF
330
BC
100
AcDbEntity
  8
_U+30EC_U+30A4_U+30E4_U+30FC 1
 62
   179
420
  2234388
370
     9
  0
POLYLINE
  5
C0
330
1F
100
AcDbEntity
  8
_U+30EC_U+30A4_U+30E4_U+30FC 1
 62
   179
420
  2234388
370
     9
100
AcDb2dPolyline
 66
     1
 10
0.0
 20
0.0
 30
0.0
  0
VERTEX
  5
C1
330
C0
100
AcDbEntity
  8
_U+30EC_U+30A4_U+30E4_U+30FC 1
 62
   179
420
  2234388
370
     9
100
AcDbVertex
100
AcDb2dVertex
 10
75.69598445772344
 20
-83.03870303479586
 30
0.0
  0
VERTEX
  5
C2
330
C0
100
AcDbEntity
  8
_U+30EC_U+30A4_U+30E4_U+30FC 1
 62
   179
420
  2234388
370
     9
100
AcDbVertex
100
AcDb2dVertex
 10
78.1557627283026
 20
-83.03870303479586
 30
0.0
  0
SEQEND
  5
C3
330
C0
100
AcDbEntity
  8
_U+30EC_U+30A4_U+30E4_U+30FC 1
 62
   179
420
  2234388
370
     9
  0
POLYLINE
  5
C4
330
1F
100
AcDbEntity
  8
_U+30EC_U+30A4_U+30E4_U+30FC 1
 62
   179
420
  2234388
370
     9
100
AcDb2dPolyline
 66
     1
 10
0.0
 20
0.0
 30
0.0
  0
VERTEX
  5
C5
330
C4
100
AcDbEntity
  8
_U+30EC_U+30A4_U+30E4_U+30FC 1
 62
   179
420
  2234388
370
     9
100
AcDbVertex
100
AcDb2dVertex
 10
75.69598445772344
 20
-83.83862664570695
 30
0.0
  0
VERTEX
  5
C6
330
C4
100
AcDbEntity
  8
_U+30EC_U+30A4_U+30E4_U+30FC 1
 62
   179
420
  2234388
370
     9
100
AcDbVertex
100
AcDb2dVertex
 10
78.1557627283026
 20
-83.83862664570695
 30
0.0
  0
SEQEND
  5
C7
330
C4
100
AcDbEntity
  8
_U+30EC_U+30A4_U+30E4_U+30FC 1
 62
   179
420
  2234388
370
     9
  0
INSERT
  5
C9
330
1F
100
AcDbEntity
  8
_U+30EC_U+30A4_U+30E4_U+30FC 1
100
AcDbBlockReference
  2
block 5
 10
0.0
 20
0.0
 30
0.0
  0
POLYLINE
  5
DB
330
1F
100
AcDbEntity
  8
_U+30EC_U+30A4_U+30E4_U+30FC 1
 62
   179
420
  2234388
370
     9
100
AcDb2dPolyline
 66
     1
 10
0.0
 20
0.0
 30
0.0
  0
VERTEX
  5
DC
330
DB
100
AcDbEntity
  8
_U+30EC_U+30A4_U+30E4_U+30FC 1
 62
   179
420
  2234388
370
     9
100
AcDbVertex
100
AcDb2dVertex
 10
77.15602775848846
 20
-90.33866303297111
 30
0.0
  0
VERTEX
  5
DD
330
DB
100
AcDbEntity
  8
_U+30EC_U+30A4_U+30E4_U+30FC 1
 62
   179
420
  2234388
370
     9
100
AcDbVertex
100
AcDb2dVertex
 10
77.15602775848846
 20
-93.33864997666547
 30
0.0
  0
SEQEND
  5
DE
330
DB
100
AcDbEntity
  8
_U+30EC_U+30A4_U+30E4_U+30FC 1
 62
   179
420
  2234388
370
     9
  0
POLYLINE
  5
DF
330
1F
100
AcDbEntity
  8
_U+30EC_U+30A4_U+30E4_U+30FC 1
 62
   179
420
  2234388
370
     9
100
AcDb2dPolyline
 66
     1
 10
0.0
 20
0.0
 30
0.0
  0
VERTEX
  5
E0
330
DF
100
AcDbEntity
  8
_U+30EC_U+30A4_U+30E4_U+30FC 1
 62
   179
420
  2234388
370
     9
100
AcDbVertex
100
AcDb2dVertex
 10
61.69578703712045
 20
-93.33864997666547
 30
0.0
  0
VERTEX
  5
E1
330
DF
100
AcDbEntity
  8
_U+30EC_U+30A4_U+30E4_U+30FC 1
 62
   179
420
  2234388
370
     9
100
AcDbVertex
100
AcDb2dVertex
 10
78.1557627283026
 20
-93.33864997666547
 30
0.0
  0
SEQEND
  5
E2
330
DF
100
AcDbEntity
  8
_U+30EC_U+30A4_U+30E4_U+30FC 1
 62
   179
420
  2234388
370
     9
  0
INSERT
  5
E4
330
1F
100
AcDbEntity
  8
_U+30EC_U+30A4_U+30E4_U+30FC 1
100
AcDbBlockReference
  2
block 6
 10
0.0
 20
0.0
 30
0.0
  0
POLYLINE
  5
E9
330
1F
100
AcDbEntity
  8
_U+30EC_U+30A4_U+30E4_U+30FC 1
 62
   179
420
  2234388
370
     9
100
AcDb2dPolyline
 66
     1
 10
0.0
 20
0.0
 30
0.0
  0
VERTEX
  5
EA
330
E9
100
AcDbEntity
  8
_U+30EC_U+30A4_U+30E4_U+30FC 1
 62
   179
420
  2234388
370
     9
100
AcDbVertex
100
AcDb2dVertex
 10
77.15602775848846
 20
-83.83862664570695
 30
0.0
  0
VERTEX
  5
EB
330
E9
100
AcDbEntity
  8
_U+30EC_U+30A4_U+30E4_U+30FC 1
 62
   179
420
  2234388
370
     9
100
AcDbVertex
100
AcDb2dVertex
 10
77.15602775848846
 20
-90.33866303297111
 30
0.0
  0
SEQEND
  5
EC
330
E9
100
AcDbEntity
  8
_U+30EC_U+30A4_U+30E4_U+30FC 1
 62
   179
420
  2234388
370
     9
  0
POLYLINE
  5
ED
330
1F
100
AcDbEntity
  8
_U+30EC_U+30A4_U+30E4_U+30FC 1
 62
   179
420
  2234388
370
     9
100
AcDb2dPolyline
 66
     1
 10
0.0
 20
0.0
 30
0.0
  0
VERTEX
  5
EE
330
ED
100
AcDbEntity
  8
_U+30EC_U+30A4_U+30E4_U+30FC 1
 62
   179
420
  2234388
370
     9
100
AcDbVertex
100
AcDb2dVertex
 10
75.69598445772344
 20
-83.83862664570695
 30
0.0
  0
VERTEX
  5
EF
330
ED
100
AcDbEntity
  8
_U+30EC_U+30A4_U+30E4_U+30FC 1
 62
   179
420
  2234388
370
     9
100
AcDbVertex
100
AcDb2dVertex
 10
78.1557627283026
 20
-83.83862664570695
 30
0.0
  0
SEQEND
  5
F0
330
ED
100
AcDbEntity
  8
_U+30EC_U+30A4_U+30E4_U+30FC 1
 62
   179
420
  2234388
370
     9
  0
POLYLINE
  5
F1
330
1F
100
AcDbEntity
  8
_U+30EC_U+30A4_U+30E4_U+30FC 1
 62
   179
420
  2234388
370
     9
100
AcDb2dPolyline
 66
     1
 10
0.0
 20
0.0
 30
0.0
  0
VERTEX
  5
F2
330
F1
100
AcDbEntity
  8
_U+30EC_U+30A4_U+30E4_U+30FC 1
 62
   179
420
  2234388
370
     9
100
AcDbVertex
100
AcDb2dVertex
 10
61.69578703712045
 20
-90.33866303297111
 30
0.0
  0
VERTEX
  5
F3
330
F1
100
AcDbEntity
  8
_U+30EC_U+30A4_U+30E4_U+30FC 1
 62
   179
420
  2234388
370
     9
100
AcDbVertex
100
AcDb2dVertex
 10
78.1557627283026
 20
-90.33866303297111
 30
0.0
  0
SEQEND
  5
F4
330
F1
100
AcDbEntity
  8
_U+30EC_U+30A4_U+30E4_U+30FC 1
 62
   179
420
  2234388
370
     9
  0
INSERT
  5
F6
330
1F
100
AcDbEntity
  8
_U+30EC_U+30A4_U+30E4_U+30FC 1
100
AcDbBlockReference
  2
block 7
 10
0.0
 20
0.0
 30
0.0
  0
INSERT
  5
107
330
1F
100
AcDbEntity
  8
_U+30EC_U+30A4_U+30E4_U+30FC 1
100
AcDbBlockReference
  2
block 8
 10
0.0
 20
0.0
 30
0.0
  0
POLYLINE
  5
144
330
1F
100
AcDbEntity
  8
_U+30EC_U+30A4_U+30E4_U+30FC 1
 62
   179
420
  2234388
370
     9
100
AcDb2dPolyline
 66
     1
 10
0.0
 20
0.0
 30
0.0
  0
VERTEX
  5
145
330
144
100
AcDbEntity
  8
_U+30EC_U+30A4_U+30E4_U+30FC 1
 62
   179
420
  2234388
370
     9
100
AcDbVertex
100
AcDb2dVertex
 10
52.04368145003285
 20
-94.19304247645164
 30
0.0
  0
VERTEX
  5
146
330
144
100
AcDbEntity
  8
_U+30EC_U+30A4_U+30E4_U+30FC 1
 62
   179
420
  2234388
370
     9
100
AcDbVertex
100
AcDb2dVertex
 10
50.67183454058713
 20
-100.7635285859201
 30
0.0
  0
SEQEND
  5
147
330
144
100
AcDbEntity
  8
_U+30EC_U+30A4_U+30E4_U+30FC 1
 62
   179
420
  2234388
370
     9
  0
ENDSEC
  0
SECTION
  2
OBJECTS
  0
DICTIONARY
  5
C
330
0
100
AcDbDictionary
281
     1
  3
ACAD_GROUP
350
D
  3
ACAD_LAYOUT
350
1A
  3
ACAD_MATERIAL
350
3B
  3
ACAD_MLEADERSTYLE
350
149
  3
ACAD_MLINESTYLE
350
17
  3
ACAD_PLOTSETTINGS
350
19
  3
ACAD_PLOTSTYLENAME
350
E
  3
ACAD_TABLESTYLE
350
148
  3
ACAD_VISUALSTYLE
350
2A
  0
SUN
  5
3F
330
29
100
AcDbSun
 90
        1
290
     0
 63
     7
421
 16777215
 40
1.0
291
     1
 91
  2455826
 92
 54000000
292
     0
 70
     2
 71
   256
280
     1
  0
DICTIONARY
  5
D
102
{ACAD_REACTORS
330
C
102
}
330
C
100
AcDbDictionary
281
     1
  0
DICTIONARY
  5
1A
102
{ACAD_REACTORS
330
C
102
}
330
C
100
AcDbDictionary
281
     1
  3
Layout1
350
1E
  3
Layout2
350
26
  3
Model
350
22
  0
DICTIONARY
  5
3B
102
{ACAD_REACTORS
330
C
102
}
330
C
100
AcDbDictionary
281
     1
  3
ByBlock
350
3D
  3
ByLayer
350
3C
  3
Global
350
3E
  0
DICTIONARY
  5
149
102
{ACAD_REACTORS
330
C
102
}
330
C
100
AcDbDictionary
281
     1
  0
DICTIONARY
  5
17
102
{ACAD_REACTORS
330
C
102
}
330
C
100
AcDbDictionary
281
     1
  3
Standard
350
18
  0
DICTIONARY
  5
19
102
{ACAD_REACTORS
330
C
102
}
330
C
100
AcDbDictionary
281
     1
  0
ACDBDICTIONARYWDFLT
  5
E
102
{ACAD_REACTORS
330
C
102
}
330
C
100
AcDbDictionary
281
     1
  3
Normal
350
F
100
AcDbDictionaryWithDefault
340
F
  0
DICTIONARY
  5
148
102
{ACAD_REACTORS
330
C
102
}
330
C
100
AcDbDictionary
281
     1
  0
DICTIONARY
  5
2A
102
{ACAD_REACTORS
330
C
102
}
330
C
100
AcDbDictionary
281
     1
  3
2dWireframe
350
2F
  3
3D Hidden
350
31
  3
3dWireframe
350
30
  3
Basic
350
32
  3
Brighten
350
36
  3
ColorChange
350
3A
  3
Conceptual
350
34
  3
Dim
350
35
  3
Facepattern
350
39
  3
Flat
350
2B
  3
FlatWithEdges
350
2C
  3
Gouraud
350
2D
  3
GouraudWithEdges
350
2E
  3
Linepattern
350
38
  3
Realistic
350
33
  3
Thicken
350
37
  0
LAYOUT
  5
1E
102
{ACAD_REACTORS
330
1A
102
}
330
1A
100
AcDbPlotSettings
  1

  2
none_device
  4

  6

 40
0.0
 41
0.0
 42
0.0
 43
0.0
 44
0.0
 45
0.0
 46
0.0
 47
0.0
 48
0.0
 49
0.0
140
0.0
141
0.0
142
1.0
143
1.0
 70
   688
 72
     0
 73
     0
 74
     5
  7

 75
    16
 76
     0
 77
     2
 78
   300
147
1.0
148
0.0
149
0.0
100
AcDbLayout
  1
Layout1
 70
     1
 71
     1
 10
0.0
 20
0.0
 11
12.0
 21
9.0
 12
0.0
 22
0.0
 32
0.0
 14
1.000000000000000E+20
 24
1.000000000000000E+20
 34
1.000000000000000E+20
 15
-1.000000000000000E+20
 25
-1.000000000000000E+20
 35
-1.000000000000000E+20
146
0.0
 13
0.0
 23
0.0
 33
0.0
 16
1.0
 26
0.0
 36
0.0
 17
0.0
 27
1.0
 37
0.0
 76
     0
330
1B
  0
LAYOUT
  5
26
102
{ACAD_REACTORS
330
1A
102
}
330
1A
100
AcDbPlotSettings
  1

  2
none_device
  4

  6

 40
0.0
 41
0.0
 42
0.0
 43
0.0
 44
0.0
 45
0.0
 46
0.0
 47
0.0
 48
0.0
 49
0.0
140
0.0
141
0.0
142
1.0
143
1.0
 70
   688
 72
     0
 73
     0
 74
     5
  7

 75
    16
 76
     0
 77
     2
 78
   300
147
1.0
148
0.0
149
0.0
100
AcDbLayout
  1
Layout2
 70
     1
 71
     2
 10
0.0
 20
0.0
 11
0.0
 21
0.0
 12
0.0
 22
0.0
 32
0.0
 14
0.0
 24
0.0
 34
0.0
 15
0.0
 25
0.0
 35
0.0
146
0.0
 13
0.0
 23
0.0
 33
0.0
 16
1.0
 26
0.0
 36
0.0
 17
0.0
 27
1.0
 37
0.0
 76
     0
330
23
  0
LAYOUT
  5
22
102
{ACAD_REACTORS
330
1A
102
}
330
1A
100
AcDbPlotSettings
  1

  2
none_device
  4

  6

 40
0.0
 41
0.0
 42
0.0
 43
0.0
 44
0.0
 45
0.0
 46
0.0
 47
0.0
 48
0.0
 49
0.0
140
0.0
141
0.0
142
1.0
143
1.0
 70
  1712
 72
     0
 73
     0
 74
     0
  7

 75
     0
 76
     0
 77
     2
 78
   300
147
1.0
148
0.0
149
0.0
100
AcDbLayout
  1
Model
 70
     1
 71
     0
 10
0.0
 20
0.0
 11
12.0
 21
9.0
 12
0.0
 22
0.0
 32
0.0
 14
1.000000000000000E+20
 24
1.000000000000000E+20
 34
1.000000000000000E+20
 15
-1.000000000000000E+20
 25
-1.000000000000000E+20
 35
-1.000000000000000E+20
146
0.0
 13
0.0
 23
0.0
 33
0.0
 16
1.0
 26
0.0
 36
0.0
 17
0.0
 27
1.0
 37
0.0
 76
     0
330
1F
331
29
  0
MATERIAL
  5
3D
102
{ACAD_REACTORS
330
3B
102
}
330
3B
100
AcDbMaterial
  1
ByBlock
 72
     1
 94
      127
  0
MATERIAL
  5
3C
102
{ACAD_REACTORS
330
3B
102
}
330
3B
100
AcDbMaterial
  1
ByLayer
 72
     1
 94
      127
  0
MATERIAL
  5
3E
102
{ACAD_REACTORS
330
3B
102
}
330
3B
100
AcDbMaterial
  1
Global
 72
     1
 94
      127
  0
MLINESTYLE
  5
18
102
{ACAD_REACTORS
330
17
102
}
330
17
100
AcDbMlineStyle
  2
Standard
 70
     0
  3

 62
   256
 51
90.0
 52
90.0
 71
     2
 49
0.5
 62
   256
  6
BYLAYER
 49
-0.5
 62
   256
  6
BYLAYER
  0
ACDBPLACEHOLDER
  5
F
102
{ACAD_REACTORS
330
E
102
}
330
E
  0
VISUALSTYLE
  5
2F
102
{ACAD_REACTORS
330
2A
102
}
330
2A
100
AcDbVisualStyle
  2
2dWireframe
 70
     4
177
     2
291
     0
 71
     0
176
     1
 72
     2
176
     1
 73
     0
176
     1
 90
        0
176
     1
 40
-0.6
176
     1
 41
-30.0
176
     1
 62
     5
 63
     7
421
 16777215
176
     1
 74
     1
176
     1
 91
        4
176
     1
 64
     7
176
     1
 65
   257
176
     1
 75
     1
176
     1
175
     1
176
     1
 42
1.0
176
     1
 92
        0
176
     1
 66
   257
176
     1
 43
1.0
176
     1
 76
     1
176
     1
 77
     6
176
     1
 78
     2
176
     1
 67
     7
176
     1
 79
     5
176
     1
170
     0
176
     1
171
     0
176
     1
290
     0
176
     1
 93
        1
176
     1
 44
0.0
176
     1
173
     0
176
     1
  0
VISUALSTYLE
  5
31
102
{ACAD_REACTORS
330
2A
102
}
330
2A
100
AcDbVisualStyle
  2
3D Hidden
 70
     6
177
     2
291
     0
 71
     1
176
     1
 72
     2
176
     1
 73
     2
176
     1
 90
        0
176
     1
 40
-0.6
176
     1
 41
-30.0
176
     1
 62
     5
 63
     7
421
 16777215
176
     1
 74
     2
176
     1
 91
        2
176
     1
 64
     7
176
     1
 65
   257
176
     1
 75
     2
176
     1
175
     1
176
     1
 42
40.0
176
     1
 92
        0
176
     1
 66
   257
176
     1
 43
1.0
176
     1
 76
     1
176
     1
 77
     6
176
     1
 78
     2
176
     1
 67
     7
176
     1
 79
     3
176
     1
170
     0
176
     1
171
     0
176
     1
290
     0
176
     1
 93
        1
176
     1
 44
0.0
176
     1
173
     0
176
     1
  0
VISUALSTYLE
  5
30
102
{ACAD_REACTORS
330
2A
102
}
330
2A
100
AcDbVisualStyle
  2
3dWireframe
 70
     5
177
     2
291
     0
 71
     0
176
     1
 72
     2
176
     1
 73
     0
176
     1
 90
        0
176
     1
 40
-0.6
176
     1
 41
-30.0
176
     1
 62
     5
 63
     7
421
 16777215
176
     1
 74
     1
176
     1
 91
        4
176
     1
 64
     7
176
     1
 65
   257
176
     1
 75
     1
176
     1
175
     1
176
     1
 42
1.0
176
     1
 92
        0
176
     1
 66
   257
176
     1
 43
1.0
176
     1
 76
     1
176
     1
 77
     6
176
     1
 78
     2
176
     1
 67
     7
176
     1
 79
     5
176
     1
170
     0
176
     1
171
     0
176
     1
290
     0
176
     1
 93
        1
176
     1
 44
0.0
176
     1
173
     0
176
     1
  0
VISUALSTYLE
  5
32
102
{ACAD_REACTORS
330
2A
102
}
330
2A
100
AcDbVisualStyle
  2
Basic
 70
     7
177
     2
291
     1
 71
     1
176
     1
 72
     0
176
     1
 73
     1
176
     1
 90
        0
176
     1
 40
-0.6
176
     1
 41
-30.0
176
     1
 62
     5
 63
     7
421
 16777215
176
     1
 74
     0
176
     1
 91
        4
176
     1
 64
     7
176
     1
 65
   257
176
     1
 75
     1
176
     1
175
     1
176
     1
 42
1.0
176
     1
 92
        8
176
     1
 66
     7
176
     1
 43
1.0
176
     1
 76
     1
176
     1
 77
     6
176
     1
 78
     2
176
     1
 67
     7
176
     1
 79
     5
176
     1
170
     0
176
     1
171
     0
176
     1
290
     0
176
     1
 93
        1
176
     1
 44
0.0
176
     1
173
     0
176
     1
  0
VISUALSTYLE
  5
36
102
{ACAD_REACTORS
330
2A
102
}
330
2A
100
AcDbVisualStyle
  2
Brighten
 70
    12
177
     2
291
     1
 71
     2
176
     1
 72
     2
176
     1
 73
     0
176
     1
 90
        0
176
     1
 40
-0.6
176
     1
 41
-30.0
176
     1
 62
     5
 63
     7
421
 16777215
176
     1
 74
     1
176
     1
 91
        4
176
     1
 64
     7
176
     1
 65
   257
176
     1
 75
     1
176
     1
175
     1
176
     1
 42
1.0
176
     1
 92
        8
176
     1
 66
     7
176
     1
 43
1.0
176
     1
 76
     1
176
     1
 77
     6
176
     1
 78
     2
176
     1
 67
     7
176
     1
 79
     5
176
     1
170
     0
176
     1
171
     0
176
     1
290
     0
176
     1
 93
        1
176
     1
 44
50.0
176
     1
173
     0
176
     1
  0
VISUALSTYLE
  5
3A
102
{ACAD_REACTORS
330
2A
102
}
330
2A
100
AcDbVisualStyle
  2
ColorChange
 70
    16
177
     2
291
     1
 71
     2
176
     1
 72
     2
176
     1
 73
     3
176
     1
 90
        0
176
     1
 40
-0.6
176
     1
 41
-30.0
176
     1
 62
     5
 63
     8
421
  8421504
176
     1
 74
     1
176
     1
 91
        4
176
     1
 64
     7
176
     1
 65
   257
176
     1
 75
     1
176
     1
175
     1
176
     1
 42
1.0
176
     1
 92
        8
176
     1
 66
     8
424
  8421504
176
     1
 43
1.0
176
     1
 76
     1
176
     1
 77
     6
176
     1
 78
     2
176
     1
 67
     7
176
     1
 79
     5
176
     1
170
     0
176
     1
171
     0
176
     1
290
     0
176
     1
 93
        1
176
     1
 44
0.0
176
     1
173
     0
176
     1
  0
VISUALSTYLE
  5
34
102
{ACAD_REACTORS
330
2A
102
}
330
2A
100
AcDbVisualStyle
  2
Conceptual
 70
     9
177
     2
291
     0
 71
     3
176
     1
 72
     2
176
     1
 73
     0
176
     1
 90
        0
176
     1
 40
-0.6
176
     1
 41
-30.0
176
     1
 62
     5
 63
     7
421
 16777215
176
     1
 74
     2
176
     1
 91
        2
176
     1
 64
     7
176
     1
 65
   257
176
     1
 75
     1
176
     1
175
     1
176
     1
 42
40.0
176
     1
 92
        8
176
     1
 66
     7
176
     1
 43
1.0
176
     1
 76
     1
176
     1
 77
     6
176
     1
 78
     2
176
     1
 67
     7
176
     1
 79
     3
176
     1
170
     0
176
     1
171
     0
176
     1
290
     0
176
     1
 93
        1
176
     1
 44
0.0
176
     1
173
     0
176
     1
  0
VISUALSTYLE
  5
35
102
{ACAD_REACTORS
330
2A
102
}
330
2A
100
AcDbVisualStyle
  2
Dim
 70
    11
177
     2
291
     1
 71
     2
176
     1
 72
     2
176
     1
 73
     0
176
     1
 90
        0
176
     1
 40
-0.6
176
     1
 41
-30.0
176
     1
 62
     5
 63
     7
421
 16777215
176
     1
 74
     1
176
     1
 91
        4
176
     1
 64
     7
176
     1
 65
   257
176
     1
 75
     1
176
     1
175
     1
176
     1
 42
1.0
176
     1
 92
        8
176
     1
 66
     7
176
     1
 43
1.0
176
     1
 76
     1
176
     1
 77
     6
176
     1
 78
     2
176
     1
 67
     7
176
     1
 79
     5
176
     1
170
     0
176
     1
171
     0
176
     1
290
     0
176
     1
 93
        1
176
     1
 44
-50.0
176
     1
173
     0
176
     1
  0
VISUALSTYLE
  5
39
102
{ACAD_REACTORS
330
2A
102
}
330
2A
100
AcDbVisualStyle
  2
Facepattern
 70
    15
177
     2
291
     1
 71
     2
176
     1
 72
     2
176
     1
 73
     0
176
     1
 90
        0
176
     1
 40
-0.6
176
     1
 41
-30.0
176
     1
 62
     5
 63
     7
421
 16777215
176
     1
 74
     1
176
     1
 91
        4
176
     1
 64
     7
176
     1
 65
   257
176
     1
 75
     1
176
     1
175
     1
176
     1
 42
1.0
176
     1
 92
        8
176
     1
 66
     7
176
     1
 43
1.0
176
     1
 76
     1
176
     1
 77
     6
176
     1
 78
     2
176
     1
 67
     7
176
     1
 79
     5
176
     1
170
     0
176
     1
171
     0
176
     1
290
     0
176
     1
 93
        1
176
     1
 44
0.0
176
     1
173
     0
176
     1
  0
VISUALSTYLE
  5
2B
102
{ACAD_REACTORS
330
2A
102
}
330
2A
100
AcDbVisualStyle
  2
Flat
 70
     0
177
     2
291
     1
 71
     2
176
     1
 72
     1
176
     1
 73
     1
176
     1
 90
        2
176
     1
 40
-0.6
176
     1
 41
30.0
176
     1
 62
     5
 63
     7
421
 16777215
176
     1
 74
     0
176
     1
 91
        4
176
     1
 64
     7
176
     1
 65
   257
176
     1
 75
     1
176
     1
175
     1
176
     1
 42
1.0
176
     1
 92
        8
176
     1
 66
     7
176
     1
 43
1.0
176
     1
 76
     1
176
     1
 77
     6
176
     1
 78
     2
176
     1
 67
     7
176
     1
 79
     5
176
     1
170
     0
176
     1
171
     0
176
     1
290
     0
176
     1
 93
       13
176
     1
 44
0.0
176
     1
173
     0
176
     1
  0
VISUALSTYLE
  5
2C
102
{ACAD_REACTORS
330
2A
102
}
330
2A
100
AcDbVisualStyle
  2
FlatWithEdges
 70
     1
177
     2
291
     1
 71
     2
176
     1
 72
     1
176
     1
 73
     1
176
     1
 90
        2
176
     1
 40
-0.6
176
     1
 41
30.0
176
     1
 62
     5
 63
     7
421
 16777215
176
     1
 74
     1
176
     1
 91
        4
176
     1
 64
     7
176
     1
 65
   257
176
     1
 75
     1
176
     1
175
     1
176
     1
 42
1.0
176
     1
 92
        0
176
     1
 66
   257
176
     1
 43
1.0
176
     1
 76
     1
176
     1
 77
     6
176
     1
 78
     2
176
     1
 67
     7
176
     1
 79
     5
176
     1
170
     0
176
     1
171
     0
176
     1
290
     0
176
     1
 93
       13
176
     1
 44
0.0
176
     1
173
     0
176
     1
  0
VISUALSTYLE
  5
2D
102
{ACAD_REACTORS
330
2A
102
}
330
2A
100
AcDbVisualStyle
  2
Gouraud
 70
     2
177
     2
291
     1
 71
     2
176
     1
 72
     2
176
     1
 73
     1
176
     1
 90
        2
176
     1
 40
-0.6
176
     1
 41
30.0
176
     1
 62
     5
 63
     7
421
 16777215
176
     1
 74
     0
176
     1
 91
        4
176
     1
 64
     7
176
     1
 65
   257
176
     1
 75
     1
176
     1
175
     1
176
     1
 42
1.0
176
     1
 92
        0
176
     1
 66
     7
176
     1
 43
1.0
176
     1
 76
     1
176
     1
 77
     6
176
     1
 78
     2
176
     1
 67
     7
176
     1
 79
     5
176
     1
170
     0
176
     1
171
     0
176
     1
290
     0
176
     1
 93
       13
176
     1
 44
0.0
176
     1
173
     0
176
     1
  0
VISUALSTYLE
  5
2E
102
{ACAD_REACTORS
330
2A
102
}
330
2A
100
AcDbVisualStyle
  2
GouraudWithEdges
 70
     3
177
     2
291
     1
 71
     2
176
     1
 72
     2
176
     1
 73
     1
176
     1
 90
        2
176
     1
 40
-0.6
176
     1
 41
30.0
176
     1
 62
     5
 63
     7
421
 16777215
176
     1
 74
     1
176
     1
 91
        4
176
     1
 64
     7
176
     1
 65
   257
176
     1
 75
     1
176
     1
175
     1
176
     1
 42
1.0
176
     1
 92
        0
176
     1
 66
   257
176
     1
 43
1.0
176
     1
 76
     1
176
     1
 77
     6
176
     1
 78
     2
176
     1
 67
     7
176
     1
 79
     5
176
     1
170
     0
176
     1
171
     0
176
     1
290
     0
176
     1
 93
       13
176
     1
 44
0.0
176
     1
173
     0
176
     1
  0
VISUALSTYLE
  5
38
102
{ACAD_REACTORS
330
2A
102
}
330
2A
100
AcDbVisualStyle
  2
Linepattern
 70
    14
177
     2
291
     1
 71
     2
176
     1
 72
     2
176
     1
 73
     0
176
     1
 90
        0
176
     1
 40
-0.6
176
     1
 41
-30.0
176
     1
 62
     5
 63
     7
421
 16777215
176
     1
 74
     1
176
     1
 91
        4
176
     1
 64
     7
176
     1
 65
   257
176
     1
 75
     7
176
     1
175
     7
176
     1
 42
1.0
176
     1
 92
        8
176
     1
 66
     7
176
     1
 43
1.0
176
     1
 76
     1
176
     1
 77
     6
176
     1
 78
     2
176
     1
 67
     7
176
     1
 79
     5
176
     1
170
     0
176
     1
171
     0
176
     1
290
     0
176
     1
 93
        1
176
     1
 44
0.0
176
     1
173
     0
176
     1
  0
VISUALSTYLE
  5
33
102
{ACAD_REACTORS
330
2A
102
}
330
2A
100
AcDbVisualStyle
  2
Realistic
 70
     8
177
     2
291
     0
 71
     2
176
     1
 72
     2
176
     1
 73
     0
176
     1
 90
        0
176
     1
 40
-0.6
176
     1
 41
-30.0
176
     1
 62
     5
 63
     7
421
 16777215
176
     1
 74
     1
176
     1
 91
        0
176
     1
 64
     7
176
     1
 65
   257
176
     1
 75
     1
176
     1
175
     1
176
     1
 42
1.0
176
     1
 92
        8
176
     1
 66
     8
424
  7895160
176
     1
 43
1.0
176
     1
 76
     1
176
     1
 77
     6
176
     1
 78
     2
176
     1
 67
     7
176
     1
 79
     5
176
     1
170
     0
176
     1
171
     0
176
     1
290
     0
176
     1
 93
       13
176
     1
 44
0.0
176
     1
173
     0
176
     1
  0
VISUALSTYLE
  5
37
102
{ACAD_REACTORS
330
2A
102
}
330
2A
100
AcDbVisualStyle
  2
Thicken
 70
    13
177
     2
291
     1
 71
     2
176
     1
 72
     2
176
     1
 73
     0
176
     1
 90
        0
176
     1
 40
-0.6
176
     1
 41
-30.0
176
     1
 62
     5
 63
     7
421
 16777215
176
     1
 74
     1
176
     1
 91
        4
176
     1
 64
     7
176
     1
 65
   257
176
     1
 75
     1
176
     1
175
     1
176
     1
 42
1.0
176
     1
 92
       12
176
     1
 66
     7
176
     1
 43
1.0
176
     1
 76
     1
176
     1
 77
     6
176
     1
 78
     2
176
     1
 67
     7
176
     1
 79
     5
176
     1
170
     0
176
     1
171
     0
176
     1
290
     0
176
     1
 93
        1
176
     1
 44
0.0
176
     1
173
     0
176
     1
  0
ENDSEC
  0
EOF
