  0
SECTION
  2
HEADER
  9
$ACADVER
  1
AC1024
  9
$ACADMAINTVER
 70
     6
  9
$DWGCODEPAGE
  3
UNDEFINED
  9
$INSBASE
 10
0.0
 20
0.0
 30
0.0
  9
$EXTMIN
 10
1.000000000000000E+20
 20
1.000000000000000E+20
 30
1.000000000000000E+20
  9
$EXTMAX
 10
-1.000000000000000E+20
 20
-1.000000000000000E+20
 30
-1.000000000000000E+20
  9
$LIMMIN
 10
0.0
 20
0.0
  9
$LIMMAX
 10
12.0
 20
9.0
  9
$ORTHOMODE
 70
     0
  9
$REGENMODE
 70
     1
  9
$FILLMODE
 70
     1
  9
$QTEXTMODE
 70
     0
  9
$MIRRTEXT
 70
     1
  9
$LTSCALE
 40
1.0
  9
$ATTMODE
 70
     1
  9
$TEXTSIZE
 40
0.2
  9
$TRACEWID
 40
0.05
  9
$TEXTSTYLE
  7
Standard
  9
$CLAYER
  8
0
  9
$CELTYPE
  6
ByLayer
  9
$CECOLOR
 62
   256
  9
$CELTSCALE
 40
1.0
  9
$DISPSILH
 70
     0
  9
$DIMSCALE
 40
1.0
  9
$DIMASZ
 40
0.18
  9
$DIMEXO
 40
0.0625
  9
$DIMDLI
 40
0.38
  9
$DIMRND
 40
0.0
  9
$DIMDLE
 40
0.0
  9
$DIMEXE
 40
0.18
  9
$DIMTP
 40
0.0
  9
$DIMTM
 40
0.0
  9
$DIMTXT
 40
0.18
  9
$DIMCEN
 40
0.09
  9
$DIMTSZ
 40
0.0
  9
$DIMTOL
 70
     0
  9
$DIMLIM
 70
     0
  9
$DIMTIH
 70
     1
  9
$DIMTOH
 70
     1
  9
$DIMSE1
 70
     0
  9
$DIMSE2
 70
     0
  9
$DIMTAD
 70
     0
  9
$DIMZIN
 70
     0
  9
$DIMBLK
  1

  9
$DIMASO
 70
     1
  9
$DIMSHO
 70
     1
  9
$DIMPOST
  1

  9
$DIMAPOST
  1

  9
$DIMALT
 70
     0
  9
$DIMALTD
 70
     2
  9
$DIMALTF
 40
25.4
  9
$DIMLFAC
 40
1.0
  9
$DIMTOFL
 70
     0
  9
$DIMTVP
 40
0.0
  9
$DIMTIX
 70
     0
  9
$DIMSOXD
 70
     0
  9
$DIMSAH
 70
     0
  9
$DIMBLK1
  1

  9
$DIMBLK2
  1

  9
$DIMSTYLE
  2
Standard
  9
$DIMCLRD
 70
     0
  9
$DIMCLRE
 70
     0
  9
$DIMCLRT
 70
     0
  9
$DIMTFAC
 40
1.0
  9
$DIMGAP
 40
0.09
  9
$DIMJUST
 70
     0
  9
$DIMSD1
 70
     0
  9
$DIMSD2
 70
     0
  9
$DIMTOLJ
 70
     1
  9
$DIMTZIN
 70
     0
  9
$DIMALTZ
 70
     0
  9
$DIMALTTZ
 70
     0
  9
$DIMUPT
 70
     0
  9
$DIMDEC
 70
     4
  9
$DIMTDEC
 70
     4
  9
$DIMALTU
 70
     2
  9
$DIMALTTD
 70
     2
  9
$DIMTXSTY
  7
Standard
  9
$DIMAUNIT
 70
     0
  9
$DIMADEC
 70
     0
  9
$DIMALTRND
 40
0.0
  9
$DIMAZIN
 70
     0
  9
$DIMDSEP
 70
    46
  9
$DIMATFIT
 70
     3
  9
$DIMFRAC
 70
     0
  9
$DIMLDRBLK
  1

  9
$DIMLUNIT
 70
     2
  9
$DIMLWD
 70
    -2
  9
$DIMLWE
 70
    -2
  9
$DIMTMOVE
 70
     0
  9
$DIMFXL
 40
1.0
  9
$DIMFXLON
 70
     0
  9
$DIMJOGANG
 40
0.7853981633974483
  9
$DIMTFILL
 70
     0
  9
$DIMTFILLCLR
 70
     0
  9
$DIMARCSYM
 70
     0
  9
$DIMLTYPE
  6

  9
$DIMLTEX1
  6

  9
$DIMLTEX2
  6

  9
$DIMTXTDIRECTION
 70
     0
  9
$LUNITS
 70
     2
  9
$LUPREC
 70
     4
  9
$SKETCHINC
 40
0.1
  9
$FILLETRAD
 40
0.5
  9
$AUNITS
 70
     0
  9
$AUPREC
 70
     0
  9
$MENU
  1
.
  9
$ELEVATION
 40
0.0
  9
$PELEVATION
 40
0.0
  9
$THICKNESS
 40
0.0
  9
$LIMCHECK
 70
     0
  9
$CHAMFERA
 40
0.5
  9
$CHAMFERB
 40
0.5
  9
$CHAMFERC
 40
1.0
  9
$CHAMFERD
 40
0.0
  9
$SKPOLY
 70
     0
  9
$TDCREATE
 40
2457917.592800926
  9
$TDUCREATE
 40
2457917.217800926
  9
$TDUPDATE
 40
2457917.592800926
  9
$TDUUPDATE
 40
2457917.217800926
  9
$TDINDWG
 40
0.0000000116
  9
$TDUSRTIMER
 40
0.0000000116
  9
$USRTIMER
 70
     1
  9
$ANGBASE
 50
0.0
  9
$ANGDIR
 70
     0
  9
$PDMODE
 70
     0
  9
$PDSIZE
 40
0.0
  9
$PLINEWID
 40
0.0
  9
$SPLFRAME
 70
     0
  9
$SPLINETYPE
 70
     6
  9
$SPLINESEGS
 70
     8
  9
$HANDSEED
  5
15A
  9
$SURFTAB1
 70
     6
  9
$SURFTAB2
 70
     6
  9
$SURFTYPE
 70
     6
  9
$SURFU
 70
     6
  9
$SURFV
 70
     6
  9
$UCSBASE
  2

  9
$UCSNAME
  2

  9
$UCSORG
 10
0.0
 20
0.0
 30
0.0
  9
$UCSXDIR
 10
1.0
 20
0.0
 30
0.0
  9
$UCSYDIR
 10
0.0
 20
1.0
 30
0.0
  9
$UCSORTHOREF
  2

  9
$UCSORTHOVIEW
 70
     0
  9
$UCSORGTOP
 10
0.0
 20
0.0
 30
0.0
  9
$UCSORGBOTTOM
 10
0.0
 20
0.0
 30
0.0
  9
$UCSORGLEFT
 10
0.0
 20
0.0
 30
0.0
  9
$UCSORGRIGHT
 10
0.0
 20
0.0
 30
0.0
  9
$UCSORGFRONT
 10
0.0
 20
0.0
 30
0.0
  9
$UCSORGBACK
 10
0.0
 20
0.0
 30
0.0
  9
$PUCSBASE
  2

  9
$PUCSNAME
  2

  9
$PUCSORG
 10
0.0
 20
0.0
 30
0.0
  9
$PUCSXDIR
 10
1.0
 20
0.0
 30
0.0
  9
$PUCSYDIR
 10
0.0
 20
1.0
 30
0.0
  9
$PUCSORTHOREF
  2

  9
$PUCSORTHOVIEW
 70
     0
  9
$PUCSORGTOP
 10
0.0
 20
0.0
 30
0.0
  9
$PUCSORGBOTTOM
 10
0.0
 20
0.0
 30
0.0
  9
$PUCSORGLEFT
 10
0.0
 20
0.0
 30
0.0
  9
$PUCSORGRIGHT
 10
0.0
 20
0.0
 30
0.0
  9
$PUCSORGFRONT
 10
0.0
 20
0.0
 30
0.0
  9
$PUCSORGBACK
 10
0.0
 20
0.0
 30
0.0
  9
$USERI1
 70
     0
  9
$USERI2
 70
     0
  9
$USERI3
 70
     0
  9
$USERI4
 70
     0
  9
$USERI5
 70
     0
  9
$USERR1
 40
0.0
  9
$USERR2
 40
0.0
  9
$USERR3
 40
0.0
  9
$USERR4
 40
0.0
  9
$USERR5
 40
0.0
  9
$WORLDVIEW
 70
     1
  9
$SHADEDGE
 70
     3
  9
$SHADEDIF
 70
    70
  9
$TILEMODE
 70
     1
  9
$MAXACTVP
 70
    64
  9
$PINSBASE
 10
0.0
 20
0.0
 30
0.0
  9
$PLIMCHECK
 70
     0
  9
$PEXTMIN
 10
1.000000000000000E+20
 20
1.000000000000000E+20
 30
1.000000000000000E+20
  9
$PEXTMAX
 10
-1.000000000000000E+20
 20
-1.000000000000000E+20
 30
-1.000000000000000E+20
  9
$PLIMMIN
 10
0.0
 20
0.0
  9
$PLIMMAX
 10
12.0
 20
9.0
  9
$UNITMODE
 70
     0
  9
$VISRETAIN
 70
     1
  9
$PLINEGEN
 70
     0
  9
$PSLTSCALE
 70
     1
  9
$TREEDEPTH
 70
  3020
  9
$CMLSTYLE
  2
Standard
  9
$CMLJUST
 70
     0
  9
$CMLSCALE
 40
1.0
  9
$PROXYGRAPHICS
 70
     1
  9
$MEASUREMENT
 70
     0
  9
$CELWEIGHT
370
    -1
  9
$ENDCAPS
280
     0
  9
$JOINSTYLE
280
     0
  9
$LWDISPLAY
290
     1
  9
$INSUNITS
 70
     1
  9
$HYPERLINKBASE
  1

  9
$STYLESHEET
  1

  9
$XEDIT
290
     1
  9
$CEPSNTYPE
380
     0
  9
$PSTYLEMODE
290
     1
  9
$FINGERPRINTGUID
  2
{9E42D1BF-90F0-967E-34EC-722D0EB84760}
  9
$VERSIONGUID
  2
{FAEB1C32-E019-11D5-929B-00C0DF256EC4}
  9
$EXTNAMES
290
     1
  9
$PSVPSCALE
 40
0.0
  9
$OLESTARTUP
290
     0
  9
$SORTENTS
280
   127
  9
$INDEXCTL
280
     0
  9
$HIDETEXT
280
     1
  9
$XCLIPFRAME
280
     2
  9
$HALOGAP
280
     0
  9
$OBSCOLOR
 70
   257
  9
$OBSLTYPE
280
     0
  9
$INTERSECTIONDISPLAY
280
     0
  9
$INTERSECTIONCOLOR
 70
   257
  9
$DIMASSOC
280
     2
  9
$PROJECTNAME
  1

  9
$CAMERADISPLAY
290
     0
  9
$LENSLENGTH
 40
50.0
  9
$CAMERAHEIGHT
 40
0.0
  9
$STEPSPERSEC
 40
2.0
  9
$STEPSIZE
 40
6.0
  9
$3DDWFPREC
 40
2.0
  9
$PSOLWIDTH
 40
0.25
  9
$PSOLHEIGHT
 40
4.0
  9
$LOFTANG1
 40
1.570796326794897
  9
$LOFTANG2
 40
1.570796326794897
  9
$LOFTMAG1
 40
0.0
  9
$LOFTMAG2
 40
0.0
  9
$LOFTPARAM
 70
     7
  9
$LOFTNORMALS
280
     1
  9
$LATITUDE
 40
37.795
  9
$LONGITUDE
 40
-122.394
  9
$NORTHDIRECTION
 40
0.0
  9
$TIMEZONE
 70
 -8000
  9
$LIGHTGLYPHDISPLAY
280
     1
  9
$TILEMODELIGHTSYNCH
280
     1
  9
$CMATERIAL
347
3C
  9
$SOLIDHIST
280
     1
  9
$SHOWHIST
280
     1
  9
$DWFFRAME
280
     2
  9
$DGNFRAME
280
     2
  9
$REALWORLDSCALE
290
     1
  9
$INTERFERECOLOR
 62
   256
  9
$CSHADOW
280
     0
  9
$SHADOWPLANELOCATION
 40
0.0
  0
ENDSEC
  0
SECTION
  2
CLASSES
  0
CLASS
  1
ACDBDICTIONARYWDFLT
  2
AcDbDictionaryWithDefault
  3
ObjectDBX Classes
 90
        0
 91
        4
280
     0
281
     0
  0
CLASS
  1
VISUALSTYLE
  2
AcDbVisualStyle
  3
ObjectDBX Classes
 90
     4095
 91
        4
280
     0
281
     0
  0
CLASS
  1
MATERIAL
  2
AcDbMaterial
  3
ObjectDBX Classes
 90
     1153
 91
        4
280
     0
281
     0
  0
CLASS
  1
SUN
  2
AcDbSun
  3
SCENEOE
 90
     1024
 91
        4
280
     0
281
     0
  0
ENDSEC
  0
SECTION
  2
TABLES
  0
TABLE
  2
VPORT
  5
8
330
0
100
AcDbSymbolTable
 70
     1
  0
VPORT
  5
29
330
8
100
AcDbSymbolTableRecord
100
AcDbViewportTableRecord
  2
*Active
 70
     0
 10
0.0
 20
0.0
 11
1.0
 21
1.0
 12
0.0
 22
0.0
 13
0.0
 23
0.0
 14
0.5
 24
0.5
 15
0.5
 25
0.5
 16
0.0
 26
0.0
 36
1.0
 17
63.499999984125
 27
-89.00059456108309
 37
0.0
 40
178.0011891221662
 41
0.7134783795241226
 42
50.0
 43
0.0
 44
0.0
 50
0.0
 51
0.0
 71
     0
 72
   100
 73
     1
 74
     3
 75
     0
 76
     0
 77
     0
 78
     0
281
     0
 65
     1
110
0.0
120
0.0
130
0.0
111
1.0
121
0.0
131
0.0
112
0.0
122
1.0
132
0.0
 79
     0
146
0.0
 60
     3
 61
     5
292
     1
282
     1
141
0.0
142
0.0
 63
   250
361
3F
  0
ENDTAB
  0
TABLE
  2
LTYPE
  5
5
330
0
100
AcDbSymbolTable
 70
     4
  0
LTYPE
  5
14
330
5
100
AcDbSymbolTableRecord
100
AcDbLinetypeTableRecord
  2
ByBlock
 70
     0
  3

 72
    65
 73
     0
 40
0.0
  0
LTYPE
  5
15
330
5
100
AcDbSymbolTableRecord
100
AcDbLinetypeTableRecord
  2
ByLayer
 70
     0
  3

 72
    65
 73
     0
 40
0.0
  0
LTYPE
  5
16
330
5
100
AcDbSymbolTableRecord
100
AcDbLinetypeTableRecord
  2
Continuous
 70
     0
  3
Solid line
 72
    65
 73
     0
 40
0.0
  0
LTYPE
  5
44
330
5
100
AcDbSymbolTableRecord
100
AcDbLinetypeTableRecord
  2
AI-Linetype-1
 70
     0
  3
Adobe Illustrator Linetype No. 1
 72
    65
 73
     2
 40
1.411111110758333
 49
0.7055555553791667
 74
     0
 49
-0.7055555553791667
 74
     0
  0
LTYPE
  5
49
330
5
100
AcDbSymbolTableRecord
100
AcDbLinetypeTableRecord
  2
AI-Linetype-2
 70
     0
  3
Adobe Illustrator Linetype No. 2
 72
    65
 73
     2
 40
1.411111110758333
 49
0.7055555553791667
 74
     0
 49
-0.7055555553791667
 74
     0
  0
LTYPE
  5
4E
330
5
100
AcDbSymbolTableRecord
100
AcDbLinetypeTableRecord
  2
AI-Linetype-3
 70
     0
  3
Adobe Illustrator Linetype No. 3
 72
    65
 73
     2
 40
1.411111110758333
 49
0.7055555553791667
 74
     0
 49
-0.7055555553791667
 74
     0
  0
ENDTAB
  0
TABLE
  2
LAYER
  5
2
330
0
100
AcDbSymbolTable
 70
     2
  0
LAYER
  5
10
330
2
100
AcDbSymbolTableRecord
100
AcDbLayerTableRecord
  2
0
 70
     0
 62
     7
  6
Continuous
370
    -3
390
F
347
3E
  0
LAYER
  5
40
330
2
100
AcDbSymbolTableRecord
100
AcDbLayerTableRecord
  2
_U+30EC_U+30A4_U+30E4_U+30FC 1
 70
     0
 62
     7
  6
Continuous
370
    -3
390
F
347
3E
  0
ENDTAB
  0
TABLE
  2
STYLE
  5
3
330
0
100
AcDbSymbolTable
 70
     1
  0
STYLE
  5
11
330
3
100
AcDbSymbolTableRecord
100
AcDbTextStyleTableRecord
  2
Standard
 70
     0
 40
0.0
 41
1.0
 50
0.0
 71
     0
 42
0.2
  3
txt
  4

  0
ENDTAB
  0
TABLE
  2
VIEW
  5
6
330
0
100
AcDbSymbolTable
 70
     0
  0
ENDTAB
  0
TABLE
  2
UCS
  5
7
330
0
100
AcDbSymbolTable
 70
     0
  0
ENDTAB
  0
TABLE
  2
APPID
  5
9
330
0
100
AcDbSymbolTable
 70
     1
  0
APPID
  5
12
330
9
100
AcDbSymbolTableRecord
100
AcDbRegAppTableRecord
  2
ACAD
 70
     0
  0
ENDTAB
  0
TABLE
  2
DIMSTYLE
  5
A
330
0
100
AcDbSymbolTable
 70
     1
100
AcDbDimStyleTable
  0
DIMSTYLE
105
27
330
A
100
AcDbSymbolTableRecord
100
AcDbDimStyleTableRecord
  2
Standard
 70
     0
178
     0
340
11
  0
ENDTAB
  0
TABLE
  2
BLOCK_RECORD
  5
1
330
0
100
AcDbSymbolTable
 70
     8
  0
BLOCK_RECORD
  5
1F
330
1
100
AcDbSymbolTableRecord
100
AcDbBlockTableRecord
  2
*Model_Space
340
22
 70
     0
280
     1
281
     0
  0
BLOCK_RECORD
  5
1B
330
1
100
AcDbSymbolTableRecord
100
AcDbBlockTableRecord
  2
*Paper_Space
340
1E
 70
     0
280
     1
281
     0
  0
BLOCK_RECORD
  5
23
330
1
100
AcDbSymbolTableRecord
100
AcDbBlockTableRecord
  2
*Paper_Space0
340
26
 70
     0
280
     1
281
     0
  0
BLOCK_RECORD
  5
50
330
1
100
AcDbSymbolTableRecord
100
AcDbBlockTableRecord
  2
block 2
340
0
102
{BLKREFS
331
51
102
}
 70
     0
280
     1
281
     0
  0
BLOCK_RECORD
  5
E4
330
1
100
AcDbSymbolTableRecord
100
AcDbBlockTableRecord
  2
block 3
340
0
102
{BLKREFS
331
E5
102
}
 70
     0
280
     1
281
     0
  0
BLOCK_RECORD
  5
FA
330
1
100
AcDbSymbolTableRecord
100
AcDbBlockTableRecord
  2
block 4
340
0
102
{BLKREFS
331
FB
102
}
 70
     0
280
     1
281
     0
  0
BLOCK_RECORD
  5
117
330
1
100
AcDbSymbolTableRecord
100
AcDbBlockTableRecord
  2
block 5
340
0
102
{BLKREFS
331
118
102
}
 70
     0
280
     1
281
     0
  0
BLOCK_RECORD
  5
128
330
1
100
AcDbSymbolTableRecord
100
AcDbBlockTableRecord
  2
block 6
340
0
102
{BLKREFS
331
129
102
}
 70
     0
280
     1
281
     0
  0
BLOCK_RECORD
  5
13C
330
1
100
AcDbSymbolTableRecord
100
AcDbBlockTableRecord
  2
block 7
340
0
102
{BLKREFS
331
13D
102
}
 70
     0
280
     1
281
     0
  0
BLOCK_RECORD
  5
150
330
1
100
AcDbSymbolTableRecord
100
AcDbBlockTableRecord
  2
block 8
340
0
102
{BLKREFS
331
151
102
}
 70
     0
280
     1
281
     0
  0
ENDTAB
  0
ENDSEC
  0
SECTION
  2
BLOCKS
  0
BLOCK
  5
20
330
1F
100
AcDbEntity
  8
0
100
AcDbBlockBegin
  2
*Model_Space
 70
     0
 10
0.0
 20
0.0
 30
0.0
  3
*Model_Space
  1

  0
ENDBLK
  5
21
330
1F
100
AcDbEntity
  8
0
100
AcDbBlockEnd
  0
BLOCK
  5
1C
330
1B
100
AcDbEntity
 67
     1
  8
0
100
AcDbBlockBegin
  2
*Paper_Space
 70
     0
 10
0.0
 20
0.0
 30
0.0
  3
*Paper_Space
  1

  0
ENDBLK
  5
1D
330
1B
100
AcDbEntity
 67
     1
  8
0
100
AcDbBlockEnd
  0
BLOCK
  5
24
330
23
100
AcDbEntity
  8
0
100
AcDbBlockBegin
  2
*Paper_Space0
 70
     0
 10
0.0
 20
0.0
 30
0.0
  3
*Paper_Space0
  1

  0
ENDBLK
  5
25
330
23
100
AcDbEntity
  8
0
100
AcDbBlockEnd
  0
BLOCK
  5
52
330
50
100
AcDbEntity
  8
0
100
AcDbBlockBegin
  2
block 2
 70
     0
 10
0.0
 20
0.0
 30
0.0
  3
block 2
  1

  0
SPLINE
  5
54
330
50
100
AcDbEntity
  8
_U+30EC_U+30A4_U+30E4_U+30FC 1
370
     0
100
AcDbSpline
210
0.0
220
0.0
230
1.0
 70
    11
 71
     3
 72
    17
 73
    13
 74
     0
 42
0.0000000001
 43
0.0000000001
 12
1.0
 22
0.0
 32
0.0
 13
1.0
 23
0.0
 33
0.0
 40
0.0
 40
0.0
 40
0.0
 40
0.0
 40
1.0
 40
1.0
 40
1.0
 40
2.0
 40
2.0
 40
2.0
 40
3.0
 40
3.0
 40
3.0
 40
4.0
 40
4.0
 40
4.0
 40
4.0
 10
42.30818412570768
 20
-103.7028862587965
 30
0.0
 10
42.21568331192872
 20
-103.5971218273993
 30
0.0
 10
42.14523110925536
 20
-103.5592257770616
 30
0.0
 10
42.0637546010292
 20
-103.5271863890488
 30
0.0
 10
42.0637546010292
 20
-103.5271863890488
 30
0.0
 10
42.16004501984194
 20
-103.3625108248538
 30
0.0
 10
42.16004501984194
 20
-103.3625108248538
 30
0.0
 10
42.24531113310187
 20
-103.4045409897739
 30
0.0
 10
42.35090330972478
 20
-103.4830891668376
 30
0.0
 10
42.39706758922713
 20
-103.537866185053
 30
0.0
 10
42.39706758922713
 20
-103.537866185053
 30
0.0
 10
42.30818412570768
 20
-103.7028862587965
 30
0.0
 10
42.30818412570768
 20
-103.7028862587965
 30
0.0
  0
SPLINE
  5
55
330
50
100
AcDbEntity
  8
_U+30EC_U+30A4_U+30E4_U+30FC 1
370
     0
100
AcDbSpline
210
0.0
220
0.0
230
1.0
 70
    11
 71
     3
 72
   182
 73
   178
 74
     0
 42
0.0000000001
 43
0.0000000001
 12
1.0
 22
0.0
 32
0.0
 13
1.0
 23
0.0
 33
0.0
 40
0.0
 40
0.0
 40
0.0
 40
0.0
 40
1.0
 40
1.0
 40
1.0
 40
2.0
 40
2.0
 40
2.0
 40
3.0
 40
3.0
 40
3.0
 40
4.0
 40
4.0
 40
4.0
 40
5.0
 40
5.0
 40
5.0
 40
6.0
 40
6.0
 40
6.0
 40
7.0
 40
7.0
 40
7.0
 40
8.0
 40
8.0
 40
8.0
 40
9.0
 40
9.0
 40
9.0
 40
10.0
 40
10.0
 40
10.0
 40
11.0
 40
11.0
 40
11.0
 40
12.0
 40
12.0
 40
12.0
 40
13.0
 40
13.0
 40
13.0
 40
14.0
 40
14.0
 40
14.0
 40
15.0
 40
15.0
 40
15.0
 40
16.0
 40
16.0
 40
16.0
 40
17.0
 40
17.0
 40
17.0
 40
18.0
 40
18.0
 40
18.0
 40
19.0
 40
19.0
 40
19.0
 40
20.0
 40
20.0
 40
20.0
 40
21.0
 40
21.0
 40
21.0
 40
22.0
 40
22.0
 40
22.0
 40
23.0
 40
23.0
 40
23.0
 40
24.0
 40
24.0
 40
24.0
 40
25.0
 40
25.0
 40
25.0
 40
26.0
 40
26.0
 40
26.0
 40
27.0
 40
27.0
 40
27.0
 40
28.0
 40
28.0
 40
28.0
 40
29.0
 40
29.0
 40
29.0
 40
30.0
 40
30.0
 40
30.0
 40
31.0
 40
31.0
 40
31.0
 40
32.0
 40
32.0
 40
32.0
 40
33.0
 40
33.0
 40
33.0
 40
34.0
 40
34.0
 40
34.0
 40
35.0
 40
35.0
 40
35.0
 40
36.0
 40
36.0
 40
36.0
 40
37.0
 40
37.0
 40
37.0
 40
38.0
 40
38.0
 40
38.0
 40
39.0
 40
39.0
 40
39.0
 40
40.0
 40
40.0
 40
40.0
 40
41.0
 40
41.0
 40
41.0
 40
42.0
 40
42.0
 40
42.0
 40
43.0
 40
43.0
 40
43.0
 40
44.0
 40
44.0
 40
44.0
 40
45.0
 40
45.0
 40
45.0
 40
46.0
 40
46.0
 40
46.0
 40
47.0
 40
47.0
 40
47.0
 40
48.0
 40
48.0
 40
48.0
 40
49.0
 40
49.0
 40
49.0
 40
50.0
 40
50.0
 40
50.0
 40
51.0
 40
51.0
 40
51.0
 40
52.0
 40
52.0
 40
52.0
 40
53.0
 40
53.0
 40
53.0
 40
54.0
 40
54.0
 40
54.0
 40
55.0
 40
55.0
 40
55.0
 40
56.0
 40
56.0
 40
56.0
 40
57.0
 40
57.0
 40
57.0
 40
58.0
 40
58.0
 40
58.0
 40
59.0
 40
59.0
 40
59.0
 40
59.0
 10
43.22302923181577
 20
-104.8811089147519
 30
0.0
 10
43.22302923181577
 20
-104.8811089147519
 30
0.0
 10
42.66561278230235
 20
-104.8811089147519
 30
0.0
 10
42.66561278230235
 20
-104.8811089147519
 30
0.0
 10
42.47854409745328
 20
-104.8811089147519
 30
0.0
 10
42.28975286486159
 20
-104.8855875388828
 30
0.0
 10
42.10268418001252
 20
-104.8983343921782
 30
0.0
 10
42.10268418001252
 20
-104.8983343921782
 30
0.0
 10
42.10268418001252
 20
-104.6909396439662
 30
0.0
 10
42.10268418001252
 20
-104.6909396439662
 30
0.0
 10
42.29715982015488
 20
-104.7036864972616
 30
0.0
 10
42.58034666904241
 20
-104.7078206118439
 30
0.0
 10
42.66561278230235
 20
-104.7078206118439
 30
0.0
 10
42.66561278230235
 20
-104.7078206118439
 30
0.0
 10
42.85819361992782
 20
-104.7078206118439
 30
0.0
 10
42.85819361992782
 20
-104.7078206118439
 30
0.0
 10
42.85819361992782
 20
-104.7078206118439
 30
0.0
 10
42.85819361992782
 20
-104.5662271874001
 30
0.0
 10
42.85819361992782
 20
-104.5662271874001
 30
0.0
 10
42.85819361992782
 20
-104.5662271874001
 30
0.0
 10
42.71746146935536
 20
-104.5662271874001
 30
0.0
 10
42.71746146935536
 20
-104.5662271874001
 30
0.0
 10
42.57311196852339
 20
-104.5662271874001
 30
0.0
 10
42.42859021291716
 20
-104.5703613019824
 30
0.0
 10
42.28406845731093
 20
-104.585175212569
 30
0.0
 10
42.28406845731093
 20
-104.585175212569
 30
0.0
 10
42.28406845731093
 20
-104.3757134070658
 30
0.0
 10
42.28406845731093
 20
-104.3757134070658
 30
0.0
 10
42.43410236569356
 20
-104.3905273176524
 30
0.0
 10
42.65079887171577
 20
-104.3946614322347
 30
0.0
 10
42.71746146935536
 20
-104.3946614322347
 30
0.0
 10
42.71746146935536
 20
-104.3946614322347
 30
0.0
 10
42.85819361992782
 20
-104.3946614322347
 30
0.0
 10
42.85819361992782
 20
-104.3946614322347
 30
0.0
 10
42.8545762696683
 20
-104.3226589365929
 30
0.0
 10
42.8545762696683
 20
-104.3164577647195
 30
0.0
 10
42.84889186211764
 20
-104.2634032942467
 30
0.0
 10
42.84889186211764
 20
-104.2634032942467
 30
0.0
 10
42.97119275184401
 20
-104.2782172048332
 30
0.0
 10
42.97119275184401
 20
-104.2782172048332
 30
0.0
 10
42.97119275184401
 20
-104.2782172048332
 30
0.0
 10
42.88420409084145
 20
-104.1069959592163
 30
0.0
 10
42.88420409084145
 20
-104.1069959592163
 30
0.0
 10
42.9248562175674
 20
-104.1131971310898
 30
0.0
 10
42.98962401269009
 20
-104.1218098698029
 30
0.0
 10
43.00443792327667
 20
-104.1218098698029
 30
0.0
 10
43.04887965503639
 20
-104.1218098698029
 30
0.0
 10
43.06369356562297
 20
-104.1007947873429
 30
0.0
 10
43.06369356562297
 20
-104.0436062022877
 30
0.0
 10
43.06369356562297
 20
-104.0436062022877
 30
0.0
 10
43.06369356562297
 20
-103.9061468924262
 30
0.0
 10
43.06369356562297
 20
-103.9061468924262
 30
0.0
 10
43.06369356562297
 20
-103.9061468924262
 30
0.0
 10
42.97119275184401
 20
-103.9061468924262
 30
0.0
 10
42.97119275184401
 20
-103.9061468924262
 30
0.0
 10
42.8545762696683
 20
-103.9061468924262
 30
0.0
 10
42.71746146935536
 20
-103.9061468924262
 30
0.0
 10
42.60997449021556
 20
-103.9185492361731
 30
0.0
 10
42.60997449021556
 20
-103.9185492361731
 30
0.0
 10
42.60997449021556
 20
-103.7283799653873
 30
0.0
 10
42.60997449021556
 20
-103.7283799653873
 30
0.0
 10
42.75639104833868
 20
-103.7452609332651
 30
0.0
 10
42.95827364377432
 20
-103.7473279905562
 30
0.0
 10
42.97119275184401
 20
-103.7473279905562
 30
0.0
 10
42.97119275184401
 20
-103.7473279905562
 30
0.0
 10
43.06369356562297
 20
-103.7473279905562
 30
0.0
 10
43.06369356562297
 20
-103.7473279905562
 30
0.0
 10
43.06369356562297
 20
-103.7473279905562
 30
0.0
 10
43.06369356562297
 20
-103.6160698525682
 30
0.0
 10
43.06369356562297
 20
-103.6160698525682
 30
0.0
 10
43.06369356562297
 20
-103.6160698525682
 30
0.0
 10
43.03044839419031
 20
-103.6160698525682
 30
0.0
 10
43.03044839419031
 20
-103.6160698525682
 30
0.0
 10
42.99151881520698
 20
-103.6160698525682
 30
0.0
 10
42.88230928832456
 20
-103.620548476699
 30
0.0
 10
42.80445013035791
 20
-103.6288167058636
 30
0.0
 10
42.80445013035791
 20
-103.6288167058636
 30
0.0
 10
42.80445013035791
 20
-103.5485459810573
 30
0.0
 10
42.80445013035791
 20
-103.5485459810573
 30
0.0
 10
42.75811359608131
 20
-103.5864420313951
 30
0.0
 10
42.73606498497571
 20
-103.6012559419816
 30
0.0
 10
42.69885795373501
 20
-103.6246825912813
 30
0.0
 10
42.69885795373501
 20
-103.6246825912813
 30
0.0
 10
42.53418238954007
 20
-103.4954915105845
 30
0.0
 10
42.53418238954007
 20
-103.4954915105845
 30
0.0
 10
42.60273978969654
 20
-103.461729574829
 30
0.0
 10
42.73968233523522
 20
-103.3983398179004
 30
0.0
 10
42.8766248807739
 20
-103.254334826617
 30
0.0
 10
42.94897188596415
 20
-103.1761311591018
 30
0.0
 10
43.01752928612062
 20
-103.0917263197132
 30
0.0
 10
43.06369356562297
 20
-102.9900960028983
 30
0.0
 10
43.06369356562297
 20
-102.9900960028983
 30
0.0
 10
43.24886744795515
 20
-103.0514187025358
 30
0.0
 10
43.24886744795515
 20
-103.0514187025358
 30
0.0
 10
43.26557616105861
 20
-103.0576198744092
 30
0.0
 10
43.27487791886878
 20
-103.0662326131223
 30
0.0
 10
43.27487791886878
 20
-103.0789794664178
 30
0.0
 10
43.27487791886878
 20
-103.0958604342955
 30
0.0
 10
43.26368135854172
 20
-103.1020616061689
 30
0.0
 10
43.24146049266186
 20
-103.1148084594644
 30
0.0
 10
43.31191269533522
 20
-103.2123046616969
 30
0.0
 10
43.4543673936503
 20
-103.309456354381
 30
0.0
 10
43.48399521482344
 20
-103.3284043795499
 30
0.0
 10
43.61559786235999
 20
-103.4172878430693
 30
0.0
 10
43.71550563143224
 20
-103.4448486069513
 30
0.0
 10
43.78406303158871
 20
-103.4637966321202
 30
0.0
 10
43.78406303158871
 20
-103.4637966321202
 30
0.0
 10
43.68036565748269
 20
-103.6332953299945
 30
0.0
 10
43.68036565748269
 20
-103.6332953299945
 30
0.0
 10
43.60629610454982
 20
-103.6036675088213
 30
0.0
 10
43.56185437279009
 20
-103.5843749741039
 30
0.0
 10
43.45815699868407
 20
-103.5189181598842
 30
0.0
 10
43.45815699868407
 20
-103.5189181598842
 30
0.0
 10
43.45815699868407
 20
-103.6288167058636
 30
0.0
 10
43.45815699868407
 20
-103.6288167058636
 30
0.0
 10
43.38598224826809
 20
-103.620548476699
 30
0.0
 10
43.27487791886878
 20
-103.6160698525682
 30
0.0
 10
43.22854138459217
 20
-103.6160698525682
 30
0.0
 10
43.22854138459217
 20
-103.6160698525682
 30
0.0
 10
43.22854138459217
 20
-103.7473279905562
 30
0.0
 10
43.22854138459217
 20
-103.7473279905562
 30
0.0
 10
43.22854138459217
 20
-103.7473279905562
 30
0.0
 10
43.33413356121508
 20
-103.7473279905562
 30
0.0
 10
43.33413356121508
 20
-103.7473279905562
 30
0.0
 10
43.33585610895771
 20
-103.7473279905562
 30
0.0
 10
43.53963350691023
 20
-103.7452609332651
 30
0.0
 10
43.69517956806926
 20
-103.7283799653873
 30
0.0
 10
43.69517956806926
 20
-103.7283799653873
 30
0.0
 10
43.69517956806926
 20
-103.9185492361731
 30
0.0
 10
43.69517956806926
 20
-103.9185492361731
 30
0.0
 10
43.58218043615307
 20
-103.9061468924262
 30
0.0
 10
43.44523789061439
 20
-103.9061468924262
 30
0.0
 10
43.33413356121508
 20
-103.9061468924262
 30
0.0
 10
43.33413356121508
 20
-103.9061468924262
 30
0.0
 10
43.22854138459217
 20
-103.9061468924262
 30
0.0
 10
43.22854138459217
 20
-103.9061468924262
 30
0.0
 10
43.22854138459217
 20
-103.9061468924262
 30
0.0
 10
43.22854138459217
 20
-104.1324896658072
 30
0.0
 10
43.22854138459217
 20
-104.1324896658072
 30
0.0
 10
43.22854138459217
 20
-104.2510009504998
 30
0.0
 10
43.20632051871231
 20
-104.2868299435464
 30
0.0
 10
43.06558836813986
 20
-104.3016438541329
 30
0.0
 10
43.06920571839937
 20
-104.3205918793018
 30
0.0
 10
43.06369356562297
 20
-104.3312716753061
 30
0.0
 10
43.03044839419031
 20
-104.3543538150573
 30
0.0
 10
43.02855359167342
 20
-104.3736463497746
 30
0.0
 10
43.02855359167342
 20
-104.3798475216481
 30
0.0
 10
43.02665878915654
 20
-104.3946614322347
 30
0.0
 10
43.02665878915654
 20
-104.3946614322347
 30
0.0
 10
43.14706487636602
 20
-104.3946614322347
 30
0.0
 10
43.14706487636602
 20
-104.3946614322347
 30
0.0
 10
43.29141437719798
 20
-104.3946614322347
 30
0.0
 10
43.4378309353211
 20
-104.3905273176524
 30
0.0
 10
43.58407523866995
 20
-104.3757134070658
 30
0.0
 10
43.58407523866995
 20
-104.3757134070658
 30
0.0
 10
43.58407523866995
 20
-104.5831081552778
 30
0.0
 10
43.58407523866995
 20
-104.5831081552778
 30
0.0
 10
43.395111751304
 20
-104.5662271874001
 30
0.0
 10
43.16377358946948
 20
-104.5662271874001
 30
0.0
 10
43.14706487636602
 20
-104.5662271874001
 30
0.0
 10
43.14706487636602
 20
-104.5662271874001
 30
0.0
 10
43.02476398663964
 20
-104.5662271874001
 30
0.0
 10
43.02476398663964
 20
-104.5662271874001
 30
0.0
 10
43.02476398663964
 20
-104.5662271874001
 30
0.0
 10
43.02476398663964
 20
-104.7078206118439
 30
0.0
 10
43.02476398663964
 20
-104.7078206118439
 30
0.0
 10
43.02476398663964
 20
-104.7078206118439
 30
0.0
 10
43.22302923181577
 20
-104.7078206118439
 30
0.0
 10
43.22302923181577
 20
-104.7078206118439
 30
0.0
 10
43.41182046440746
 20
-104.7078206118439
 30
0.0
 10
43.60250649951604
 20
-104.7036864972616
 30
0.0
 10
43.79146998688199
 20
-104.6909396439662
 30
0.0
 10
43.79146998688199
 20
-104.6909396439662
 30
0.0
 10
43.79146998688199
 20
-104.8983343921782
 30
0.0
 10
43.79146998688199
 20
-104.8983343921782
 30
0.0
 10
43.54514565968663
 20
-104.8811089147519
 30
0.0
 10
43.24335529517874
 20
-104.8811089147519
 30
0.0
 10
43.22302923181577
 20
-104.8811089147519
 30
0.0
  0
SPLINE
  5
56
330
50
100
AcDbEntity
  8
_U+30EC_U+30A4_U+30E4_U+30FC 1
370
     0
100
AcDbSpline
210
0.0
220
0.0
230
1.0
 70
    11
 71
     3
 72
    23
 73
    19
 74
     0
 42
0.0000000001
 43
0.0000000001
 12
1.0
 22
0.0
 32
0.0
 13
1.0
 23
0.0
 33
0.0
 40
0.0
 40
0.0
 40
0.0
 40
0.0
 40
1.0
 40
1.0
 40
1.0
 40
2.0
 40
2.0
 40
2.0
 40
3.0
 40
3.0
 40
3.0
 40
4.0
 40
4.0
 40
4.0
 40
5.0
 40
5.0
 40
5.0
 40
6.0
 40
6.0
 40
6.0
 40
6.0
 10
42.24341633058498
 20
-104.2530680077909
 30
0.0
 10
42.24341633058498
 20
-104.2740830902509
 30
0.0
 10
42.24531113310187
 20
-104.3123236501372
 30
0.0
 10
42.22309026722201
 20
-104.3123236501372
 30
0.0
 10
42.21378850941183
 20
-104.3123236501372
 30
0.0
 10
42.20638155411854
 20
-104.3057779687152
 30
0.0
 10
42.19707979630837
 20
-104.2888970008375
 30
0.0
 10
42.19707979630837
 20
-104.2888970008375
 30
0.0
 10
42.10630153027203
 20
-104.1069959592163
 30
0.0
 10
42.10630153027203
 20
-104.1069959592163
 30
0.0
 10
42.29526501763799
 20
-103.9778048785194
 30
0.0
 10
42.46751979190049
 20
-103.7008192015054
 30
0.0
 10
42.50817191862643
 20
-103.6288167058636
 30
0.0
 10
42.50817191862643
 20
-103.6288167058636
 30
0.0
 10
42.57121716600651
 20
-103.8086506901937
 30
0.0
 10
42.57121716600651
 20
-103.8086506901937
 30
0.0
 10
42.4546006838308
 20
-104.0053656424014
 30
0.0
 10
42.30077717041439
 20
-104.1893337413138
 30
0.0
 10
42.24341633058498
 20
-104.2530680077909
 30
0.0
  0
SPLINE
  5
57
330
50
100
AcDbEntity
  8
_U+30EC_U+30A4_U+30E4_U+30FC 1
370
     0
100
AcDbSpline
210
0.0
220
0.0
230
1.0
 70
    11
 71
     3
 72
    17
 73
    13
 74
     0
 42
0.0000000001
 43
0.0000000001
 12
1.0
 22
0.0
 32
0.0
 13
1.0
 23
0.0
 33
0.0
 40
0.0
 40
0.0
 40
0.0
 40
0.0
 40
1.0
 40
1.0
 40
1.0
 40
2.0
 40
2.0
 40
2.0
 40
3.0
 40
3.0
 40
3.0
 40
4.0
 40
4.0
 40
4.0
 40
4.0
 10
42.4656249893836
 20
-103.358032200723
 30
0.0
 10
42.4118814998137
 20
-103.281895590499
 30
0.0
 10
42.29888236789751
 20
-103.205758980275
 30
0.0
 10
42.20827635663543
 20
-103.1761311591018
 30
0.0
 10
42.20827635663543
 20
-103.1761311591018
 30
0.0
 10
42.29164766737848
 20
-103.0111110853583
 30
0.0
 10
42.29164766737848
 20
-103.0111110853583
 30
0.0
 10
42.38053113089792
 20
-103.0472845879535
 30
0.0
 10
42.47303194467688
 20
-103.1041286634601
 30
0.0
 10
42.55071884786927
 20
-103.1847438978149
 30
0.0
 10
42.55071884786927
 20
-103.1847438978149
 30
0.0
 10
42.4656249893836
 20
-103.358032200723
 30
0.0
 10
42.4656249893836
 20
-103.358032200723
 30
0.0
  0
SPLINE
  5
58
330
50
100
AcDbEntity
  8
_U+30EC_U+30A4_U+30E4_U+30FC 1
370
     0
100
AcDbSpline
210
0.0
220
0.0
230
1.0
 70
    11
 71
     3
 72
    23
 73
    19
 74
     0
 42
0.0000000001
 43
0.0000000001
 12
1.0
 22
0.0
 32
0.0
 13
1.0
 23
0.0
 33
0.0
 40
0.0
 40
0.0
 40
0.0
 40
0.0
 40
1.0
 40
1.0
 40
1.0
 40
2.0
 40
2.0
 40
2.0
 40
3.0
 40
3.0
 40
3.0
 40
4.0
 40
4.0
 40
4.0
 40
5.0
 40
5.0
 40
5.0
 40
6.0
 40
6.0
 40
6.0
 40
6.0
 10
42.86181097018733
 20
-104.0625542274566
 30
0.0
 10
42.84337970934124
 20
-104.0859808767563
 30
0.0
 10
42.75811359608131
 20
-104.1979464800269
 30
0.0
 10
42.6359849611292
 20
-104.2782172048332
 30
0.0
 10
42.6359849611292
 20
-104.2782172048332
 30
0.0
 10
42.48974065778035
 20
-104.1576388628495
 30
0.0
 10
42.48974065778035
 20
-104.1576388628495
 30
0.0
 10
42.62117105054263
 20
-104.0815022526255
 30
0.0
 10
42.70815971154519
 20
-103.9864176172326
 30
0.0
 10
42.75087889556228
 20
-103.9333631467597
 30
0.0
 10
42.75087889556228
 20
-103.9333631467597
 30
0.0
 10
42.90263535168754
 20
-104.0160454384057
 30
0.0
 10
42.90263535168754
 20
-104.0160454384057
 30
0.0
 10
42.91004230698083
 20
-104.020179552988
 30
0.0
 10
42.91744926227411
 20
-104.02672523441
 30
0.0
 10
42.91744926227411
 20
-104.0370605208657
 30
0.0
 10
42.91744926227411
 20
-104.0625542274566
 30
0.0
 10
42.88592663858407
 20
-104.0625542274566
 30
0.0
 10
42.86181097018733
 20
-104.0625542274566
 30
0.0
  0
SPLINE
  5
59
330
50
100
AcDbEntity
  8
_U+30EC_U+30A4_U+30E4_U+30FC 1
370
     0
100
AcDbSpline
210
0.0
220
0.0
230
1.0
 70
    11
 71
     3
 72
    20
 73
    16
 74
     0
 42
0.0000000001
 43
0.0000000001
 12
1.0
 22
0.0
 32
0.0
 13
1.0
 23
0.0
 33
0.0
 40
0.0
 40
0.0
 40
0.0
 40
0.0
 40
1.0
 40
1.0
 40
1.0
 40
2.0
 40
2.0
 40
2.0
 40
3.0
 40
3.0
 40
3.0
 40
4.0
 40
4.0
 40
4.0
 40
5.0
 40
5.0
 40
5.0
 40
5.0
 10
43.12294920796926
 20
-103.2205728908615
 30
0.0
 10
43.0897040365366
 20
-103.2691487372036
 30
0.0
 10
43.03596054696671
 20
-103.3476969142672
 30
0.0
 10
42.9138319120146
 20
-103.4575954602467
 30
0.0
 10
42.9841118599137
 20
-103.461729574829
 30
0.0
 10
43.00995007605307
 20
-103.461729574829
 30
0.0
 10
43.03044839419031
 20
-103.461729574829
 30
0.0
 10
43.03044839419031
 20
-103.461729574829
 30
0.0
 10
43.23043618710906
 20
-103.461729574829
 30
0.0
 10
43.23043618710906
 20
-103.461729574829
 30
0.0
 10
43.25816920576532
 20
-103.461729574829
 30
0.0
 10
43.30071613500816
 20
-103.4596625175379
 30
0.0
 10
43.36548393013085
 20
-103.4575954602467
 30
0.0
 10
43.2674709635755
 20
-103.3835259073138
 30
0.0
 10
43.22492403433266
 20
-103.337017118263
 30
0.0
 10
43.12294920796926
 20
-103.2205728908615
 30
0.0
  0
SPLINE
  5
5A
330
50
100
AcDbEntity
  8
_U+30EC_U+30A4_U+30E4_U+30FC 1
370
     0
100
AcDbSpline
210
0.0
220
0.0
230
1.0
 70
    11
 71
     3
 72
    17
 73
    13
 74
     0
 42
0.0000000001
 43
0.0000000001
 12
1.0
 22
0.0
 32
0.0
 13
1.0
 23
0.0
 33
0.0
 40
0.0
 40
0.0
 40
0.0
 40
0.0
 40
1.0
 40
1.0
 40
1.0
 40
2.0
 40
2.0
 40
2.0
 40
3.0
 40
3.0
 40
3.0
 40
4.0
 40
4.0
 40
4.0
 40
4.0
 10
43.6137030598431
 20
-104.2761501475421
 30
0.0
 10
43.49519177515051
 20
-104.1641845442715
 30
0.0
 10
43.40269096137155
 20
-104.1007947873429
 30
0.0
 10
43.29899358726553
 20
-104.0370605208657
 30
0.0
 10
43.29899358726553
 20
-104.0370605208657
 30
0.0
 10
43.40992566189058
 20
-103.9250949175951
 30
0.0
 10
43.40992566189058
 20
-103.9250949175951
 30
0.0
 10
43.52481959632366
 20
-103.971603706646
 30
0.0
 10
43.62111001513639
 20
-104.0287922917011
 30
0.0
 10
43.73031954201881
 20
-104.130422608516
 30
0.0
 10
43.73031954201881
 20
-104.130422608516
 30
0.0
 10
43.6137030598431
 20
-104.2761501475421
 30
0.0
 10
43.6137030598431
 20
-104.2761501475421
 30
0.0
  0
HATCH
  5
5B
330
50
100
AcDbEntity
  8
_U+30EC_U+30A4_U+30E4_U+30FC 1
 62
   179
420
  2234388
100
AcDbHatch
 10
0.0
 20
0.0
 30
0.0
210
0.0
220
0.0
230
1.0
  2
SOLID
 70
     1
 71
     0
 91
        7
 92
        1
 93
        1
 72
     4
 94
        3
 73
     0
 74
     1
 95
       17
 96
       13
 40
0.0
 40
0.0
 40
0.0
 40
0.0
 40
1.0
 40
1.0
 40
1.0
 40
2.0
 40
2.0
 40
2.0
 40
3.0
 40
3.0
 40
3.0
 40
4.0
 40
4.0
 40
4.0
 40
4.0
 10
42.30818412570768
 20
-103.7028862587965
 10
42.21568331192872
 20
-103.5971218273993
 10
42.14523110925536
 20
-103.5592257770616
 10
42.0637546010292
 20
-103.5271863890488
 10
42.0637546010292
 20
-103.5271863890488
 10
42.16004501984194
 20
-103.3625108248538
 10
42.16004501984194
 20
-103.3625108248538
 10
42.24531113310187
 20
-103.4045409897739
 10
42.35090330972478
 20
-103.4830891668376
 10
42.39706758922713
 20
-103.537866185053
 10
42.39706758922713
 20
-103.537866185053
 10
42.30818412570768
 20
-103.7028862587965
 10
42.30818412570768
 20
-103.7028862587965
 97
        0
 97
        0
 92
        1
 93
        1
 72
     4
 94
        3
 73
     0
 74
     1
 95
      182
 96
      178
 40
0.0
 40
0.0
 40
0.0
 40
0.0
 40
1.0
 40
1.0
 40
1.0
 40
2.0
 40
2.0
 40
2.0
 40
3.0
 40
3.0
 40
3.0
 40
4.0
 40
4.0
 40
4.0
 40
5.0
 40
5.0
 40
5.0
 40
6.0
 40
6.0
 40
6.0
 40
7.0
 40
7.0
 40
7.0
 40
8.0
 40
8.0
 40
8.0
 40
9.0
 40
9.0
 40
9.0
 40
10.0
 40
10.0
 40
10.0
 40
11.0
 40
11.0
 40
11.0
 40
12.0
 40
12.0
 40
12.0
 40
13.0
 40
13.0
 40
13.0
 40
14.0
 40
14.0
 40
14.0
 40
15.0
 40
15.0
 40
15.0
 40
16.0
 40
16.0
 40
16.0
 40
17.0
 40
17.0
 40
17.0
 40
18.0
 40
18.0
 40
18.0
 40
19.0
 40
19.0
 40
19.0
 40
20.0
 40
20.0
 40
20.0
 40
21.0
 40
21.0
 40
21.0
 40
22.0
 40
22.0
 40
22.0
 40
23.0
 40
23.0
 40
23.0
 40
24.0
 40
24.0
 40
24.0
 40
25.0
 40
25.0
 40
25.0
 40
26.0
 40
26.0
 40
26.0
 40
27.0
 40
27.0
 40
27.0
 40
28.0
 40
28.0
 40
28.0
 40
29.0
 40
29.0
 40
29.0
 40
30.0
 40
30.0
 40
30.0
 40
31.0
 40
31.0
 40
31.0
 40
32.0
 40
32.0
 40
32.0
 40
33.0
 40
33.0
 40
33.0
 40
34.0
 40
34.0
 40
34.0
 40
35.0
 40
35.0
 40
35.0
 40
36.0
 40
36.0
 40
36.0
 40
37.0
 40
37.0
 40
37.0
 40
38.0
 40
38.0
 40
38.0
 40
39.0
 40
39.0
 40
39.0
 40
40.0
 40
40.0
 40
40.0
 40
41.0
 40
41.0
 40
41.0
 40
42.0
 40
42.0
 40
42.0
 40
43.0
 40
43.0
 40
43.0
 40
44.0
 40
44.0
 40
44.0
 40
45.0
 40
45.0
 40
45.0
 40
46.0
 40
46.0
 40
46.0
 40
47.0
 40
47.0
 40
47.0
 40
48.0
 40
48.0
 40
48.0
 40
49.0
 40
49.0
 40
49.0
 40
50.0
 40
50.0
 40
50.0
 40
51.0
 40
51.0
 40
51.0
 40
52.0
 40
52.0
 40
52.0
 40
53.0
 40
53.0
 40
53.0
 40
54.0
 40
54.0
 40
54.0
 40
55.0
 40
55.0
 40
55.0
 40
56.0
 40
56.0
 40
56.0
 40
57.0
 40
57.0
 40
57.0
 40
58.0
 40
58.0
 40
58.0
 40
59.0
 40
59.0
 40
59.0
 40
59.0
 10
43.22302923181577
 20
-104.8811089147519
 10
43.22302923181577
 20
-104.8811089147519
 10
42.66561278230235
 20
-104.8811089147519
 10
42.66561278230235
 20
-104.8811089147519
 10
42.47854409745328
 20
-104.8811089147519
 10
42.28975286486159
 20
-104.8855875388828
 10
42.10268418001252
 20
-104.8983343921782
 10
42.10268418001252
 20
-104.8983343921782
 10
42.10268418001252
 20
-104.6909396439662
 10
42.10268418001252
 20
-104.6909396439662
 10
42.29715982015488
 20
-104.7036864972616
 10
42.58034666904241
 20
-104.7078206118439
 10
42.66561278230235
 20
-104.7078206118439
 10
42.66561278230235
 20
-104.7078206118439
 10
42.85819361992782
 20
-104.7078206118439
 10
42.85819361992782
 20
-104.7078206118439
 10
42.85819361992782
 20
-104.7078206118439
 10
42.85819361992782
 20
-104.5662271874001
 10
42.85819361992782
 20
-104.5662271874001
 10
42.85819361992782
 20
-104.5662271874001
 10
42.71746146935536
 20
-104.5662271874001
 10
42.71746146935536
 20
-104.5662271874001
 10
42.57311196852339
 20
-104.5662271874001
 10
42.42859021291716
 20
-104.5703613019824
 10
42.28406845731093
 20
-104.585175212569
 10
42.28406845731093
 20
-104.585175212569
 10
42.28406845731093
 20
-104.3757134070658
 10
42.28406845731093
 20
-104.3757134070658
 10
42.43410236569356
 20
-104.3905273176524
 10
42.65079887171577
 20
-104.3946614322347
 10
42.71746146935536
 20
-104.3946614322347
 10
42.71746146935536
 20
-104.3946614322347
 10
42.85819361992782
 20
-104.3946614322347
 10
42.85819361992782
 20
-104.3946614322347
 10
42.8545762696683
 20
-104.3226589365929
 10
42.8545762696683
 20
-104.3164577647195
 10
42.84889186211764
 20
-104.2634032942467
 10
42.84889186211764
 20
-104.2634032942467
 10
42.97119275184401
 20
-104.2782172048332
 10
42.97119275184401
 20
-104.2782172048332
 10
42.97119275184401
 20
-104.2782172048332
 10
42.88420409084145
 20
-104.1069959592163
 10
42.88420409084145
 20
-104.1069959592163
 10
42.9248562175674
 20
-104.1131971310898
 10
42.98962401269009
 20
-104.1218098698029
 10
43.00443792327667
 20
-104.1218098698029
 10
43.04887965503639
 20
-104.1218098698029
 10
43.06369356562297
 20
-104.1007947873429
 10
43.06369356562297
 20
-104.0436062022877
 10
43.06369356562297
 20
-104.0436062022877
 10
43.06369356562297
 20
-103.9061468924262
 10
43.06369356562297
 20
-103.9061468924262
 10
43.06369356562297
 20
-103.9061468924262
 10
42.97119275184401
 20
-103.9061468924262
 10
42.97119275184401
 20
-103.9061468924262
 10
42.8545762696683
 20
-103.9061468924262
 10
42.71746146935536
 20
-103.9061468924262
 10
42.60997449021556
 20
-103.9185492361731
 10
42.60997449021556
 20
-103.9185492361731
 10
42.60997449021556
 20
-103.7283799653873
 10
42.60997449021556
 20
-103.7283799653873
 10
42.75639104833868
 20
-103.7452609332651
 10
42.95827364377432
 20
-103.7473279905562
 10
42.97119275184401
 20
-103.7473279905562
 10
42.97119275184401
 20
-103.7473279905562
 10
43.06369356562297
 20
-103.7473279905562
 10
43.06369356562297
 20
-103.7473279905562
 10
43.06369356562297
 20
-103.7473279905562
 10
43.06369356562297
 20
-103.6160698525682
 10
43.06369356562297
 20
-103.6160698525682
 10
43.06369356562297
 20
-103.6160698525682
 10
43.03044839419031
 20
-103.6160698525682
 10
43.03044839419031
 20
-103.6160698525682
 10
42.99151881520698
 20
-103.6160698525682
 10
42.88230928832456
 20
-103.620548476699
 10
42.80445013035791
 20
-103.6288167058636
 10
42.80445013035791
 20
-103.6288167058636
 10
42.80445013035791
 20
-103.5485459810573
 10
42.80445013035791
 20
-103.5485459810573
 10
42.75811359608131
 20
-103.5864420313951
 10
42.73606498497571
 20
-103.6012559419816
 10
42.69885795373501
 20
-103.6246825912813
 10
42.69885795373501
 20
-103.6246825912813
 10
42.53418238954007
 20
-103.4954915105845
 10
42.53418238954007
 20
-103.4954915105845
 10
42.60273978969654
 20
-103.461729574829
 10
42.73968233523522
 20
-103.3983398179004
 10
42.8766248807739
 20
-103.254334826617
 10
42.94897188596415
 20
-103.1761311591018
 10
43.01752928612062
 20
-103.0917263197132
 10
43.06369356562297
 20
-102.9900960028983
 10
43.06369356562297
 20
-102.9900960028983
 10
43.24886744795515
 20
-103.0514187025358
 10
43.24886744795515
 20
-103.0514187025358
 10
43.26557616105861
 20
-103.0576198744092
 10
43.27487791886878
 20
-103.0662326131223
 10
43.27487791886878
 20
-103.0789794664178
 10
43.27487791886878
 20
-103.0958604342955
 10
43.26368135854172
 20
-103.1020616061689
 10
43.24146049266186
 20
-103.1148084594644
 10
43.31191269533522
 20
-103.2123046616969
 10
43.4543673936503
 20
-103.309456354381
 10
43.48399521482344
 20
-103.3284043795499
 10
43.61559786235999
 20
-103.4172878430693
 10
43.71550563143224
 20
-103.4448486069513
 10
43.78406303158871
 20
-103.4637966321202
 10
43.78406303158871
 20
-103.4637966321202
 10
43.68036565748269
 20
-103.6332953299945
 10
43.68036565748269
 20
-103.6332953299945
 10
43.60629610454982
 20
-103.6036675088213
 10
43.56185437279009
 20
-103.5843749741039
 10
43.45815699868407
 20
-103.5189181598842
 10
43.45815699868407
 20
-103.5189181598842
 10
43.45815699868407
 20
-103.6288167058636
 10
43.45815699868407
 20
-103.6288167058636
 10
43.38598224826809
 20
-103.620548476699
 10
43.27487791886878
 20
-103.6160698525682
 10
43.22854138459217
 20
-103.6160698525682
 10
43.22854138459217
 20
-103.6160698525682
 10
43.22854138459217
 20
-103.7473279905562
 10
43.22854138459217
 20
-103.7473279905562
 10
43.22854138459217
 20
-103.7473279905562
 10
43.33413356121508
 20
-103.7473279905562
 10
43.33413356121508
 20
-103.7473279905562
 10
43.33585610895771
 20
-103.7473279905562
 10
43.53963350691023
 20
-103.7452609332651
 10
43.69517956806926
 20
-103.7283799653873
 10
43.69517956806926
 20
-103.7283799653873
 10
43.69517956806926
 20
-103.9185492361731
 10
43.69517956806926
 20
-103.9185492361731
 10
43.58218043615307
 20
-103.9061468924262
 10
43.44523789061439
 20
-103.9061468924262
 10
43.33413356121508
 20
-103.9061468924262
 10
43.33413356121508
 20
-103.9061468924262
 10
43.22854138459217
 20
-103.9061468924262
 10
43.22854138459217
 20
-103.9061468924262
 10
43.22854138459217
 20
-103.9061468924262
 10
43.22854138459217
 20
-104.1324896658072
 10
43.22854138459217
 20
-104.1324896658072
 10
43.22854138459217
 20
-104.2510009504998
 10
43.20632051871231
 20
-104.2868299435464
 10
43.06558836813986
 20
-104.3016438541329
 10
43.06920571839937
 20
-104.3205918793018
 10
43.06369356562297
 20
-104.3312716753061
 10
43.03044839419031
 20
-104.3543538150573
 10
43.02855359167342
 20
-104.3736463497746
 10
43.02855359167342
 20
-104.3798475216481
 10
43.02665878915654
 20
-104.3946614322347
 10
43.02665878915654
 20
-104.3946614322347
 10
43.14706487636602
 20
-104.3946614322347
 10
43.14706487636602
 20
-104.3946614322347
 10
43.29141437719798
 20
-104.3946614322347
 10
43.4378309353211
 20
-104.3905273176524
 10
43.58407523866995
 20
-104.3757134070658
 10
43.58407523866995
 20
-104.3757134070658
 10
43.58407523866995
 20
-104.5831081552778
 10
43.58407523866995
 20
-104.5831081552778
 10
43.395111751304
 20
-104.5662271874001
 10
43.16377358946948
 20
-104.5662271874001
 10
43.14706487636602
 20
-104.5662271874001
 10
43.14706487636602
 20
-104.5662271874001
 10
43.02476398663964
 20
-104.5662271874001
 10
43.02476398663964
 20
-104.5662271874001
 10
43.02476398663964
 20
-104.5662271874001
 10
43.02476398663964
 20
-104.7078206118439
 10
43.02476398663964
 20
-104.7078206118439
 10
43.02476398663964
 20
-104.7078206118439
 10
43.22302923181577
 20
-104.7078206118439
 10
43.22302923181577
 20
-104.7078206118439
 10
43.41182046440746
 20
-104.7078206118439
 10
43.60250649951604
 20
-104.7036864972616
 10
43.79146998688199
 20
-104.6909396439662
 10
43.79146998688199
 20
-104.6909396439662
 10
43.79146998688199
 20
-104.8983343921782
 10
43.79146998688199
 20
-104.8983343921782
 10
43.54514565968663
 20
-104.8811089147519
 10
43.24335529517874
 20
-104.8811089147519
 10
43.22302923181577
 20
-104.8811089147519
 97
        0
 97
        0
 92
        1
 93
        1
 72
     4
 94
        3
 73
     0
 74
     1
 95
       23
 96
       19
 40
0.0
 40
0.0
 40
0.0
 40
0.0
 40
1.0
 40
1.0
 40
1.0
 40
2.0
 40
2.0
 40
2.0
 40
3.0
 40
3.0
 40
3.0
 40
4.0
 40
4.0
 40
4.0
 40
5.0
 40
5.0
 40
5.0
 40
6.0
 40
6.0
 40
6.0
 40
6.0
 10
42.24341633058498
 20
-104.2530680077909
 10
42.24341633058498
 20
-104.2740830902509
 10
42.24531113310187
 20
-104.3123236501372
 10
42.22309026722201
 20
-104.3123236501372
 10
42.21378850941183
 20
-104.3123236501372
 10
42.20638155411854
 20
-104.3057779687152
 10
42.19707979630837
 20
-104.2888970008375
 10
42.19707979630837
 20
-104.2888970008375
 10
42.10630153027203
 20
-104.1069959592163
 10
42.10630153027203
 20
-104.1069959592163
 10
42.29526501763799
 20
-103.9778048785194
 10
42.46751979190049
 20
-103.7008192015054
 10
42.50817191862643
 20
-103.6288167058636
 10
42.50817191862643
 20
-103.6288167058636
 10
42.57121716600651
 20
-103.8086506901937
 10
42.57121716600651
 20
-103.8086506901937
 10
42.4546006838308
 20
-104.0053656424014
 10
42.30077717041439
 20
-104.1893337413138
 10
42.24341633058498
 20
-104.2530680077909
 97
        0
 97
        0
 92
        1
 93
        1
 72
     4
 94
        3
 73
     0
 74
     1
 95
       17
 96
       13
 40
0.0
 40
0.0
 40
0.0
 40
0.0
 40
1.0
 40
1.0
 40
1.0
 40
2.0
 40
2.0
 40
2.0
 40
3.0
 40
3.0
 40
3.0
 40
4.0
 40
4.0
 40
4.0
 40
4.0
 10
42.4656249893836
 20
-103.358032200723
 10
42.4118814998137
 20
-103.281895590499
 10
42.29888236789751
 20
-103.205758980275
 10
42.20827635663543
 20
-103.1761311591018
 10
42.20827635663543
 20
-103.1761311591018
 10
42.29164766737848
 20
-103.0111110853583
 10
42.29164766737848
 20
-103.0111110853583
 10
42.38053113089792
 20
-103.0472845879535
 10
42.47303194467688
 20
-103.1041286634601
 10
42.55071884786927
 20
-103.1847438978149
 10
42.55071884786927
 20
-103.1847438978149
 10
42.4656249893836
 20
-103.358032200723
 10
42.4656249893836
 20
-103.358032200723
 97
        0
 97
        0
 92
        1
 93
        1
 72
     4
 94
        3
 73
     0
 74
     1
 95
       23
 96
       19
 40
0.0
 40
0.0
 40
0.0
 40
0.0
 40
1.0
 40
1.0
 40
1.0
 40
2.0
 40
2.0
 40
2.0
 40
3.0
 40
3.0
 40
3.0
 40
4.0
 40
4.0
 40
4.0
 40
5.0
 40
5.0
 40
5.0
 40
6.0
 40
6.0
 40
6.0
 40
6.0
 10
42.86181097018733
 20
-104.0625542274566
 10
42.84337970934124
 20
-104.0859808767563
 10
42.75811359608131
 20
-104.1979464800269
 10
42.6359849611292
 20
-104.2782172048332
 10
42.6359849611292
 20
-104.2782172048332
 10
42.48974065778035
 20
-104.1576388628495
 10
42.48974065778035
 20
-104.1576388628495
 10
42.62117105054263
 20
-104.0815022526255
 10
42.70815971154519
 20
-103.9864176172326
 10
42.75087889556228
 20
-103.9333631467597
 10
42.75087889556228
 20
-103.9333631467597
 10
42.90263535168754
 20
-104.0160454384057
 10
42.90263535168754
 20
-104.0160454384057
 10
42.91004230698083
 20
-104.020179552988
 10
42.91744926227411
 20
-104.02672523441
 10
42.91744926227411
 20
-104.0370605208657
 10
42.91744926227411
 20
-104.0625542274566
 10
42.88592663858407
 20
-104.0625542274566
 10
42.86181097018733
 20
-104.0625542274566
 97
        0
 97
        0
 92
        1
 93
        1
 72
     4
 94
        3
 73
     0
 74
     1
 95
       20
 96
       16
 40
0.0
 40
0.0
 40
0.0
 40
0.0
 40
1.0
 40
1.0
 40
1.0
 40
2.0
 40
2.0
 40
2.0
 40
3.0
 40
3.0
 40
3.0
 40
4.0
 40
4.0
 40
4.0
 40
5.0
 40
5.0
 40
5.0
 40
5.0
 10
43.12294920796926
 20
-103.2205728908615
 10
43.0897040365366
 20
-103.2691487372036
 10
43.03596054696671
 20
-103.3476969142672
 10
42.9138319120146
 20
-103.4575954602467
 10
42.9841118599137
 20
-103.461729574829
 10
43.00995007605307
 20
-103.461729574829
 10
43.03044839419031
 20
-103.461729574829
 10
43.03044839419031
 20
-103.461729574829
 10
43.23043618710906
 20
-103.461729574829
 10
43.23043618710906
 20
-103.461729574829
 10
43.25816920576532
 20
-103.461729574829
 10
43.30071613500816
 20
-103.4596625175379
 10
43.36548393013085
 20
-103.4575954602467
 10
43.2674709635755
 20
-103.3835259073138
 10
43.22492403433266
 20
-103.337017118263
 10
43.12294920796926
 20
-103.2205728908615
 97
        0
 97
        0
 92
        1
 93
        1
 72
     4
 94
        3
 73
     0
 74
     1
 95
       17
 96
       13
 40
0.0
 40
0.0
 40
0.0
 40
0.0
 40
1.0
 40
1.0
 40
1.0
 40
2.0
 40
2.0
 40
2.0
 40
3.0
 40
3.0
 40
3.0
 40
4.0
 40
4.0
 40
4.0
 40
4.0
 10
43.6137030598431
 20
-104.2761501475421
 10
43.49519177515051
 20
-104.1641845442715
 10
43.40269096137155
 20
-104.1007947873429
 10
43.29899358726553
 20
-104.0370605208657
 10
43.29899358726553
 20
-104.0370605208657
 10
43.40992566189058
 20
-103.9250949175951
 10
43.40992566189058
 20
-103.9250949175951
 10
43.52481959632366
 20
-103.971603706646
 10
43.62111001513639
 20
-104.0287922917011
 10
43.73031954201881
 20
-104.130422608516
 10
43.73031954201881
 20
-104.130422608516
 10
43.6137030598431
 20
-104.2761501475421
 10
43.6137030598431
 20
-104.2761501475421
 97
        0
 97
        0
 75
     2
 76
     1
 98
        0
  0
SPLINE
  5
5C
330
50
100
AcDbEntity
  8
_U+30EC_U+30A4_U+30E4_U+30FC 1
370
     0
100
AcDbSpline
210
0.0
220
0.0
230
1.0
 70
    11
 71
     3
 72
   113
 73
   109
 74
     0
 42
0.0000000001
 43
0.0000000001
 12
1.0
 22
0.0
 32
0.0
 13
1.0
 23
0.0
 33
0.0
 40
0.0
 40
0.0
 40
0.0
 40
0.0
 40
1.0
 40
1.0
 40
1.0
 40
2.0
 40
2.0
 40
2.0
 40
3.0
 40
3.0
 40
3.0
 40
4.0
 40
4.0
 40
4.0
 40
5.0
 40
5.0
 40
5.0
 40
6.0
 40
6.0
 40
6.0
 40
7.0
 40
7.0
 40
7.0
 40
8.0
 40
8.0
 40
8.0
 40
9.0
 40
9.0
 40
9.0
 40
10.0
 40
10.0
 40
10.0
 40
11.0
 40
11.0
 40
11.0
 40
12.0
 40
12.0
 40
12.0
 40
13.0
 40
13.0
 40
13.0
 40
14.0
 40
14.0
 40
14.0
 40
15.0
 40
15.0
 40
15.0
 40
16.0
 40
16.0
 40
16.0
 40
17.0
 40
17.0
 40
17.0
 40
18.0
 40
18.0
 40
18.0
 40
19.0
 40
19.0
 40
19.0
 40
20.0
 40
20.0
 40
20.0
 40
21.0
 40
21.0
 40
21.0
 40
22.0
 40
22.0
 40
22.0
 40
23.0
 40
23.0
 40
23.0
 40
24.0
 40
24.0
 40
24.0
 40
25.0
 40
25.0
 40
25.0
 40
26.0
 40
26.0
 40
26.0
 40
27.0
 40
27.0
 40
27.0
 40
28.0
 40
28.0
 40
28.0
 40
29.0
 40
29.0
 40
29.0
 40
30.0
 40
30.0
 40
30.0
 40
31.0
 40
31.0
 40
31.0
 40
32.0
 40
32.0
 40
32.0
 40
33.0
 40
33.0
 40
33.0
 40
34.0
 40
34.0
 40
34.0
 40
35.0
 40
35.0
 40
35.0
 40
36.0
 40
36.0
 40
36.0
 40
36.0
 10
45.26028644701827
 20
-104.2530680077909
 30
0.0
 10
45.26028644701827
 20
-104.2530680077909
 30
0.0
 10
45.34727510802082
 20
-104.3522867577661
 30
0.0
 10
45.34727510802082
 20
-104.3522867577661
 30
0.0
 10
45.35657686583099
 20
-104.3629665537704
 30
0.0
 10
45.36587862364117
 20
-104.3757134070658
 30
0.0
 10
45.36587862364117
 20
-104.3905273176524
 30
0.0
 10
45.36587862364117
 20
-104.3925943749435
 30
0.0
 10
45.36587862364117
 20
-104.4222221961167
 30
0.0
 10
45.33246119743425
 20
-104.4222221961167
 30
0.0
 10
45.32505424214096
 20
-104.4222221961167
 30
0.0
 10
45.28991426819141
 20
-104.4180880815344
 30
0.0
 10
45.28440211541501
 20
-104.4180880815344
 30
0.0
 10
45.24926214146546
 20
-104.4497829599987
 30
0.0
 10
45.20843775996526
 20
-104.4835448957541
 30
0.0
 10
45.12144909896269
 20
-104.5407334808093
 30
0.0
 10
45.24926214146546
 20
-104.6485649694976
 30
0.0
 10
45.38809948952103
 20
-104.7057535545527
 30
0.0
 10
45.62701686142311
 20
-104.7436496048905
 30
0.0
 10
45.62701686142311
 20
-104.7436496048905
 30
0.0
 10
45.49541421388656
 20
-104.9193494746382
 30
0.0
 10
45.49541421388656
 20
-104.9193494746382
 30
0.0
 10
45.26579859979466
 20
-104.8473469789965
 30
0.0
 10
45.12885605425598
 20
-104.7584635154771
 30
0.0
 10
45.0621934566164
 20
-104.7057535545527
 30
0.0
 10
44.93076306385412
 20
-104.6041232377379
 30
0.0
 10
44.80484482386824
 20
-104.4411702212855
 30
0.0
 10
44.73818222622865
 20
-104.2761501475421
 30
0.0
 10
44.67892658388235
 20
-104.3419514713104
 30
0.0
 10
44.6139865339854
 20
-104.3946614322347
 30
0.0
 10
44.54560138860319
 20
-104.4432372785767
 30
0.0
 10
44.54560138860319
 20
-104.4432372785767
 30
0.0
 10
44.54560138860319
 20
-104.6950737585485
 30
0.0
 10
44.54560138860319
 20
-104.6950737585485
 30
0.0
 10
44.68805608691827
 20
-104.6695800519576
 30
0.0
 10
44.85100910337059
 20
-104.6251383201979
 30
0.0
 10
44.90664739545737
 20
-104.6103244096113
 30
0.0
 10
44.90664739545737
 20
-104.6103244096113
 30
0.0
 10
44.88063692454373
 20
-104.7798231074856
 30
0.0
 10
44.88063692454373
 20
-104.7798231074856
 30
0.0
 10
44.87891437680111
 20
-104.7798231074856
 30
0.0
 10
44.86220566369764
 20
-104.7860242793591
 30
0.0
 10
44.86031086118076
 20
-104.7860242793591
 30
0.0
 10
44.68633353917564
 20
-104.8242648392453
 30
0.0
 10
44.40848658829024
 20
-104.8897216534651
 30
0.0
 10
44.23623181402775
 20
-104.9255506465117
 30
0.0
 10
44.22710231099184
 20
-104.9427761239379
 30
0.0
 10
44.2066039928546
 20
-104.9744710024022
 30
0.0
 10
44.18627792949162
 20
-104.9744710024022
 30
0.0
 10
44.16216226109488
 20
-104.9744710024022
 30
0.0
 10
44.15854491083537
 20
-104.9551784676848
 30
0.0
 10
44.15665010831848
 20
-104.9362304425159
 30
0.0
 10
44.15665010831848
 20
-104.9362304425159
 30
0.0
 10
44.13442924243861
 20
-104.7629421396079
 30
0.0
 10
44.13442924243861
 20
-104.7629421396079
 30
0.0
 10
44.19919703756131
 20
-104.7543294008948
 30
0.0
 10
44.29376490863142
 20
-104.7415825475993
 30
0.0
 10
44.38816052492727
 20
-104.7205674651393
 30
0.0
 10
44.38816052492727
 20
-104.7205674651393
 30
0.0
 10
44.38816052492727
 20
-104.5428005381004
 30
0.0
 10
44.38816052492727
 20
-104.5428005381004
 30
0.0
 10
44.26224228494139
 20
-104.6148030337421
 30
0.0
 10
44.17887097419834
 20
-104.6444308549153
 30
0.0
 10
44.03452147336637
 20
-104.6740586760884
 30
0.0
 10
44.03452147336637
 20
-104.6740586760884
 30
0.0
 10
43.92892929674346
 20
-104.5045599782141
 30
0.0
 10
43.92892929674346
 20
-104.5045599782141
 30
0.0
 10
44.2066039928546
 20
-104.4773437238807
 30
0.0
 10
44.37524141685758
 20
-104.3839816362304
 30
0.0
 10
44.53078747801661
 20
-104.2510009504998
 30
0.0
 10
44.40297443551384
 20
-104.2510009504998
 30
0.0
 10
44.13994139521502
 20
-104.2551350650821
 30
0.0
 10
43.96785887572679
 20
-104.2613362369555
 30
0.0
 10
43.96785887572679
 20
-104.2613362369555
 30
0.0
 10
43.96785887572679
 20
-104.0835693099166
 30
0.0
 10
43.96785887572679
 20
-104.0835693099166
 30
0.0
 10
44.10290661874858
 20
-104.0901149913386
 30
0.0
 10
44.36215005401363
 20
-104.096316163212
 30
0.0
 10
44.52338052272332
 20
-104.096316163212
 30
0.0
 10
44.52338052272332
 20
-104.096316163212
 30
0.0
 10
44.7085544050555
 20
-104.096316163212
 30
0.0
 10
44.7085544050555
 20
-104.096316163212
 30
0.0
 10
44.7085544050555
 20
-104.0012315278191
 30
0.0
 10
44.70665960253861
 20
-103.950588624186
 30
0.0
 10
44.70114744976222
 20
-103.9040798351351
 30
0.0
 10
44.70114744976222
 20
-103.9040798351351
 30
0.0
 10
44.88993868235391
 20
-103.9209608030128
 30
0.0
 10
44.88993868235391
 20
-103.9209608030128
 30
0.0
 10
44.93248561159674
 20
-103.9250949175951
 30
0.0
 10
44.93989256689003
 20
-103.9399088281817
 30
0.0
 10
44.93989256689003
 20
-103.9547227387683
 30
0.0
 10
44.93989256689003
 20
-103.9802164453591
 30
0.0
 10
44.92507865630346
 20
-103.9884846745237
 30
0.0
 10
44.88063692454373
 20
-104.0139783811146
 30
0.0
 10
44.87891437680111
 20
-104.0391275781569
 30
0.0
 10
44.87891437680111
 20
-104.0456732595789
 30
0.0
 10
44.87701957428422
 20
-104.096316163212
 30
0.0
 10
44.87701957428422
 20
-104.096316163212
 30
0.0
 10
45.07890216971986
 20
-104.096316163212
 30
0.0
 10
45.07890216971986
 20
-104.096316163212
 30
0.0
 10
45.22325167055183
 20
-104.096316163212
 30
0.0
 10
45.47887775555736
 20
-104.0901149913386
 30
0.0
 10
45.63614636445902
 20
-104.0835693099166
 30
0.0
 10
45.63614636445902
 20
-104.0835693099166
 30
0.0
 10
45.63614636445902
 20
-104.2613362369555
 30
0.0
 10
45.63614636445902
 20
-104.2613362369555
 30
0.0
 10
45.52331948731709
 20
-104.2572021223732
 30
0.0
 10
45.50282116917985
 20
-104.2572021223732
 30
0.0
 10
45.26028644701827
 20
-104.2530680077909
 30
0.0
  0
SPLINE
  5
5D
330
50
100
AcDbEntity
  8
_U+30EC_U+30A4_U+30E4_U+30FC 1
370
     0
100
AcDbSpline
210
0.0
220
0.0
230
1.0
 70
    11
 71
     3
 72
    23
 73
    19
 74
     0
 42
0.0000000001
 43
0.0000000001
 12
1.0
 22
0.0
 32
0.0
 13
1.0
 23
0.0
 33
0.0
 40
0.0
 40
0.0
 40
0.0
 40
0.0
 40
1.0
 40
1.0
 40
1.0
 40
2.0
 40
2.0
 40
2.0
 40
3.0
 40
3.0
 40
3.0
 40
4.0
 40
4.0
 40
4.0
 40
5.0
 40
5.0
 40
5.0
 40
6.0
 40
6.0
 40
6.0
 40
6.0
 10
44.13632404495551
 20
-103.9016682682954
 30
0.0
 10
44.12151013436893
 20
-103.9419758854728
 30
0.0
 10
44.11599798159253
 20
-103.9588568533506
 30
0.0
 10
44.09739446597218
 20
-103.9588568533506
 30
0.0
 10
44.08447535790249
 20
-103.9588568533506
 30
0.0
 10
44.07517360009232
 20
-103.9419758854728
 30
0.0
 10
44.06966144731592
 20
-103.9292290321774
 30
0.0
 10
44.06966144731592
 20
-103.9292290321774
 30
0.0
 10
43.98267278631336
 20
-103.764208958434
 30
0.0
 10
43.98267278631336
 20
-103.764208958434
 30
0.0
 10
44.07155624983281
 20
-103.7325140799696
 30
0.0
 10
44.20298664259509
 20
-103.6773925522057
 30
0.0
 10
44.37696396460021
 20
-103.5147840453019
 30
0.0
 10
44.37696396460021
 20
-103.5147840453019
 30
0.0
 10
44.42709010391059
 20
-103.6880723482099
 30
0.0
 10
44.42709010391059
 20
-103.6880723482099
 30
0.0
 10
44.34561359568443
 20
-103.7707546398559
 30
0.0
 10
44.26775443771778
 20
-103.8275987153626
 30
0.0
 10
44.13632404495551
 20
-103.9016682682954
 30
0.0
  0
SPLINE
  5
5E
330
50
100
AcDbEntity
  8
_U+30EC_U+30A4_U+30E4_U+30FC 1
370
     0
100
AcDbSpline
210
0.0
220
0.0
230
1.0
 70
    11
 71
     3
 72
    17
 73
    13
 74
     0
 42
0.0000000001
 43
0.0000000001
 12
1.0
 22
0.0
 32
0.0
 13
1.0
 23
0.0
 33
0.0
 40
0.0
 40
0.0
 40
0.0
 40
0.0
 40
1.0
 40
1.0
 40
1.0
 40
2.0
 40
2.0
 40
2.0
 40
3.0
 40
3.0
 40
3.0
 40
4.0
 40
4.0
 40
4.0
 40
4.0
 10
44.26964924023467
 20
-103.4362358682382
 30
0.0
 10
44.24363876932104
 20
-103.3962727606093
 30
0.0
 10
44.18438312697474
 20
-103.2987765583767
 30
0.0
 10
44.0252197155562
 20
-103.1888780123972
 30
0.0
 10
44.0252197155562
 20
-103.1888780123972
 30
0.0
 10
44.13632404495551
 20
-103.0555528171181
 30
0.0
 10
44.13632404495551
 20
-103.0555528171181
 30
0.0
 10
44.29927706140782
 20
-103.1571831339329
 30
0.0
 10
44.34923094594394
 20
-103.2460665974524
 30
0.0
 10
44.37334661434069
 20
-103.2884412719209
 30
0.0
 10
44.37334661434069
 20
-103.2884412719209
 30
0.0
 10
44.26964924023467
 20
-103.4362358682382
 30
0.0
 10
44.26964924023467
 20
-103.4362358682382
 30
0.0
  0
SPLINE
  5
5F
330
50
100
AcDbEntity
  8
_U+30EC_U+30A4_U+30E4_U+30FC 1
370
     0
100
AcDbSpline
210
0.0
220
0.0
230
1.0
 70
    11
 71
     3
 72
    38
 73
    34
 74
     0
 42
0.0000000001
 43
0.0000000001
 12
1.0
 22
0.0
 32
0.0
 13
1.0
 23
0.0
 33
0.0
 40
0.0
 40
0.0
 40
0.0
 40
0.0
 40
1.0
 40
1.0
 40
1.0
 40
2.0
 40
2.0
 40
2.0
 40
3.0
 40
3.0
 40
3.0
 40
4.0
 40
4.0
 40
4.0
 40
5.0
 40
5.0
 40
5.0
 40
6.0
 40
6.0
 40
6.0
 40
7.0
 40
7.0
 40
7.0
 40
8.0
 40
8.0
 40
8.0
 40
9.0
 40
9.0
 40
9.0
 40
10.0
 40
10.0
 40
10.0
 40
11.0
 40
11.0
 40
11.0
 40
11.0
 10
44.59176566810553
 20
-103.1316894273421
 30
0.0
 10
44.59004312036291
 20
-103.178198216393
 30
0.0
 10
44.58814831784602
 20
-103.2946424437944
 30
0.0
 10
44.58814831784602
 20
-103.3390841755541
 30
0.0
 10
44.58814831784602
 20
-103.3390841755541
 30
0.0
 10
44.58814831784602
 20
-103.6860052909188
 30
0.0
 10
44.58814831784602
 20
-103.6860052909188
 30
0.0
 10
44.58814831784602
 20
-103.7728216971471
 30
0.0
 10
44.59004312036291
 20
-103.9144151215908
 30
0.0
 10
44.59917262339882
 20
-104.0349934635746
 30
0.0
 10
44.59917262339882
 20
-104.0349934635746
 30
0.0
 10
44.43260225668699
 20
-104.0349934635746
 30
0.0
 10
44.43260225668699
 20
-104.0349934635746
 30
0.0
 10
44.4362196069465
 20
-103.971603706646
 30
0.0
 10
44.44000921198027
 20
-103.9185492361731
 30
0.0
 10
44.44190401449716
 20
-103.8637722179577
 30
0.0
 10
44.44362656223979
 20
-103.7411268186828
 30
0.0
 10
44.44552136475668
 20
-103.7263129080962
 30
0.0
 10
44.44552136475668
 20
-103.6818711763365
 30
0.0
 10
44.44552136475668
 20
-103.6818711763365
 30
0.0
 10
44.44552136475668
 20
-103.3600992580141
 30
0.0
 10
44.44552136475668
 20
-103.3600992580141
 30
0.0
 10
44.44552136475668
 20
-103.3053222397987
 30
0.0
 10
44.43449705920388
 20
-103.0662326131223
 30
0.0
 10
44.43260225668699
 20
-103.0152451999406
 30
0.0
 10
44.43260225668699
 20
-103.0152451999406
 30
0.0
 10
44.60847438120899
 20
-103.0428059638226
 30
0.0
 10
44.60847438120899
 20
-103.0428059638226
 30
0.0
 10
44.62707789682934
 20
-103.0448730211138
 30
0.0
 10
44.6548109154856
 20
-103.0493516452446
 30
0.0
 10
44.6548109154856
 20
-103.0745008422869
 30
0.0
 10
44.6548109154856
 20
-103.1020616061689
 30
0.0
 10
44.61036918372588
 20
-103.1234211981775
 30
0.0
 10
44.59176566810553
 20
-103.1316894273421
 30
0.0
  0
SPLINE
  5
60
330
50
100
AcDbEntity
  8
_U+30EC_U+30A4_U+30E4_U+30FC 1
370
     0
100
AcDbSpline
210
0.0
220
0.0
230
1.0
 70
    11
 71
     3
 72
    83
 73
    79
 74
     0
 42
0.0000000001
 43
0.0000000001
 12
1.0
 22
0.0
 32
0.0
 13
1.0
 23
0.0
 33
0.0
 40
0.0
 40
0.0
 40
0.0
 40
0.0
 40
1.0
 40
1.0
 40
1.0
 40
2.0
 40
2.0
 40
2.0
 40
3.0
 40
3.0
 40
3.0
 40
4.0
 40
4.0
 40
4.0
 40
5.0
 40
5.0
 40
5.0
 40
6.0
 40
6.0
 40
6.0
 40
7.0
 40
7.0
 40
7.0
 40
8.0
 40
8.0
 40
8.0
 40
9.0
 40
9.0
 40
9.0
 40
10.0
 40
10.0
 40
10.0
 40
11.0
 40
11.0
 40
11.0
 40
12.0
 40
12.0
 40
12.0
 40
13.0
 40
13.0
 40
13.0
 40
14.0
 40
14.0
 40
14.0
 40
15.0
 40
15.0
 40
15.0
 40
16.0
 40
16.0
 40
16.0
 40
17.0
 40
17.0
 40
17.0
 40
18.0
 40
18.0
 40
18.0
 40
19.0
 40
19.0
 40
19.0
 40
20.0
 40
20.0
 40
20.0
 40
21.0
 40
21.0
 40
21.0
 40
22.0
 40
22.0
 40
22.0
 40
23.0
 40
23.0
 40
23.0
 40
24.0
 40
24.0
 40
24.0
 40
25.0
 40
25.0
 40
25.0
 40
26.0
 40
26.0
 40
26.0
 40
26.0
 10
45.29370387322519
 20
-103.4534613456644
 30
0.0
 10
45.29370387322519
 20
-103.4534613456644
 30
0.0
 10
45.20843775996526
 20
-103.4534613456644
 30
0.0
 10
45.20843775996526
 20
-103.4534613456644
 30
0.0
 10
45.20843775996526
 20
-103.4534613456644
 30
0.0
 10
45.20843775996526
 20
-103.7008192015054
 30
0.0
 10
45.20843775996526
 20
-103.7008192015054
 30
0.0
 10
45.20843775996526
 20
-103.7008192015054
 30
0.0
 10
45.28061251038124
 20
-103.7008192015054
 30
0.0
 10
45.28061251038124
 20
-103.7008192015054
 30
0.0
 10
45.33814560498491
 20
-103.7008192015054
 30
0.0
 10
45.46027423993701
 20
-103.6966850869231
 30
0.0
 10
45.54726290093957
 20
-103.6880723482099
 30
0.0
 10
45.54726290093957
 20
-103.6880723482099
 30
0.0
 10
45.54726290093957
 20
-103.86790633254
 30
0.0
 10
45.54726290093957
 20
-103.86790633254
 30
0.0
 10
45.46578639271342
 20
-103.8596381033754
 30
0.0
 10
45.33435599995114
 20
-103.8551594792445
 30
0.0
 10
45.28061251038124
 20
-103.8551594792445
 30
0.0
 10
45.28061251038124
 20
-103.8551594792445
 30
0.0
 10
45.0139621198229
 20
-103.8551594792445
 30
0.0
 10
45.0139621198229
 20
-103.8551594792445
 30
0.0
 10
44.96779784032055
 20
-103.8551594792445
 30
0.0
 10
44.83998479781778
 20
-103.8596381033754
 30
0.0
 10
44.74731172926456
 20
-103.86790633254
 30
0.0
 10
44.74731172926456
 20
-103.86790633254
 30
0.0
 10
44.74731172926456
 20
-103.6880723482099
 30
0.0
 10
44.74731172926456
 20
-103.6880723482099
 30
0.0
 10
44.83447264504139
 20
-103.6966850869231
 30
0.0
 10
44.95660127999349
 20
-103.7008192015054
 30
0.0
 10
45.0139621198229
 20
-103.7008192015054
 30
0.0
 10
45.0139621198229
 20
-103.7008192015054
 30
0.0
 10
45.05289169880622
 20
-103.7008192015054
 30
0.0
 10
45.05289169880622
 20
-103.7008192015054
 30
0.0
 10
45.05289169880622
 20
-103.7008192015054
 30
0.0
 10
45.05289169880622
 20
-103.4534613456644
 30
0.0
 10
45.05289169880622
 20
-103.4534613456644
 30
0.0
 10
45.05289169880622
 20
-103.4534613456644
 30
0.0
 10
44.98812390368353
 20
-103.4534613456644
 30
0.0
 10
44.98812390368353
 20
-103.4534613456644
 30
0.0
 10
44.93438041411363
 20
-103.4534613456644
 30
0.0
 10
44.78813611076477
 20
-103.4575954602467
 30
0.0
 10
44.68254393414187
 20
-103.4658636894113
 30
0.0
 10
44.68254393414187
 20
-103.4658636894113
 30
0.0
 10
44.68254393414187
 20
-103.2884412719209
 30
0.0
 10
44.68254393414187
 20
-103.2884412719209
 30
0.0
 10
44.78262395798837
 20
-103.2946424437944
 30
0.0
 10
44.92146130604394
 20
-103.2987765583767
 30
0.0
 10
44.98812390368353
 20
-103.2987765583767
 30
0.0
 10
44.98812390368353
 20
-103.2987765583767
 30
0.0
 10
45.05099689628933
 20
-103.2987765583767
 30
0.0
 10
45.05099689628933
 20
-103.2987765583767
 30
0.0
 10
45.04737954602982
 20
-103.1465033379286
 30
0.0
 10
45.04548474351294
 20
-103.1127414021732
 30
0.0
 10
45.03997259073654
 20
-103.0197238240715
 30
0.0
 10
45.03997259073654
 20
-103.0197238240715
 30
0.0
 10
45.22514647306872
 20
-103.0428059638226
 30
0.0
 10
45.22514647306872
 20
-103.0428059638226
 30
0.0
 10
45.24736733894858
 20
-103.0448730211138
 30
0.0
 10
45.26769340231155
 20
-103.0493516452446
 30
0.0
 10
45.26769340231155
 20
-103.0724337849958
 30
0.0
 10
45.26769340231155
 20
-103.1041286634601
 30
0.0
 10
45.22876382332823
 20
-103.1210096313378
 30
0.0
 10
45.20843775996526
 20
-103.1296223700509
 30
0.0
 10
45.20843775996526
 20
-103.1296223700509
 30
0.0
 10
45.20843775996526
 20
-103.2987765583767
 30
0.0
 10
45.20843775996526
 20
-103.2987765583767
 30
0.0
 10
45.20843775996526
 20
-103.2987765583767
 30
0.0
 10
45.29370387322519
 20
-103.2987765583767
 30
0.0
 10
45.29370387322519
 20
-103.2987765583767
 30
0.0
 10
45.36036647086477
 20
-103.2987765583767
 30
0.0
 10
45.49920381892034
 20
-103.2946424437944
 30
0.0
 10
45.60100639050948
 20
-103.2884412719209
 30
0.0
 10
45.60100639050948
 20
-103.2884412719209
 30
0.0
 10
45.60100639050948
 20
-103.4658636894113
 30
0.0
 10
45.60100639050948
 20
-103.4658636894113
 30
0.0
 10
45.50661077421363
 20
-103.4596625175379
 30
0.0
 10
45.35468206331411
 20
-103.4534613456644
 30
0.0
 10
45.29370387322519
 20
-103.4534613456644
 30
0.0
  0
SPLINE
  5
61
330
50
100
AcDbEntity
  8
_U+30EC_U+30A4_U+30E4_U+30FC 1
370
     0
100
AcDbSpline
210
0.0
220
0.0
230
1.0
 70
    11
 71
     3
 72
    17
 73
    13
 74
     0
 42
0.0000000001
 43
0.0000000001
 12
1.0
 22
0.0
 32
0.0
 13
1.0
 23
0.0
 33
0.0
 40
0.0
 40
0.0
 40
0.0
 40
0.0
 40
1.0
 40
1.0
 40
1.0
 40
2.0
 40
2.0
 40
2.0
 40
3.0
 40
3.0
 40
3.0
 40
4.0
 40
4.0
 40
4.0
 40
4.0
 10
45.07890216971986
 20
-104.2510009504998
 30
0.0
 10
45.07890216971986
 20
-104.2510009504998
 30
0.0
 10
44.90113524268097
 20
-104.2510009504998
 30
0.0
 10
44.90113524268097
 20
-104.2510009504998
 30
0.0
 10
44.92507865630346
 20
-104.3099120832975
 30
0.0
 10
44.97330999309695
 20
-104.3819145789392
 30
0.0
 10
44.9974256614937
 20
-104.4115424001124
 30
0.0
 10
45.02136907511619
 20
-104.3967284895258
 30
0.0
 10
45.12144909896269
 20
-104.3333387325972
 30
0.0
 10
45.20103080467197
 20
-104.2510009504998
 30
0.0
 10
45.20103080467197
 20
-104.2510009504998
 30
0.0
 10
45.07890216971986
 20
-104.2510009504998
 30
0.0
 10
45.07890216971986
 20
-104.2510009504998
 30
0.0
  0
HATCH
  5
62
330
50
100
AcDbEntity
  8
_U+30EC_U+30A4_U+30E4_U+30FC 1
 62
   179
420
  2234388
100
AcDbHatch
 10
0.0
 20
0.0
 30
0.0
210
0.0
220
0.0
230
1.0
  2
SOLID
 70
     1
 71
     0
 91
        6
 92
        1
 93
        1
 72
     4
 94
        3
 73
     0
 74
     1
 95
      113
 96
      109
 40
0.0
 40
0.0
 40
0.0
 40
0.0
 40
1.0
 40
1.0
 40
1.0
 40
2.0
 40
2.0
 40
2.0
 40
3.0
 40
3.0
 40
3.0
 40
4.0
 40
4.0
 40
4.0
 40
5.0
 40
5.0
 40
5.0
 40
6.0
 40
6.0
 40
6.0
 40
7.0
 40
7.0
 40
7.0
 40
8.0
 40
8.0
 40
8.0
 40
9.0
 40
9.0
 40
9.0
 40
10.0
 40
10.0
 40
10.0
 40
11.0
 40
11.0
 40
11.0
 40
12.0
 40
12.0
 40
12.0
 40
13.0
 40
13.0
 40
13.0
 40
14.0
 40
14.0
 40
14.0
 40
15.0
 40
15.0
 40
15.0
 40
16.0
 40
16.0
 40
16.0
 40
17.0
 40
17.0
 40
17.0
 40
18.0
 40
18.0
 40
18.0
 40
19.0
 40
19.0
 40
19.0
 40
20.0
 40
20.0
 40
20.0
 40
21.0
 40
21.0
 40
21.0
 40
22.0
 40
22.0
 40
22.0
 40
23.0
 40
23.0
 40
23.0
 40
24.0
 40
24.0
 40
24.0
 40
25.0
 40
25.0
 40
25.0
 40
26.0
 40
26.0
 40
26.0
 40
27.0
 40
27.0
 40
27.0
 40
28.0
 40
28.0
 40
28.0
 40
29.0
 40
29.0
 40
29.0
 40
30.0
 40
30.0
 40
30.0
 40
31.0
 40
31.0
 40
31.0
 40
32.0
 40
32.0
 40
32.0
 40
33.0
 40
33.0
 40
33.0
 40
34.0
 40
34.0
 40
34.0
 40
35.0
 40
35.0
 40
35.0
 40
36.0
 40
36.0
 40
36.0
 40
36.0
 10
45.26028644701827
 20
-104.2530680077909
 10
45.26028644701827
 20
-104.2530680077909
 10
45.34727510802082
 20
-104.3522867577661
 10
45.34727510802082
 20
-104.3522867577661
 10
45.35657686583099
 20
-104.3629665537704
 10
45.36587862364117
 20
-104.3757134070658
 10
45.36587862364117
 20
-104.3905273176524
 10
45.36587862364117
 20
-104.3925943749435
 10
45.36587862364117
 20
-104.4222221961167
 10
45.33246119743425
 20
-104.4222221961167
 10
45.32505424214096
 20
-104.4222221961167
 10
45.28991426819141
 20
-104.4180880815344
 10
45.28440211541501
 20
-104.4180880815344
 10
45.24926214146546
 20
-104.4497829599987
 10
45.20843775996526
 20
-104.4835448957541
 10
45.12144909896269
 20
-104.5407334808093
 10
45.24926214146546
 20
-104.6485649694976
 10
45.38809948952103
 20
-104.7057535545527
 10
45.62701686142311
 20
-104.7436496048905
 10
45.62701686142311
 20
-104.7436496048905
 10
45.49541421388656
 20
-104.9193494746382
 10
45.49541421388656
 20
-104.9193494746382
 10
45.26579859979466
 20
-104.8473469789965
 10
45.12885605425598
 20
-104.7584635154771
 10
45.0621934566164
 20
-104.7057535545527
 10
44.93076306385412
 20
-104.6041232377379
 10
44.80484482386824
 20
-104.4411702212855
 10
44.73818222622865
 20
-104.2761501475421
 10
44.67892658388235
 20
-104.3419514713104
 10
44.6139865339854
 20
-104.3946614322347
 10
44.54560138860319
 20
-104.4432372785767
 10
44.54560138860319
 20
-104.4432372785767
 10
44.54560138860319
 20
-104.6950737585485
 10
44.54560138860319
 20
-104.6950737585485
 10
44.68805608691827
 20
-104.6695800519576
 10
44.85100910337059
 20
-104.6251383201979
 10
44.90664739545737
 20
-104.6103244096113
 10
44.90664739545737
 20
-104.6103244096113
 10
44.88063692454373
 20
-104.7798231074856
 10
44.88063692454373
 20
-104.7798231074856
 10
44.87891437680111
 20
-104.7798231074856
 10
44.86220566369764
 20
-104.7860242793591
 10
44.86031086118076
 20
-104.7860242793591
 10
44.68633353917564
 20
-104.8242648392453
 10
44.40848658829024
 20
-104.8897216534651
 10
44.23623181402775
 20
-104.9255506465117
 10
44.22710231099184
 20
-104.9427761239379
 10
44.2066039928546
 20
-104.9744710024022
 10
44.18627792949162
 20
-104.9744710024022
 10
44.16216226109488
 20
-104.9744710024022
 10
44.15854491083537
 20
-104.9551784676848
 10
44.15665010831848
 20
-104.9362304425159
 10
44.15665010831848
 20
-104.9362304425159
 10
44.13442924243861
 20
-104.7629421396079
 10
44.13442924243861
 20
-104.7629421396079
 10
44.19919703756131
 20
-104.7543294008948
 10
44.29376490863142
 20
-104.7415825475993
 10
44.38816052492727
 20
-104.7205674651393
 10
44.38816052492727
 20
-104.7205674651393
 10
44.38816052492727
 20
-104.5428005381004
 10
44.38816052492727
 20
-104.5428005381004
 10
44.26224228494139
 20
-104.6148030337421
 10
44.17887097419834
 20
-104.6444308549153
 10
44.03452147336637
 20
-104.6740586760884
 10
44.03452147336637
 20
-104.6740586760884
 10
43.92892929674346
 20
-104.5045599782141
 10
43.92892929674346
 20
-104.5045599782141
 10
44.2066039928546
 20
-104.4773437238807
 10
44.37524141685758
 20
-104.3839816362304
 10
44.53078747801661
 20
-104.2510009504998
 10
44.40297443551384
 20
-104.2510009504998
 10
44.13994139521502
 20
-104.2551350650821
 10
43.96785887572679
 20
-104.2613362369555
 10
43.96785887572679
 20
-104.2613362369555
 10
43.96785887572679
 20
-104.0835693099166
 10
43.96785887572679
 20
-104.0835693099166
 10
44.10290661874858
 20
-104.0901149913386
 10
44.36215005401363
 20
-104.096316163212
 10
44.52338052272332
 20
-104.096316163212
 10
44.52338052272332
 20
-104.096316163212
 10
44.7085544050555
 20
-104.096316163212
 10
44.7085544050555
 20
-104.096316163212
 10
44.7085544050555
 20
-104.0012315278191
 10
44.70665960253861
 20
-103.950588624186
 10
44.70114744976222
 20
-103.9040798351351
 10
44.70114744976222
 20
-103.9040798351351
 10
44.88993868235391
 20
-103.9209608030128
 10
44.88993868235391
 20
-103.9209608030128
 10
44.93248561159674
 20
-103.9250949175951
 10
44.93989256689003
 20
-103.9399088281817
 10
44.93989256689003
 20
-103.9547227387683
 10
44.93989256689003
 20
-103.9802164453591
 10
44.92507865630346
 20
-103.9884846745237
 10
44.88063692454373
 20
-104.0139783811146
 10
44.87891437680111
 20
-104.0391275781569
 10
44.87891437680111
 20
-104.0456732595789
 10
44.87701957428422
 20
-104.096316163212
 10
44.87701957428422
 20
-104.096316163212
 10
45.07890216971986
 20
-104.096316163212
 10
45.07890216971986
 20
-104.096316163212
 10
45.22325167055183
 20
-104.096316163212
 10
45.47887775555736
 20
-104.0901149913386
 10
45.63614636445902
 20
-104.0835693099166
 10
45.63614636445902
 20
-104.0835693099166
 10
45.63614636445902
 20
-104.2613362369555
 10
45.63614636445902
 20
-104.2613362369555
 10
45.52331948731709
 20
-104.2572021223732
 10
45.50282116917985
 20
-104.2572021223732
 10
45.26028644701827
 20
-104.2530680077909
 97
        0
 97
        0
 92
        1
 93
        1
 72
     4
 94
        3
 73
     0
 74
     1
 95
       23
 96
       19
 40
0.0
 40
0.0
 40
0.0
 40
0.0
 40
1.0
 40
1.0
 40
1.0
 40
2.0
 40
2.0
 40
2.0
 40
3.0
 40
3.0
 40
3.0
 40
4.0
 40
4.0
 40
4.0
 40
5.0
 40
5.0
 40
5.0
 40
6.0
 40
6.0
 40
6.0
 40
6.0
 10
44.13632404495551
 20
-103.9016682682954
 10
44.12151013436893
 20
-103.9419758854728
 10
44.11599798159253
 20
-103.9588568533506
 10
44.09739446597218
 20
-103.9588568533506
 10
44.08447535790249
 20
-103.9588568533506
 10
44.07517360009232
 20
-103.9419758854728
 10
44.06966144731592
 20
-103.9292290321774
 10
44.06966144731592
 20
-103.9292290321774
 10
43.98267278631336
 20
-103.764208958434
 10
43.98267278631336
 20
-103.764208958434
 10
44.07155624983281
 20
-103.7325140799696
 10
44.20298664259509
 20
-103.6773925522057
 10
44.37696396460021
 20
-103.5147840453019
 10
44.37696396460021
 20
-103.5147840453019
 10
44.42709010391059
 20
-103.6880723482099
 10
44.42709010391059
 20
-103.6880723482099
 10
44.34561359568443
 20
-103.7707546398559
 10
44.26775443771778
 20
-103.8275987153626
 10
44.13632404495551
 20
-103.9016682682954
 97
        0
 97
        0
 92
        1
 93
        1
 72
     4
 94
        3
 73
     0
 74
     1
 95
       17
 96
       13
 40
0.0
 40
0.0
 40
0.0
 40
0.0
 40
1.0
 40
1.0
 40
1.0
 40
2.0
 40
2.0
 40
2.0
 40
3.0
 40
3.0
 40
3.0
 40
4.0
 40
4.0
 40
4.0
 40
4.0
 10
44.26964924023467
 20
-103.4362358682382
 10
44.24363876932104
 20
-103.3962727606093
 10
44.18438312697474
 20
-103.2987765583767
 10
44.0252197155562
 20
-103.1888780123972
 10
44.0252197155562
 20
-103.1888780123972
 10
44.13632404495551
 20
-103.0555528171181
 10
44.13632404495551
 20
-103.0555528171181
 10
44.29927706140782
 20
-103.1571831339329
 10
44.34923094594394
 20
-103.2460665974524
 10
44.37334661434069
 20
-103.2884412719209
 10
44.37334661434069
 20
-103.2884412719209
 10
44.26964924023467
 20
-103.4362358682382
 10
44.26964924023467
 20
-103.4362358682382
 97
        0
 97
        0
 92
        1
 93
        1
 72
     4
 94
        3
 73
     0
 74
     1
 95
       38
 96
       34
 40
0.0
 40
0.0
 40
0.0
 40
0.0
 40
1.0
 40
1.0
 40
1.0
 40
2.0
 40
2.0
 40
2.0
 40
3.0
 40
3.0
 40
3.0
 40
4.0
 40
4.0
 40
4.0
 40
5.0
 40
5.0
 40
5.0
 40
6.0
 40
6.0
 40
6.0
 40
7.0
 40
7.0
 40
7.0
 40
8.0
 40
8.0
 40
8.0
 40
9.0
 40
9.0
 40
9.0
 40
10.0
 40
10.0
 40
10.0
 40
11.0
 40
11.0
 40
11.0
 40
11.0
 10
44.59176566810553
 20
-103.1316894273421
 10
44.59004312036291
 20
-103.178198216393
 10
44.58814831784602
 20
-103.2946424437944
 10
44.58814831784602
 20
-103.3390841755541
 10
44.58814831784602
 20
-103.3390841755541
 10
44.58814831784602
 20
-103.6860052909188
 10
44.58814831784602
 20
-103.6860052909188
 10
44.58814831784602
 20
-103.7728216971471
 10
44.59004312036291
 20
-103.9144151215908
 10
44.59917262339882
 20
-104.0349934635746
 10
44.59917262339882
 20
-104.0349934635746
 10
44.43260225668699
 20
-104.0349934635746
 10
44.43260225668699
 20
-104.0349934635746
 10
44.4362196069465
 20
-103.971603706646
 10
44.44000921198027
 20
-103.9185492361731
 10
44.44190401449716
 20
-103.8637722179577
 10
44.44362656223979
 20
-103.7411268186828
 10
44.44552136475668
 20
-103.7263129080962
 10
44.44552136475668
 20
-103.6818711763365
 10
44.44552136475668
 20
-103.6818711763365
 10
44.44552136475668
 20
-103.3600992580141
 10
44.44552136475668
 20
-103.3600992580141
 10
44.44552136475668
 20
-103.3053222397987
 10
44.43449705920388
 20
-103.0662326131223
 10
44.43260225668699
 20
-103.0152451999406
 10
44.43260225668699
 20
-103.0152451999406
 10
44.60847438120899
 20
-103.0428059638226
 10
44.60847438120899
 20
-103.0428059638226
 10
44.62707789682934
 20
-103.0448730211138
 10
44.6548109154856
 20
-103.0493516452446
 10
44.6548109154856
 20
-103.0745008422869
 10
44.6548109154856
 20
-103.1020616061689
 10
44.61036918372588
 20
-103.1234211981775
 10
44.59176566810553
 20
-103.1316894273421
 97
        0
 97
        0
 92
        1
 93
        1
 72
     4
 94
        3
 73
     0
 74
     1
 95
       83
 96
       79
 40
0.0
 40
0.0
 40
0.0
 40
0.0
 40
1.0
 40
1.0
 40
1.0
 40
2.0
 40
2.0
 40
2.0
 40
3.0
 40
3.0
 40
3.0
 40
4.0
 40
4.0
 40
4.0
 40
5.0
 40
5.0
 40
5.0
 40
6.0
 40
6.0
 40
6.0
 40
7.0
 40
7.0
 40
7.0
 40
8.0
 40
8.0
 40
8.0
 40
9.0
 40
9.0
 40
9.0
 40
10.0
 40
10.0
 40
10.0
 40
11.0
 40
11.0
 40
11.0
 40
12.0
 40
12.0
 40
12.0
 40
13.0
 40
13.0
 40
13.0
 40
14.0
 40
14.0
 40
14.0
 40
15.0
 40
15.0
 40
15.0
 40
16.0
 40
16.0
 40
16.0
 40
17.0
 40
17.0
 40
17.0
 40
18.0
 40
18.0
 40
18.0
 40
19.0
 40
19.0
 40
19.0
 40
20.0
 40
20.0
 40
20.0
 40
21.0
 40
21.0
 40
21.0
 40
22.0
 40
22.0
 40
22.0
 40
23.0
 40
23.0
 40
23.0
 40
24.0
 40
24.0
 40
24.0
 40
25.0
 40
25.0
 40
25.0
 40
26.0
 40
26.0
 40
26.0
 40
26.0
 10
45.29370387322519
 20
-103.4534613456644
 10
45.29370387322519
 20
-103.4534613456644
 10
45.20843775996526
 20
-103.4534613456644
 10
45.20843775996526
 20
-103.4534613456644
 10
45.20843775996526
 20
-103.4534613456644
 10
45.20843775996526
 20
-103.7008192015054
 10
45.20843775996526
 20
-103.7008192015054
 10
45.20843775996526
 20
-103.7008192015054
 10
45.28061251038124
 20
-103.7008192015054
 10
45.28061251038124
 20
-103.7008192015054
 10
45.33814560498491
 20
-103.7008192015054
 10
45.46027423993701
 20
-103.6966850869231
 10
45.54726290093957
 20
-103.6880723482099
 10
45.54726290093957
 20
-103.6880723482099
 10
45.54726290093957
 20
-103.86790633254
 10
45.54726290093957
 20
-103.86790633254
 10
45.46578639271342
 20
-103.8596381033754
 10
45.33435599995114
 20
-103.8551594792445
 10
45.28061251038124
 20
-103.8551594792445
 10
45.28061251038124
 20
-103.8551594792445
 10
45.0139621198229
 20
-103.8551594792445
 10
45.0139621198229
 20
-103.8551594792445
 10
44.96779784032055
 20
-103.8551594792445
 10
44.83998479781778
 20
-103.8596381033754
 10
44.74731172926456
 20
-103.86790633254
 10
44.74731172926456
 20
-103.86790633254
 10
44.74731172926456
 20
-103.6880723482099
 10
44.74731172926456
 20
-103.6880723482099
 10
44.83447264504139
 20
-103.6966850869231
 10
44.95660127999349
 20
-103.7008192015054
 10
45.0139621198229
 20
-103.7008192015054
 10
45.0139621198229
 20
-103.7008192015054
 10
45.05289169880622
 20
-103.7008192015054
 10
45.05289169880622
 20
-103.7008192015054
 10
45.05289169880622
 20
-103.7008192015054
 10
45.05289169880622
 20
-103.4534613456644
 10
45.05289169880622
 20
-103.4534613456644
 10
45.05289169880622
 20
-103.4534613456644
 10
44.98812390368353
 20
-103.4534613456644
 10
44.98812390368353
 20
-103.4534613456644
 10
44.93438041411363
 20
-103.4534613456644
 10
44.78813611076477
 20
-103.4575954602467
 10
44.68254393414187
 20
-103.4658636894113
 10
44.68254393414187
 20
-103.4658636894113
 10
44.68254393414187
 20
-103.2884412719209
 10
44.68254393414187
 20
-103.2884412719209
 10
44.78262395798837
 20
-103.2946424437944
 10
44.92146130604394
 20
-103.2987765583767
 10
44.98812390368353
 20
-103.2987765583767
 10
44.98812390368353
 20
-103.2987765583767
 10
45.05099689628933
 20
-103.2987765583767
 10
45.05099689628933
 20
-103.2987765583767
 10
45.04737954602982
 20
-103.1465033379286
 10
45.04548474351294
 20
-103.1127414021732
 10
45.03997259073654
 20
-103.0197238240715
 10
45.03997259073654
 20
-103.0197238240715
 10
45.22514647306872
 20
-103.0428059638226
 10
45.22514647306872
 20
-103.0428059638226
 10
45.24736733894858
 20
-103.0448730211138
 10
45.26769340231155
 20
-103.0493516452446
 10
45.26769340231155
 20
-103.0724337849958
 10
45.26769340231155
 20
-103.1041286634601
 10
45.22876382332823
 20
-103.1210096313378
 10
45.20843775996526
 20
-103.1296223700509
 10
45.20843775996526
 20
-103.1296223700509
 10
45.20843775996526
 20
-103.2987765583767
 10
45.20843775996526
 20
-103.2987765583767
 10
45.20843775996526
 20
-103.2987765583767
 10
45.29370387322519
 20
-103.2987765583767
 10
45.29370387322519
 20
-103.2987765583767
 10
45.36036647086477
 20
-103.2987765583767
 10
45.49920381892034
 20
-103.2946424437944
 10
45.60100639050948
 20
-103.2884412719209
 10
45.60100639050948
 20
-103.2884412719209
 10
45.60100639050948
 20
-103.4658636894113
 10
45.60100639050948
 20
-103.4658636894113
 10
45.50661077421363
 20
-103.4596625175379
 10
45.35468206331411
 20
-103.4534613456644
 10
45.29370387322519
 20
-103.4534613456644
 97
        0
 97
        0
 92
        1
 93
        1
 72
     4
 94
        3
 73
     0
 74
     1
 95
       17
 96
       13
 40
0.0
 40
0.0
 40
0.0
 40
0.0
 40
1.0
 40
1.0
 40
1.0
 40
2.0
 40
2.0
 40
2.0
 40
3.0
 40
3.0
 40
3.0
 40
4.0
 40
4.0
 40
4.0
 40
4.0
 10
45.07890216971986
 20
-104.2510009504998
 10
45.07890216971986
 20
-104.2510009504998
 10
44.90113524268097
 20
-104.2510009504998
 10
44.90113524268097
 20
-104.2510009504998
 10
44.92507865630346
 20
-104.3099120832975
 10
44.97330999309695
 20
-104.3819145789392
 10
44.9974256614937
 20
-104.4115424001124
 10
45.02136907511619
 20
-104.3967284895258
 10
45.12144909896269
 20
-104.3333387325972
 10
45.20103080467197
 20
-104.2510009504998
 10
45.20103080467197
 20
-104.2510009504998
 10
45.07890216971986
 20
-104.2510009504998
 10
45.07890216971986
 20
-104.2510009504998
 97
        0
 97
        0
 75
     2
 76
     1
 98
        0
  0
SPLINE
  5
63
330
50
100
AcDbEntity
  8
_U+30EC_U+30A4_U+30E4_U+30FC 1
370
     0
100
AcDbSpline
210
0.0
220
0.0
230
1.0
 70
    11
 71
     3
 72
    77
 73
    73
 74
     0
 42
0.0000000001
 43
0.0000000001
 12
1.0
 22
0.0
 32
0.0
 13
1.0
 23
0.0
 33
0.0
 40
0.0
 40
0.0
 40
0.0
 40
0.0
 40
1.0
 40
1.0
 40
1.0
 40
2.0
 40
2.0
 40
2.0
 40
3.0
 40
3.0
 40
3.0
 40
4.0
 40
4.0
 40
4.0
 40
5.0
 40
5.0
 40
5.0
 40
6.0
 40
6.0
 40
6.0
 40
7.0
 40
7.0
 40
7.0
 40
8.0
 40
8.0
 40
8.0
 40
9.0
 40
9.0
 40
9.0
 40
10.0
 40
10.0
 40
10.0
 40
11.0
 40
11.0
 40
11.0
 40
12.0
 40
12.0
 40
12.0
 40
13.0
 40
13.0
 40
13.0
 40
14.0
 40
14.0
 40
14.0
 40
15.0
 40
15.0
 40
15.0
 40
16.0
 40
16.0
 40
16.0
 40
17.0
 40
17.0
 40
17.0
 40
18.0
 40
18.0
 40
18.0
 40
19.0
 40
19.0
 40
19.0
 40
20.0
 40
20.0
 40
20.0
 40
21.0
 40
21.0
 40
21.0
 40
22.0
 40
22.0
 40
22.0
 40
23.0
 40
23.0
 40
23.0
 40
24.0
 40
24.0
 40
24.0
 40
24.0
 10
47.26050888575432
 20
-104.8811089147519
 30
0.0
 10
47.21985675902837
 20
-104.9066026213428
 30
0.0
 10
47.11064723214595
 20
-104.9193494746382
 30
0.0
 10
47.04208983198948
 20
-104.9193494746382
 30
0.0
 10
47.03089327166241
 20
-104.9193494746382
 30
0.0
 10
47.00867240578255
 20
-104.9193494746382
 30
0.0
 10
46.9790445846094
 20
-104.9152153600559
 30
0.0
 10
46.9790445846094
 20
-104.9152153600559
 30
0.0
 10
46.89395072612373
 20
-104.688872586675
 30
0.0
 10
46.89395072612373
 20
-104.688872586675
 30
0.0
 10
46.91978894226311
 20
-104.6950737585485
 30
0.0
 10
46.9699150815735
 20
-104.7036864972616
 30
0.0
 10
47.07171765316263
 20
-104.7036864972616
 30
0.0
 10
47.1402750533191
 20
-104.7036864972616
 30
0.0
 10
47.14199760106172
 20
-104.661311822793
 30
0.0
 10
47.14199760106172
 20
-104.6041232377379
 30
0.0
 10
47.14199760106172
 20
-104.6041232377379
 30
0.0
 10
47.14199760106172
 20
-104.2551350650821
 30
0.0
 10
47.14199760106172
 20
-104.2551350650821
 30
0.0
 10
47.14199760106172
 20
-104.2551350650821
 30
0.0
 10
46.74029946748159
 20
-104.2551350650821
 30
0.0
 10
46.74029946748159
 20
-104.2551350650821
 30
0.0
 10
46.74202201522422
 20
-104.3925943749435
 30
0.0
 10
46.74391681774111
 20
-104.5913763844424
 30
0.0
 10
46.74942897051751
 20
-104.7247015797216
 30
0.0
 10
46.75132377303439
 20
-104.7522623436036
 30
0.0
 10
46.75132377303439
 20
-104.7967040753633
 30
0.0
 10
46.76252033336146
 20
-104.8580267750008
 30
0.0
 10
46.76252033336146
 20
-104.8580267750008
 30
0.0
 10
46.55133598011564
 20
-104.8580267750008
 30
0.0
 10
46.55133598011564
 20
-104.8580267750008
 30
0.0
 10
46.5735568459955
 20
-104.7333143184347
 30
0.0
 10
46.5735568459955
 20
-104.3925943749435
 30
0.0
 10
46.5735568459955
 20
-104.2551350650821
 30
0.0
 10
46.5735568459955
 20
-104.2551350650821
 30
0.0
 10
46.18650036822768
 20
-104.2551350650821
 30
0.0
 10
46.18650036822768
 20
-104.2551350650821
 30
0.0
 10
46.16617430486471
 20
-104.4625298132941
 30
0.0
 10
46.1088134650353
 20
-104.7309027515951
 30
0.0
 10
45.93655869077281
 20
-104.9152153600559
 30
0.0
 10
45.93655869077281
 20
-104.9152153600559
 30
0.0
 10
45.7717108718036
 20
-104.792569960781
 30
0.0
 10
45.7717108718036
 20
-104.792569960781
 30
0.0
 10
45.99391953060222
 20
-104.5724283592736
 30
0.0
 10
46.02182480403274
 20
-104.2403211544955
 30
0.0
 10
46.02182480403274
 20
-103.9082139497174
 30
0.0
 10
46.02182480403274
 20
-103.9082139497174
 30
0.0
 10
46.02182480403274
 20
-103.4724093708333
 30
0.0
 10
46.02182480403274
 20
-103.4724093708333
 30
0.0
 10
46.02182480403274
 20
-103.4362358682382
 30
0.0
 10
46.01993000151585
 20
-103.2036919229838
 30
0.0
 10
46.01252304622257
 20
-103.1020616061689
 30
0.0
 10
46.13465168117467
 20
-103.1127414021732
 30
0.0
 10
46.34583603442049
 20
-103.1127414021732
 30
0.0
 10
46.47175427440637
 20
-103.1127414021732
 30
0.0
 10
46.47175427440637
 20
-103.1127414021732
 30
0.0
 10
46.87362466276076
 20
-103.1127414021732
 30
0.0
 10
46.87362466276076
 20
-103.1127414021732
 30
0.0
 10
46.88654377083045
 20
-103.1127414021732
 30
0.0
 10
47.19212374037211
 20
-103.1127414021732
 30
0.0
 10
47.33096108842768
 20
-103.1020616061689
 30
0.0
 10
47.32906628591079
 20
-103.1551160766418
 30
0.0
 10
47.32355413313439
 20
-103.3156575262544
 30
0.0
 10
47.32355413313439
 20
-103.3666449394361
 30
0.0
 10
47.32355413313439
 20
-103.3666449394361
 30
0.0
 10
47.32355413313439
 20
-103.9736707639371
 30
0.0
 10
47.32355413313439
 20
-103.9736707639371
 30
0.0
 10
47.32355413313439
 20
-103.992618789106
 30
0.0
 10
47.33285589094456
 20
-104.5638156205604
 30
0.0
 10
47.33285589094456
 20
-104.6761257333796
 30
0.0
 10
47.33285589094456
 20
-104.7333143184347
 30
0.0
 10
47.33285589094456
 20
-104.8346001257011
 30
0.0
 10
47.26050888575432
 20
-104.8811089147519
 30
0.0
  0
POLYLINE
  5
64
330
50
100
AcDbEntity
  8
_U+30EC_U+30A4_U+30E4_U+30FC 1
370
     0
100
AcDb2dPolyline
 66
     1
 10
0.0
 20
0.0
 30
0.0
  0
VERTEX
  5
65
330
64
100
AcDbEntity
  8
_U+30EC_U+30A4_U+30E4_U+30FC 1
370
     0
100
AcDbVertex
100
AcDb2dVertex
 10
46.5735568459955
 20
-103.2946424437944
 30
0.0
  0
VERTEX
  5
66
330
64
100
AcDbEntity
  8
_U+30EC_U+30A4_U+30E4_U+30FC 1
370
     0
100
AcDbVertex
100
AcDb2dVertex
 10
46.19028997326146
 20
-103.2946424437944
 30
0.0
  0
VERTEX
  5
67
330
64
100
AcDbEntity
  8
_U+30EC_U+30A4_U+30E4_U+30FC 1
370
     0
100
AcDbVertex
100
AcDb2dVertex
 10
46.19028997326146
 20
-103.5991888846905
 30
0.0
  0
VERTEX
  5
68
330
64
100
AcDbEntity
  8
_U+30EC_U+30A4_U+30E4_U+30FC 1
370
     0
100
AcDbVertex
100
AcDb2dVertex
 10
46.5735568459955
 20
-103.5991888846905
 30
0.0
  0
VERTEX
  5
69
330
64
100
AcDbEntity
  8
_U+30EC_U+30A4_U+30E4_U+30FC 1
370
     0
100
AcDbVertex
100
AcDb2dVertex
 10
46.5735568459955
 20
-103.2946424437944
 30
0.0
  0
SEQEND
  5
6A
330
64
100
AcDbEntity
  8
_U+30EC_U+30A4_U+30E4_U+30FC 1
370
     0
  0
POLYLINE
  5
6B
330
50
100
AcDbEntity
  8
_U+30EC_U+30A4_U+30E4_U+30FC 1
370
     0
100
AcDb2dPolyline
 66
     1
 10
0.0
 20
0.0
 30
0.0
  0
VERTEX
  5
6C
330
6B
100
AcDbEntity
  8
_U+30EC_U+30A4_U+30E4_U+30FC 1
370
     0
100
AcDbVertex
100
AcDb2dVertex
 10
46.5735568459955
 20
-103.7662760157251
 30
0.0
  0
VERTEX
  5
6D
330
6B
100
AcDbEntity
  8
_U+30EC_U+30A4_U+30E4_U+30FC 1
370
     0
100
AcDbVertex
100
AcDb2dVertex
 10
46.19028997326146
 20
-103.7662760157251
 30
0.0
  0
VERTEX
  5
6E
330
6B
100
AcDbEntity
  8
_U+30EC_U+30A4_U+30E4_U+30FC 1
370
     0
100
AcDbVertex
100
AcDb2dVertex
 10
46.19028997326146
 20
-104.075301080752
 30
0.0
  0
VERTEX
  5
6F
330
6B
100
AcDbEntity
  8
_U+30EC_U+30A4_U+30E4_U+30FC 1
370
     0
100
AcDbVertex
100
AcDb2dVertex
 10
46.5735568459955
 20
-104.075301080752
 30
0.0
  0
VERTEX
  5
70
330
6B
100
AcDbEntity
  8
_U+30EC_U+30A4_U+30E4_U+30FC 1
370
     0
100
AcDbVertex
100
AcDb2dVertex
 10
46.5735568459955
 20
-103.7662760157251
 30
0.0
  0
SEQEND
  5
71
330
6B
100
AcDbEntity
  8
_U+30EC_U+30A4_U+30E4_U+30FC 1
370
     0
  0
POLYLINE
  5
72
330
50
100
AcDbEntity
  8
_U+30EC_U+30A4_U+30E4_U+30FC 1
370
     0
100
AcDb2dPolyline
 66
     1
 10
0.0
 20
0.0
 30
0.0
  0
VERTEX
  5
73
330
72
100
AcDbEntity
  8
_U+30EC_U+30A4_U+30E4_U+30FC 1
370
     0
100
AcDbVertex
100
AcDb2dVertex
 10
47.14199760106172
 20
-103.2946424437944
 30
0.0
  0
VERTEX
  5
74
330
72
100
AcDbEntity
  8
_U+30EC_U+30A4_U+30E4_U+30FC 1
370
     0
100
AcDbVertex
100
AcDb2dVertex
 10
46.74029946748159
 20
-103.2946424437944
 30
0.0
  0
VERTEX
  5
75
330
72
100
AcDbEntity
  8
_U+30EC_U+30A4_U+30E4_U+30FC 1
370
     0
100
AcDbVertex
100
AcDb2dVertex
 10
46.74029946748159
 20
-103.5991888846905
 30
0.0
  0
VERTEX
  5
76
330
72
100
AcDbEntity
  8
_U+30EC_U+30A4_U+30E4_U+30FC 1
370
     0
100
AcDbVertex
100
AcDb2dVertex
 10
47.14199760106172
 20
-103.5991888846905
 30
0.0
  0
VERTEX
  5
77
330
72
100
AcDbEntity
  8
_U+30EC_U+30A4_U+30E4_U+30FC 1
370
     0
100
AcDbVertex
100
AcDb2dVertex
 10
47.14199760106172
 20
-103.2946424437944
 30
0.0
  0
SEQEND
  5
78
330
72
100
AcDbEntity
  8
_U+30EC_U+30A4_U+30E4_U+30FC 1
370
     0
  0
POLYLINE
  5
79
330
50
100
AcDbEntity
  8
_U+30EC_U+30A4_U+30E4_U+30FC 1
370
     0
100
AcDb2dPolyline
 66
     1
 10
0.0
 20
0.0
 30
0.0
  0
VERTEX
  5
7A
330
79
100
AcDbEntity
  8
_U+30EC_U+30A4_U+30E4_U+30FC 1
370
     0
100
AcDbVertex
100
AcDb2dVertex
 10
47.14199760106172
 20
-103.7662760157251
 30
0.0
  0
VERTEX
  5
7B
330
79
100
AcDbEntity
  8
_U+30EC_U+30A4_U+30E4_U+30FC 1
370
     0
100
AcDbVertex
100
AcDb2dVertex
 10
46.74029946748159
 20
-103.7662760157251
 30
0.0
  0
VERTEX
  5
7C
330
79
100
AcDbEntity
  8
_U+30EC_U+30A4_U+30E4_U+30FC 1
370
     0
100
AcDbVertex
100
AcDb2dVertex
 10
46.74029946748159
 20
-104.075301080752
 30
0.0
  0
VERTEX
  5
7D
330
79
100
AcDbEntity
  8
_U+30EC_U+30A4_U+30E4_U+30FC 1
370
     0
100
AcDbVertex
100
AcDb2dVertex
 10
47.14199760106172
 20
-104.075301080752
 30
0.0
  0
VERTEX
  5
7E
330
79
100
AcDbEntity
  8
_U+30EC_U+30A4_U+30E4_U+30FC 1
370
     0
100
AcDbVertex
100
AcDb2dVertex
 10
47.14199760106172
 20
-103.7662760157251
 30
0.0
  0
SEQEND
  5
7F
330
79
100
AcDbEntity
  8
_U+30EC_U+30A4_U+30E4_U+30FC 1
370
     0
  0
HATCH
  5
80
330
50
100
AcDbEntity
  8
_U+30EC_U+30A4_U+30E4_U+30FC 1
 62
   179
420
  2234388
100
AcDbHatch
 10
0.0
 20
0.0
 30
0.0
210
0.0
220
0.0
230
1.0
  2
SOLID
 70
     1
 71
     0
 91
        5
 92
        1
 93
        1
 72
     4
 94
        3
 73
     0
 74
     1
 95
       77
 96
       73
 40
0.0
 40
0.0
 40
0.0
 40
0.0
 40
1.0
 40
1.0
 40
1.0
 40
2.0
 40
2.0
 40
2.0
 40
3.0
 40
3.0
 40
3.0
 40
4.0
 40
4.0
 40
4.0
 40
5.0
 40
5.0
 40
5.0
 40
6.0
 40
6.0
 40
6.0
 40
7.0
 40
7.0
 40
7.0
 40
8.0
 40
8.0
 40
8.0
 40
9.0
 40
9.0
 40
9.0
 40
10.0
 40
10.0
 40
10.0
 40
11.0
 40
11.0
 40
11.0
 40
12.0
 40
12.0
 40
12.0
 40
13.0
 40
13.0
 40
13.0
 40
14.0
 40
14.0
 40
14.0
 40
15.0
 40
15.0
 40
15.0
 40
16.0
 40
16.0
 40
16.0
 40
17.0
 40
17.0
 40
17.0
 40
18.0
 40
18.0
 40
18.0
 40
19.0
 40
19.0
 40
19.0
 40
20.0
 40
20.0
 40
20.0
 40
21.0
 40
21.0
 40
21.0
 40
22.0
 40
22.0
 40
22.0
 40
23.0
 40
23.0
 40
23.0
 40
24.0
 40
24.0
 40
24.0
 40
24.0
 10
47.26050888575432
 20
-104.8811089147519
 10
47.21985675902837
 20
-104.9066026213428
 10
47.11064723214595
 20
-104.9193494746382
 10
47.04208983198948
 20
-104.9193494746382
 10
47.03089327166241
 20
-104.9193494746382
 10
47.00867240578255
 20
-104.9193494746382
 10
46.9790445846094
 20
-104.9152153600559
 10
46.9790445846094
 20
-104.9152153600559
 10
46.89395072612373
 20
-104.688872586675
 10
46.89395072612373
 20
-104.688872586675
 10
46.91978894226311
 20
-104.6950737585485
 10
46.9699150815735
 20
-104.7036864972616
 10
47.07171765316263
 20
-104.7036864972616
 10
47.1402750533191
 20
-104.7036864972616
 10
47.14199760106172
 20
-104.661311822793
 10
47.14199760106172
 20
-104.6041232377379
 10
47.14199760106172
 20
-104.6041232377379
 10
47.14199760106172
 20
-104.2551350650821
 10
47.14199760106172
 20
-104.2551350650821
 10
47.14199760106172
 20
-104.2551350650821
 10
46.74029946748159
 20
-104.2551350650821
 10
46.74029946748159
 20
-104.2551350650821
 10
46.74202201522422
 20
-104.3925943749435
 10
46.74391681774111
 20
-104.5913763844424
 10
46.74942897051751
 20
-104.7247015797216
 10
46.75132377303439
 20
-104.7522623436036
 10
46.75132377303439
 20
-104.7967040753633
 10
46.76252033336146
 20
-104.8580267750008
 10
46.76252033336146
 20
-104.8580267750008
 10
46.55133598011564
 20
-104.8580267750008
 10
46.55133598011564
 20
-104.8580267750008
 10
46.5735568459955
 20
-104.7333143184347
 10
46.5735568459955
 20
-104.3925943749435
 10
46.5735568459955
 20
-104.2551350650821
 10
46.5735568459955
 20
-104.2551350650821
 10
46.18650036822768
 20
-104.2551350650821
 10
46.18650036822768
 20
-104.2551350650821
 10
46.16617430486471
 20
-104.4625298132941
 10
46.1088134650353
 20
-104.7309027515951
 10
45.93655869077281
 20
-104.9152153600559
 10
45.93655869077281
 20
-104.9152153600559
 10
45.7717108718036
 20
-104.792569960781
 10
45.7717108718036
 20
-104.792569960781
 10
45.99391953060222
 20
-104.5724283592736
 10
46.02182480403274
 20
-104.2403211544955
 10
46.02182480403274
 20
-103.9082139497174
 10
46.02182480403274
 20
-103.9082139497174
 10
46.02182480403274
 20
-103.4724093708333
 10
46.02182480403274
 20
-103.4724093708333
 10
46.02182480403274
 20
-103.4362358682382
 10
46.01993000151585
 20
-103.2036919229838
 10
46.01252304622257
 20
-103.1020616061689
 10
46.13465168117467
 20
-103.1127414021732
 10
46.34583603442049
 20
-103.1127414021732
 10
46.47175427440637
 20
-103.1127414021732
 10
46.47175427440637
 20
-103.1127414021732
 10
46.87362466276076
 20
-103.1127414021732
 10
46.87362466276076
 20
-103.1127414021732
 10
46.88654377083045
 20
-103.1127414021732
 10
47.19212374037211
 20
-103.1127414021732
 10
47.33096108842768
 20
-103.1020616061689
 10
47.32906628591079
 20
-103.1551160766418
 10
47.32355413313439
 20
-103.3156575262544
 10
47.32355413313439
 20
-103.3666449394361
 10
47.32355413313439
 20
-103.3666449394361
 10
47.32355413313439
 20
-103.9736707639371
 10
47.32355413313439
 20
-103.9736707639371
 10
47.32355413313439
 20
-103.992618789106
 10
47.33285589094456
 20
-104.5638156205604
 10
47.33285589094456
 20
-104.6761257333796
 10
47.33285589094456
 20
-104.7333143184347
 10
47.33285589094456
 20
-104.8346001257011
 10
47.26050888575432
 20
-104.8811089147519
 97
        0
 97
        0
 92
        1
 93
        4
 72
     1
 10
46.5735568459955
 20
-103.2946424437944
 11
46.19028997326146
 21
-103.2946424437944
 72
     1
 10
46.19028997326146
 20
-103.2946424437944
 11
46.19028997326146
 21
-103.5991888846905
 72
     1
 10
46.19028997326146
 20
-103.5991888846905
 11
46.5735568459955
 21
-103.5991888846905
 72
     1
 10
46.5735568459955
 20
-103.5991888846905
 11
46.5735568459955
 21
-103.2946424437944
 97
        0
 92
        1
 93
        4
 72
     1
 10
46.5735568459955
 20
-103.7662760157251
 11
46.19028997326146
 21
-103.7662760157251
 72
     1
 10
46.19028997326146
 20
-103.7662760157251
 11
46.19028997326146
 21
-104.075301080752
 72
     1
 10
46.19028997326146
 20
-104.075301080752
 11
46.5735568459955
 21
-104.075301080752
 72
     1
 10
46.5735568459955
 20
-104.075301080752
 11
46.5735568459955
 21
-103.7662760157251
 97
        0
 92
        1
 93
        4
 72
     1
 10
47.14199760106172
 20
-103.2946424437944
 11
46.74029946748159
 21
-103.2946424437944
 72
     1
 10
46.74029946748159
 20
-103.2946424437944
 11
46.74029946748159
 21
-103.5991888846905
 72
     1
 10
46.74029946748159
 20
-103.5991888846905
 11
47.14199760106172
 21
-103.5991888846905
 72
     1
 10
47.14199760106172
 20
-103.5991888846905
 11
47.14199760106172
 21
-103.2946424437944
 97
        0
 92
        1
 93
        4
 72
     1
 10
47.14199760106172
 20
-103.7662760157251
 11
46.74029946748159
 21
-103.7662760157251
 72
     1
 10
46.74029946748159
 20
-103.7662760157251
 11
46.74029946748159
 21
-104.075301080752
 72
     1
 10
46.74029946748159
 20
-104.075301080752
 11
47.14199760106172
 21
-104.075301080752
 72
     1
 10
47.14199760106172
 20
-104.075301080752
 11
47.14199760106172
 21
-103.7662760157251
 97
        0
 75
     2
 76
     1
 98
        0
  0
SPLINE
  5
81
330
50
100
AcDbEntity
  8
_U+30EC_U+30A4_U+30E4_U+30FC 1
370
     0
100
AcDbSpline
210
0.0
220
0.0
230
1.0
 70
    11
 71
     3
 72
    44
 73
    40
 74
     0
 42
0.0000000001
 43
0.0000000001
 12
1.0
 22
0.0
 32
0.0
 13
1.0
 23
0.0
 33
0.0
 40
0.0
 40
0.0
 40
0.0
 40
0.0
 40
1.0
 40
1.0
 40
1.0
 40
2.0
 40
2.0
 40
2.0
 40
3.0
 40
3.0
 40
3.0
 40
4.0
 40
4.0
 40
4.0
 40
5.0
 40
5.0
 40
5.0
 40
6.0
 40
6.0
 40
6.0
 40
7.0
 40
7.0
 40
7.0
 40
8.0
 40
8.0
 40
8.0
 40
9.0
 40
9.0
 40
9.0
 40
10.0
 40
10.0
 40
10.0
 40
11.0
 40
11.0
 40
11.0
 40
12.0
 40
12.0
 40
12.0
 40
13.0
 40
13.0
 40
13.0
 40
13.0
 10
48.90519747041259
 20
-103.6308837631548
 30
0.0
 10
48.80701224908297
 20
-103.999164470528
 30
0.0
 10
48.76257051732325
 20
-104.1576388628495
 30
0.0
 10
48.59048799783502
 20
-104.4074082855301
 30
0.0
 10
48.42925752912533
 20
-104.6378851734933
 30
0.0
 10
48.22186278091328
 20
-104.8242648392453
 30
0.0
 10
47.97743325623481
 20
-104.9172824173471
 30
0.0
 10
47.97743325623481
 20
-104.9172824173471
 30
0.0
 10
47.80896808700609
 20
-104.737448433017
 30
0.0
 10
47.80896808700609
 20
-104.737448433017
 30
0.0
 10
48.37000188677903
 20
-104.585175212569
 30
0.0
 10
48.65887314321723
 20
-104.0287922917011
 30
0.0
 10
48.71451143530401
 20
-103.5888535982347
 30
0.0
 10
48.71451143530401
 20
-103.5888535982347
 30
0.0
 10
48.0440958538744
 20
-103.5888535982347
 30
0.0
 10
48.0440958538744
 20
-103.5888535982347
 30
0.0
 10
47.96261934564824
 20
-103.5888535982347
 30
0.0
 10
47.80156113171281
 20
-103.592987712817
 30
0.0
 10
47.66461858617413
 20
-103.6119357379859
 30
0.0
 10
47.66461858617413
 20
-103.6119357379859
 30
0.0
 10
47.66461858617413
 20
-103.3917941364784
 30
0.0
 10
47.66461858617413
 20
-103.3917941364784
 30
0.0
 10
47.74041068684962
 20
-103.413153728487
 30
0.0
 10
47.96089679790561
 20
-103.413153728487
 30
0.0
 10
48.04788545890817
 20
-103.413153728487
 30
0.0
 10
48.04788545890817
 20
-103.413153728487
 30
0.0
 10
48.42564017886581
 20
-103.413153728487
 30
0.0
 10
48.42564017886581
 20
-103.413153728487
 30
0.0
 10
48.46267495533225
 20
-103.413153728487
 30
0.0
 10
48.66817490102741
 20
-103.4110866711958
 30
0.0
 10
48.70159232723432
 20
-103.4045409897739
 30
0.0
 10
48.73862710370076
 20
-103.3983398179004
 30
0.0
 10
48.74034965144339
 20
-103.3962727606093
 30
0.0
 10
48.79409314101328
 20
-103.3559651434318
 30
0.0
 10
48.79409314101328
 20
-103.3559651434318
 30
0.0
 10
48.95894095998249
 20
-103.510305421171
 30
0.0
 10
48.95894095998249
 20
-103.510305421171
 30
0.0
 10
48.93293048906885
 20
-103.5399332423442
 30
0.0
 10
48.92001138099916
 20
-103.5716281208085
 30
0.0
 10
48.90519747041259
 20
-103.6308837631548
 30
0.0
  0
SPLINE
  5
82
330
50
100
AcDbEntity
  8
_U+30EC_U+30A4_U+30E4_U+30FC 1
370
     0
100
AcDbSpline
210
0.0
220
0.0
230
1.0
 70
    11
 71
     3
 72
    17
 73
    13
 74
     0
 42
0.0000000001
 43
0.0000000001
 12
1.0
 22
0.0
 32
0.0
 13
1.0
 23
0.0
 33
0.0
 40
0.0
 40
0.0
 40
0.0
 40
0.0
 40
1.0
 40
1.0
 40
1.0
 40
2.0
 40
2.0
 40
2.0
 40
3.0
 40
3.0
 40
3.0
 40
4.0
 40
4.0
 40
4.0
 40
4.0
 10
49.08847655022788
 20
-103.4321017536559
 30
0.0
 10
48.97737222082858
 20
-103.4321017536559
 30
0.0
 10
48.88848875730913
 20
-103.330471436841
 30
0.0
 10
48.88848875730913
 20
-103.2036919229838
 30
0.0
 10
48.88848875730913
 20
-103.0769124091266
 30
0.0
 10
48.97737222082858
 20
-102.9732150350206
 30
0.0
 10
49.08847655022788
 20
-102.9732150350206
 30
0.0
 10
49.19958087962719
 20
-102.9732150350206
 30
0.0
 10
49.29035914566352
 20
-103.0769124091266
 30
0.0
 10
49.29035914566352
 20
-103.2036919229838
 30
0.0
 10
49.29035914566352
 20
-103.330471436841
 30
0.0
 10
49.19958087962719
 20
-103.4321017536559
 30
0.0
 10
49.08847655022788
 20
-103.4321017536559
 30
0.0
  0
SPLINE
  5
83
330
50
100
AcDbEntity
  8
_U+30EC_U+30A4_U+30E4_U+30FC 1
370
     0
100
AcDbSpline
210
0.0
220
0.0
230
1.0
 70
    11
 71
     3
 72
    17
 73
    13
 74
     0
 42
0.0000000001
 43
0.0000000001
 12
1.0
 22
0.0
 32
0.0
 13
1.0
 23
0.0
 33
0.0
 40
0.0
 40
0.0
 40
0.0
 40
0.0
 40
1.0
 40
1.0
 40
1.0
 40
2.0
 40
2.0
 40
2.0
 40
3.0
 40
3.0
 40
3.0
 40
4.0
 40
4.0
 40
4.0
 40
4.0
 10
49.08675400248526
 20
-103.1020616061689
 30
0.0
 10
49.03852266569176
 20
-103.1020616061689
 30
0.0
 10
48.99959308670844
 20
-103.1465033379286
 30
0.0
 10
48.99959308670844
 20
-103.2016248656927
 30
0.0
 10
48.99959308670844
 20
-103.2588134507478
 30
0.0
 10
49.03852266569176
 20
-103.3073892970898
 30
0.0
 10
49.09037135274477
 20
-103.3073892970898
 30
0.0
 10
49.14222003979778
 20
-103.3073892970898
 30
0.0
 10
49.17736001374733
 20
-103.2564018839081
 30
0.0
 10
49.17736001374733
 20
-103.2036919229838
 30
0.0
 10
49.17736001374733
 20
-103.1465033379286
 30
0.0
 10
49.13670788702138
 20
-103.1020616061689
 30
0.0
 10
49.08675400248526
 20
-103.1020616061689
 30
0.0
  0
HATCH
  5
84
330
50
100
AcDbEntity
  8
_U+30EC_U+30A4_U+30E4_U+30FC 1
 62
   179
420
  2234388
100
AcDbHatch
 10
0.0
 20
0.0
 30
0.0
210
0.0
220
0.0
230
1.0
  2
SOLID
 70
     1
 71
     0
 91
        3
 92
        1
 93
        1
 72
     4
 94
        3
 73
     0
 74
     1
 95
       44
 96
       40
 40
0.0
 40
0.0
 40
0.0
 40
0.0
 40
1.0
 40
1.0
 40
1.0
 40
2.0
 40
2.0
 40
2.0
 40
3.0
 40
3.0
 40
3.0
 40
4.0
 40
4.0
 40
4.0
 40
5.0
 40
5.0
 40
5.0
 40
6.0
 40
6.0
 40
6.0
 40
7.0
 40
7.0
 40
7.0
 40
8.0
 40
8.0
 40
8.0
 40
9.0
 40
9.0
 40
9.0
 40
10.0
 40
10.0
 40
10.0
 40
11.0
 40
11.0
 40
11.0
 40
12.0
 40
12.0
 40
12.0
 40
13.0
 40
13.0
 40
13.0
 40
13.0
 10
48.90519747041259
 20
-103.6308837631548
 10
48.80701224908297
 20
-103.999164470528
 10
48.76257051732325
 20
-104.1576388628495
 10
48.59048799783502
 20
-104.4074082855301
 10
48.42925752912533
 20
-104.6378851734933
 10
48.22186278091328
 20
-104.8242648392453
 10
47.97743325623481
 20
-104.9172824173471
 10
47.97743325623481
 20
-104.9172824173471
 10
47.80896808700609
 20
-104.737448433017
 10
47.80896808700609
 20
-104.737448433017
 10
48.37000188677903
 20
-104.585175212569
 10
48.65887314321723
 20
-104.0287922917011
 10
48.71451143530401
 20
-103.5888535982347
 10
48.71451143530401
 20
-103.5888535982347
 10
48.0440958538744
 20
-103.5888535982347
 10
48.0440958538744
 20
-103.5888535982347
 10
47.96261934564824
 20
-103.5888535982347
 10
47.80156113171281
 20
-103.592987712817
 10
47.66461858617413
 20
-103.6119357379859
 10
47.66461858617413
 20
-103.6119357379859
 10
47.66461858617413
 20
-103.3917941364784
 10
47.66461858617413
 20
-103.3917941364784
 10
47.74041068684962
 20
-103.413153728487
 10
47.96089679790561
 20
-103.413153728487
 10
48.04788545890817
 20
-103.413153728487
 10
48.04788545890817
 20
-103.413153728487
 10
48.42564017886581
 20
-103.413153728487
 10
48.42564017886581
 20
-103.413153728487
 10
48.46267495533225
 20
-103.413153728487
 10
48.66817490102741
 20
-103.4110866711958
 10
48.70159232723432
 20
-103.4045409897739
 10
48.73862710370076
 20
-103.3983398179004
 10
48.74034965144339
 20
-103.3962727606093
 10
48.79409314101328
 20
-103.3559651434318
 10
48.79409314101328
 20
-103.3559651434318
 10
48.95894095998249
 20
-103.510305421171
 10
48.95894095998249
 20
-103.510305421171
 10
48.93293048906885
 20
-103.5399332423442
 10
48.92001138099916
 20
-103.5716281208085
 10
48.90519747041259
 20
-103.6308837631548
 97
        0
 97
        0
 92
        1
 93
        1
 72
     4
 94
        3
 73
     0
 74
     1
 95
       17
 96
       13
 40
0.0
 40
0.0
 40
0.0
 40
0.0
 40
1.0
 40
1.0
 40
1.0
 40
2.0
 40
2.0
 40
2.0
 40
3.0
 40
3.0
 40
3.0
 40
4.0
 40
4.0
 40
4.0
 40
4.0
 10
49.08847655022788
 20
-103.4321017536559
 10
48.97737222082858
 20
-103.4321017536559
 10
48.88848875730913
 20
-103.330471436841
 10
48.88848875730913
 20
-103.2036919229838
 10
48.88848875730913
 20
-103.0769124091266
 10
48.97737222082858
 20
-102.9732150350206
 10
49.08847655022788
 20
-102.9732150350206
 10
49.19958087962719
 20
-102.9732150350206
 10
49.29035914566352
 20
-103.0769124091266
 10
49.29035914566352
 20
-103.2036919229838
 10
49.29035914566352
 20
-103.330471436841
 10
49.19958087962719
 20
-103.4321017536559
 10
49.08847655022788
 20
-103.4321017536559
 97
        0
 97
        0
 92
        1
 93
        1
 72
     4
 94
        3
 73
     0
 74
     1
 95
       17
 96
       13
 40
0.0
 40
0.0
 40
0.0
 40
0.0
 40
1.0
 40
1.0
 40
1.0
 40
2.0
 40
2.0
 40
2.0
 40
3.0
 40
3.0
 40
3.0
 40
4.0
 40
4.0
 40
4.0
 40
4.0
 10
49.08675400248526
 20
-103.1020616061689
 10
49.03852266569176
 20
-103.1020616061689
 10
48.99959308670844
 20
-103.1465033379286
 10
48.99959308670844
 20
-103.2016248656927
 10
48.99959308670844
 20
-103.2588134507478
 10
49.03852266569176
 20
-103.3073892970898
 10
49.09037135274477
 20
-103.3073892970898
 10
49.14222003979778
 20
-103.3073892970898
 10
49.17736001374733
 20
-103.2564018839081
 10
49.17736001374733
 20
-103.2036919229838
 10
49.17736001374733
 20
-103.1465033379286
 10
49.13670788702138
 20
-103.1020616061689
 10
49.08675400248526
 20
-103.1020616061689
 97
        0
 97
        0
 75
     2
 76
     1
 98
        0
  0
SPLINE
  5
85
330
50
100
AcDbEntity
  8
_U+30EC_U+30A4_U+30E4_U+30FC 1
370
     0
100
AcDbSpline
210
0.0
220
0.0
230
1.0
 70
    11
 71
     3
 72
    50
 73
    46
 74
     0
 42
0.0000000001
 43
0.0000000001
 12
1.0
 22
0.0
 32
0.0
 13
1.0
 23
0.0
 33
0.0
 40
0.0
 40
0.0
 40
0.0
 40
0.0
 40
1.0
 40
1.0
 40
1.0
 40
2.0
 40
2.0
 40
2.0
 40
3.0
 40
3.0
 40
3.0
 40
4.0
 40
4.0
 40
4.0
 40
5.0
 40
5.0
 40
5.0
 40
6.0
 40
6.0
 40
6.0
 40
7.0
 40
7.0
 40
7.0
 40
8.0
 40
8.0
 40
8.0
 40
9.0
 40
9.0
 40
9.0
 40
10.0
 40
10.0
 40
10.0
 40
11.0
 40
11.0
 40
11.0
 40
12.0
 40
12.0
 40
12.0
 40
13.0
 40
13.0
 40
13.0
 40
14.0
 40
14.0
 40
14.0
 40
15.0
 40
15.0
 40
15.0
 40
15.0
 10
50.66081812969591
 20
-103.9399088281817
 30
0.0
 10
50.5924329843137
 20
-104.1176757552206
 30
0.0
 10
50.47392169962111
 20
-104.3247259938841
 30
0.0
 10
50.35351561241162
 20
-104.4645968705852
 30
0.0
 10
50.20537650654588
 20
-104.6358181162022
 30
0.0
 10
50.06274955345653
 20
-104.7247015797216
 30
0.0
 10
49.78318005482851
 20
-104.8662950041654
 30
0.0
 10
49.78318005482851
 20
-104.8662950041654
 30
0.0
 10
49.63504094896277
 20
-104.6781927906707
 30
0.0
 10
49.63504094896277
 20
-104.6781927906707
 30
0.0
 10
49.79799396541509
 20
-104.654766141371
 30
0.0
 10
49.94802787379772
 20
-104.5682942446913
 30
0.0
 10
50.08135306907688
 20
-104.4625298132941
 30
0.0
 10
50.31096868316879
 20
-104.2806287716729
 30
0.0
 10
50.47753904988062
 20
-103.9674695920637
 30
0.0
 10
50.52008597912345
 20
-103.7855685504425
 30
0.0
 10
50.52008597912345
 20
-103.7855685504425
 30
0.0
 10
49.93321396321114
 20
-103.7855685504425
 30
0.0
 10
49.93321396321114
 20
-103.7855685504425
 30
0.0
 10
49.79420436038131
 20
-103.7855685504425
 30
0.0
 10
49.53875053015004
 20
-103.7938367796071
 30
0.0
 10
49.40542533487087
 20
-103.8107177474848
 30
0.0
 10
49.40542533487087
 20
-103.8107177474848
 30
0.0
 10
49.40542533487087
 20
-103.5823079168128
 30
0.0
 10
49.40542533487087
 20
-103.5823079168128
 30
0.0
 10
49.43505315604402
 20
-103.5888535982347
 30
0.0
 10
49.45727402192388
 20
-103.5950547701082
 30
0.0
 10
49.50361055620049
 20
-103.5991888846905
 30
0.0
 10
49.59249401971994
 20
-103.6057345661125
 30
0.0
 10
49.76457653920816
 20
-103.6078016234036
 30
0.0
 10
49.83864609214103
 20
-103.6078016234036
 30
0.0
 10
49.83864609214103
 20
-103.6078016234036
 30
0.0
 10
50.28134086199564
 20
-103.6078016234036
 30
0.0
 10
50.28134086199564
 20
-103.6078016234036
 30
0.0
 10
50.34059650434194
 20
-103.6078016234036
 30
0.0
 10
50.46823729207044
 20
-103.6036675088213
 30
0.0
 10
50.52198078164034
 20
-103.5971218273993
 30
0.0
 10
50.58502602902041
 20
-103.5888535982347
 30
0.0
 10
50.6089694426429
 20
-103.5740396876482
 30
0.0
 10
50.63859726381605
 20
-103.5506130383485
 30
0.0
 10
50.63859726381605
 20
-103.5506130383485
 30
0.0
 10
50.78311901942228
 20
-103.7177001693831
 30
0.0
 10
50.78311901942228
 20
-103.7177001693831
 30
0.0
 10
50.72196857455909
 20
-103.7855685504425
 30
0.0
 10
50.68131644783315
 20
-103.8892659245485
 30
0.0
 10
50.66081812969591
 20
-103.9399088281817
 30
0.0
  0
SPLINE
  5
86
330
50
100
AcDbEntity
  8
_U+30EC_U+30A4_U+30E4_U+30FC 1
370
     0
100
AcDbSpline
210
0.0
220
0.0
230
1.0
 70
    11
 71
     3
 72
    29
 73
    25
 74
     0
 42
0.0000000001
 43
0.0000000001
 12
1.0
 22
0.0
 32
0.0
 13
1.0
 23
0.0
 33
0.0
 40
0.0
 40
0.0
 40
0.0
 40
0.0
 40
1.0
 40
1.0
 40
1.0
 40
2.0
 40
2.0
 40
2.0
 40
3.0
 40
3.0
 40
3.0
 40
4.0
 40
4.0
 40
4.0
 40
5.0
 40
5.0
 40
5.0
 40
6.0
 40
6.0
 40
6.0
 40
7.0
 40
7.0
 40
7.0
 40
8.0
 40
8.0
 40
8.0
 40
8.0
 10
50.22949217494263
 20
-103.3135904689633
 30
0.0
 10
50.22949217494263
 20
-103.3135904689633
 30
0.0
 10
49.93131916069426
 20
-103.3135904689633
 30
0.0
 10
49.93131916069426
 20
-103.3135904689633
 30
0.0
 10
49.83123913684775
 20
-103.3135904689633
 30
0.0
 10
49.72943656525862
 20
-103.3180690930941
 30
0.0
 10
49.62952879618637
 20
-103.3328830036807
 30
0.0
 10
49.62952879618637
 20
-103.3328830036807
 30
0.0
 10
49.62952879618637
 20
-103.1234211981775
 30
0.0
 10
49.62952879618637
 20
-103.1234211981775
 30
0.0
 10
49.73322617029239
 20
-103.1382351087641
 30
0.0
 10
49.88498262641765
 20
-103.1423692233463
 30
0.0
 10
49.93131916069426
 20
-103.1423692233463
 30
0.0
 10
49.93131916069426
 20
-103.1423692233463
 30
0.0
 10
50.22949217494263
 20
-103.1423692233463
 30
0.0
 10
50.22949217494263
 20
-103.1423692233463
 30
0.0
 10
50.33129474653176
 20
-103.1423692233463
 30
0.0
 10
50.43309731812089
 20
-103.1382351087641
 30
0.0
 10
50.53489988971003
 20
-103.1234211981775
 30
0.0
 10
50.53489988971003
 20
-103.1234211981775
 30
0.0
 10
50.53489988971003
 20
-103.3328830036807
 30
0.0
 10
50.53489988971003
 20
-103.3328830036807
 30
0.0
 10
50.40346949694774
 20
-103.3135904689633
 30
0.0
 10
50.24241128301232
 20
-103.3135904689633
 30
0.0
 10
50.22949217494263
 20
-103.3135904689633
 30
0.0
  0
HATCH
  5
87
330
50
100
AcDbEntity
  8
_U+30EC_U+30A4_U+30E4_U+30FC 1
 62
   179
420
  2234388
100
AcDbHatch
 10
0.0
 20
0.0
 30
0.0
210
0.0
220
0.0
230
1.0
  2
SOLID
 70
     1
 71
     0
 91
        2
 92
        1
 93
        1
 72
     4
 94
        3
 73
     0
 74
     1
 95
       50
 96
       46
 40
0.0
 40
0.0
 40
0.0
 40
0.0
 40
1.0
 40
1.0
 40
1.0
 40
2.0
 40
2.0
 40
2.0
 40
3.0
 40
3.0
 40
3.0
 40
4.0
 40
4.0
 40
4.0
 40
5.0
 40
5.0
 40
5.0
 40
6.0
 40
6.0
 40
6.0
 40
7.0
 40
7.0
 40
7.0
 40
8.0
 40
8.0
 40
8.0
 40
9.0
 40
9.0
 40
9.0
 40
10.0
 40
10.0
 40
10.0
 40
11.0
 40
11.0
 40
11.0
 40
12.0
 40
12.0
 40
12.0
 40
13.0
 40
13.0
 40
13.0
 40
14.0
 40
14.0
 40
14.0
 40
15.0
 40
15.0
 40
15.0
 40
15.0
 10
50.66081812969591
 20
-103.9399088281817
 10
50.5924329843137
 20
-104.1176757552206
 10
50.47392169962111
 20
-104.3247259938841
 10
50.35351561241162
 20
-104.4645968705852
 10
50.20537650654588
 20
-104.6358181162022
 10
50.06274955345653
 20
-104.7247015797216
 10
49.78318005482851
 20
-104.8662950041654
 10
49.78318005482851
 20
-104.8662950041654
 10
49.63504094896277
 20
-104.6781927906707
 10
49.63504094896277
 20
-104.6781927906707
 10
49.79799396541509
 20
-104.654766141371
 10
49.94802787379772
 20
-104.5682942446913
 10
50.08135306907688
 20
-104.4625298132941
 10
50.31096868316879
 20
-104.2806287716729
 10
50.47753904988062
 20
-103.9674695920637
 10
50.52008597912345
 20
-103.7855685504425
 10
50.52008597912345
 20
-103.7855685504425
 10
49.93321396321114
 20
-103.7855685504425
 10
49.93321396321114
 20
-103.7855685504425
 10
49.79420436038131
 20
-103.7855685504425
 10
49.53875053015004
 20
-103.7938367796071
 10
49.40542533487087
 20
-103.8107177474848
 10
49.40542533487087
 20
-103.8107177474848
 10
49.40542533487087
 20
-103.5823079168128
 10
49.40542533487087
 20
-103.5823079168128
 10
49.43505315604402
 20
-103.5888535982347
 10
49.45727402192388
 20
-103.5950547701082
 10
49.50361055620049
 20
-103.5991888846905
 10
49.59249401971994
 20
-103.6057345661125
 10
49.76457653920816
 20
-103.6078016234036
 10
49.83864609214103
 20
-103.6078016234036
 10
49.83864609214103
 20
-103.6078016234036
 10
50.28134086199564
 20
-103.6078016234036
 10
50.28134086199564
 20
-103.6078016234036
 10
50.34059650434194
 20
-103.6078016234036
 10
50.46823729207044
 20
-103.6036675088213
 10
50.52198078164034
 20
-103.5971218273993
 10
50.58502602902041
 20
-103.5888535982347
 10
50.6089694426429
 20
-103.5740396876482
 10
50.63859726381605
 20
-103.5506130383485
 10
50.63859726381605
 20
-103.5506130383485
 10
50.78311901942228
 20
-103.7177001693831
 10
50.78311901942228
 20
-103.7177001693831
 10
50.72196857455909
 20
-103.7855685504425
 10
50.68131644783315
 20
-103.8892659245485
 10
50.66081812969591
 20
-103.9399088281817
 97
        0
 97
        0
 92
        1
 93
        1
 72
     4
 94
        3
 73
     0
 74
     1
 95
       29
 96
       25
 40
0.0
 40
0.0
 40
0.0
 40
0.0
 40
1.0
 40
1.0
 40
1.0
 40
2.0
 40
2.0
 40
2.0
 40
3.0
 40
3.0
 40
3.0
 40
4.0
 40
4.0
 40
4.0
 40
5.0
 40
5.0
 40
5.0
 40
6.0
 40
6.0
 40
6.0
 40
7.0
 40
7.0
 40
7.0
 40
8.0
 40
8.0
 40
8.0
 40
8.0
 10
50.22949217494263
 20
-103.3135904689633
 10
50.22949217494263
 20
-103.3135904689633
 10
49.93131916069426
 20
-103.3135904689633
 10
49.93131916069426
 20
-103.3135904689633
 10
49.83123913684775
 20
-103.3135904689633
 10
49.72943656525862
 20
-103.3180690930941
 10
49.62952879618637
 20
-103.3328830036807
 10
49.62952879618637
 20
-103.3328830036807
 10
49.62952879618637
 20
-103.1234211981775
 10
49.62952879618637
 20
-103.1234211981775
 10
49.73322617029239
 20
-103.1382351087641
 10
49.88498262641765
 20
-103.1423692233463
 10
49.93131916069426
 20
-103.1423692233463
 10
49.93131916069426
 20
-103.1423692233463
 10
50.22949217494263
 20
-103.1423692233463
 10
50.22949217494263
 20
-103.1423692233463
 10
50.33129474653176
 20
-103.1423692233463
 10
50.43309731812089
 20
-103.1382351087641
 10
50.53489988971003
 20
-103.1234211981775
 10
50.53489988971003
 20
-103.1234211981775
 10
50.53489988971003
 20
-103.3328830036807
 10
50.53489988971003
 20
-103.3328830036807
 10
50.40346949694774
 20
-103.3135904689633
 10
50.24241128301232
 20
-103.3135904689633
 10
50.22949217494263
 20
-103.3135904689633
 97
        0
 97
        0
 75
     2
 76
     1
 98
        0
  0
SPLINE
  5
88
330
50
100
AcDbEntity
  8
_U+30EC_U+30A4_U+30E4_U+30FC 1
370
     0
100
AcDbSpline
210
0.0
220
0.0
230
1.0
 70
    11
 71
     3
 72
    50
 73
    46
 74
     0
 42
0.0000000001
 43
0.0000000001
 12
1.0
 22
0.0
 32
0.0
 13
1.0
 23
0.0
 33
0.0
 40
0.0
 40
0.0
 40
0.0
 40
0.0
 40
1.0
 40
1.0
 40
1.0
 40
2.0
 40
2.0
 40
2.0
 40
3.0
 40
3.0
 40
3.0
 40
4.0
 40
4.0
 40
4.0
 40
5.0
 40
5.0
 40
5.0
 40
6.0
 40
6.0
 40
6.0
 40
7.0
 40
7.0
 40
7.0
 40
8.0
 40
8.0
 40
8.0
 40
9.0
 40
9.0
 40
9.0
 40
10.0
 40
10.0
 40
10.0
 40
11.0
 40
11.0
 40
11.0
 40
12.0
 40
12.0
 40
12.0
 40
13.0
 40
13.0
 40
13.0
 40
14.0
 40
14.0
 40
14.0
 40
15.0
 40
15.0
 40
15.0
 40
15.0
 10
52.1589179014568
 20
-103.2987765583767
 30
0.0
 10
51.97563882164151
 20
-103.5123724784622
 30
0.0
 10
51.9127658290357
 20
-103.5843749741039
 30
0.0
 10
51.78857013679244
 20
-103.7028862587965
 30
0.0
 10
51.78857013679244
 20
-103.7028862587965
 30
0.0
 10
51.78857013679244
 20
-104.2699489756686
 30
0.0
 10
51.78857013679244
 20
-104.2699489756686
 30
0.0
 10
51.78857013679244
 20
-104.4201551388255
 30
0.0
 10
51.7942545443431
 20
-104.4391031639944
 30
0.0
 10
51.79787189460261
 20
-104.6168700910333
 30
0.0
 10
51.7997666971195
 20
-104.7481282290213
 30
0.0
 10
51.80527884989591
 20
-104.7967040753633
 30
0.0
 10
51.8107910026723
 20
-104.8559597177096
 30
0.0
 10
51.8107910026723
 20
-104.8559597177096
 30
0.0
 10
51.61269801227044
 20
-104.8559597177096
 30
0.0
 10
51.61269801227044
 20
-104.8559597177096
 30
0.0
 10
51.61648761730422
 20
-104.8115179859499
 30
0.0
 10
51.62010496756373
 20
-104.765009196899
 30
0.0
 10
51.62010496756373
 20
-104.7563964581859
 30
0.0
 10
51.62010496756373
 20
-104.6761257333796
 30
0.0
 10
51.6238945725975
 20
-104.3247259938841
 30
0.0
 10
51.6238945725975
 20
-104.2530680077909
 30
0.0
 10
51.6238945725975
 20
-104.2530680077909
 30
0.0
 10
51.6238945725975
 20
-103.8468912500799
 30
0.0
 10
51.6238945725975
 20
-103.8468912500799
 30
0.0
 10
51.4645589064047
 20
-103.971603706646
 30
0.0
 10
51.29419893465909
 20
-104.0815022526255
 30
0.0
 10
51.1164320076202
 20
-104.1683186588538
 30
0.0
 10
51.1164320076202
 20
-104.1683186588538
 30
0.0
 10
50.93866508058131
 20
-104.0053656424014
 30
0.0
 10
50.93866508058131
 20
-104.0053656424014
 30
0.0
 10
51.0461520597211
 20
-103.9695366493548
 30
0.0
 10
51.27008326626234
 20
-103.895467096422
 30
0.0
 10
51.57204588554449
 20
-103.6394965018679
 30
0.0
 10
51.76083711813618
 20
-103.4806775999979
 30
0.0
 10
51.9293022873649
 20
-103.2925753865032
 30
0.0
 10
52.06262748264407
 20
-103.0724337849958
 30
0.0
 10
52.06262748264407
 20
-103.0724337849958
 30
0.0
 10
52.23126490664705
 20
-103.2164387762792
 30
0.0
 10
52.23126490664705
 20
-103.2164387762792
 30
0.0
 10
52.24228921219985
 20
-103.226774062735
 30
0.0
 10
52.24969616749313
 20
-103.2415879733216
 30
0.0
 10
52.24969616749313
 20
-103.254334826617
 30
0.0
 10
52.24969616749313
 20
-103.2946424437944
 30
0.0
 10
52.21645099606047
 20
-103.2946424437944
 30
0.0
 10
52.1589179014568
 20
-103.2987765583767
 30
0.0
  0
HATCH
  5
89
330
50
100
AcDbEntity
  8
_U+30EC_U+30A4_U+30E4_U+30FC 1
 62
   179
420
  2234388
100
AcDbHatch
 10
0.0
 20
0.0
 30
0.0
210
0.0
220
0.0
230
1.0
  2
SOLID
 70
     1
 71
     0
 91
        1
 92
        1
 93
        1
 72
     4
 94
        3
 73
     0
 74
     1
 95
       50
 96
       46
 40
0.0
 40
0.0
 40
0.0
 40
0.0
 40
1.0
 40
1.0
 40
1.0
 40
2.0
 40
2.0
 40
2.0
 40
3.0
 40
3.0
 40
3.0
 40
4.0
 40
4.0
 40
4.0
 40
5.0
 40
5.0
 40
5.0
 40
6.0
 40
6.0
 40
6.0
 40
7.0
 40
7.0
 40
7.0
 40
8.0
 40
8.0
 40
8.0
 40
9.0
 40
9.0
 40
9.0
 40
10.0
 40
10.0
 40
10.0
 40
11.0
 40
11.0
 40
11.0
 40
12.0
 40
12.0
 40
12.0
 40
13.0
 40
13.0
 40
13.0
 40
14.0
 40
14.0
 40
14.0
 40
15.0
 40
15.0
 40
15.0
 40
15.0
 10
52.1589179014568
 20
-103.2987765583767
 10
51.97563882164151
 20
-103.5123724784622
 10
51.9127658290357
 20
-103.5843749741039
 10
51.78857013679244
 20
-103.7028862587965
 10
51.78857013679244
 20
-103.7028862587965
 10
51.78857013679244
 20
-104.2699489756686
 10
51.78857013679244
 20
-104.2699489756686
 10
51.78857013679244
 20
-104.4201551388255
 10
51.7942545443431
 20
-104.4391031639944
 10
51.79787189460261
 20
-104.6168700910333
 10
51.7997666971195
 20
-104.7481282290213
 10
51.80527884989591
 20
-104.7967040753633
 10
51.8107910026723
 20
-104.8559597177096
 10
51.8107910026723
 20
-104.8559597177096
 10
51.61269801227044
 20
-104.8559597177096
 10
51.61269801227044
 20
-104.8559597177096
 10
51.61648761730422
 20
-104.8115179859499
 10
51.62010496756373
 20
-104.765009196899
 10
51.62010496756373
 20
-104.7563964581859
 10
51.62010496756373
 20
-104.6761257333796
 10
51.6238945725975
 20
-104.3247259938841
 10
51.6238945725975
 20
-104.2530680077909
 10
51.6238945725975
 20
-104.2530680077909
 10
51.6238945725975
 20
-103.8468912500799
 10
51.6238945725975
 20
-103.8468912500799
 10
51.4645589064047
 20
-103.971603706646
 10
51.29419893465909
 20
-104.0815022526255
 10
51.1164320076202
 20
-104.1683186588538
 10
51.1164320076202
 20
-104.1683186588538
 10
50.93866508058131
 20
-104.0053656424014
 10
50.93866508058131
 20
-104.0053656424014
 10
51.0461520597211
 20
-103.9695366493548
 10
51.27008326626234
 20
-103.895467096422
 10
51.57204588554449
 20
-103.6394965018679
 10
51.76083711813618
 20
-103.4806775999979
 10
51.9293022873649
 20
-103.2925753865032
 10
52.06262748264407
 20
-103.0724337849958
 10
52.06262748264407
 20
-103.0724337849958
 10
52.23126490664705
 20
-103.2164387762792
 10
52.23126490664705
 20
-103.2164387762792
 10
52.24228921219985
 20
-103.226774062735
 10
52.24969616749313
 20
-103.2415879733216
 10
52.24969616749313
 20
-103.254334826617
 10
52.24969616749313
 20
-103.2946424437944
 10
52.21645099606047
 20
-103.2946424437944
 10
52.1589179014568
 20
-103.2987765583767
 97
        0
 97
        0
 75
     2
 76
     1
 98
        0
  0
SPLINE
  5
8A
330
50
100
AcDbEntity
  8
_U+30EC_U+30A4_U+30E4_U+30FC 1
370
     0
100
AcDbSpline
210
0.0
220
0.0
230
1.0
 70
    11
 71
     3
 72
    50
 73
    46
 74
     0
 42
0.0000000001
 43
0.0000000001
 12
1.0
 22
0.0
 32
0.0
 13
1.0
 23
0.0
 33
0.0
 40
0.0
 40
0.0
 40
0.0
 40
0.0
 40
1.0
 40
1.0
 40
1.0
 40
2.0
 40
2.0
 40
2.0
 40
3.0
 40
3.0
 40
3.0
 40
4.0
 40
4.0
 40
4.0
 40
5.0
 40
5.0
 40
5.0
 40
6.0
 40
6.0
 40
6.0
 40
7.0
 40
7.0
 40
7.0
 40
8.0
 40
8.0
 40
8.0
 40
9.0
 40
9.0
 40
9.0
 40
10.0
 40
10.0
 40
10.0
 40
11.0
 40
11.0
 40
11.0
 40
12.0
 40
12.0
 40
12.0
 40
13.0
 40
13.0
 40
13.0
 40
14.0
 40
14.0
 40
14.0
 40
15.0
 40
15.0
 40
15.0
 40
15.0
 10
53.65529512547507
 20
-103.8255316580714
 30
0.0
 10
53.60155163590517
 20
-103.8975341537131
 30
0.0
 10
53.37383082433016
 20
-104.2148274479046
 30
0.0
 10
53.32370468501977
 20
-104.2782172048332
 30
0.0
 10
53.39777423795264
 20
-104.3757134070658
 30
0.0
 10
53.44221596971236
 20
-104.4391031639944
 30
0.0
 10
53.49974906431603
 20
-104.530053684805
 30
0.0
 10
53.49974906431603
 20
-104.530053684805
 30
0.0
 10
53.33851859560635
 20
-104.6675129946665
 30
0.0
 10
53.33851859560635
 20
-104.6675129946665
 30
0.0
 10
53.22000731091375
 20
-104.4559841318721
 30
0.0
 10
53.07014565730538
 20
-104.2317084157824
 30
0.0
 10
52.81262476978296
 20
-104.0329264062834
 30
0.0
 10
52.81262476978296
 20
-104.0329264062834
 30
0.0
 10
52.94233261480262
 20
-103.8785861285442
 30
0.0
 10
52.94233261480262
 20
-103.8785861285442
 30
0.0
 10
53.03862303361534
 20
-103.9588568533506
 30
0.0
 10
53.12940129965168
 20
-104.04774031687
 30
0.0
 10
53.21449515813735
 20
-104.1428249522629
 30
0.0
 10
53.27375080048365
 20
-104.0666883420389
 30
0.0
 10
53.45151772752254
 20
-103.8234646007803
 30
0.0
 10
53.56813420969824
 20
-103.5950547701082
 30
0.0
 10
53.56813420969824
 20
-103.5950547701082
 30
0.0
 10
52.97936739126905
 20
-103.5950547701082
 30
0.0
 10
52.97936739126905
 20
-103.5950547701082
 30
0.0
 10
52.87015786438663
 20
-103.5950547701082
 30
0.0
 10
52.64967175333064
 20
-103.6036675088213
 30
0.0
 10
52.46639267351535
 20
-103.6140027952771
 30
0.0
 10
52.46639267351535
 20
-103.6140027952771
 30
0.0
 10
52.46639267351535
 20
-103.3942057033181
 30
0.0
 10
52.46639267351535
 20
-103.3942057033181
 30
0.0
 10
52.62745088745078
 20
-103.413153728487
 30
0.0
 10
52.80711261700656
 20
-103.4172878430693
 30
0.0
 10
52.97196043597576
 20
-103.4172878430693
 30
0.0
 10
52.97196043597576
 20
-103.4172878430693
 30
0.0
 10
53.41258814853921
 20
-103.4172878430693
 30
0.0
 10
53.41258814853921
 20
-103.4172878430693
 30
0.0
 10
53.7088663602707
 20
-103.4172878430693
 30
0.0
 10
53.74779593925403
 20
-103.4024739324827
 30
0.0
 10
53.81997068967001
 20
-103.3625108248538
 30
0.0
 10
53.81997068967001
 20
-103.3625108248538
 30
0.0
 10
53.96638724779313
 20
-103.5209852171753
 30
0.0
 10
53.96638724779313
 20
-103.5209852171753
 30
0.0
 10
53.83306205251396
 20
-103.592987712817
 30
0.0
 10
53.70714381252808
 20
-103.7559407292694
 30
0.0
 10
53.65529512547507
 20
-103.8255316580714
 30
0.0
  0
HATCH
  5
8B
330
50
100
AcDbEntity
  8
_U+30EC_U+30A4_U+30E4_U+30FC 1
 62
   179
420
  2234388
100
AcDbHatch
 10
0.0
 20
0.0
 30
0.0
210
0.0
220
0.0
230
1.0
  2
SOLID
 70
     1
 71
     0
 91
        1
 92
        1
 93
        1
 72
     4
 94
        3
 73
     0
 74
     1
 95
       50
 96
       46
 40
0.0
 40
0.0
 40
0.0
 40
0.0
 40
1.0
 40
1.0
 40
1.0
 40
2.0
 40
2.0
 40
2.0
 40
3.0
 40
3.0
 40
3.0
 40
4.0
 40
4.0
 40
4.0
 40
5.0
 40
5.0
 40
5.0
 40
6.0
 40
6.0
 40
6.0
 40
7.0
 40
7.0
 40
7.0
 40
8.0
 40
8.0
 40
8.0
 40
9.0
 40
9.0
 40
9.0
 40
10.0
 40
10.0
 40
10.0
 40
11.0
 40
11.0
 40
11.0
 40
12.0
 40
12.0
 40
12.0
 40
13.0
 40
13.0
 40
13.0
 40
14.0
 40
14.0
 40
14.0
 40
15.0
 40
15.0
 40
15.0
 40
15.0
 10
53.65529512547507
 20
-103.8255316580714
 10
53.60155163590517
 20
-103.8975341537131
 10
53.37383082433016
 20
-104.2148274479046
 10
53.32370468501977
 20
-104.2782172048332
 10
53.39777423795264
 20
-104.3757134070658
 10
53.44221596971236
 20
-104.4391031639944
 10
53.49974906431603
 20
-104.530053684805
 10
53.49974906431603
 20
-104.530053684805
 10
53.33851859560635
 20
-104.6675129946665
 10
53.33851859560635
 20
-104.6675129946665
 10
53.22000731091375
 20
-104.4559841318721
 10
53.07014565730538
 20
-104.2317084157824
 10
52.81262476978296
 20
-104.0329264062834
 10
52.81262476978296
 20
-104.0329264062834
 10
52.94233261480262
 20
-103.8785861285442
 10
52.94233261480262
 20
-103.8785861285442
 10
53.03862303361534
 20
-103.9588568533506
 10
53.12940129965168
 20
-104.04774031687
 10
53.21449515813735
 20
-104.1428249522629
 10
53.27375080048365
 20
-104.0666883420389
 10
53.45151772752254
 20
-103.8234646007803
 10
53.56813420969824
 20
-103.5950547701082
 10
53.56813420969824
 20
-103.5950547701082
 10
52.97936739126905
 20
-103.5950547701082
 10
52.97936739126905
 20
-103.5950547701082
 10
52.87015786438663
 20
-103.5950547701082
 10
52.64967175333064
 20
-103.6036675088213
 10
52.46639267351535
 20
-103.6140027952771
 10
52.46639267351535
 20
-103.6140027952771
 10
52.46639267351535
 20
-103.3942057033181
 10
52.46639267351535
 20
-103.3942057033181
 10
52.62745088745078
 20
-103.413153728487
 10
52.80711261700656
 20
-103.4172878430693
 10
52.97196043597576
 20
-103.4172878430693
 10
52.97196043597576
 20
-103.4172878430693
 10
53.41258814853921
 20
-103.4172878430693
 10
53.41258814853921
 20
-103.4172878430693
 10
53.7088663602707
 20
-103.4172878430693
 10
53.74779593925403
 20
-103.4024739324827
 10
53.81997068967001
 20
-103.3625108248538
 10
53.81997068967001
 20
-103.3625108248538
 10
53.96638724779313
 20
-103.5209852171753
 10
53.96638724779313
 20
-103.5209852171753
 10
53.83306205251396
 20
-103.592987712817
 10
53.70714381252808
 20
-103.7559407292694
 10
53.65529512547507
 20
-103.8255316580714
 97
        0
 97
        0
 75
     2
 76
     1
 98
        0
  0
SPLINE
  5
8C
330
50
100
AcDbEntity
  8
_U+30EC_U+30A4_U+30E4_U+30FC 1
370
     0
100
AcDbSpline
210
0.0
220
0.0
230
1.0
 70
    11
 71
     3
 72
    29
 73
    25
 74
     0
 42
0.0000000001
 43
0.0000000001
 12
1.0
 22
0.0
 32
0.0
 13
1.0
 23
0.0
 33
0.0
 40
0.0
 40
0.0
 40
0.0
 40
0.0
 40
1.0
 40
1.0
 40
1.0
 40
2.0
 40
2.0
 40
2.0
 40
3.0
 40
3.0
 40
3.0
 40
4.0
 40
4.0
 40
4.0
 40
5.0
 40
5.0
 40
5.0
 40
6.0
 40
6.0
 40
6.0
 40
7.0
 40
7.0
 40
7.0
 40
8.0
 40
8.0
 40
8.0
 40
8.0
 10
55.07760279656046
 20
-104.06875539933
 30
0.0
 10
55.07760279656046
 20
-104.06875539933
 30
0.0
 10
54.65351154232621
 20
-104.06875539933
 30
0.0
 10
54.65351154232621
 20
-104.06875539933
 30
0.0
 10
54.62939587392946
 20
-104.06875539933
 30
0.0
 10
54.35172117781832
 20
-104.06875539933
 30
0.0
 10
54.16654729548614
 20
-104.0942491059209
 30
0.0
 10
54.16654729548614
 20
-104.0942491059209
 30
0.0
 10
54.16654729548614
 20
-103.8637722179577
 30
0.0
 10
54.16654729548614
 20
-103.8637722179577
 30
0.0
 10
54.30538464354171
 20
-103.8868543577088
 30
0.0
 10
54.4721272650278
 20
-103.8892659245485
 30
0.0
 10
54.65351154232621
 20
-103.8892659245485
 30
0.0
 10
54.65351154232621
 20
-103.8892659245485
 30
0.0
 10
55.07760279656046
 20
-103.8892659245485
 30
0.0
 10
55.07760279656046
 20
-103.8892659245485
 30
0.0
 10
55.24055581301278
 20
-103.8892659245485
 30
0.0
 10
55.4035088294651
 20
-103.8868543577088
 30
0.0
 10
55.56456704340053
 20
-103.8637722179577
 30
0.0
 10
55.56456704340053
 20
-103.8637722179577
 30
0.0
 10
55.56456704340053
 20
-104.0942491059209
 30
0.0
 10
55.56456704340053
 20
-104.0942491059209
 30
0.0
 10
55.4035088294651
 20
-104.0711669661697
 30
0.0
 10
55.18681232344288
 20
-104.06875539933
 30
0.0
 10
55.07760279656046
 20
-104.06875539933
 30
0.0
  0
HATCH
  5
8D
330
50
100
AcDbEntity
  8
_U+30EC_U+30A4_U+30E4_U+30FC 1
 62
   179
420
  2234388
100
AcDbHatch
 10
0.0
 20
0.0
 30
0.0
210
0.0
220
0.0
230
1.0
  2
SOLID
 70
     1
 71
     0
 91
        1
 92
        1
 93
        1
 72
     4
 94
        3
 73
     0
 74
     1
 95
       29
 96
       25
 40
0.0
 40
0.0
 40
0.0
 40
0.0
 40
1.0
 40
1.0
 40
1.0
 40
2.0
 40
2.0
 40
2.0
 40
3.0
 40
3.0
 40
3.0
 40
4.0
 40
4.0
 40
4.0
 40
5.0
 40
5.0
 40
5.0
 40
6.0
 40
6.0
 40
6.0
 40
7.0
 40
7.0
 40
7.0
 40
8.0
 40
8.0
 40
8.0
 40
8.0
 10
55.07760279656046
 20
-104.06875539933
 10
55.07760279656046
 20
-104.06875539933
 10
54.65351154232621
 20
-104.06875539933
 10
54.65351154232621
 20
-104.06875539933
 10
54.62939587392946
 20
-104.06875539933
 10
54.35172117781832
 20
-104.06875539933
 10
54.16654729548614
 20
-104.0942491059209
 10
54.16654729548614
 20
-104.0942491059209
 10
54.16654729548614
 20
-103.8637722179577
 10
54.16654729548614
 20
-103.8637722179577
 10
54.30538464354171
 20
-103.8868543577088
 10
54.4721272650278
 20
-103.8892659245485
 10
54.65351154232621
 20
-103.8892659245485
 10
54.65351154232621
 20
-103.8892659245485
 10
55.07760279656046
 20
-103.8892659245485
 10
55.07760279656046
 20
-103.8892659245485
 10
55.24055581301278
 20
-103.8892659245485
 10
55.4035088294651
 20
-103.8868543577088
 10
55.56456704340053
 20
-103.8637722179577
 10
55.56456704340053
 20
-103.8637722179577
 10
55.56456704340053
 20
-104.0942491059209
 10
55.56456704340053
 20
-104.0942491059209
 10
55.4035088294651
 20
-104.0711669661697
 10
55.18681232344288
 20
-104.06875539933
 10
55.07760279656046
 20
-104.06875539933
 97
        0
 97
        0
 75
     2
 76
     1
 98
        0
  0
ENDBLK
  5
53
330
50
100
AcDbEntity
  8
0
100
AcDbBlockEnd
  0
BLOCK
  5
E6
330
E4
100
AcDbEntity
  8
0
100
AcDbBlockBegin
  2
block 3
 70
     0
 10
0.0
 20
0.0
 30
0.0
  3
block 3
  1

  0
SPLINE
  5
E8
330
E4
100
AcDbEntity
  8
_U+30EC_U+30A4_U+30E4_U+30FC 1
370
     0
100
AcDbSpline
210
0.0
220
0.0
230
1.0
 70
    11
 71
     3
 72
    26
 73
    22
 74
     0
 42
0.0000000001
 43
0.0000000001
 12
1.0
 22
0.0
 32
0.0
 13
1.0
 23
0.0
 33
0.0
 40
0.0
 40
0.0
 40
0.0
 40
0.0
 40
1.0
 40
1.0
 40
1.0
 40
2.0
 40
2.0
 40
2.0
 40
3.0
 40
3.0
 40
3.0
 40
4.0
 40
4.0
 40
4.0
 40
5.0
 40
5.0
 40
5.0
 40
6.0
 40
6.0
 40
6.0
 40
7.0
 40
7.0
 40
7.0
 40
7.0
 10
82.72569984911024
 20
-78.12460257378483
 30
0.0
 10
82.72569984911024
 20
-78.12460257378483
 30
0.0
 10
81.62154674608767
 20
-78.12460257378483
 30
0.0
 10
81.62154674608767
 20
-78.12460257378483
 30
0.0
 10
81.62154674608767
 20
-78.12460257378483
 30
0.0
 10
81.62154674608767
 20
-78.47738035147441
 30
0.0
 10
81.62154674608767
 20
-78.47738035147441
 30
0.0
 10
81.62154674608767
 20
-78.47738035147441
 30
0.0
 10
81.47340764022194
 20
-78.47738035147441
 30
0.0
 10
81.47340764022194
 20
-78.47738035147441
 30
0.0
 10
81.45859372963535
 20
-78.12236326171941
 30
0.0
 10
81.29564071318303
 20
-78.07258163195755
 30
0.0
 10
81.18126354307275
 20
-78.04105900826751
 30
0.0
 10
81.18126354307275
 20
-78.04105900826751
 30
0.0
 10
81.18126354307275
 20
-77.8849961827857
 30
0.0
 10
81.18126354307275
 20
-77.8849961827857
 30
0.0
 10
81.18126354307275
 20
-77.8849961827857
 30
0.0
 10
82.72569984911024
 20
-77.8849961827857
 30
0.0
 10
82.72569984911024
 20
-77.8849961827857
 30
0.0
 10
82.72569984911024
 20
-77.8849961827857
 30
0.0
 10
82.72569984911024
 20
-78.12460257378483
 30
0.0
 10
82.72569984911024
 20
-78.12460257378483
 30
0.0
  0
HATCH
  5
E9
330
E4
100
AcDbEntity
  8
_U+30EC_U+30A4_U+30E4_U+30FC 1
 62
   179
420
  2234388
100
AcDbHatch
 10
0.0
 20
0.0
 30
0.0
210
0.0
220
0.0
230
1.0
  2
SOLID
 70
     1
 71
     0
 91
        1
 92
        1
 93
        1
 72
     4
 94
        3
 73
     0
 74
     1
 95
       26
 96
       22
 40
0.0
 40
0.0
 40
0.0
 40
0.0
 40
1.0
 40
1.0
 40
1.0
 40
2.0
 40
2.0
 40
2.0
 40
3.0
 40
3.0
 40
3.0
 40
4.0
 40
4.0
 40
4.0
 40
5.0
 40
5.0
 40
5.0
 40
6.0
 40
6.0
 40
6.0
 40
7.0
 40
7.0
 40
7.0
 40
7.0
 10
82.72569984911024
 20
-78.12460257378483
 10
82.72569984911024
 20
-78.12460257378483
 10
81.62154674608767
 20
-78.12460257378483
 10
81.62154674608767
 20
-78.12460257378483
 10
81.62154674608767
 20
-78.12460257378483
 10
81.62154674608767
 20
-78.47738035147441
 10
81.62154674608767
 20
-78.47738035147441
 10
81.62154674608767
 20
-78.47738035147441
 10
81.47340764022194
 20
-78.47738035147441
 10
81.47340764022194
 20
-78.47738035147441
 10
81.45859372963535
 20
-78.12236326171941
 10
81.29564071318303
 20
-78.07258163195755
 10
81.18126354307275
 20
-78.04105900826751
 10
81.18126354307275
 20
-78.04105900826751
 10
81.18126354307275
 20
-77.8849961827857
 10
81.18126354307275
 20
-77.8849961827857
 10
81.18126354307275
 20
-77.8849961827857
 10
82.72569984911024
 20
-77.8849961827857
 10
82.72569984911024
 20
-77.8849961827857
 10
82.72569984911024
 20
-77.8849961827857
 10
82.72569984911024
 20
-78.12460257378483
 10
82.72569984911024
 20
-78.12460257378483
 97
        0
 97
        0
 75
     2
 76
     1
 98
        0
  0
ENDBLK
  5
E7
330
E4
100
AcDbEntity
  8
0
100
AcDbBlockEnd
  0
BLOCK
  5
FC
330
FA
100
AcDbEntity
  8
0
100
AcDbBlockBegin
  2
block 4
 70
     0
 10
0.0
 20
0.0
 30
0.0
  3
block 4
  1

  0
SPLINE
  5
FE
330
FA
100
AcDbEntity
  8
_U+30EC_U+30A4_U+30E4_U+30FC 1
370
     0
100
AcDbSpline
210
0.0
220
0.0
230
1.0
 70
    11
 71
     3
 72
    29
 73
    25
 74
     0
 42
0.0000000001
 43
0.0000000001
 12
1.0
 22
0.0
 32
0.0
 13
1.0
 23
0.0
 33
0.0
 40
0.0
 40
0.0
 40
0.0
 40
0.0
 40
1.0
 40
1.0
 40
1.0
 40
2.0
 40
2.0
 40
2.0
 40
3.0
 40
3.0
 40
3.0
 40
4.0
 40
4.0
 40
4.0
 40
5.0
 40
5.0
 40
5.0
 40
6.0
 40
6.0
 40
6.0
 40
7.0
 40
7.0
 40
7.0
 40
8.0
 40
8.0
 40
8.0
 40
8.0
 10
68.54740937956454
 20
-92.96073402623898
 30
0.0
 10
68.75687118506772
 20
-93.07614472499486
 30
0.0
 10
68.7758192102366
 20
-93.2614908621013
 30
0.0
 10
68.7758192102366
 20
-93.38551429957029
 30
0.0
 10
68.7758192102366
 20
-93.55776907383279
 30
0.0
 10
68.72931042118573
 20
-93.70900876563525
 30
0.0
 10
68.54740937956454
 20
-93.81063908245012
 30
0.0
 10
68.35276148464793
 20
-93.92157115707516
 30
0.0
 10
68.11573891526274
 20
-93.94189722043814
 30
0.0
 10
67.95313040835894
 20
-93.94189722043814
 30
0.0
 10
67.8091254170755
 20
-93.94189722043814
 30
0.0
 10
67.55728893710373
 20
-93.92363821436632
 30
0.0
 10
67.35850692760482
 20
-93.81063908245012
 30
0.0
 10
67.15559080352361
 20
-93.69557289324278
 30
0.0
 10
67.1321641542239
 20
-93.52366262852881
 30
0.0
 10
67.1321641542239
 20
-93.38551429957029
 30
0.0
 10
67.1321641542239
 20
-93.216015601696
 30
0.0
 10
67.17660588598363
 20
-93.06236434305386
 30
0.0
 10
67.35850692760482
 20
-92.96073402623898
 30
0.0
 10
67.55108776523029
 20
-92.85428057574477
 30
0.0
 10
67.77949759590236
 20
-92.82947588825097
 30
0.0
 10
67.95313040835894
 20
-92.82947588825097
 30
0.0
 10
68.12435165397586
 20
-92.82947588825097
 30
0.0
 10
68.35482854193907
 20
-92.85221351845362
 30
0.0
 10
68.54740937956454
 20
-92.96073402623898
 30
0.0
  0
SPLINE
  5
FF
330
FA
100
AcDbEntity
  8
_U+30EC_U+30A4_U+30E4_U+30FC 1
370
     0
100
AcDbSpline
210
0.0
220
0.0
230
1.0
 70
    11
 71
     3
 72
    17
 73
    13
 74
     0
 42
0.0000000001
 43
0.0000000001
 12
1.0
 22
0.0
 32
0.0
 13
1.0
 23
0.0
 33
0.0
 40
0.0
 40
0.0
 40
0.0
 40
0.0
 40
1.0
 40
1.0
 40
1.0
 40
2.0
 40
2.0
 40
2.0
 40
3.0
 40
3.0
 40
3.0
 40
4.0
 40
4.0
 40
4.0
 40
4.0
 10
67.32474499184937
 20
-93.38551429957029
 30
0.0
 10
67.32474499184937
 20
-93.65250919967716
 30
0.0
 10
67.60827635028544
 20
-93.70246308421328
 30
0.0
 10
67.95313040835894
 20
-93.70246308421328
 30
0.0
 10
68.2724907598416
 20
-93.70246308421328
 30
0.0
 10
68.58117131531999
 20
-93.66387801477848
 30
0.0
 10
68.58117131531999
 20
-93.38551429957029
 30
0.0
 10
68.58117131531999
 20
-93.12127547585163
 30
0.0
 10
68.3000515237236
 20
-93.06925453402435
 30
0.0
 10
67.95313040835894
 20
-93.06925453402435
 30
0.0
 10
67.63342554732776
 20
-93.06925453402435
 30
0.0
 10
67.32474499184937
 20
-93.10990666075031
 30
0.0
 10
67.32474499184937
 20
-93.38551429957029
 30
0.0
  0
HATCH
  5
100
330
FA
100
AcDbEntity
  8
_U+30EC_U+30A4_U+30E4_U+30FC 1
 62
   179
420
  2234388
100
AcDbHatch
 10
0.0
 20
0.0
 30
0.0
210
0.0
220
0.0
230
1.0
  2
SOLID
 70
     1
 71
     0
 91
        2
 92
        1
 93
        1
 72
     4
 94
        3
 73
     0
 74
     1
 95
       29
 96
       25
 40
0.0
 40
0.0
 40
0.0
 40
0.0
 40
1.0
 40
1.0
 40
1.0
 40
2.0
 40
2.0
 40
2.0
 40
3.0
 40
3.0
 40
3.0
 40
4.0
 40
4.0
 40
4.0
 40
5.0
 40
5.0
 40
5.0
 40
6.0
 40
6.0
 40
6.0
 40
7.0
 40
7.0
 40
7.0
 40
8.0
 40
8.0
 40
8.0
 40
8.0
 10
68.54740937956454
 20
-92.96073402623898
 10
68.75687118506772
 20
-93.07614472499486
 10
68.7758192102366
 20
-93.2614908621013
 10
68.7758192102366
 20
-93.38551429957029
 10
68.7758192102366
 20
-93.55776907383279
 10
68.72931042118573
 20
-93.70900876563525
 10
68.54740937956454
 20
-93.81063908245012
 10
68.35276148464793
 20
-93.92157115707516
 10
68.11573891526274
 20
-93.94189722043814
 10
67.95313040835894
 20
-93.94189722043814
 10
67.8091254170755
 20
-93.94189722043814
 10
67.55728893710373
 20
-93.92363821436632
 10
67.35850692760482
 20
-93.81063908245012
 10
67.15559080352361
 20
-93.69557289324278
 10
67.1321641542239
 20
-93.52366262852881
 10
67.1321641542239
 20
-93.38551429957029
 10
67.1321641542239
 20
-93.216015601696
 10
67.17660588598363
 20
-93.06236434305386
 10
67.35850692760482
 20
-92.96073402623898
 10
67.55108776523029
 20
-92.85428057574477
 10
67.77949759590236
 20
-92.82947588825097
 10
67.95313040835894
 20
-92.82947588825097
 10
68.12435165397586
 20
-92.82947588825097
 10
68.35482854193907
 20
-92.85221351845362
 10
68.54740937956454
 20
-92.96073402623898
 97
        0
 97
        0
 92
        1
 93
        1
 72
     4
 94
        3
 73
     0
 74
     1
 95
       17
 96
       13
 40
0.0
 40
0.0
 40
0.0
 40
0.0
 40
1.0
 40
1.0
 40
1.0
 40
2.0
 40
2.0
 40
2.0
 40
3.0
 40
3.0
 40
3.0
 40
4.0
 40
4.0
 40
4.0
 40
4.0
 10
67.32474499184937
 20
-93.38551429957029
 10
67.32474499184937
 20
-93.65250919967716
 10
67.60827635028544
 20
-93.70246308421328
 10
67.95313040835894
 20
-93.70246308421328
 10
68.2724907598416
 20
-93.70246308421328
 10
68.58117131531999
 20
-93.66387801477848
 10
68.58117131531999
 20
-93.38551429957029
 10
68.58117131531999
 20
-93.12127547585163
 10
68.3000515237236
 20
-93.06925453402435
 10
67.95313040835894
 20
-93.06925453402435
 10
67.63342554732776
 20
-93.06925453402435
 10
67.32474499184937
 20
-93.10990666075031
 10
67.32474499184937
 20
-93.38551429957029
 97
        0
 97
        0
 75
     2
 76
     1
 98
        0
  0
POLYLINE
  5
101
330
FA
100
AcDbEntity
  8
_U+30EC_U+30A4_U+30E4_U+30FC 1
370
     0
100
AcDb2dPolyline
 66
     1
 10
0.0
 20
0.0
 30
0.0
  0
VERTEX
  5
102
330
101
100
AcDbEntity
  8
_U+30EC_U+30A4_U+30E4_U+30FC 1
370
     0
100
AcDbVertex
100
AcDb2dVertex
 10
68.72517630660343
 20
-92.59796547164218
 30
0.0
  0
VERTEX
  5
103
330
101
100
AcDbEntity
  8
_U+30EC_U+30A4_U+30E4_U+30FC 1
370
     0
100
AcDbVertex
100
AcDb2dVertex
 10
68.47333982663167
 20
-92.59796547164218
 30
0.0
  0
VERTEX
  5
104
330
101
100
AcDbEntity
  8
_U+30EC_U+30A4_U+30E4_U+30FC 1
370
     0
100
AcDbVertex
100
AcDb2dVertex
 10
68.47333982663167
 20
-92.32924802379269
 30
0.0
  0
VERTEX
  5
105
330
101
100
AcDbEntity
  8
_U+30EC_U+30A4_U+30E4_U+30FC 1
370
     0
100
AcDbVertex
100
AcDb2dVertex
 10
68.72517630660343
 20
-92.32924802379269
 30
0.0
  0
VERTEX
  5
106
330
101
100
AcDbEntity
  8
_U+30EC_U+30A4_U+30E4_U+30FC 1
370
     0
100
AcDbVertex
100
AcDb2dVertex
 10
68.72517630660343
 20
-92.59796547164218
 30
0.0
  0
SEQEND
  5
107
330
101
100
AcDbEntity
  8
_U+30EC_U+30A4_U+30E4_U+30FC 1
370
     0
  0
HATCH
  5
108
330
FA
100
AcDbEntity
  8
_U+30EC_U+30A4_U+30E4_U+30FC 1
 62
   179
420
  2234388
100
AcDbHatch
 10
0.0
 20
0.0
 30
0.0
210
0.0
220
0.0
230
1.0
  2
SOLID
 70
     1
 71
     0
 91
        1
 92
        1
 93
        4
 72
     1
 10
68.72517630660343
 20
-92.59796547164218
 11
68.47333982663167
 21
-92.59796547164218
 72
     1
 10
68.47333982663167
 20
-92.59796547164218
 11
68.47333982663167
 21
-92.32924802379269
 72
     1
 10
68.47333982663167
 20
-92.32924802379269
 11
68.72517630660343
 21
-92.32924802379269
 72
     1
 10
68.72517630660343
 20
-92.32924802379269
 11
68.72517630660343
 21
-92.59796547164218
 97
        0
 75
     2
 76
     1
 98
        0
  0
SPLINE
  5
109
330
FA
100
AcDbEntity
  8
_U+30EC_U+30A4_U+30E4_U+30FC 1
370
     0
100
AcDbSpline
210
0.0
220
0.0
230
1.0
 70
    11
 71
     3
 72
    53
 73
    49
 74
     0
 42
0.0000000001
 43
0.0000000001
 12
1.0
 22
0.0
 32
0.0
 13
1.0
 23
0.0
 33
0.0
 40
0.0
 40
0.0
 40
0.0
 40
0.0
 40
1.0
 40
1.0
 40
1.0
 40
2.0
 40
2.0
 40
2.0
 40
3.0
 40
3.0
 40
3.0
 40
4.0
 40
4.0
 40
4.0
 40
5.0
 40
5.0
 40
5.0
 40
6.0
 40
6.0
 40
6.0
 40
7.0
 40
7.0
 40
7.0
 40
8.0
 40
8.0
 40
8.0
 40
9.0
 40
9.0
 40
9.0
 40
10.0
 40
10.0
 40
10.0
 40
11.0
 40
11.0
 40
11.0
 40
12.0
 40
12.0
 40
12.0
 40
13.0
 40
13.0
 40
13.0
 40
14.0
 40
14.0
 40
14.0
 40
15.0
 40
15.0
 40
15.0
 40
16.0
 40
16.0
 40
16.0
 40
16.0
 10
68.7758192102366
 20
-91.56236976877608
 30
0.0
 10
68.7758192102366
 20
-91.64608558906765
 30
0.0
 10
68.75893824235888
 20
-91.75460609685302
 30
0.0
 10
68.69554848543028
 20
-91.8631266046384
 30
0.0
 10
68.58564993945082
 20
-92.04847274174483
 30
0.0
 10
68.45439180146279
 20
-92.07121037194747
 30
0.0
 10
68.34656031277447
 20
-92.09153643531046
 30
0.0
 10
68.34656031277447
 20
-92.09153643531046
 30
0.0
 10
68.34656031277447
 20
-91.85416935637674
 30
0.0
 10
68.34656031277447
 20
-91.85416935637674
 30
0.0
 10
68.54534232227338
 20
-91.79525822357897
 30
0.0
 10
68.57497014344654
 20
-91.65952146146013
 30
0.0
 10
68.57497014344654
 20
-91.56030271148492
 30
0.0
 10
68.57497014344654
 20
-91.41078556742508
 30
0.0
 10
68.47540688392282
 20
-91.2481770605213
 30
0.0
 10
68.24286293866845
 20
-91.2481770605213
 30
0.0
 10
67.9868923441144
 20
-91.2481770605213
 30
0.0
 10
67.91695690576383
 20
-91.44041338859823
 30
0.0
 10
67.91695690576383
 20
-91.56925995974657
 30
0.0
 10
67.91695690576383
 20
-91.60302189550202
 30
0.0
 10
67.91695690576383
 20
-91.75460609685302
 30
0.0
 10
68.04614798646068
 20
-91.84969073224592
 30
0.0
 10
68.04614798646068
 20
-91.84969073224592
 30
0.0
 10
68.02719996129181
 20
-92.03710392664351
 30
0.0
 10
68.02719996129181
 20
-92.03710392664351
 30
0.0
 10
68.02719996129181
 20
-92.03710392664351
 30
0.0
 10
67.18074000056593
 20
-91.90825735549517
 30
0.0
 10
67.18074000056593
 20
-91.90825735549517
 30
0.0
 10
67.18074000056593
 20
-91.90825735549517
 30
0.0
 10
67.18074000056593
 20
-91.07626679580733
 30
0.0
 10
67.18074000056593
 20
-91.07626679580733
 30
0.0
 10
67.18074000056593
 20
-91.07626679580733
 30
0.0
 10
67.37538789548255
 20
-91.07626679580733
 30
0.0
 10
67.37538789548255
 20
-91.07626679580733
 30
0.0
 10
67.37538789548255
 20
-91.07626679580733
 30
0.0
 10
67.37538789548255
 20
-91.73428003349005
 30
0.0
 10
67.37538789548255
 20
-91.73428003349005
 30
0.0
 10
67.37538789548255
 20
-91.73428003349005
 30
0.0
 10
67.79844562107122
 20
-91.80421547184062
 30
0.0
 10
67.79844562107122
 20
-91.80421547184062
 30
0.0
 10
67.76468368531577
 20
-91.73875865762086
 30
0.0
 10
67.72437606813835
 20
-91.65056421319848
 30
0.0
 10
67.72437606813835
 20
-91.52378469934128
 30
0.0
 10
67.72437606813835
 20
-91.25265568465211
 30
0.0
 10
67.91075573389037
 20
-90.99944116648625
 30
0.0
 10
68.22391491349958
 20
-90.99944116648625
 30
0.0
 10
68.54120820769108
 20
-90.99944116648625
 30
0.0
 10
68.7758192102366
 20
-91.23921981225965
 30
0.0
 10
68.7758192102366
 20
-91.56236976877608
 30
0.0
  0
HATCH
  5
10A
330
FA
100
AcDbEntity
  8
_U+30EC_U+30A4_U+30E4_U+30FC 1
 62
   179
420
  2234388
100
AcDbHatch
 10
0.0
 20
0.0
 30
0.0
210
0.0
220
0.0
230
1.0
  2
SOLID
 70
     1
 71
     0
 91
        1
 92
        1
 93
        1
 72
     4
 94
        3
 73
     0
 74
     1
 95
       53
 96
       49
 40
0.0
 40
0.0
 40
0.0
 40
0.0
 40
1.0
 40
1.0
 40
1.0
 40
2.0
 40
2.0
 40
2.0
 40
3.0
 40
3.0
 40
3.0
 40
4.0
 40
4.0
 40
4.0
 40
5.0
 40
5.0
 40
5.0
 40
6.0
 40
6.0
 40
6.0
 40
7.0
 40
7.0
 40
7.0
 40
8.0
 40
8.0
 40
8.0
 40
9.0
 40
9.0
 40
9.0
 40
10.0
 40
10.0
 40
10.0
 40
11.0
 40
11.0
 40
11.0
 40
12.0
 40
12.0
 40
12.0
 40
13.0
 40
13.0
 40
13.0
 40
14.0
 40
14.0
 40
14.0
 40
15.0
 40
15.0
 40
15.0
 40
16.0
 40
16.0
 40
16.0
 40
16.0
 10
68.7758192102366
 20
-91.56236976877608
 10
68.7758192102366
 20
-91.64608558906765
 10
68.75893824235888
 20
-91.75460609685302
 10
68.69554848543028
 20
-91.8631266046384
 10
68.58564993945082
 20
-92.04847274174483
 10
68.45439180146279
 20
-92.07121037194747
 10
68.34656031277447
 20
-92.09153643531046
 10
68.34656031277447
 20
-92.09153643531046
 10
68.34656031277447
 20
-91.85416935637674
 10
68.34656031277447
 20
-91.85416935637674
 10
68.54534232227338
 20
-91.79525822357897
 10
68.57497014344654
 20
-91.65952146146013
 10
68.57497014344654
 20
-91.56030271148492
 10
68.57497014344654
 20
-91.41078556742508
 10
68.47540688392282
 20
-91.2481770605213
 10
68.24286293866845
 20
-91.2481770605213
 10
67.9868923441144
 20
-91.2481770605213
 10
67.91695690576383
 20
-91.44041338859823
 10
67.91695690576383
 20
-91.56925995974657
 10
67.91695690576383
 20
-91.60302189550202
 10
67.91695690576383
 20
-91.75460609685302
 10
68.04614798646068
 20
-91.84969073224592
 10
68.04614798646068
 20
-91.84969073224592
 10
68.02719996129181
 20
-92.03710392664351
 10
68.02719996129181
 20
-92.03710392664351
 10
68.02719996129181
 20
-92.03710392664351
 10
67.18074000056593
 20
-91.90825735549517
 10
67.18074000056593
 20
-91.90825735549517
 10
67.18074000056593
 20
-91.90825735549517
 10
67.18074000056593
 20
-91.07626679580733
 10
67.18074000056593
 20
-91.07626679580733
 10
67.18074000056593
 20
-91.07626679580733
 10
67.37538789548255
 20
-91.07626679580733
 10
67.37538789548255
 20
-91.07626679580733
 10
67.37538789548255
 20
-91.07626679580733
 10
67.37538789548255
 20
-91.73428003349005
 10
67.37538789548255
 20
-91.73428003349005
 10
67.37538789548255
 20
-91.73428003349005
 10
67.79844562107122
 20
-91.80421547184062
 10
67.79844562107122
 20
-91.80421547184062
 10
67.76468368531577
 20
-91.73875865762086
 10
67.72437606813835
 20
-91.65056421319848
 10
67.72437606813835
 20
-91.52378469934128
 10
67.72437606813835
 20
-91.25265568465211
 10
67.91075573389037
 20
-90.99944116648625
 10
68.22391491349958
 20
-90.99944116648625
 10
68.54120820769108
 20
-90.99944116648625
 10
68.7758192102366
 20
-91.23921981225965
 10
68.7758192102366
 20
-91.56236976877608
 97
        0
 97
        0
 75
     2
 76
     1
 98
        0
  0
ENDBLK
  5
FD
330
FA
100
AcDbEntity
  8
0
100
AcDbBlockEnd
  0
BLOCK
  5
119
330
117
100
AcDbEntity
  8
0
100
AcDbBlockBegin
  2
block 5
 70
     0
 10
0.0
 20
0.0
 30
0.0
  3
block 5
  1

  0
SPLINE
  5
11B
330
117
100
AcDbEntity
  8
_U+30EC_U+30A4_U+30E4_U+30FC 1
370
     0
100
AcDbSpline
210
0.0
220
0.0
230
1.0
 70
    11
 71
     3
 72
    26
 73
    22
 74
     0
 42
0.0000000001
 43
0.0000000001
 12
1.0
 22
0.0
 32
0.0
 13
1.0
 23
0.0
 33
0.0
 40
0.0
 40
0.0
 40
0.0
 40
0.0
 40
1.0
 40
1.0
 40
1.0
 40
2.0
 40
2.0
 40
2.0
 40
3.0
 40
3.0
 40
3.0
 40
4.0
 40
4.0
 40
4.0
 40
5.0
 40
5.0
 40
5.0
 40
6.0
 40
6.0
 40
6.0
 40
7.0
 40
7.0
 40
7.0
 40
7.0
 10
59.57224662139166
 20
-98.9951632782026
 30
0.0
 10
59.57224662139166
 20
-98.9951632782026
 30
0.0
 10
59.57224662139166
 20
-97.89101017518003
 30
0.0
 10
59.57224662139166
 20
-97.89101017518003
 30
0.0
 10
59.57224662139166
 20
-97.89101017518003
 30
0.0
 10
59.21946884370208
 20
-97.89101017518003
 30
0.0
 10
59.21946884370208
 20
-97.89101017518003
 30
0.0
 10
59.21946884370208
 20
-97.89101017518003
 30
0.0
 10
59.21946884370208
 20
-97.74287106931429
 30
0.0
 10
59.21946884370208
 20
-97.74287106931429
 30
0.0
 10
59.57448593345708
 20
-97.72805715872771
 30
0.0
 10
59.62426756321894
 20
-97.5651041422754
 30
0.0
 10
59.65579018690897
 20
-97.4507269721651
 30
0.0
 10
59.65579018690897
 20
-97.4507269721651
 30
0.0
 10
59.81185301239079
 20
-97.4507269721651
 30
0.0
 10
59.81185301239079
 20
-97.4507269721651
 30
0.0
 10
59.81185301239079
 20
-97.4507269721651
 30
0.0
 10
59.81185301239079
 20
-98.9951632782026
 30
0.0
 10
59.81185301239079
 20
-98.9951632782026
 30
0.0
 10
59.81185301239079
 20
-98.9951632782026
 30
0.0
 10
59.57224662139166
 20
-98.9951632782026
 30
0.0
 10
59.57224662139166
 20
-98.9951632782026
 30
0.0
  0
HATCH
  5
11C
330
117
100
AcDbEntity
  8
_U+30EC_U+30A4_U+30E4_U+30FC 1
 62
   179
420
  2234388
100
AcDbHatch
 10
0.0
 20
0.0
 30
0.0
210
0.0
220
0.0
230
1.0
  2
SOLID
 70
     1
 71
     0
 91
        1
 92
        1
 93
        1
 72
     4
 94
        3
 73
     0
 74
     1
 95
       26
 96
       22
 40
0.0
 40
0.0
 40
0.0
 40
0.0
 40
1.0
 40
1.0
 40
1.0
 40
2.0
 40
2.0
 40
2.0
 40
3.0
 40
3.0
 40
3.0
 40
4.0
 40
4.0
 40
4.0
 40
5.0
 40
5.0
 40
5.0
 40
6.0
 40
6.0
 40
6.0
 40
7.0
 40
7.0
 40
7.0
 40
7.0
 10
59.57224662139166
 20
-98.9951632782026
 10
59.57224662139166
 20
-98.9951632782026
 10
59.57224662139166
 20
-97.89101017518003
 10
59.57224662139166
 20
-97.89101017518003
 10
59.57224662139166
 20
-97.89101017518003
 10
59.21946884370208
 20
-97.89101017518003
 10
59.21946884370208
 20
-97.89101017518003
 10
59.21946884370208
 20
-97.89101017518003
 10
59.21946884370208
 20
-97.74287106931429
 10
59.21946884370208
 20
-97.74287106931429
 10
59.57448593345708
 20
-97.72805715872771
 10
59.62426756321894
 20
-97.5651041422754
 10
59.65579018690897
 20
-97.4507269721651
 10
59.65579018690897
 20
-97.4507269721651
 10
59.81185301239079
 20
-97.4507269721651
 10
59.81185301239079
 20
-97.4507269721651
 10
59.81185301239079
 20
-97.4507269721651
 10
59.81185301239079
 20
-98.9951632782026
 10
59.81185301239079
 20
-98.9951632782026
 10
59.81185301239079
 20
-98.9951632782026
 10
59.57224662139166
 20
-98.9951632782026
 10
59.57224662139166
 20
-98.9951632782026
 97
        0
 97
        0
 75
     2
 76
     1
 98
        0
  0
SPLINE
  5
11D
330
117
100
AcDbEntity
  8
_U+30EC_U+30A4_U+30E4_U+30FC 1
370
     0
100
AcDbSpline
210
0.0
220
0.0
230
1.0
 70
    11
 71
     3
 72
    29
 73
    25
 74
     0
 42
0.0000000001
 43
0.0000000001
 12
1.0
 22
0.0
 32
0.0
 13
1.0
 23
0.0
 33
0.0
 40
0.0
 40
0.0
 40
0.0
 40
0.0
 40
1.0
 40
1.0
 40
1.0
 40
2.0
 40
2.0
 40
2.0
 40
3.0
 40
3.0
 40
3.0
 40
4.0
 40
4.0
 40
4.0
 40
5.0
 40
5.0
 40
5.0
 40
6.0
 40
6.0
 40
6.0
 40
7.0
 40
7.0
 40
7.0
 40
8.0
 40
8.0
 40
8.0
 40
8.0
 10
61.30702445298922
 20
-98.81739635116371
 30
0.0
 10
61.19178600900761
 20
-99.0268581566669
 30
0.0
 10
61.00643987190117
 20
-99.04580618183577
 30
0.0
 10
60.88207192488365
 20
-99.04580618183577
 30
0.0
 10
60.71016166016968
 20
-99.04580618183577
 30
0.0
 10
60.55874971359295
 20
-98.9992973927849
 30
0.0
 10
60.45694714200382
 20
-98.81739635116371
 30
0.0
 10
60.34618732215304
 20
-98.6227484562471
 30
0.0
 10
60.32586125879006
 20
-98.38607039641043
 30
0.0
 10
60.32586125879006
 20
-98.22311737995811
 30
0.0
 10
60.32586125879006
 20
-98.07911238867467
 30
0.0
 10
60.34394801008763
 20
-97.8272759087029
 30
0.0
 10
60.45694714200382
 20
-97.62849389920399
 30
0.0
 10
60.57235784075969
 20
-97.42557777512278
 30
0.0
 10
60.7440958506994
 20
-97.40215112582308
 30
0.0
 10
60.88207192488365
 20
-97.40215112582308
 30
0.0
 10
61.05157062275794
 20
-97.40215112582308
 30
0.0
 10
61.20539413617435
 20
-97.4465928575828
 30
0.0
 10
61.30702445298922
 20
-97.62849389920399
 30
0.0
 10
61.41330564870918
 20
-97.82107473682946
 30
0.0
 10
61.43828259097724
 20
-98.04948456750152
 30
0.0
 10
61.43828259097724
 20
-98.22311737995811
 30
0.0
 10
61.43828259097724
 20
-98.39433862557503
 30
0.0
 10
61.41554496077459
 20
-98.62481551353825
 30
0.0
 10
61.30702445298922
 20
-98.81739635116371
 30
0.0
  0
SPLINE
  5
11E
330
117
100
AcDbEntity
  8
_U+30EC_U+30A4_U+30E4_U+30FC 1
370
     0
100
AcDbSpline
210
0.0
220
0.0
230
1.0
 70
    11
 71
     3
 72
    17
 73
    13
 74
     0
 42
0.0000000001
 43
0.0000000001
 12
1.0
 22
0.0
 32
0.0
 13
1.0
 23
0.0
 33
0.0
 40
0.0
 40
0.0
 40
0.0
 40
0.0
 40
1.0
 40
1.0
 40
1.0
 40
2.0
 40
2.0
 40
2.0
 40
3.0
 40
3.0
 40
3.0
 40
4.0
 40
4.0
 40
4.0
 40
4.0
 10
60.88207192488365
 20
-97.59473196344854
 30
0.0
 10
60.61524927955105
 20
-97.59473196344854
 30
0.0
 10
60.56546764978919
 20
-97.8782633218846
 30
0.0
 10
60.56546764978919
 20
-98.22311737995811
 30
0.0
 10
60.56546764978919
 20
-98.54247773144077
 30
0.0
 10
60.60388046444973
 20
-98.85115828691916
 30
0.0
 10
60.88207192488365
 20
-98.85115828691916
 30
0.0
 10
61.14648300337657
 20
-98.85115828691916
 30
0.0
 10
61.19850394520385
 20
-98.57003849532278
 30
0.0
 10
61.19850394520385
 20
-98.22311737995811
 30
0.0
 10
61.19850394520385
 20
-97.90341251892693
 30
0.0
 10
61.1578518184779
 20
-97.59473196344854
 30
0.0
 10
60.88207192488365
 20
-97.59473196344854
 30
0.0
  0
HATCH
  5
11F
330
117
100
AcDbEntity
  8
_U+30EC_U+30A4_U+30E4_U+30FC 1
 62
   179
420
  2234388
100
AcDbHatch
 10
0.0
 20
0.0
 30
0.0
210
0.0
220
0.0
230
1.0
  2
SOLID
 70
     1
 71
     0
 91
        2
 92
        1
 93
        1
 72
     4
 94
        3
 73
     0
 74
     1
 95
       29
 96
       25
 40
0.0
 40
0.0
 40
0.0
 40
0.0
 40
1.0
 40
1.0
 40
1.0
 40
2.0
 40
2.0
 40
2.0
 40
3.0
 40
3.0
 40
3.0
 40
4.0
 40
4.0
 40
4.0
 40
5.0
 40
5.0
 40
5.0
 40
6.0
 40
6.0
 40
6.0
 40
7.0
 40
7.0
 40
7.0
 40
8.0
 40
8.0
 40
8.0
 40
8.0
 10
61.30702445298922
 20
-98.81739635116371
 10
61.19178600900761
 20
-99.0268581566669
 10
61.00643987190117
 20
-99.04580618183577
 10
60.88207192488365
 20
-99.04580618183577
 10
60.71016166016968
 20
-99.04580618183577
 10
60.55874971359295
 20
-98.9992973927849
 10
60.45694714200382
 20
-98.81739635116371
 10
60.34618732215304
 20
-98.6227484562471
 10
60.32586125879006
 20
-98.38607039641043
 10
60.32586125879006
 20
-98.22311737995811
 10
60.32586125879006
 20
-98.07911238867467
 10
60.34394801008763
 20
-97.8272759087029
 10
60.45694714200382
 20
-97.62849389920399
 10
60.57235784075969
 20
-97.42557777512278
 10
60.7440958506994
 20
-97.40215112582308
 10
60.88207192488365
 20
-97.40215112582308
 10
61.05157062275794
 20
-97.40215112582308
 10
61.20539413617435
 20
-97.4465928575828
 10
61.30702445298922
 20
-97.62849389920399
 10
61.41330564870918
 20
-97.82107473682946
 10
61.43828259097724
 20
-98.04948456750152
 10
61.43828259097724
 20
-98.22311737995811
 10
61.43828259097724
 20
-98.39433862557503
 10
61.41554496077459
 20
-98.62481551353825
 10
61.30702445298922
 20
-98.81739635116371
 97
        0
 97
        0
 92
        1
 93
        1
 72
     4
 94
        3
 73
     0
 74
     1
 95
       17
 96
       13
 40
0.0
 40
0.0
 40
0.0
 40
0.0
 40
1.0
 40
1.0
 40
1.0
 40
2.0
 40
2.0
 40
2.0
 40
3.0
 40
3.0
 40
3.0
 40
4.0
 40
4.0
 40
4.0
 40
4.0
 10
60.88207192488365
 20
-97.59473196344854
 10
60.61524927955105
 20
-97.59473196344854
 10
60.56546764978919
 20
-97.8782633218846
 10
60.56546764978919
 20
-98.22311737995811
 10
60.56546764978919
 20
-98.54247773144077
 10
60.60388046444973
 20
-98.85115828691916
 10
60.88207192488365
 20
-98.85115828691916
 10
61.14648300337657
 20
-98.85115828691916
 10
61.19850394520385
 20
-98.57003849532278
 10
61.19850394520385
 20
-98.22311737995811
 10
61.19850394520385
 20
-97.90341251892693
 10
61.1578518184779
 20
-97.59473196344854
 10
60.88207192488365
 20
-97.59473196344854
 97
        0
 97
        0
 75
     2
 76
     1
 98
        0
  0
ENDBLK
  5
11A
330
117
100
AcDbEntity
  8
0
100
AcDbBlockEnd
  0
BLOCK
  5
12A
330
128
100
AcDbEntity
  8
0
100
AcDbBlockBegin
  2
block 6
 70
     0
 10
0.0
 20
0.0
 30
0.0
  3
block 6
  1

  0
SPLINE
  5
12C
330
128
100
AcDbEntity
  8
_U+30EC_U+30A4_U+30E4_U+30FC 1
370
     0
100
AcDbSpline
210
0.0
220
0.0
230
1.0
 70
    11
 71
     3
 72
    26
 73
    22
 74
     0
 42
0.0000000001
 43
0.0000000001
 12
1.0
 22
0.0
 32
0.0
 13
1.0
 23
0.0
 33
0.0
 40
0.0
 40
0.0
 40
0.0
 40
0.0
 40
1.0
 40
1.0
 40
1.0
 40
2.0
 40
2.0
 40
2.0
 40
3.0
 40
3.0
 40
3.0
 40
4.0
 40
4.0
 40
4.0
 40
5.0
 40
5.0
 40
5.0
 40
6.0
 40
6.0
 40
6.0
 40
7.0
 40
7.0
 40
7.0
 40
7.0
 10
48.5722289917632
 20
-98.9951632782026
 30
0.0
 10
48.5722289917632
 20
-98.9951632782026
 30
0.0
 10
48.5722289917632
 20
-97.89101017518003
 30
0.0
 10
48.5722289917632
 20
-97.89101017518003
 30
0.0
 10
48.5722289917632
 20
-97.89101017518003
 30
0.0
 10
48.21945121407362
 20
-97.89101017518003
 30
0.0
 10
48.21945121407362
 20
-97.89101017518003
 30
0.0
 10
48.21945121407362
 20
-97.89101017518003
 30
0.0
 10
48.21945121407362
 20
-97.74287106931429
 30
0.0
 10
48.21945121407362
 20
-97.74287106931429
 30
0.0
 10
48.57446830382861
 20
-97.72805715872771
 30
0.0
 10
48.62424993359047
 20
-97.5651041422754
 30
0.0
 10
48.65594481205476
 20
-97.4507269721651
 30
0.0
 10
48.65594481205476
 20
-97.4507269721651
 30
0.0
 10
48.81183538276232
 20
-97.4507269721651
 30
0.0
 10
48.81183538276232
 20
-97.4507269721651
 30
0.0
 10
48.81183538276232
 20
-97.4507269721651
 30
0.0
 10
48.81183538276232
 20
-98.9951632782026
 30
0.0
 10
48.81183538276232
 20
-98.9951632782026
 30
0.0
 10
48.81183538276232
 20
-98.9951632782026
 30
0.0
 10
48.5722289917632
 20
-98.9951632782026
 30
0.0
 10
48.5722289917632
 20
-98.9951632782026
 30
0.0
  0
HATCH
  5
12D
330
128
100
AcDbEntity
  8
_U+30EC_U+30A4_U+30E4_U+30FC 1
 62
   179
420
  2234388
100
AcDbHatch
 10
0.0
 20
0.0
 30
0.0
210
0.0
220
0.0
230
1.0
  2
SOLID
 70
     1
 71
     0
 91
        1
 92
        1
 93
        1
 72
     4
 94
        3
 73
     0
 74
     1
 95
       26
 96
       22
 40
0.0
 40
0.0
 40
0.0
 40
0.0
 40
1.0
 40
1.0
 40
1.0
 40
2.0
 40
2.0
 40
2.0
 40
3.0
 40
3.0
 40
3.0
 40
4.0
 40
4.0
 40
4.0
 40
5.0
 40
5.0
 40
5.0
 40
6.0
 40
6.0
 40
6.0
 40
7.0
 40
7.0
 40
7.0
 40
7.0
 10
48.5722289917632
 20
-98.9951632782026
 10
48.5722289917632
 20
-98.9951632782026
 10
48.5722289917632
 20
-97.89101017518003
 10
48.5722289917632
 20
-97.89101017518003
 10
48.5722289917632
 20
-97.89101017518003
 10
48.21945121407362
 20
-97.89101017518003
 10
48.21945121407362
 20
-97.89101017518003
 10
48.21945121407362
 20
-97.89101017518003
 10
48.21945121407362
 20
-97.74287106931429
 10
48.21945121407362
 20
-97.74287106931429
 10
48.57446830382861
 20
-97.72805715872771
 10
48.62424993359047
 20
-97.5651041422754
 10
48.65594481205476
 20
-97.4507269721651
 10
48.65594481205476
 20
-97.4507269721651
 10
48.81183538276232
 20
-97.4507269721651
 10
48.81183538276232
 20
-97.4507269721651
 10
48.81183538276232
 20
-97.4507269721651
 10
48.81183538276232
 20
-98.9951632782026
 10
48.81183538276232
 20
-98.9951632782026
 10
48.81183538276232
 20
-98.9951632782026
 10
48.5722289917632
 20
-98.9951632782026
 10
48.5722289917632
 20
-98.9951632782026
 97
        0
 97
        0
 75
     2
 76
     1
 98
        0
  0
SPLINE
  5
12E
330
128
100
AcDbEntity
  8
_U+30EC_U+30A4_U+30E4_U+30FC 1
370
     0
100
AcDbSpline
210
0.0
220
0.0
230
1.0
 70
    11
 71
     3
 72
    44
 73
    40
 74
     0
 42
0.0000000001
 43
0.0000000001
 12
1.0
 22
0.0
 32
0.0
 13
1.0
 23
0.0
 33
0.0
 40
0.0
 40
0.0
 40
0.0
 40
0.0
 40
1.0
 40
1.0
 40
1.0
 40
2.0
 40
2.0
 40
2.0
 40
3.0
 40
3.0
 40
3.0
 40
4.0
 40
4.0
 40
4.0
 40
5.0
 40
5.0
 40
5.0
 40
6.0
 40
6.0
 40
6.0
 40
7.0
 40
7.0
 40
7.0
 40
8.0
 40
8.0
 40
8.0
 40
9.0
 40
9.0
 40
9.0
 40
10.0
 40
10.0
 40
10.0
 40
11.0
 40
11.0
 40
11.0
 40
12.0
 40
12.0
 40
12.0
 40
13.0
 40
13.0
 40
13.0
 40
13.0
 10
49.98144530000464
 20
-98.4132866507439
 30
0.0
 10
49.74855684520175
 20
-98.57210555261392
 30
0.0
 10
49.64916584045229
 20
-98.64617510554679
 30
0.0
 10
49.59714489862502
 20
-98.78983558728171
 30
0.0
 10
49.59714489862502
 20
-98.78983558728171
 30
0.0
 10
50.42913545831286
 20
-98.78983558728171
 30
0.0
 10
50.42913545831286
 20
-98.78983558728171
 30
0.0
 10
50.42913545831286
 20
-98.78983558728171
 30
0.0
 10
50.42913545831286
 20
-98.9951632782026
 30
0.0
 10
50.42913545831286
 20
-98.9951632782026
 30
0.0
 10
50.42913545831286
 20
-98.9951632782026
 30
0.0
 10
49.33032225329242
 20
-98.9951632782026
 30
0.0
 10
49.33032225329242
 20
-98.9951632782026
 30
0.0
 10
49.36425644382214
 20
-98.63756236683366
 30
0.0
 10
49.43436413694697
 20
-98.5593586993185
 30
0.0
 10
49.84588079266006
 20
-98.26101343029586
 30
0.0
 10
50.1194213741889
 20
-98.06223142079695
 30
0.0
 10
50.18952906731373
 20
-97.99436303973752
 30
0.0
 10
50.18952906731373
 20
-97.85690372987605
 30
0.0
 10
50.18952906731373
 20
-97.73839244518346
 30
0.0
 10
50.11253118321839
 20
-97.60747881674396
 30
0.0
 10
49.90238035861816
 20
-97.60747881674396
 30
0.0
 10
49.62436115295849
 20
-97.60747881674396
 30
0.0
 10
49.61523164992258
 20
-97.83795570470718
 30
0.0
 10
49.61075302579176
 20
-97.95439993210863
 30
0.0
 10
49.61075302579176
 20
-97.95439993210863
 30
0.0
 10
49.37114663479263
 20
-97.95439993210863
 30
0.0
 10
49.37114663479263
 20
-97.95439993210863
 30
0.0
 10
49.38010388305428
 20
-97.8272759087029
 30
0.0
 10
49.3914726981556
 20
-97.71531030543228
 30
0.0
 10
49.47725557573833
 20
-97.5967990207397
 30
0.0
 10
49.59490558655961
 20
-97.43591306157853
 30
0.0
 10
49.79385985083279
 20
-97.40215112582308
 30
0.0
 10
49.91822779785031
 20
-97.40215112582308
 30
0.0
 10
50.21433375480753
 20
-97.40215112582308
 30
0.0
 10
50.4358533945091
 20
-97.58611922473541
 30
0.0
 10
50.4358533945091
 20
-97.85897078716721
 30
0.0
 10
50.4358533945091
 20
-98.0877251273878
 30
0.0
 10
50.31165770226584
 20
-98.18694387736299
 30
0.0
 10
49.98144530000464
 20
-98.4132866507439
 30
0.0
  0
HATCH
  5
12F
330
128
100
AcDbEntity
  8
_U+30EC_U+30A4_U+30E4_U+30FC 1
 62
   179
420
  2234388
100
AcDbHatch
 10
0.0
 20
0.0
 30
0.0
210
0.0
220
0.0
230
1.0
  2
SOLID
 70
     1
 71
     0
 91
        1
 92
        1
 93
        1
 72
     4
 94
        3
 73
     0
 74
     1
 95
       44
 96
       40
 40
0.0
 40
0.0
 40
0.0
 40
0.0
 40
1.0
 40
1.0
 40
1.0
 40
2.0
 40
2.0
 40
2.0
 40
3.0
 40
3.0
 40
3.0
 40
4.0
 40
4.0
 40
4.0
 40
5.0
 40
5.0
 40
5.0
 40
6.0
 40
6.0
 40
6.0
 40
7.0
 40
7.0
 40
7.0
 40
8.0
 40
8.0
 40
8.0
 40
9.0
 40
9.0
 40
9.0
 40
10.0
 40
10.0
 40
10.0
 40
11.0
 40
11.0
 40
11.0
 40
12.0
 40
12.0
 40
12.0
 40
13.0
 40
13.0
 40
13.0
 40
13.0
 10
49.98144530000464
 20
-98.4132866507439
 10
49.74855684520175
 20
-98.57210555261392
 10
49.64916584045229
 20
-98.64617510554679
 10
49.59714489862502
 20
-98.78983558728171
 10
49.59714489862502
 20
-98.78983558728171
 10
50.42913545831286
 20
-98.78983558728171
 10
50.42913545831286
 20
-98.78983558728171
 10
50.42913545831286
 20
-98.78983558728171
 10
50.42913545831286
 20
-98.9951632782026
 10
50.42913545831286
 20
-98.9951632782026
 10
50.42913545831286
 20
-98.9951632782026
 10
49.33032225329242
 20
-98.9951632782026
 10
49.33032225329242
 20
-98.9951632782026
 10
49.36425644382214
 20
-98.63756236683366
 10
49.43436413694697
 20
-98.5593586993185
 10
49.84588079266006
 20
-98.26101343029586
 10
50.1194213741889
 20
-98.06223142079695
 10
50.18952906731373
 20
-97.99436303973752
 10
50.18952906731373
 20
-97.85690372987605
 10
50.18952906731373
 20
-97.73839244518346
 10
50.11253118321839
 20
-97.60747881674396
 10
49.90238035861816
 20
-97.60747881674396
 10
49.62436115295849
 20
-97.60747881674396
 10
49.61523164992258
 20
-97.83795570470718
 10
49.61075302579176
 20
-97.95439993210863
 10
49.61075302579176
 20
-97.95439993210863
 10
49.37114663479263
 20
-97.95439993210863
 10
49.37114663479263
 20
-97.95439993210863
 10
49.38010388305428
 20
-97.8272759087029
 10
49.3914726981556
 20
-97.71531030543228
 10
49.47725557573833
 20
-97.5967990207397
 10
49.59490558655961
 20
-97.43591306157853
 10
49.79385985083279
 20
-97.40215112582308
 10
49.91822779785031
 20
-97.40215112582308
 10
50.21433375480753
 20
-97.40215112582308
 10
50.4358533945091
 20
-97.58611922473541
 10
50.4358533945091
 20
-97.85897078716721
 10
50.4358533945091
 20
-98.0877251273878
 10
50.31165770226584
 20
-98.18694387736299
 10
49.98144530000464
 20
-98.4132866507439
 97
        0
 97
        0
 75
     2
 76
     1
 98
        0
  0
ENDBLK
  5
12B
330
128
100
AcDbEntity
  8
0
100
AcDbBlockEnd
  0
BLOCK
  5
13E
330
13C
100
AcDbEntity
  8
0
100
AcDbBlockBegin
  2
block 7
 70
     0
 10
0.0
 20
0.0
 30
0.0
  3
block 7
  1

  0
SPLINE
  5
140
330
13C
100
AcDbEntity
  8
_U+30EC_U+30A4_U+30E4_U+30FC 1
370
     0
100
AcDbSpline
210
0.0
220
0.0
230
1.0
 70
    11
 71
     3
 72
    62
 73
    58
 74
     0
 42
0.0000000001
 43
0.0000000001
 12
1.0
 22
0.0
 32
0.0
 13
1.0
 23
0.0
 33
0.0
 40
0.0
 40
0.0
 40
0.0
 40
0.0
 40
1.0
 40
1.0
 40
1.0
 40
2.0
 40
2.0
 40
2.0
 40
3.0
 40
3.0
 40
3.0
 40
4.0
 40
4.0
 40
4.0
 40
5.0
 40
5.0
 40
5.0
 40
6.0
 40
6.0
 40
6.0
 40
7.0
 40
7.0
 40
7.0
 40
8.0
 40
8.0
 40
8.0
 40
9.0
 40
9.0
 40
9.0
 40
10.0
 40
10.0
 40
10.0
 40
11.0
 40
11.0
 40
11.0
 40
12.0
 40
12.0
 40
12.0
 40
13.0
 40
13.0
 40
13.0
 40
14.0
 40
14.0
 40
14.0
 40
15.0
 40
15.0
 40
15.0
 40
16.0
 40
16.0
 40
16.0
 40
17.0
 40
17.0
 40
17.0
 40
18.0
 40
18.0
 40
18.0
 40
19.0
 40
19.0
 40
19.0
 40
19.0
 10
60.61507702477679
 20
-76.34555526520181
 30
0.0
 10
60.51344670796192
 20
-76.34555526520181
 30
0.0
 10
60.28055825315903
 20
-76.32436792796753
 30
0.0
 10
60.1470608031056
 20
-76.13816051698977
 30
0.0
 10
60.06799586171911
 20
-76.02602265894488
 30
0.0
 10
60.06351723758829
 20
-75.92663165419543
 30
0.0
 10
60.0588663586832
 20
-75.84205456003255
 30
0.0
 10
60.0588663586832
 20
-75.84205456003255
 30
0.0
 10
60.29416638032577
 20
-75.84205456003255
 30
0.0
 10
60.29416638032577
 20
-75.84205456003255
 30
0.0
 10
60.29640569239118
 20
-75.91612411296542
 30
0.0
 10
60.30760225271824
 20
-76.1509073702852
 30
0.0
 10
60.61059840064596
 20
-76.1509073702852
 30
0.0
 10
60.75753172309187
 20
-76.1509073702852
 30
0.0
 10
60.92031248476992
 20
-76.08114418670888
 30
0.0
 10
60.92031248476992
 20
-75.85256210126256
 30
0.0
 10
60.92031248476992
 20
-75.73629012863537
 30
0.0
 10
60.87966035804398
 20
-75.68754202751909
 30
0.0
 10
60.84572616751426
 20
-75.6558471490548
 30
0.0
 10
60.76666122612778
 20
-75.58177759612192
 30
0.0
 10
60.64229327911026
 20
-75.56920299760075
 30
0.0
 10
60.58355440108675
 20
-75.56920299760075
 30
0.0
 10
60.56305608294952
 20
-75.56920299760075
 30
0.0
 10
60.52464326828898
 20
-75.57127005489191
 30
0.0
 10
60.49535995666436
 20
-75.57540416947421
 30
0.0
 10
60.49535995666436
 20
-75.57540416947421
 30
0.0
 10
60.49535995666436
 20
-75.3807562745576
 30
0.0
 10
60.49535995666436
 20
-75.3807562745576
 30
0.0
 10
60.5360120833903
 20
-75.38712970120531
 30
0.0
 10
60.58114283424707
 20
-75.38936901327072
 30
0.0
 10
60.58803302521758
 20
-75.38936901327072
 30
0.0
 10
60.65814071834241
 20
-75.38936901327072
 30
0.0
 10
60.87053085500806
 20
-75.36818167603643
 30
0.0
 10
60.87053085500806
 20
-75.13115910665124
 30
0.0
 10
60.87053085500806
 20
-74.9535644343866
 30
0.0
 10
60.73048772353266
 20
-74.89844290662262
 30
0.0
 10
60.61283771271138
 20
-74.89844290662262
 30
0.0
 10
60.33033988292089
 20
-74.89844290662262
 30
0.0
 10
60.32121037988498
 20
-75.13115910665124
 30
0.0
 10
60.31673175575416
 20
-75.20316160229297
 30
0.0
 10
60.31673175575416
 20
-75.20316160229297
 30
0.0
 10
60.09969074018341
 20
-75.20316160229297
 30
0.0
 10
60.09969074018341
 20
-75.20316160229297
 30
0.0
 10
60.10864798844506
 20
-75.07827689095265
 30
0.0
 10
60.13810355484395
 20
-74.70172795441485
 30
0.0
 10
60.62644583987812
 20
-74.70172795441485
 30
0.0
 10
60.86605223087724
 20
-74.70172795441485
 30
0.0
 10
61.12374537317393
 20
-74.8286797230463
 30
0.0
 10
61.12374537317393
 20
-75.12478568000353
 30
0.0
 10
61.12374537317393
 20
-75.31099309098128
 30
0.0
 10
61.02211505635906
 20
-75.39350312785302
 30
0.0
 10
60.9158338606391
 20
-75.45482582749047
 30
0.0
 10
60.98146292963311
 20
-75.48238659137246
 30
0.0
 10
61.1757663150012
 20
-75.56282957095304
 30
0.0
 10
61.1757663150012
 20
-75.8399875027414
 30
0.0
 10
61.1757663150012
 20
-76.17846813416719
 30
0.0
 10
60.91135523650828
 20
-76.34555526520181
 30
0.0
 10
60.61507702477679
 20
-76.34555526520181
 30
0.0
  0
HATCH
  5
141
330
13C
100
AcDbEntity
  8
_U+30EC_U+30A4_U+30E4_U+30FC 1
 62
   179
420
  2234388
100
AcDbHatch
 10
0.0
 20
0.0
 30
0.0
210
0.0
220
0.0
230
1.0
  2
SOLID
 70
     1
 71
     0
 91
        1
 92
        1
 93
        1
 72
     4
 94
        3
 73
     0
 74
     1
 95
       62
 96
       58
 40
0.0
 40
0.0
 40
0.0
 40
0.0
 40
1.0
 40
1.0
 40
1.0
 40
2.0
 40
2.0
 40
2.0
 40
3.0
 40
3.0
 40
3.0
 40
4.0
 40
4.0
 40
4.0
 40
5.0
 40
5.0
 40
5.0
 40
6.0
 40
6.0
 40
6.0
 40
7.0
 40
7.0
 40
7.0
 40
8.0
 40
8.0
 40
8.0
 40
9.0
 40
9.0
 40
9.0
 40
10.0
 40
10.0
 40
10.0
 40
11.0
 40
11.0
 40
11.0
 40
12.0
 40
12.0
 40
12.0
 40
13.0
 40
13.0
 40
13.0
 40
14.0
 40
14.0
 40
14.0
 40
15.0
 40
15.0
 40
15.0
 40
16.0
 40
16.0
 40
16.0
 40
17.0
 40
17.0
 40
17.0
 40
18.0
 40
18.0
 40
18.0
 40
19.0
 40
19.0
 40
19.0
 40
19.0
 10
60.61507702477679
 20
-76.34555526520181
 10
60.51344670796192
 20
-76.34555526520181
 10
60.28055825315903
 20
-76.32436792796753
 10
60.1470608031056
 20
-76.13816051698977
 10
60.06799586171911
 20
-76.02602265894488
 10
60.06351723758829
 20
-75.92663165419543
 10
60.0588663586832
 20
-75.84205456003255
 10
60.0588663586832
 20
-75.84205456003255
 10
60.29416638032577
 20
-75.84205456003255
 10
60.29416638032577
 20
-75.84205456003255
 10
60.29640569239118
 20
-75.91612411296542
 10
60.30760225271824
 20
-76.1509073702852
 10
60.61059840064596
 20
-76.1509073702852
 10
60.75753172309187
 20
-76.1509073702852
 10
60.92031248476992
 20
-76.08114418670888
 10
60.92031248476992
 20
-75.85256210126256
 10
60.92031248476992
 20
-75.73629012863537
 10
60.87966035804398
 20
-75.68754202751909
 10
60.84572616751426
 20
-75.6558471490548
 10
60.76666122612778
 20
-75.58177759612192
 10
60.64229327911026
 20
-75.56920299760075
 10
60.58355440108675
 20
-75.56920299760075
 10
60.56305608294952
 20
-75.56920299760075
 10
60.52464326828898
 20
-75.57127005489191
 10
60.49535995666436
 20
-75.57540416947421
 10
60.49535995666436
 20
-75.57540416947421
 10
60.49535995666436
 20
-75.3807562745576
 10
60.49535995666436
 20
-75.3807562745576
 10
60.5360120833903
 20
-75.38712970120531
 10
60.58114283424707
 20
-75.38936901327072
 10
60.58803302521758
 20
-75.38936901327072
 10
60.65814071834241
 20
-75.38936901327072
 10
60.87053085500806
 20
-75.36818167603643
 10
60.87053085500806
 20
-75.13115910665124
 10
60.87053085500806
 20
-74.9535644343866
 10
60.73048772353266
 20
-74.89844290662262
 10
60.61283771271138
 20
-74.89844290662262
 10
60.33033988292089
 20
-74.89844290662262
 10
60.32121037988498
 20
-75.13115910665124
 10
60.31673175575416
 20
-75.20316160229297
 10
60.31673175575416
 20
-75.20316160229297
 10
60.09969074018341
 20
-75.20316160229297
 10
60.09969074018341
 20
-75.20316160229297
 10
60.10864798844506
 20
-75.07827689095265
 10
60.13810355484395
 20
-74.70172795441485
 10
60.62644583987812
 20
-74.70172795441485
 10
60.86605223087724
 20
-74.70172795441485
 10
61.12374537317393
 20
-74.8286797230463
 10
61.12374537317393
 20
-75.12478568000353
 10
61.12374537317393
 20
-75.31099309098128
 10
61.02211505635906
 20
-75.39350312785302
 10
60.9158338606391
 20
-75.45482582749047
 10
60.98146292963311
 20
-75.48238659137246
 10
61.1757663150012
 20
-75.56282957095304
 10
61.1757663150012
 20
-75.8399875027414
 10
61.1757663150012
 20
-76.17846813416719
 10
60.91135523650828
 20
-76.34555526520181
 10
60.61507702477679
 20
-76.34555526520181
 97
        0
 97
        0
 75
     2
 76
     1
 98
        0
  0
SPLINE
  5
142
330
13C
100
AcDbEntity
  8
_U+30EC_U+30A4_U+30E4_U+30FC 1
370
     0
100
AcDbSpline
210
0.0
220
0.0
230
1.0
 70
    11
 71
     3
 72
    26
 73
    22
 74
     0
 42
0.0000000001
 43
0.0000000001
 12
1.0
 22
0.0
 32
0.0
 13
1.0
 23
0.0
 33
0.0
 40
0.0
 40
0.0
 40
0.0
 40
0.0
 40
1.0
 40
1.0
 40
1.0
 40
2.0
 40
2.0
 40
2.0
 40
3.0
 40
3.0
 40
3.0
 40
4.0
 40
4.0
 40
4.0
 40
5.0
 40
5.0
 40
5.0
 40
6.0
 40
6.0
 40
6.0
 40
7.0
 40
7.0
 40
7.0
 40
7.0
 10
61.78692625408452
 20
-76.29474010679438
 30
0.0
 10
61.78692625408452
 20
-76.29474010679438
 30
0.0
 10
61.53371173591866
 20
-76.29474010679438
 30
0.0
 10
61.53371173591866
 20
-76.29474010679438
 30
0.0
 10
61.56092799025213
 20
-75.98588729654172
 30
0.0
 10
61.76660019072155
 20
-75.46757268078589
 30
0.0
 10
62.20068222186303
 20
-74.96200491832548
 30
0.0
 10
62.20068222186303
 20
-74.96200491832548
 30
0.0
 10
61.30547416002086
 20
-74.96200491832548
 30
0.0
 10
61.30547416002086
 20
-74.96200491832548
 30
0.0
 10
61.30547416002086
 20
-74.96200491832548
 30
0.0
 10
61.30547416002086
 20
-74.75047605553114
 30
0.0
 10
61.30547416002086
 20
-74.75047605553114
 30
0.0
 10
61.30547416002086
 20
-74.75047605553114
 30
0.0
 10
62.45389674002889
 20
-74.75047605553114
 30
0.0
 10
62.45389674002889
 20
-74.75047605553114
 30
0.0
 10
62.45389674002889
 20
-74.75047605553114
 30
0.0
 10
62.45389674002889
 20
-74.96200491832548
 30
0.0
 10
62.45389674002889
 20
-74.96200491832548
 30
0.0
 10
62.10800915330981
 20
-75.25173744863498
 30
0.0
 10
61.82309975667965
 20
-75.8441216173237
 30
0.0
 10
61.78692625408452
 20
-76.29474010679438
 30
0.0
  0
HATCH
  5
143
330
13C
100
AcDbEntity
  8
_U+30EC_U+30A4_U+30E4_U+30FC 1
 62
   179
420
  2234388
100
AcDbHatch
 10
0.0
 20
0.0
 30
0.0
210
0.0
220
0.0
230
1.0
  2
SOLID
 70
     1
 71
     0
 91
        1
 92
        1
 93
        1
 72
     4
 94
        3
 73
     0
 74
     1
 95
       26
 96
       22
 40
0.0
 40
0.0
 40
0.0
 40
0.0
 40
1.0
 40
1.0
 40
1.0
 40
2.0
 40
2.0
 40
2.0
 40
3.0
 40
3.0
 40
3.0
 40
4.0
 40
4.0
 40
4.0
 40
5.0
 40
5.0
 40
5.0
 40
6.0
 40
6.0
 40
6.0
 40
7.0
 40
7.0
 40
7.0
 40
7.0
 10
61.78692625408452
 20
-76.29474010679438
 10
61.78692625408452
 20
-76.29474010679438
 10
61.53371173591866
 20
-76.29474010679438
 10
61.53371173591866
 20
-76.29474010679438
 10
61.56092799025213
 20
-75.98588729654172
 10
61.76660019072155
 20
-75.46757268078589
 10
62.20068222186303
 20
-74.96200491832548
 10
62.20068222186303
 20
-74.96200491832548
 10
61.30547416002086
 20
-74.96200491832548
 10
61.30547416002086
 20
-74.96200491832548
 10
61.30547416002086
 20
-74.96200491832548
 10
61.30547416002086
 20
-74.75047605553114
 10
61.30547416002086
 20
-74.75047605553114
 10
61.30547416002086
 20
-74.75047605553114
 10
62.45389674002889
 20
-74.75047605553114
 10
62.45389674002889
 20
-74.75047605553114
 10
62.45389674002889
 20
-74.75047605553114
 10
62.45389674002889
 20
-74.96200491832548
 10
62.45389674002889
 20
-74.96200491832548
 10
62.10800915330981
 20
-75.25173744863498
 10
61.82309975667965
 20
-75.8441216173237
 10
61.78692625408452
 20
-76.29474010679438
 97
        0
 97
        0
 75
     2
 76
     1
 98
        0
  0
ENDBLK
  5
13F
330
13C
100
AcDbEntity
  8
0
100
AcDbBlockEnd
  0
BLOCK
  5
152
330
150
100
AcDbEntity
  8
0
100
AcDbBlockBegin
  2
block 8
 70
     0
 10
0.0
 20
0.0
 30
0.0
  3
block 8
  1

  0
SPLINE
  5
154
330
150
100
AcDbEntity
  8
_U+30EC_U+30A4_U+30E4_U+30FC 1
370
     0
100
AcDbSpline
210
0.0
220
0.0
230
1.0
 70
    11
 71
     3
 72
    26
 73
    22
 74
     0
 42
0.0000000001
 43
0.0000000001
 12
1.0
 22
0.0
 32
0.0
 13
1.0
 23
0.0
 33
0.0
 40
0.0
 40
0.0
 40
0.0
 40
0.0
 40
1.0
 40
1.0
 40
1.0
 40
2.0
 40
2.0
 40
2.0
 40
3.0
 40
3.0
 40
3.0
 40
4.0
 40
4.0
 40
4.0
 40
5.0
 40
5.0
 40
5.0
 40
6.0
 40
6.0
 40
6.0
 40
7.0
 40
7.0
 40
7.0
 40
7.0
 10
82.60753307396618
 20
-89.47739798110288
 30
0.0
 10
82.60753307396618
 20
-89.47739798110288
 30
0.0
 10
81.5033799709436
 20
-89.47739798110288
 30
0.0
 10
81.5033799709436
 20
-89.47739798110288
 30
0.0
 10
81.5033799709436
 20
-89.47739798110288
 30
0.0
 10
81.5033799709436
 20
-89.83017575879246
 30
0.0
 10
81.5033799709436
 20
-89.83017575879246
 30
0.0
 10
81.5033799709436
 20
-89.83017575879246
 30
0.0
 10
81.35524086507786
 20
-89.83017575879246
 30
0.0
 10
81.35524086507786
 20
-89.83017575879246
 30
0.0
 10
81.34042695449129
 20
-89.47533092381173
 30
0.0
 10
81.17747393803897
 20
-89.4253770392756
 30
0.0
 10
81.06309676792867
 20
-89.39368216081131
 30
0.0
 10
81.06309676792867
 20
-89.39368216081131
 30
0.0
 10
81.06309676792867
 20
-89.23779159010375
 30
0.0
 10
81.06309676792867
 20
-89.23779159010375
 30
0.0
 10
81.06309676792867
 20
-89.23779159010375
 30
0.0
 10
82.60753307396618
 20
-89.23779159010375
 30
0.0
 10
82.60753307396618
 20
-89.23779159010375
 30
0.0
 10
82.60753307396618
 20
-89.23779159010375
 30
0.0
 10
82.60753307396618
 20
-89.47739798110288
 30
0.0
 10
82.60753307396618
 20
-89.47739798110288
 30
0.0
  0
HATCH
  5
155
330
150
100
AcDbEntity
  8
_U+30EC_U+30A4_U+30E4_U+30FC 1
 62
   179
420
  2234388
100
AcDbHatch
 10
0.0
 20
0.0
 30
0.0
210
0.0
220
0.0
230
1.0
  2
SOLID
 70
     1
 71
     0
 91
        1
 92
        1
 93
        1
 72
     4
 94
        3
 73
     0
 74
     1
 95
       26
 96
       22
 40
0.0
 40
0.0
 40
0.0
 40
0.0
 40
1.0
 40
1.0
 40
1.0
 40
2.0
 40
2.0
 40
2.0
 40
3.0
 40
3.0
 40
3.0
 40
4.0
 40
4.0
 40
4.0
 40
5.0
 40
5.0
 40
5.0
 40
6.0
 40
6.0
 40
6.0
 40
7.0
 40
7.0
 40
7.0
 40
7.0
 10
82.60753307396618
 20
-89.47739798110288
 10
82.60753307396618
 20
-89.47739798110288
 10
81.5033799709436
 20
-89.47739798110288
 10
81.5033799709436
 20
-89.47739798110288
 10
81.5033799709436
 20
-89.47739798110288
 10
81.5033799709436
 20
-89.83017575879246
 10
81.5033799709436
 20
-89.83017575879246
 10
81.5033799709436
 20
-89.83017575879246
 10
81.35524086507786
 20
-89.83017575879246
 10
81.35524086507786
 20
-89.83017575879246
 10
81.34042695449129
 20
-89.47533092381173
 10
81.17747393803897
 20
-89.4253770392756
 10
81.06309676792867
 20
-89.39368216081131
 10
81.06309676792867
 20
-89.39368216081131
 10
81.06309676792867
 20
-89.23779159010375
 10
81.06309676792867
 20
-89.23779159010375
 10
81.06309676792867
 20
-89.23779159010375
 10
82.60753307396618
 20
-89.23779159010375
 10
82.60753307396618
 20
-89.23779159010375
 10
82.60753307396618
 20
-89.23779159010375
 10
82.60753307396618
 20
-89.47739798110288
 10
82.60753307396618
 20
-89.47739798110288
 97
        0
 97
        0
 75
     2
 76
     1
 98
        0
  0
SPLINE
  5
156
330
150
100
AcDbEntity
  8
_U+30EC_U+30A4_U+30E4_U+30FC 1
370
     0
100
AcDbSpline
210
0.0
220
0.0
230
1.0
 70
    11
 71
     3
 72
    62
 73
    58
 74
     0
 42
0.0000000001
 43
0.0000000001
 12
1.0
 22
0.0
 32
0.0
 13
1.0
 23
0.0
 33
0.0
 40
0.0
 40
0.0
 40
0.0
 40
0.0
 40
1.0
 40
1.0
 40
1.0
 40
2.0
 40
2.0
 40
2.0
 40
3.0
 40
3.0
 40
3.0
 40
4.0
 40
4.0
 40
4.0
 40
5.0
 40
5.0
 40
5.0
 40
6.0
 40
6.0
 40
6.0
 40
7.0
 40
7.0
 40
7.0
 40
8.0
 40
8.0
 40
8.0
 40
9.0
 40
9.0
 40
9.0
 40
10.0
 40
10.0
 40
10.0
 40
11.0
 40
11.0
 40
11.0
 40
12.0
 40
12.0
 40
12.0
 40
13.0
 40
13.0
 40
13.0
 40
14.0
 40
14.0
 40
14.0
 40
15.0
 40
15.0
 40
15.0
 40
16.0
 40
16.0
 40
16.0
 40
17.0
 40
17.0
 40
17.0
 40
18.0
 40
18.0
 40
18.0
 40
19.0
 40
19.0
 40
19.0
 40
19.0
 10
82.65817597759934
 20
-88.1767021806468
 30
0.0
 10
82.65817597759934
 20
-88.27833249746168
 30
0.0
 10
82.63716089513933
 20
-88.51122095226457
 30
0.0
 10
82.45112573893583
 20
-88.64471840231799
 30
0.0
 10
82.33881562611668
 20
-88.72378334370447
 30
0.0
 10
82.23959687614149
 20
-88.7282619678353
 30
0.0
 10
82.15484752720435
 20
-88.73291284674039
 30
0.0
 10
82.15484752720435
 20
-88.73291284674039
 30
0.0
 10
82.15484752720435
 20
-88.49761282509782
 30
0.0
 10
82.15484752720435
 20
-88.49761282509782
 30
0.0
 10
82.22891708013722
 20
-88.4953735130324
 30
0.0
 10
82.46352808268273
 20
-88.48417695270535
 30
0.0
 10
82.46352808268273
 20
-88.18118080477763
 30
0.0
 10
82.46352808268273
 20
-88.03424748233172
 30
0.0
 10
82.39393715388069
 20
-87.87146672065367
 30
0.0
 10
82.16552732320862
 20
-87.87146672065367
 30
0.0
 10
82.04908309580718
 20
-87.87146672065367
 30
0.0
 10
82.00050724946516
 20
-87.91211884737962
 30
0.0
 10
81.96881237100085
 20
-87.94605303790932
 30
0.0
 10
81.89474281806798
 20
-88.02511797929581
 30
0.0
 10
81.88199596477256
 20
-88.14948592631333
 30
0.0
 10
81.88199596477256
 20
-88.20822480433684
 30
0.0
 10
81.88199596477256
 20
-88.22872312247408
 30
0.0
 10
81.88406302206371
 20
-88.26713593713461
 30
0.0
 10
81.88819713664601
 20
-88.29641924875924
 30
0.0
 10
81.88819713664601
 20
-88.29641924875924
 30
0.0
 10
81.6935492417294
 20
-88.29641924875924
 30
0.0
 10
81.6935492417294
 20
-88.29641924875924
 30
0.0
 10
81.70009492315137
 20
-88.25576712203329
 30
0.0
 10
81.70216198044253
 20
-88.2106363711765
 30
0.0
 10
81.70216198044253
 20
-88.20374618020601
 30
0.0
 10
81.70216198044253
 20
-88.13363848708117
 30
0.0
 10
81.68080238843397
 20
-87.92124835041552
 30
0.0
 10
81.44412432859731
 20
-87.92124835041552
 30
0.0
 10
81.26635740155841
 20
-87.92124835041552
 30
0.0
 10
81.21123587379442
 20
-88.06129148189093
 30
0.0
 10
81.21123587379442
 20
-88.17894149271221
 30
0.0
 10
81.21123587379442
 20
-88.4614393225027
 30
0.0
 10
81.44412432859731
 20
-88.4705688255386
 30
0.0
 10
81.5157823146905
 20
-88.47504744966943
 30
0.0
 10
81.5157823146905
 20
-88.47504744966943
 30
0.0
 10
81.5157823146905
 20
-88.69208846524018
 30
0.0
 10
81.5157823146905
 20
-88.69208846524018
 30
0.0
 10
81.39106985812445
 20
-88.68313121697852
 30
0.0
 10
81.01452092158665
 20
-88.65367565057964
 30
0.0
 10
81.01452092158665
 20
-88.16533336554548
 30
0.0
 10
81.01452092158665
 20
-87.92572697454635
 30
0.0
 10
81.14164494499236
 20
-87.66803383224966
 30
0.0
 10
81.43757864717533
 20
-87.66803383224966
 30
0.0
 10
81.62395831292734
 20
-87.66803383224966
 30
0.0
 10
81.70629609502483
 20
-87.76966414906454
 30
0.0
 10
81.76761879466227
 20
-87.87594534478448
 30
0.0
 10
81.79517955854426
 20
-87.81031627579048
 30
0.0
 10
81.87545028335059
 20
-87.6160128904224
 30
0.0
 10
82.1527804699132
 20
-87.6160128904224
 30
0.0
 10
82.49108884656474
 20
-87.6160128904224
 30
0.0
 10
82.65817597759934
 20
-87.88042396891531
 30
0.0
 10
82.65817597759934
 20
-88.1767021806468
 30
0.0
  0
HATCH
  5
157
330
150
100
AcDbEntity
  8
_U+30EC_U+30A4_U+30E4_U+30FC 1
 62
   179
420
  2234388
100
AcDbHatch
 10
0.0
 20
0.0
 30
0.0
210
0.0
220
0.0
230
1.0
  2
SOLID
 70
     1
 71
     0
 91
        1
 92
        1
 93
        1
 72
     4
 94
        3
 73
     0
 74
     1
 95
       62
 96
       58
 40
0.0
 40
0.0
 40
0.0
 40
0.0
 40
1.0
 40
1.0
 40
1.0
 40
2.0
 40
2.0
 40
2.0
 40
3.0
 40
3.0
 40
3.0
 40
4.0
 40
4.0
 40
4.0
 40
5.0
 40
5.0
 40
5.0
 40
6.0
 40
6.0
 40
6.0
 40
7.0
 40
7.0
 40
7.0
 40
8.0
 40
8.0
 40
8.0
 40
9.0
 40
9.0
 40
9.0
 40
10.0
 40
10.0
 40
10.0
 40
11.0
 40
11.0
 40
11.0
 40
12.0
 40
12.0
 40
12.0
 40
13.0
 40
13.0
 40
13.0
 40
14.0
 40
14.0
 40
14.0
 40
15.0
 40
15.0
 40
15.0
 40
16.0
 40
16.0
 40
16.0
 40
17.0
 40
17.0
 40
17.0
 40
18.0
 40
18.0
 40
18.0
 40
19.0
 40
19.0
 40
19.0
 40
19.0
 10
82.65817597759934
 20
-88.1767021806468
 10
82.65817597759934
 20
-88.27833249746168
 10
82.63716089513933
 20
-88.51122095226457
 10
82.45112573893583
 20
-88.64471840231799
 10
82.33881562611668
 20
-88.72378334370447
 10
82.23959687614149
 20
-88.7282619678353
 10
82.15484752720435
 20
-88.73291284674039
 10
82.15484752720435
 20
-88.73291284674039
 10
82.15484752720435
 20
-88.49761282509782
 10
82.15484752720435
 20
-88.49761282509782
 10
82.22891708013722
 20
-88.4953735130324
 10
82.46352808268273
 20
-88.48417695270535
 10
82.46352808268273
 20
-88.18118080477763
 10
82.46352808268273
 20
-88.03424748233172
 10
82.39393715388069
 20
-87.87146672065367
 10
82.16552732320862
 20
-87.87146672065367
 10
82.04908309580718
 20
-87.87146672065367
 10
82.00050724946516
 20
-87.91211884737962
 10
81.96881237100085
 20
-87.94605303790932
 10
81.89474281806798
 20
-88.02511797929581
 10
81.88199596477256
 20
-88.14948592631333
 10
81.88199596477256
 20
-88.20822480433684
 10
81.88199596477256
 20
-88.22872312247408
 10
81.88406302206371
 20
-88.26713593713461
 10
81.88819713664601
 20
-88.29641924875924
 10
81.88819713664601
 20
-88.29641924875924
 10
81.6935492417294
 20
-88.29641924875924
 10
81.6935492417294
 20
-88.29641924875924
 10
81.70009492315137
 20
-88.25576712203329
 10
81.70216198044253
 20
-88.2106363711765
 10
81.70216198044253
 20
-88.20374618020601
 10
81.70216198044253
 20
-88.13363848708117
 10
81.68080238843397
 20
-87.92124835041552
 10
81.44412432859731
 20
-87.92124835041552
 10
81.26635740155841
 20
-87.92124835041552
 10
81.21123587379442
 20
-88.06129148189093
 10
81.21123587379442
 20
-88.17894149271221
 10
81.21123587379442
 20
-88.4614393225027
 10
81.44412432859731
 20
-88.4705688255386
 10
81.5157823146905
 20
-88.47504744966943
 10
81.5157823146905
 20
-88.47504744966943
 10
81.5157823146905
 20
-88.69208846524018
 10
81.5157823146905
 20
-88.69208846524018
 10
81.39106985812445
 20
-88.68313121697852
 10
81.01452092158665
 20
-88.65367565057964
 10
81.01452092158665
 20
-88.16533336554548
 10
81.01452092158665
 20
-87.92572697454635
 10
81.14164494499236
 20
-87.66803383224966
 10
81.43757864717533
 20
-87.66803383224966
 10
81.62395831292734
 20
-87.66803383224966
 10
81.70629609502483
 20
-87.76966414906454
 10
81.76761879466227
 20
-87.87594534478448
 10
81.79517955854426
 20
-87.81031627579048
 10
81.87545028335059
 20
-87.6160128904224
 10
82.1527804699132
 20
-87.6160128904224
 10
82.49108884656474
 20
-87.6160128904224
 10
82.65817597759934
 20
-87.88042396891531
 10
82.65817597759934
 20
-88.1767021806468
 97
        0
 97
        0
 75
     2
 76
     1
 98
        0
  0
ENDBLK
  5
153
330
150
100
AcDbEntity
  8
0
100
AcDbBlockEnd
  0
ENDSEC
  0
SECTION
  2
ENTITIES
  0
POLYLINE
  5
41
330
1F
100
AcDbEntity
  8
_U+30EC_U+30A4_U+30E4_U+30FC 1
  6
AI-Linetype-1
 62
   154
420
    23468
370
    25
100
AcDb2dPolyline
 66
     1
 10
0.0
 20
0.0
 30
0.0
  0
VERTEX
  5
42
330
41
100
AcDbEntity
  8
_U+30EC_U+30A4_U+30E4_U+30FC 1
  6
AI-Linetype-1
 62
   154
420
    23468
370
    25
100
AcDbVertex
100
AcDb2dVertex
 10
54.65779999445224
 20
-96.9029402535519
 30
0.0
  0
VERTEX
  5
43
330
41
100
AcDbEntity
  8
_U+30EC_U+30A4_U+30E4_U+30FC 1
  6
AI-Linetype-1
 62
   154
420
    23468
370
    25
100
AcDbVertex
100
AcDb2dVertex
 10
54.65779999445224
 20
-82.63078609045351
 30
0.0
  0
SEQEND
  5
45
330
41
100
AcDbEntity
  8
_U+30EC_U+30A4_U+30E4_U+30FC 1
  6
AI-Linetype-1
 62
   154
420
    23468
370
    25
  0
POLYLINE
  5
46
330
1F
100
AcDbEntity
  8
_U+30EC_U+30A4_U+30E4_U+30FC 1
  6
AI-Linetype-2
 62
   154
420
    23468
370
    25
100
AcDb2dPolyline
 66
     1
 10
0.0
 20
0.0
 30
0.0
  0
VERTEX
  5
47
330
46
100
AcDbEntity
  8
_U+30EC_U+30A4_U+30E4_U+30FC 1
  6
AI-Linetype-2
 62
   154
420
    23468
370
    25
100
AcDbVertex
100
AcDb2dVertex
 10
43.23457361921636
 20
-82.35999386829894
 30
0.0
  0
VERTEX
  5
48
330
46
100
AcDbEntity
  8
_U+30EC_U+30A4_U+30E4_U+30FC 1
  6
AI-Linetype-2
 62
   154
420
    23468
370
    25
100
AcDbVertex
100
AcDb2dVertex
 10
54.56822971895959
 20
-82.35999386829894
 30
0.0
  0
SEQEND
  5
4A
330
46
100
AcDbEntity
  8
_U+30EC_U+30A4_U+30E4_U+30FC 1
  6
AI-Linetype-2
 62
   154
420
    23468
370
    25
  0
POLYLINE
  5
4B
330
1F
100
AcDbEntity
  8
_U+30EC_U+30A4_U+30E4_U+30FC 1
  6
AI-Linetype-3
 62
   154
420
    23468
370
    25
100
AcDb2dPolyline
 66
     1
 10
0.0
 20
0.0
 30
0.0
  0
VERTEX
  5
4C
330
4B
100
AcDbEntity
  8
_U+30EC_U+30A4_U+30E4_U+30FC 1
  6
AI-Linetype-3
 62
   154
420
    23468
370
    25
100
AcDbVertex
100
AcDb2dVertex
 10
55.12427803810695
 20
-97.00425803130459
 30
0.0
  0
VERTEX
  5
4D
330
4B
100
AcDbEntity
  8
_U+30EC_U+30A4_U+30E4_U+30FC 1
  6
AI-Linetype-3
 62
   154
420
    23468
370
    25
100
AcDbVertex
100
AcDb2dVertex
 10
65.43406721952675
 20
-96.13882358707653
 30
0.0
  0
SEQEND
  5
4F
330
4B
100
AcDbEntity
  8
_U+30EC_U+30A4_U+30E4_U+30FC 1
  6
AI-Linetype-3
 62
   154
420
    23468
370
    25
  0
INSERT
  5
51
330
1F
100
AcDbEntity
  8
_U+30EC_U+30A4_U+30E4_U+30FC 1
100
AcDbBlockReference
  2
block 2
 10
0.0
 20
0.0
 30
0.0
  0
POLYLINE
  5
8E
330
1F
100
AcDbEntity
  8
_U+30EC_U+30A4_U+30E4_U+30FC 1
 62
   179
420
  2234388
370
     9
100
AcDb2dPolyline
 66
     1
 10
0.0
 20
0.0
 30
0.0
  0
VERTEX
  5
8F
330
8E
100
AcDbEntity
  8
_U+30EC_U+30A4_U+30E4_U+30FC 1
 62
   179
420
  2234388
370
     9
100
AcDbVertex
100
AcDb2dVertex
 10
48.47180654115897
 20
-82.59152192379649
 30
0.0
  0
VERTEX
  5
90
330
8E
100
AcDbEntity
  8
_U+30EC_U+30A4_U+30E4_U+30FC 1
 62
   179
420
  2234388
370
     9
100
AcDbVertex
100
AcDb2dVertex
 10
43.96009637848451
 20
-102.5446330299195
 30
0.0
  0
SEQEND
  5
91
330
8E
100
AcDbEntity
  8
_U+30EC_U+30A4_U+30E4_U+30FC 1
 62
   179
420
  2234388
370
     9
  0
POLYLINE
  5
92
330
1F
100
AcDbEntity
  8
_U+30EC_U+30A4_U+30E4_U+30FC 1
 62
   179
420
  2234388
370
    25
100
AcDb2dPolyline
 66
     1
 10
0.0
 20
0.0
 30
0.0
  0
VERTEX
  5
93
330
92
100
AcDbEntity
  8
_U+30EC_U+30A4_U+30E4_U+30FC 1
 62
   179
420
  2234388
370
    25
100
AcDbVertex
100
AcDb2dVertex
 10
43.2538705631685
 20
-80.94062775754266
 30
0.0
  0
VERTEX
  5
94
330
92
100
AcDbEntity
  8
_U+30EC_U+30A4_U+30E4_U+30FC 1
 62
   179
420
  2234388
370
    25
100
AcDbVertex
100
AcDb2dVertex
 10
56.25359165260321
 20
-80.94062775754266
 30
0.0
  0
SEQEND
  5
95
330
92
100
AcDbEntity
  8
_U+30EC_U+30A4_U+30E4_U+30FC 1
 62
   179
420
  2234388
370
    25
  0
POLYLINE
  5
96
330
1F
100
AcDbEntity
  8
_U+30EC_U+30A4_U+30E4_U+30FC 1
 62
   179
420
  2234388
370
    25
100
AcDb2dPolyline
 66
     1
 10
0.0
 20
0.0
 30
0.0
  0
VERTEX
  5
97
330
96
100
AcDbEntity
  8
_U+30EC_U+30A4_U+30E4_U+30FC 1
 62
   179
420
  2234388
370
    25
100
AcDbVertex
100
AcDb2dVertex
 10
58.25380490271051
 20
-81.94039997951488
 30
0.0
  0
VERTEX
  5
98
330
96
100
AcDbEntity
  8
_U+30EC_U+30A4_U+30E4_U+30FC 1
 62
   179
420
  2234388
370
    25
100
AcDbVertex
100
AcDb2dVertex
 10
79.2537482558462
 20
-81.94039997951488
 30
0.0
  0
SEQEND
  5
99
330
96
100
AcDbEntity
  8
_U+30EC_U+30A4_U+30E4_U+30FC 1
 62
   179
420
  2234388
370
    25
  0
POLYLINE
  5
9A
330
1F
100
AcDbEntity
  8
_U+30EC_U+30A4_U+30E4_U+30FC 1
 62
   179
420
  2234388
370
    25
100
AcDb2dPolyline
 66
     1
 10
0.0
 20
0.0
 30
0.0
  0
VERTEX
  5
9B
330
9A
100
AcDbEntity
  8
_U+30EC_U+30A4_U+30E4_U+30FC 1
 62
   179
420
  2234388
370
    25
100
AcDbVertex
100
AcDb2dVertex
 10
43.2538705631685
 20
-80.94062775754266
 30
0.0
  0
VERTEX
  5
9C
330
9A
100
AcDbEntity
  8
_U+30EC_U+30A4_U+30E4_U+30FC 1
 62
   179
420
  2234388
370
    25
100
AcDbVertex
100
AcDb2dVertex
 10
43.2538705631685
 20
-81.94039997951488
 30
0.0
  0
SEQEND
  5
9D
330
9A
100
AcDbEntity
  8
_U+30EC_U+30A4_U+30E4_U+30FC 1
 62
   179
420
  2234388
370
    25
  0
POLYLINE
  5
9E
330
1F
100
AcDbEntity
  8
_U+30EC_U+30A4_U+30E4_U+30FC 1
 62
   179
420
  2234388
370
    25
100
AcDb2dPolyline
 66
     1
 10
0.0
 20
0.0
 30
0.0
  0
VERTEX
  5
9F
330
9E
100
AcDbEntity
  8
_U+30EC_U+30A4_U+30E4_U+30FC 1
 62
   179
420
  2234388
370
    25
100
AcDbVertex
100
AcDb2dVertex
 10
55.25381943063099
 20
-82.0458099794887
 30
0.0
  0
VERTEX
  5
A0
330
9E
100
AcDbEntity
  8
_U+30EC_U+30A4_U+30E4_U+30FC 1
 62
   179
420
  2234388
370
    25
100
AcDbVertex
100
AcDb2dVertex
 10
55.25381943063099
 20
-96.34622164258039
 30
0.0
  0
SEQEND
  5
A1
330
9E
100
AcDbEntity
  8
_U+30EC_U+30A4_U+30E4_U+30FC 1
 62
   179
420
  2234388
370
    25
  0
POLYLINE
  5
A2
330
1F
100
AcDbEntity
  8
_U+30EC_U+30A4_U+30E4_U+30FC 1
 62
   179
420
  2234388
370
    25
100
AcDb2dPolyline
 66
     1
 10
0.0
 20
0.0
 30
0.0
  0
VERTEX
  5
A3
330
A2
100
AcDbEntity
  8
_U+30EC_U+30A4_U+30E4_U+30FC 1
 62
   179
420
  2234388
370
    25
100
AcDbVertex
100
AcDb2dVertex
 10
65.25355083524323
 20
-95.14596580954657
 30
0.0
  0
VERTEX
  5
A4
330
A2
100
AcDbEntity
  8
_U+30EC_U+30A4_U+30E4_U+30FC 1
 62
   179
420
  2234388
370
    25
100
AcDbVertex
100
AcDb2dVertex
 10
65.25355083524323
 20
-95.64616942053276
 30
0.0
  0
SEQEND
  5
A5
330
A2
100
AcDbEntity
  8
_U+30EC_U+30A4_U+30E4_U+30FC 1
 62
   179
420
  2234388
370
    25
  0
POLYLINE
  5
A6
330
1F
100
AcDbEntity
  8
_U+30EC_U+30A4_U+30E4_U+30FC 1
 62
   179
420
  2234388
370
    25
100
AcDb2dPolyline
 66
     1
 10
0.0
 20
0.0
 30
0.0
  0
VERTEX
  5
A7
330
A6
100
AcDbEntity
  8
_U+30EC_U+30A4_U+30E4_U+30FC 1
 62
   179
420
  2234388
370
    25
100
AcDbVertex
100
AcDb2dVertex
 10
58.25380490271051
 20
-95.14596580954657
 30
0.0
  0
VERTEX
  5
A8
330
A6
100
AcDbEntity
  8
_U+30EC_U+30A4_U+30E4_U+30FC 1
 62
   179
420
  2234388
370
    25
100
AcDbVertex
100
AcDb2dVertex
 10
65.25355083524323
 20
-95.14596580954657
 30
0.0
  0
SEQEND
  5
A9
330
A6
100
AcDbEntity
  8
_U+30EC_U+30A4_U+30E4_U+30FC 1
 62
   179
420
  2234388
370
    25
  0
POLYLINE
  5
AA
330
1F
100
AcDbEntity
  8
_U+30EC_U+30A4_U+30E4_U+30FC 1
 62
   179
420
  2234388
370
    25
100
AcDb2dPolyline
 66
     1
 10
0.0
 20
0.0
 30
0.0
  0
VERTEX
  5
AB
330
AA
100
AcDbEntity
  8
_U+30EC_U+30A4_U+30E4_U+30FC 1
 62
   179
420
  2234388
370
    25
100
AcDbVertex
100
AcDb2dVertex
 10
57.25336387457543
 20
-80.94062775754266
 30
0.0
  0
VERTEX
  5
AC
330
AA
100
AcDbEntity
  8
_U+30EC_U+30A4_U+30E4_U+30FC 1
 62
   179
420
  2234388
370
    25
100
AcDbVertex
100
AcDb2dVertex
 10
79.2537482558462
 20
-80.94062775754266
 30
0.0
  0
SEQEND
  5
AD
330
AA
100
AcDbEntity
  8
_U+30EC_U+30A4_U+30E4_U+30FC 1
 62
   179
420
  2234388
370
    25
  0
POLYLINE
  5
AE
330
1F
100
AcDbEntity
  8
_U+30EC_U+30A4_U+30E4_U+30FC 1
 62
   179
420
  2234388
370
    25
100
AcDb2dPolyline
 66
     1
 10
0.0
 20
0.0
 30
0.0
  0
VERTEX
  5
AF
330
AE
100
AcDbEntity
  8
_U+30EC_U+30A4_U+30E4_U+30FC 1
 62
   179
420
  2234388
370
    25
100
AcDbVertex
100
AcDb2dVertex
 10
56.25359165260321
 20
-81.04603775751616
 30
0.0
  0
VERTEX
  5
B0
330
AE
100
AcDbEntity
  8
_U+30EC_U+30A4_U+30E4_U+30FC 1
 62
   179
420
  2234388
370
    25
100
AcDbVertex
100
AcDb2dVertex
 10
56.25359165260321
 20
-95.14596580954657
 30
0.0
  0
SEQEND
  5
B1
330
AE
100
AcDbEntity
  8
_U+30EC_U+30A4_U+30E4_U+30FC 1
 62
   179
420
  2234388
370
    25
  0
POLYLINE
  5
B2
330
1F
100
AcDbEntity
  8
_U+30EC_U+30A4_U+30E4_U+30FC 1
 62
   179
420
  2234388
370
    25
100
AcDb2dPolyline
 66
     1
 10
0.0
 20
0.0
 30
0.0
  0
VERTEX
  5
B3
330
B2
100
AcDbEntity
  8
_U+30EC_U+30A4_U+30E4_U+30FC 1
 62
   179
420
  2234388
370
    25
100
AcDbVertex
100
AcDb2dVertex
 10
57.25336387457543
 20
-81.04603775751616
 30
0.0
  0
VERTEX
  5
B4
330
B2
100
AcDbEntity
  8
_U+30EC_U+30A4_U+30E4_U+30FC 1
 62
   179
420
  2234388
370
    25
100
AcDbVertex
100
AcDb2dVertex
 10
57.25336387457543
 20
-95.14596580954657
 30
0.0
  0
SEQEND
  5
B5
330
B2
100
AcDbEntity
  8
_U+30EC_U+30A4_U+30E4_U+30FC 1
 62
   179
420
  2234388
370
    25
  0
POLYLINE
  5
B6
330
1F
100
AcDbEntity
  8
_U+30EC_U+30A4_U+30E4_U+30FC 1
 62
   179
420
  2234388
370
    25
100
AcDb2dPolyline
 66
     1
 10
0.0
 20
0.0
 30
0.0
  0
VERTEX
  5
B7
330
B6
100
AcDbEntity
  8
_U+30EC_U+30A4_U+30E4_U+30FC 1
 62
   179
420
  2234388
370
    25
100
AcDbVertex
100
AcDb2dVertex
 10
58.25380490271051
 20
-81.94039997951488
 30
0.0
  0
VERTEX
  5
B8
330
B6
100
AcDbEntity
  8
_U+30EC_U+30A4_U+30E4_U+30FC 1
 62
   179
420
  2234388
370
    25
100
AcDbVertex
100
AcDb2dVertex
 10
58.25380490271051
 20
-95.14596580954657
 30
0.0
  0
SEQEND
  5
B9
330
B6
100
AcDbEntity
  8
_U+30EC_U+30A4_U+30E4_U+30FC 1
 62
   179
420
  2234388
370
    25
  0
POLYLINE
  5
BA
330
1F
100
AcDbEntity
  8
_U+30EC_U+30A4_U+30E4_U+30FC 1
 62
   179
420
  2234388
370
    25
100
AcDb2dPolyline
 66
     1
 10
0.0
 20
0.0
 30
0.0
  0
VERTEX
  5
BB
330
BA
100
AcDbEntity
  8
_U+30EC_U+30A4_U+30E4_U+30FC 1
 62
   179
420
  2234388
370
    25
100
AcDbVertex
100
AcDb2dVertex
 10
56.25359165260321
 20
-95.14596580954657
 30
0.0
  0
VERTEX
  5
BC
330
BA
100
AcDbEntity
  8
_U+30EC_U+30A4_U+30E4_U+30FC 1
 62
   179
420
  2234388
370
    25
100
AcDbVertex
100
AcDb2dVertex
 10
57.25336387457543
 20
-95.14596580954657
 30
0.0
  0
SEQEND
  5
BD
330
BA
100
AcDbEntity
  8
_U+30EC_U+30A4_U+30E4_U+30FC 1
 62
   179
420
  2234388
370
    25
  0
POLYLINE
  5
BE
330
1F
100
AcDbEntity
  8
_U+30EC_U+30A4_U+30E4_U+30FC 1
 62
   179
420
  2234388
370
    25
100
AcDb2dPolyline
 66
     1
 10
0.0
 20
0.0
 30
0.0
  0
VERTEX
  5
BF
330
BE
100
AcDbEntity
  8
_U+30EC_U+30A4_U+30E4_U+30FC 1
 62
   179
420
  2234388
370
    25
100
AcDbVertex
100
AcDb2dVertex
 10
55.25381943063099
 20
-96.34622164258039
 30
0.0
  0
VERTEX
  5
C0
330
BE
100
AcDbEntity
  8
_U+30EC_U+30A4_U+30E4_U+30FC 1
 62
   179
420
  2234388
370
    25
100
AcDbVertex
100
AcDb2dVertex
 10
65.25355083524323
 20
-95.64616942053276
 30
0.0
  0
SEQEND
  5
C1
330
BE
100
AcDbEntity
  8
_U+30EC_U+30A4_U+30E4_U+30FC 1
 62
   179
420
  2234388
370
    25
  0
POLYLINE
  5
C2
330
1F
100
AcDbEntity
  8
_U+30EC_U+30A4_U+30E4_U+30FC 1
 62
   179
420
  2234388
370
    25
100
AcDb2dPolyline
 66
     1
 10
0.0
 20
0.0
 30
0.0
  0
VERTEX
  5
C3
330
C2
100
AcDbEntity
  8
_U+30EC_U+30A4_U+30E4_U+30FC 1
 62
   179
420
  2234388
370
    25
100
AcDbVertex
100
AcDb2dVertex
 10
79.2537482558462
 20
-80.94062775754266
 30
0.0
  0
VERTEX
  5
C4
330
C2
100
AcDbEntity
  8
_U+30EC_U+30A4_U+30E4_U+30FC 1
 62
   179
420
  2234388
370
    25
100
AcDbVertex
100
AcDb2dVertex
 10
79.2537482558462
 20
-81.94039997951488
 30
0.0
  0
SEQEND
  5
C5
330
C2
100
AcDbEntity
  8
_U+30EC_U+30A4_U+30E4_U+30FC 1
 62
   179
420
  2234388
370
    25
  0
POLYLINE
  5
C6
330
1F
100
AcDbEntity
  8
_U+30EC_U+30A4_U+30E4_U+30FC 1
 62
   179
420
  2234388
370
    25
100
AcDb2dPolyline
 66
     1
 10
0.0
 20
0.0
 30
0.0
  0
VERTEX
  5
C7
330
C6
100
AcDbEntity
  8
_U+30EC_U+30A4_U+30E4_U+30FC 1
 62
   179
420
  2234388
370
    25
100
AcDbVertex
100
AcDb2dVertex
 10
43.2538705631685
 20
-81.94039997951488
 30
0.0
  0
VERTEX
  5
C8
330
C6
100
AcDbEntity
  8
_U+30EC_U+30A4_U+30E4_U+30FC 1
 62
   179
420
  2234388
370
    25
100
AcDbVertex
100
AcDb2dVertex
 10
55.25381943063099
 20
-81.94039997951488
 30
0.0
  0
SEQEND
  5
C9
330
C6
100
AcDbEntity
  8
_U+30EC_U+30A4_U+30E4_U+30FC 1
 62
   179
420
  2234388
370
    25
  0
SPLINE
  5
CA
330
1F
100
AcDbEntity
  8
_U+30EC_U+30A4_U+30E4_U+30FC 1
 62
   179
420
  2234388
370
     9
100
AcDbSpline
210
0.0
220
0.0
230
1.0
 70
    11
 71
     3
 72
    17
 73
    13
 74
     0
 42
0.0000000001
 43
0.0000000001
 12
1.0
 22
0.0
 32
0.0
 13
1.0
 23
0.0
 33
0.0
 40
0.0
 40
0.0
 40
0.0
 40
0.0
 40
1.0
 40
1.0
 40
1.0
 40
2.0
 40
2.0
 40
2.0
 40
3.0
 40
3.0
 40
3.0
 40
4.0
 40
4.0
 40
4.0
 40
4.0
 10
83.35337870681148
 20
-81.07221386862074
 30
0.0
 10
83.35337870681148
 20
-81.01710997974581
 30
0.0
 10
83.30861120795359
 20
-80.97230720197909
 30
0.0
 10
83.25347204269364
 20
-80.97230720197909
 30
0.0
 10
83.19836815521057
 20
-80.97230720197909
 30
0.0
 10
83.1535653785758
 20
-81.01710997974581
 30
0.0
 10
83.1535653785758
 20
-81.07221386862074
 30
0.0
 10
83.1535653785758
 20
-81.12735303527381
 30
0.0
 10
83.19836815521057
 20
-81.17212053526237
 30
0.0
 10
83.25347204269364
 20
-81.17212053526237
 30
0.0
 10
83.30861120795359
 20
-81.17212053526237
 30
0.0
 10
83.35337870681148
 20
-81.12735303527381
 30
0.0
 10
83.35337870681148
 20
-81.07221386862074
 30
0.0
  0
SPLINE
  5
CB
330
1F
100
AcDbEntity
  8
_U+30EC_U+30A4_U+30E4_U+30FC 1
 62
   179
420
  2234388
370
     9
100
AcDbSpline
210
0.0
220
0.0
230
1.0
 70
    11
 71
     3
 72
    17
 73
    13
 74
     0
 42
0.0000000001
 43
0.0000000001
 12
1.0
 22
0.0
 32
0.0
 13
1.0
 23
0.0
 33
0.0
 40
0.0
 40
0.0
 40
0.0
 40
0.0
 40
1.0
 40
1.0
 40
1.0
 40
2.0
 40
2.0
 40
2.0
 40
3.0
 40
3.0
 40
3.0
 40
4.0
 40
4.0
 40
4.0
 40
4.0
 10
83.35337870681148
 20
-82.07198609059327
 30
0.0
 10
83.35337870681148
 20
-82.01688220171803
 30
0.0
 10
83.30861120795359
 20
-81.97207942395131
 30
0.0
 10
83.25347204269364
 20
-81.97207942395131
 30
0.0
 10
83.19836815521057
 20
-81.97207942395131
 30
0.0
 10
83.1535653785758
 20
-82.01688220171803
 30
0.0
 10
83.1535653785758
 20
-82.07198609059327
 30
0.0
 10
83.1535653785758
 20
-82.12712525724604
 30
0.0
 10
83.19836815521057
 20
-82.17189275723491
 30
0.0
 10
83.25347204269364
 20
-82.17189275723491
 30
0.0
 10
83.30861120795359
 20
-82.17189275723491
 30
0.0
 10
83.35337870681148
 20
-82.12712525724604
 30
0.0
 10
83.35337870681148
 20
-82.07198609059327
 30
0.0
  0
SPLINE
  5
CC
330
1F
100
AcDbEntity
  8
_U+30EC_U+30A4_U+30E4_U+30FC 1
 62
   179
420
  2234388
370
    25
100
AcDbSpline
210
0.0
220
0.0
230
1.0
 70
    11
 71
     3
 72
    17
 73
    13
 74
     0
 42
0.0000000001
 43
0.0000000001
 12
1.0
 22
0.0
 32
0.0
 13
1.0
 23
0.0
 33
0.0
 40
0.0
 40
0.0
 40
0.0
 40
0.0
 40
1.0
 40
1.0
 40
1.0
 40
2.0
 40
2.0
 40
2.0
 40
3.0
 40
3.0
 40
3.0
 40
4.0
 40
4.0
 40
4.0
 40
4.0
 10
43.35377722728633
 20
-77.64642414725495
 30
0.0
 10
43.35377722728633
 20
-77.59061470282451
 30
0.0
 10
43.30897445065157
 20
-77.5458119250581
 30
0.0
 10
43.2538705631685
 20
-77.5458119250581
 30
0.0
 10
43.19806112014787
 20
-77.5458119250581
 30
0.0
 10
43.1532583435131
 20
-77.59061470282451
 30
0.0
 10
43.1532583435131
 20
-77.64642414725495
 30
0.0
 10
43.1532583435131
 20
-77.70152803613018
 30
0.0
 10
43.19806112014787
 20
-77.7463308138969
 30
0.0
 10
43.2538705631685
 20
-77.7463308138969
 30
0.0
 10
43.30897445065157
 20
-77.7463308138969
 30
0.0
 10
43.35377722728633
 20
-77.70152803613018
 30
0.0
 10
43.35377722728633
 20
-77.64642414725495
 30
0.0
  0
SPLINE
  5
CD
330
1F
100
AcDbEntity
  8
_U+30EC_U+30A4_U+30E4_U+30FC 1
 62
   179
420
  2234388
370
     9
100
AcDbSpline
210
0.0
220
0.0
230
1.0
 70
    11
 71
     3
 72
    17
 73
    13
 74
     0
 42
0.0000000001
 43
0.0000000001
 12
1.0
 22
0.0
 32
0.0
 13
1.0
 23
0.0
 33
0.0
 40
0.0
 40
0.0
 40
0.0
 40
0.0
 40
1.0
 40
1.0
 40
1.0
 40
2.0
 40
2.0
 40
2.0
 40
3.0
 40
3.0
 40
3.0
 40
4.0
 40
4.0
 40
4.0
 40
4.0
 10
65.35345749936106
 20
-100.3466863638021
 30
0.0
 10
65.35345749936106
 20
-100.2915471971491
 30
0.0
 10
65.30869165033964
 20
-100.2467796971605
 30
0.0
 10
65.25355083524323
 20
-100.2467796971605
 30
0.0
 10
65.19844694776016
 20
-100.2467796971605
 30
0.0
 10
65.15364417112539
 20
-100.2915471971491
 30
0.0
 10
65.15364417112539
 20
-100.3466863638021
 30
0.0
 10
65.15364417112539
 20
-100.4017902526771
 30
0.0
 10
65.19844694776016
 20
-100.4465930304438
 30
0.0
 10
65.25355083524323
 20
-100.4465930304438
 30
0.0
 10
65.30869165033964
 20
-100.4465930304438
 30
0.0
 10
65.35345749936106
 20
-100.4017902526771
 30
0.0
 10
65.35345749936106
 20
-100.3466863638021
 30
0.0
  0
SPLINE
  5
CE
330
1F
100
AcDbEntity
  8
_U+30EC_U+30A4_U+30E4_U+30FC 1
 62
   179
420
  2234388
370
     9
100
AcDbSpline
210
0.0
220
0.0
230
1.0
 70
    11
 71
     3
 72
    17
 73
    13
 74
     0
 42
0.0000000001
 43
0.0000000001
 12
1.0
 22
0.0
 32
0.0
 13
1.0
 23
0.0
 33
0.0
 40
0.0
 40
0.0
 40
0.0
 40
0.0
 40
1.0
 40
1.0
 40
1.0
 40
2.0
 40
2.0
 40
2.0
 40
3.0
 40
3.0
 40
3.0
 40
4.0
 40
4.0
 40
4.0
 40
4.0
 10
55.35372469891994
 20
-100.3466863638021
 30
0.0
 10
55.35372469891994
 20
-100.2915471971491
 30
0.0
 10
55.30895720006206
 20
-100.2467796971605
 30
0.0
 10
55.25381943063099
 20
-100.2467796971605
 30
0.0
 10
55.19800859178148
 20
-100.2467796971605
 30
0.0
 10
55.15320581514672
 20
-100.2915471971491
 30
0.0
 10
55.15320581514672
 20
-100.3466863638021
 30
0.0
 10
55.15320581514672
 20
-100.4017902526771
 30
0.0
 10
55.19800859178148
 20
-100.4465930304438
 30
0.0
 10
55.25381943063099
 20
-100.4465930304438
 30
0.0
 10
55.30895720006206
 20
-100.4465930304438
 30
0.0
 10
55.35372469891994
 20
-100.4017902526771
 30
0.0
 10
55.35372469891994
 20
-100.3466863638021
 30
0.0
  0
SPLINE
  5
CF
330
1F
100
AcDbEntity
  8
_U+30EC_U+30A4_U+30E4_U+30FC 1
 62
   179
420
  2234388
370
     9
100
AcDbSpline
210
0.0
220
0.0
230
1.0
 70
    11
 71
     3
 72
    17
 73
    13
 74
     0
 42
0.0000000001
 43
0.0000000001
 12
1.0
 22
0.0
 32
0.0
 13
1.0
 23
0.0
 33
0.0
 40
0.0
 40
0.0
 40
0.0
 40
0.0
 40
1.0
 40
1.0
 40
1.0
 40
2.0
 40
2.0
 40
2.0
 40
3.0
 40
3.0
 40
3.0
 40
4.0
 40
4.0
 40
4.0
 40
4.0
 10
43.35377722728633
 20
-100.3466863638021
 30
0.0
 10
43.35377722728633
 20
-100.2915471971491
 30
0.0
 10
43.30897445065157
 20
-100.2467796971605
 30
0.0
 10
43.2538705631685
 20
-100.2467796971605
 30
0.0
 10
43.19806112014787
 20
-100.2467796971605
 30
0.0
 10
43.1532583435131
 20
-100.2915471971491
 30
0.0
 10
43.1532583435131
 20
-100.3466863638021
 30
0.0
 10
43.1532583435131
 20
-100.4017902526771
 30
0.0
 10
43.19806112014787
 20
-100.4465930304438
 30
0.0
 10
43.2538705631685
 20
-100.4465930304438
 30
0.0
 10
43.30897445065157
 20
-100.4465930304438
 30
0.0
 10
43.35377722728633
 20
-100.4017902526771
 30
0.0
 10
43.35377722728633
 20
-100.3466863638021
 30
0.0
  0
SPLINE
  5
D0
330
1F
100
AcDbEntity
  8
_U+30EC_U+30A4_U+30E4_U+30FC 1
 62
   179
420
  2234388
370
     9
100
AcDbSpline
210
0.0
220
0.0
230
1.0
 70
    11
 71
     3
 72
    17
 73
    13
 74
     0
 42
0.0000000001
 43
0.0000000001
 12
1.0
 22
0.0
 32
0.0
 13
1.0
 23
0.0
 33
0.0
 40
0.0
 40
0.0
 40
0.0
 40
0.0
 40
1.0
 40
1.0
 40
1.0
 40
2.0
 40
2.0
 40
2.0
 40
3.0
 40
3.0
 40
3.0
 40
4.0
 40
4.0
 40
4.0
 40
4.0
 10
69.35321656398537
 20
-95.14596580954657
 30
0.0
 10
69.35321656398537
 20
-95.09082664289413
 30
0.0
 10
69.3084137873506
 20
-95.04605914290494
 30
0.0
 10
69.25330989986753
 20
-95.04605914290494
 30
0.0
 10
69.19817073460759
 20
-95.04605914290494
 30
0.0
 10
69.1534032357497
 20
-95.09082664289413
 30
0.0
 10
69.1534032357497
 20
-95.14596580954657
 30
0.0
 10
69.1534032357497
 20
-95.20106969842213
 30
0.0
 10
69.19817073460759
 20
-95.24587247618885
 30
0.0
 10
69.25330989986753
 20
-95.24587247618885
 30
0.0
 10
69.3084137873506
 20
-95.24587247618885
 30
0.0
 10
69.35321656398537
 20
-95.20106969842213
 30
0.0
 10
69.35321656398537
 20
-95.14596580954657
 30
0.0
  0
SPLINE
  5
D1
330
1F
100
AcDbEntity
  8
_U+30EC_U+30A4_U+30E4_U+30FC 1
 62
   179
420
  2234388
370
     9
100
AcDbSpline
210
0.0
220
0.0
230
1.0
 70
    11
 71
     3
 72
    17
 73
    13
 74
     0
 42
0.0000000001
 43
0.0000000001
 12
1.0
 22
0.0
 32
0.0
 13
1.0
 23
0.0
 33
0.0
 40
0.0
 40
0.0
 40
0.0
 40
0.0
 40
1.0
 40
1.0
 40
1.0
 40
2.0
 40
2.0
 40
2.0
 40
3.0
 40
3.0
 40
3.0
 40
4.0
 40
4.0
 40
4.0
 40
4.0
 10
69.35321656398537
 20
-95.64616942053276
 30
0.0
 10
69.35321656398537
 20
-95.59106553165785
 30
0.0
 10
69.3084137873506
 20
-95.54626275389113
 30
0.0
 10
69.25330989986753
 20
-95.54626275389113
 30
0.0
 10
69.19817073460759
 20
-95.54626275389113
 30
0.0
 10
69.1534032357497
 20
-95.59106553165785
 30
0.0
 10
69.1534032357497
 20
-95.64616942053276
 30
0.0
 10
69.1534032357497
 20
-95.70201414274136
 30
0.0
 10
69.19817073460759
 20
-95.74678164272993
 30
0.0
 10
69.25330989986753
 20
-95.74678164272993
 30
0.0
 10
69.3084137873506
 20
-95.74678164272993
 30
0.0
 10
69.35321656398537
 20
-95.70201414274136
 30
0.0
 10
69.35321656398537
 20
-95.64616942053276
 30
0.0
  0
SPLINE
  5
D2
330
1F
100
AcDbEntity
  8
_U+30EC_U+30A4_U+30E4_U+30FC 1
 62
   179
420
  2234388
370
     9
100
AcDbSpline
210
0.0
220
0.0
230
1.0
 70
    11
 71
     3
 72
    17
 73
    13
 74
     0
 42
0.0000000001
 43
0.0000000001
 12
1.0
 22
0.0
 32
0.0
 13
1.0
 23
0.0
 33
0.0
 40
0.0
 40
0.0
 40
0.0
 40
0.0
 40
1.0
 40
1.0
 40
1.0
 40
2.0
 40
2.0
 40
2.0
 40
3.0
 40
3.0
 40
3.0
 40
4.0
 40
4.0
 40
4.0
 40
4.0
 10
83.35337870681148
 20
-95.14596580954657
 30
0.0
 10
83.35337870681148
 20
-95.09082664289413
 30
0.0
 10
83.30861120795359
 20
-95.04605914290494
 30
0.0
 10
83.25347204269364
 20
-95.04605914290494
 30
0.0
 10
83.19836815521057
 20
-95.04605914290494
 30
0.0
 10
83.1535653785758
 20
-95.09082664289413
 30
0.0
 10
83.1535653785758
 20
-95.14596580954657
 30
0.0
 10
83.1535653785758
 20
-95.20106969842213
 30
0.0
 10
83.19836815521057
 20
-95.24587247618885
 30
0.0
 10
83.25347204269364
 20
-95.24587247618885
 30
0.0
 10
83.30861120795359
 20
-95.24587247618885
 30
0.0
 10
83.35337870681148
 20
-95.20106969842213
 30
0.0
 10
83.35337870681148
 20
-95.14596580954657
 30
0.0
  0
SPLINE
  5
D3
330
1F
100
AcDbEntity
  8
_U+30EC_U+30A4_U+30E4_U+30FC 1
 62
   179
420
  2234388
370
    25
100
AcDbSpline
210
0.0
220
0.0
230
1.0
 70
    11
 71
     3
 72
    17
 73
    13
 74
     0
 42
0.0000000001
 43
0.0000000001
 12
1.0
 22
0.0
 32
0.0
 13
1.0
 23
0.0
 33
0.0
 40
0.0
 40
0.0
 40
0.0
 40
0.0
 40
1.0
 40
1.0
 40
1.0
 40
2.0
 40
2.0
 40
2.0
 40
3.0
 40
3.0
 40
3.0
 40
4.0
 40
4.0
 40
4.0
 40
4.0
 10
79.35365491996404
 20
-77.64642414725495
 30
0.0
 10
79.35365491996404
 20
-77.59061470282451
 30
0.0
 10
79.30885214332929
 20
-77.5458119250581
 30
0.0
 10
79.2537482558462
 20
-77.5458119250581
 30
0.0
 10
79.19790553575594
 20
-77.5458119250581
 30
0.0
 10
79.15313603619082
 20
-77.59061470282451
 30
0.0
 10
79.15313603619082
 20
-77.64642414725495
 30
0.0
 10
79.15313603619082
 20
-77.70152803613018
 30
0.0
 10
79.19790553575594
 20
-77.7463308138969
 30
0.0
 10
79.2537482558462
 20
-77.7463308138969
 30
0.0
 10
79.30885214332929
 20
-77.7463308138969
 30
0.0
 10
79.35365491996404
 20
-77.70152803613018
 30
0.0
 10
79.35365491996404
 20
-77.64642414725495
 30
0.0
  0
POLYLINE
  5
D4
330
1F
100
AcDbEntity
  8
_U+30EC_U+30A4_U+30E4_U+30FC 1
 62
   179
420
  2234388
370
     9
100
AcDb2dPolyline
 66
     1
 10
0.0
 20
0.0
 30
0.0
  0
VERTEX
  5
D5
330
D4
100
AcDbEntity
  8
_U+30EC_U+30A4_U+30E4_U+30FC 1
 62
   179
420
  2234388
370
     9
100
AcDbVertex
100
AcDb2dVertex
 10
83.25347204269364
 20
-81.07221386862074
 30
0.0
  0
VERTEX
  5
D6
330
D4
100
AcDbEntity
  8
_U+30EC_U+30A4_U+30E4_U+30FC 1
 62
   179
420
  2234388
370
     9
100
AcDbVertex
100
AcDb2dVertex
 10
83.25347204269364
 20
-77.30190136956331
 30
0.0
  0
SEQEND
  5
D7
330
D4
100
AcDbEntity
  8
_U+30EC_U+30A4_U+30E4_U+30FC 1
 62
   179
420
  2234388
370
     9
  0
POLYLINE
  5
D8
330
1F
100
AcDbEntity
  8
_U+30EC_U+30A4_U+30E4_U+30FC 1
 62
   179
420
  2234388
370
     9
100
AcDb2dPolyline
 66
     1
 10
0.0
 20
0.0
 30
0.0
  0
VERTEX
  5
D9
330
D8
100
AcDbEntity
  8
_U+30EC_U+30A4_U+30E4_U+30FC 1
 62
   179
420
  2234388
370
     9
100
AcDbVertex
100
AcDb2dVertex
 10
83.25347204269364
 20
-81.07221386862074
 30
0.0
  0
VERTEX
  5
DA
330
D8
100
AcDbEntity
  8
_U+30EC_U+30A4_U+30E4_U+30FC 1
 62
   179
420
  2234388
370
     9
100
AcDbVertex
100
AcDb2dVertex
 10
83.25347204269364
 20
-82.07198609059327
 30
0.0
  0
SEQEND
  5
DB
330
D8
100
AcDbEntity
  8
_U+30EC_U+30A4_U+30E4_U+30FC 1
 62
   179
420
  2234388
370
     9
  0
POLYLINE
  5
DC
330
1F
100
AcDbEntity
  8
_U+30EC_U+30A4_U+30E4_U+30FC 1
 62
   179
420
  2234388
370
     9
100
AcDb2dPolyline
 66
     1
 10
0.0
 20
0.0
 30
0.0
  0
VERTEX
  5
DD
330
DC
100
AcDbEntity
  8
_U+30EC_U+30A4_U+30E4_U+30FC 1
 62
   179
420
  2234388
370
     9
100
AcDbVertex
100
AcDb2dVertex
 10
81.79346596883039
 20
-81.07221386862074
 30
0.0
  0
VERTEX
  5
DE
330
DC
100
AcDbEntity
  8
_U+30EC_U+30A4_U+30E4_U+30FC 1
 62
   179
420
  2234388
370
     9
100
AcDbVertex
100
AcDb2dVertex
 10
84.25324423940955
 20
-81.07221386862074
 30
0.0
  0
SEQEND
  5
DF
330
DC
100
AcDbEntity
  8
_U+30EC_U+30A4_U+30E4_U+30FC 1
 62
   179
420
  2234388
370
     9
  0
POLYLINE
  5
E0
330
1F
100
AcDbEntity
  8
_U+30EC_U+30A4_U+30E4_U+30FC 1
 62
   179
420
  2234388
370
     9
100
AcDb2dPolyline
 66
     1
 10
0.0
 20
0.0
 30
0.0
  0
VERTEX
  5
E1
330
E0
100
AcDbEntity
  8
_U+30EC_U+30A4_U+30E4_U+30FC 1
 62
   179
420
  2234388
370
     9
100
AcDbVertex
100
AcDb2dVertex
 10
81.79346596883039
 20
-82.07198609059327
 30
0.0
  0
VERTEX
  5
E2
330
E0
100
AcDbEntity
  8
_U+30EC_U+30A4_U+30E4_U+30FC 1
 62
   179
420
  2234388
370
     9
100
AcDbVertex
100
AcDb2dVertex
 10
84.25324423940955
 20
-82.07198609059327
 30
0.0
  0
SEQEND
  5
E3
330
E0
100
AcDbEntity
  8
_U+30EC_U+30A4_U+30E4_U+30FC 1
 62
   179
420
  2234388
370
     9
  0
INSERT
  5
E5
330
1F
100
AcDbEntity
  8
_U+30EC_U+30A4_U+30E4_U+30FC 1
100
AcDbBlockReference
  2
block 3
 10
0.0
 20
0.0
 30
0.0
  0
POLYLINE
  5
EA
330
1F
100
AcDbEntity
  8
_U+30EC_U+30A4_U+30E4_U+30FC 1
 62
   179
420
  2234388
370
     9
100
AcDb2dPolyline
 66
     1
 10
0.0
 20
0.0
 30
0.0
  0
VERTEX
  5
EB
330
EA
100
AcDbEntity
  8
_U+30EC_U+30A4_U+30E4_U+30FC 1
 62
   179
420
  2234388
370
     9
100
AcDbVertex
100
AcDb2dVertex
 10
69.25330989986753
 20
-95.34644942060785
 30
0.0
  0
VERTEX
  5
EC
330
EA
100
AcDbEntity
  8
_U+30EC_U+30A4_U+30E4_U+30FC 1
 62
   179
420
  2234388
370
     9
100
AcDbVertex
100
AcDb2dVertex
 10
69.25330989986753
 20
-90.08854358858893
 30
0.0
  0
SEQEND
  5
ED
330
EA
100
AcDbEntity
  8
_U+30EC_U+30A4_U+30E4_U+30FC 1
 62
   179
420
  2234388
370
     9
  0
POLYLINE
  5
EE
330
1F
100
AcDbEntity
  8
_U+30EC_U+30A4_U+30E4_U+30FC 1
 62
   179
420
  2234388
370
     9
100
AcDb2dPolyline
 66
     1
 10
0.0
 20
0.0
 30
0.0
  0
VERTEX
  5
EF
330
EE
100
AcDbEntity
  8
_U+30EC_U+30A4_U+30E4_U+30FC 1
 62
   179
420
  2234388
370
     9
100
AcDbVertex
100
AcDb2dVertex
 10
69.25330989986753
 20
-95.34644942060785
 30
0.0
  0
VERTEX
  5
F0
330
EE
100
AcDbEntity
  8
_U+30EC_U+30A4_U+30E4_U+30FC 1
 62
   179
420
  2234388
370
     9
100
AcDbVertex
100
AcDb2dVertex
 10
69.25330989986753
 20
-96.64664719806083
 30
0.0
  0
SEQEND
  5
F1
330
EE
100
AcDbEntity
  8
_U+30EC_U+30A4_U+30E4_U+30FC 1
 62
   179
420
  2234388
370
     9
  0
POLYLINE
  5
F2
330
1F
100
AcDbEntity
  8
_U+30EC_U+30A4_U+30E4_U+30FC 1
 62
   179
420
  2234388
370
     9
100
AcDb2dPolyline
 66
     1
 10
0.0
 20
0.0
 30
0.0
  0
VERTEX
  5
F3
330
F2
100
AcDbEntity
  8
_U+30EC_U+30A4_U+30E4_U+30FC 1
 62
   179
420
  2234388
370
     9
100
AcDbVertex
100
AcDb2dVertex
 10
67.7932685482274
 20
-95.14596580954657
 30
0.0
  0
VERTEX
  5
F4
330
F2
100
AcDbEntity
  8
_U+30EC_U+30A4_U+30E4_U+30FC 1
 62
   179
420
  2234388
370
     9
100
AcDbVertex
100
AcDb2dVertex
 10
70.25375237434412
 20
-95.14596580954657
 30
0.0
  0
SEQEND
  5
F5
330
F2
100
AcDbEntity
  8
_U+30EC_U+30A4_U+30E4_U+30FC 1
 62
   179
420
  2234388
370
     9
  0
POLYLINE
  5
F6
330
1F
100
AcDbEntity
  8
_U+30EC_U+30A4_U+30E4_U+30FC 1
 62
   179
420
  2234388
370
     9
100
AcDb2dPolyline
 66
     1
 10
0.0
 20
0.0
 30
0.0
  0
VERTEX
  5
F7
330
F6
100
AcDbEntity
  8
_U+30EC_U+30A4_U+30E4_U+30FC 1
 62
   179
420
  2234388
370
     9
100
AcDbVertex
100
AcDb2dVertex
 10
67.7932685482274
 20
-95.64616942053276
 30
0.0
  0
VERTEX
  5
F8
330
F6
100
AcDbEntity
  8
_U+30EC_U+30A4_U+30E4_U+30FC 1
 62
   179
420
  2234388
370
     9
100
AcDbVertex
100
AcDb2dVertex
 10
70.25375237434412
 20
-95.64616942053276
 30
0.0
  0
SEQEND
  5
F9
330
F6
100
AcDbEntity
  8
_U+30EC_U+30A4_U+30E4_U+30FC 1
 62
   179
420
  2234388
370
     9
  0
INSERT
  5
FB
330
1F
100
AcDbEntity
  8
_U+30EC_U+30A4_U+30E4_U+30FC 1
100
AcDbBlockReference
  2
block 4
 10
0.0
 20
0.0
 30
0.0
  0
POLYLINE
  5
10B
330
1F
100
AcDbEntity
  8
_U+30EC_U+30A4_U+30E4_U+30FC 1
 62
   179
420
  2234388
370
     9
100
AcDb2dPolyline
 66
     1
 10
0.0
 20
0.0
 30
0.0
  0
VERTEX
  5
10C
330
10B
100
AcDbEntity
  8
_U+30EC_U+30A4_U+30E4_U+30FC 1
 62
   179
420
  2234388
370
     9
100
AcDbVertex
100
AcDb2dVertex
 10
55.25381943063099
 20
-100.3466863638021
 30
0.0
  0
VERTEX
  5
10D
330
10B
100
AcDbEntity
  8
_U+30EC_U+30A4_U+30E4_U+30FC 1
 62
   179
420
  2234388
370
     9
100
AcDbVertex
100
AcDb2dVertex
 10
65.25355083524323
 20
-100.3466863638021
 30
0.0
  0
SEQEND
  5
10E
330
10B
100
AcDbEntity
  8
_U+30EC_U+30A4_U+30E4_U+30FC 1
 62
   179
420
  2234388
370
     9
  0
POLYLINE
  5
10F
330
1F
100
AcDbEntity
  8
_U+30EC_U+30A4_U+30E4_U+30FC 1
 62
   179
420
  2234388
370
     9
100
AcDb2dPolyline
 66
     1
 10
0.0
 20
0.0
 30
0.0
  0
VERTEX
  5
110
330
10F
100
AcDbEntity
  8
_U+30EC_U+30A4_U+30E4_U+30FC 1
 62
   179
420
  2234388
370
     9
100
AcDbVertex
100
AcDb2dVertex
 10
55.25381943063099
 20
-98.88664497527844
 30
0.0
  0
VERTEX
  5
111
330
10F
100
AcDbEntity
  8
_U+30EC_U+30A4_U+30E4_U+30FC 1
 62
   179
420
  2234388
370
     9
100
AcDbVertex
100
AcDb2dVertex
 10
55.25381943063099
 20
-101.3464585857747
 30
0.0
  0
SEQEND
  5
112
330
10F
100
AcDbEntity
  8
_U+30EC_U+30A4_U+30E4_U+30FC 1
 62
   179
420
  2234388
370
     9
  0
POLYLINE
  5
113
330
1F
100
AcDbEntity
  8
_U+30EC_U+30A4_U+30E4_U+30FC 1
 62
   179
420
  2234388
370
     9
100
AcDb2dPolyline
 66
     1
 10
0.0
 20
0.0
 30
0.0
  0
VERTEX
  5
114
330
113
100
AcDbEntity
  8
_U+30EC_U+30A4_U+30E4_U+30FC 1
 62
   179
420
  2234388
370
     9
100
AcDbVertex
100
AcDb2dVertex
 10
65.25355083524323
 20
-98.18659275323083
 30
0.0
  0
VERTEX
  5
115
330
113
100
AcDbEntity
  8
_U+30EC_U+30A4_U+30E4_U+30FC 1
 62
   179
420
  2234388
370
     9
100
AcDbVertex
100
AcDb2dVertex
 10
65.25355083524323
 20
-101.3464585857747
 30
0.0
  0
SEQEND
  5
116
330
113
100
AcDbEntity
  8
_U+30EC_U+30A4_U+30E4_U+30FC 1
 62
   179
420
  2234388
370
     9
  0
INSERT
  5
118
330
1F
100
AcDbEntity
  8
_U+30EC_U+30A4_U+30E4_U+30FC 1
100
AcDbBlockReference
  2
block 5
 10
0.0
 20
0.0
 30
0.0
  0
POLYLINE
  5
120
330
1F
100
AcDbEntity
  8
_U+30EC_U+30A4_U+30E4_U+30FC 1
 62
   179
420
  2234388
370
     9
100
AcDb2dPolyline
 66
     1
 10
0.0
 20
0.0
 30
0.0
  0
VERTEX
  5
121
330
120
100
AcDbEntity
  8
_U+30EC_U+30A4_U+30E4_U+30FC 1
 62
   179
420
  2234388
370
     9
100
AcDbVertex
100
AcDb2dVertex
 10
43.2538705631685
 20
-100.3466863638021
 30
0.0
  0
VERTEX
  5
122
330
120
100
AcDbEntity
  8
_U+30EC_U+30A4_U+30E4_U+30FC 1
 62
   179
420
  2234388
370
     9
100
AcDbVertex
100
AcDb2dVertex
 10
55.25381943063099
 20
-100.3466863638021
 30
0.0
  0
SEQEND
  5
123
330
120
100
AcDbEntity
  8
_U+30EC_U+30A4_U+30E4_U+30FC 1
 62
   179
420
  2234388
370
     9
  0
POLYLINE
  5
124
330
1F
100
AcDbEntity
  8
_U+30EC_U+30A4_U+30E4_U+30FC 1
 62
   179
420
  2234388
370
     9
100
AcDb2dPolyline
 66
     1
 10
0.0
 20
0.0
 30
0.0
  0
VERTEX
  5
125
330
124
100
AcDbEntity
  8
_U+30EC_U+30A4_U+30E4_U+30FC 1
 62
   179
420
  2234388
370
     9
100
AcDbVertex
100
AcDb2dVertex
 10
43.2538705631685
 20
-85.18634358981458
 30
0.0
  0
VERTEX
  5
126
330
124
100
AcDbEntity
  8
_U+30EC_U+30A4_U+30E4_U+30FC 1
 62
   179
420
  2234388
370
     9
100
AcDbVertex
100
AcDb2dVertex
 10
43.2538705631685
 20
-101.3464585857747
 30
0.0
  0
SEQEND
  5
127
330
124
100
AcDbEntity
  8
_U+30EC_U+30A4_U+30E4_U+30FC 1
 62
   179
420
  2234388
370
     9
  0
INSERT
  5
129
330
1F
100
AcDbEntity
  8
_U+30EC_U+30A4_U+30E4_U+30FC 1
100
AcDbBlockReference
  2
block 6
 10
0.0
 20
0.0
 30
0.0
  0
POLYLINE
  5
130
330
1F
100
AcDbEntity
  8
_U+30EC_U+30A4_U+30E4_U+30FC 1
 62
   179
420
  2234388
370
     9
100
AcDb2dPolyline
 66
     1
 10
0.0
 20
0.0
 30
0.0
  0
VERTEX
  5
131
330
130
100
AcDbEntity
  8
_U+30EC_U+30A4_U+30E4_U+30FC 1
 62
   179
420
  2234388
370
     9
100
AcDbVertex
100
AcDb2dVertex
 10
43.2538705631685
 20
-77.64642414725495
 30
0.0
  0
VERTEX
  5
132
330
130
100
AcDbEntity
  8
_U+30EC_U+30A4_U+30E4_U+30FC 1
 62
   179
420
  2234388
370
     9
100
AcDbVertex
100
AcDb2dVertex
 10
79.2537482558462
 20
-77.64642414725495
 30
0.0
  0
SEQEND
  5
133
330
130
100
AcDbEntity
  8
_U+30EC_U+30A4_U+30E4_U+30FC 1
 62
   179
420
  2234388
370
     9
  0
POLYLINE
  5
134
330
1F
100
AcDbEntity
  8
_U+30EC_U+30A4_U+30E4_U+30FC 1
 62
   179
420
  2234388
370
     9
100
AcDb2dPolyline
 66
     1
 10
0.0
 20
0.0
 30
0.0
  0
VERTEX
  5
135
330
134
100
AcDbEntity
  8
_U+30EC_U+30A4_U+30E4_U+30FC 1
 62
   179
420
  2234388
370
     9
100
AcDbVertex
100
AcDb2dVertex
 10
43.2538705631685
 20
-79.10575998022345
 30
0.0
  0
VERTEX
  5
136
330
134
100
AcDbEntity
  8
_U+30EC_U+30A4_U+30E4_U+30FC 1
 62
   179
420
  2234388
370
     9
100
AcDbVertex
100
AcDb2dVertex
 10
43.2538705631685
 20
-76.64598164750504
 30
0.0
  0
SEQEND
  5
137
330
134
100
AcDbEntity
  8
_U+30EC_U+30A4_U+30E4_U+30FC 1
 62
   179
420
  2234388
370
     9
  0
POLYLINE
  5
138
330
1F
100
AcDbEntity
  8
_U+30EC_U+30A4_U+30E4_U+30FC 1
 62
   179
420
  2234388
370
     9
100
AcDb2dPolyline
 66
     1
 10
0.0
 20
0.0
 30
0.0
  0
VERTEX
  5
139
330
138
100
AcDbEntity
  8
_U+30EC_U+30A4_U+30E4_U+30FC 1
 62
   179
420
  2234388
370
     9
100
AcDbVertex
100
AcDb2dVertex
 10
79.2537482558462
 20
-79.10575998022345
 30
0.0
  0
VERTEX
  5
13A
330
138
100
AcDbEntity
  8
_U+30EC_U+30A4_U+30E4_U+30FC 1
 62
   179
420
  2234388
370
     9
100
AcDbVertex
100
AcDb2dVertex
 10
79.2537482558462
 20
-76.64598164750504
 30
0.0
  0
SEQEND
  5
13B
330
138
100
AcDbEntity
  8
_U+30EC_U+30A4_U+30E4_U+30FC 1
 62
   179
420
  2234388
370
     9
  0
INSERT
  5
13D
330
1F
100
AcDbEntity
  8
_U+30EC_U+30A4_U+30E4_U+30FC 1
100
AcDbBlockReference
  2
block 7
 10
0.0
 20
0.0
 30
0.0
  0
POLYLINE
  5
144
330
1F
100
AcDbEntity
  8
_U+30EC_U+30A4_U+30E4_U+30FC 1
 62
   179
420
  2234388
370
     9
100
AcDb2dPolyline
 66
     1
 10
0.0
 20
0.0
 30
0.0
  0
VERTEX
  5
145
330
144
100
AcDbEntity
  8
_U+30EC_U+30A4_U+30E4_U+30FC 1
 62
   179
420
  2234388
370
     9
100
AcDbVertex
100
AcDb2dVertex
 10
83.25347204269364
 20
-82.14642220168554
 30
0.0
  0
VERTEX
  5
146
330
144
100
AcDbEntity
  8
_U+30EC_U+30A4_U+30E4_U+30FC 1
 62
   179
420
  2234388
370
     9
100
AcDbVertex
100
AcDb2dVertex
 10
83.25347204269364
 20
-95.14596580954657
 30
0.0
  0
SEQEND
  5
147
330
144
100
AcDbEntity
  8
_U+30EC_U+30A4_U+30E4_U+30FC 1
 62
   179
420
  2234388
370
     9
  0
POLYLINE
  5
148
330
1F
100
AcDbEntity
  8
_U+30EC_U+30A4_U+30E4_U+30FC 1
 62
   179
420
  2234388
370
     9
100
AcDb2dPolyline
 66
     1
 10
0.0
 20
0.0
 30
0.0
  0
VERTEX
  5
149
330
148
100
AcDbEntity
  8
_U+30EC_U+30A4_U+30E4_U+30FC 1
 62
   179
420
  2234388
370
     9
100
AcDbVertex
100
AcDb2dVertex
 10
81.79346596883039
 20
-82.07198609059327
 30
0.0
  0
VERTEX
  5
14A
330
148
100
AcDbEntity
  8
_U+30EC_U+30A4_U+30E4_U+30FC 1
 62
   179
420
  2234388
370
     9
100
AcDbVertex
100
AcDb2dVertex
 10
84.25324423940955
 20
-82.07198609059327
 30
0.0
  0
SEQEND
  5
14B
330
148
100
AcDbEntity
  8
_U+30EC_U+30A4_U+30E4_U+30FC 1
 62
   179
420
  2234388
370
     9
  0
POLYLINE
  5
14C
330
1F
100
AcDbEntity
  8
_U+30EC_U+30A4_U+30E4_U+30FC 1
 62
   179
420
  2234388
370
     9
100
AcDb2dPolyline
 66
     1
 10
0.0
 20
0.0
 30
0.0
  0
VERTEX
  5
14D
330
14C
100
AcDbEntity
  8
_U+30EC_U+30A4_U+30E4_U+30FC 1
 62
   179
420
  2234388
370
     9
100
AcDbVertex
100
AcDb2dVertex
 10
67.7932685482274
 20
-95.14596580954657
 30
0.0
  0
VERTEX
  5
14E
330
14C
100
AcDbEntity
  8
_U+30EC_U+30A4_U+30E4_U+30FC 1
 62
   179
420
  2234388
370
     9
100
AcDbVertex
100
AcDb2dVertex
 10
84.25324423940955
 20
-95.14596580954657
 30
0.0
  0
SEQEND
  5
14F
330
14C
100
AcDbEntity
  8
_U+30EC_U+30A4_U+30E4_U+30FC 1
 62
   179
420
  2234388
370
     9
  0
INSERT
  5
151
330
1F
100
AcDbEntity
  8
_U+30EC_U+30A4_U+30E4_U+30FC 1
100
AcDbBlockReference
  2
block 8
 10
0.0
 20
0.0
 30
0.0
  0
ENDSEC
  0
SECTION
  2
OBJECTS
  0
DICTIONARY
  5
C
330
0
100
AcDbDictionary
281
     1
  3
ACAD_GROUP
350
D
  3
ACAD_LAYOUT
350
1A
  3
ACAD_MATERIAL
350
3B
  3
ACAD_MLEADERSTYLE
350
159
  3
ACAD_MLINESTYLE
350
17
  3
ACAD_PLOTSETTINGS
350
19
  3
ACAD_PLOTSTYLENAME
350
E
  3
ACAD_TABLESTYLE
350
158
  3
ACAD_VISUALSTYLE
350
2A
  0
SUN
  5
3F
330
29
100
AcDbSun
 90
        1
290
     0
 63
     7
421
 16777215
 40
1.0
291
     1
 91
  2455826
 92
 54000000
292
     0
 70
     2
 71
   256
280
     1
  0
DICTIONARY
  5
D
102
{ACAD_REACTORS
330
C
102
}
330
C
100
AcDbDictionary
281
     1
  0
DICTIONARY
  5
1A
102
{ACAD_REACTORS
330
C
102
}
330
C
100
AcDbDictionary
281
     1
  3
Layout1
350
1E
  3
Layout2
350
26
  3
Model
350
22
  0
DICTIONARY
  5
3B
102
{ACAD_REACTORS
330
C
102
}
330
C
100
AcDbDictionary
281
     1
  3
ByBlock
350
3D
  3
ByLayer
350
3C
  3
Global
350
3E
  0
DICTIONARY
  5
159
102
{ACAD_REACTORS
330
C
102
}
330
C
100
AcDbDictionary
281
     1
  0
DICTIONARY
  5
17
102
{ACAD_REACTORS
330
C
102
}
330
C
100
AcDbDictionary
281
     1
  3
Standard
350
18
  0
DICTIONARY
  5
19
102
{ACAD_REACTORS
330
C
102
}
330
C
100
AcDbDictionary
281
     1
  0
ACDBDICTIONARYWDFLT
  5
E
102
{ACAD_REACTORS
330
C
102
}
330
C
100
AcDbDictionary
281
     1
  3
Normal
350
F
100
AcDbDictionaryWithDefault
340
F
  0
DICTIONARY
  5
158
102
{ACAD_REACTORS
330
C
102
}
330
C
100
AcDbDictionary
281
     1
  0
DICTIONARY
  5
2A
102
{ACAD_REACTORS
330
C
102
}
330
C
100
AcDbDictionary
281
     1
  3
2dWireframe
350
2F
  3
3D Hidden
350
31
  3
3dWireframe
350
30
  3
Basic
350
32
  3
Brighten
350
36
  3
ColorChange
350
3A
  3
Conceptual
350
34
  3
Dim
350
35
  3
Facepattern
350
39
  3
Flat
350
2B
  3
FlatWithEdges
350
2C
  3
Gouraud
350
2D
  3
GouraudWithEdges
350
2E
  3
Linepattern
350
38
  3
Realistic
350
33
  3
Thicken
350
37
  0
LAYOUT
  5
1E
102
{ACAD_REACTORS
330
1A
102
}
330
1A
100
AcDbPlotSettings
  1

  2
none_device
  4

  6

 40
0.0
 41
0.0
 42
0.0
 43
0.0
 44
0.0
 45
0.0
 46
0.0
 47
0.0
 48
0.0
 49
0.0
140
0.0
141
0.0
142
1.0
143
1.0
 70
   688
 72
     0
 73
     0
 74
     5
  7

 75
    16
 76
     0
 77
     2
 78
   300
147
1.0
148
0.0
149
0.0
100
AcDbLayout
  1
Layout1
 70
     1
 71
     1
 10
0.0
 20
0.0
 11
12.0
 21
9.0
 12
0.0
 22
0.0
 32
0.0
 14
1.000000000000000E+20
 24
1.000000000000000E+20
 34
1.000000000000000E+20
 15
-1.000000000000000E+20
 25
-1.000000000000000E+20
 35
-1.000000000000000E+20
146
0.0
 13
0.0
 23
0.0
 33
0.0
 16
1.0
 26
0.0
 36
0.0
 17
0.0
 27
1.0
 37
0.0
 76
     0
330
1B
  0
LAYOUT
  5
26
102
{ACAD_REACTORS
330
1A
102
}
330
1A
100
AcDbPlotSettings
  1

  2
none_device
  4

  6

 40
0.0
 41
0.0
 42
0.0
 43
0.0
 44
0.0
 45
0.0
 46
0.0
 47
0.0
 48
0.0
 49
0.0
140
0.0
141
0.0
142
1.0
143
1.0
 70
   688
 72
     0
 73
     0
 74
     5
  7

 75
    16
 76
     0
 77
     2
 78
   300
147
1.0
148
0.0
149
0.0
100
AcDbLayout
  1
Layout2
 70
     1
 71
     2
 10
0.0
 20
0.0
 11
0.0
 21
0.0
 12
0.0
 22
0.0
 32
0.0
 14
0.0
 24
0.0
 34
0.0
 15
0.0
 25
0.0
 35
0.0
146
0.0
 13
0.0
 23
0.0
 33
0.0
 16
1.0
 26
0.0
 36
0.0
 17
0.0
 27
1.0
 37
0.0
 76
     0
330
23
  0
LAYOUT
  5
22
102
{ACAD_REACTORS
330
1A
102
}
330
1A
100
AcDbPlotSettings
  1

  2
none_device
  4

  6

 40
0.0
 41
0.0
 42
0.0
 43
0.0
 44
0.0
 45
0.0
 46
0.0
 47
0.0
 48
0.0
 49
0.0
140
0.0
141
0.0
142
1.0
143
1.0
 70
  1712
 72
     0
 73
     0
 74
     0
  7

 75
     0
 76
     0
 77
     2
 78
   300
147
1.0
148
0.0
149
0.0
100
AcDbLayout
  1
Model
 70
     1
 71
     0
 10
0.0
 20
0.0
 11
12.0
 21
9.0
 12
0.0
 22
0.0
 32
0.0
 14
1.000000000000000E+20
 24
1.000000000000000E+20
 34
1.000000000000000E+20
 15
-1.000000000000000E+20
 25
-1.000000000000000E+20
 35
-1.000000000000000E+20
146
0.0
 13
0.0
 23
0.0
 33
0.0
 16
1.0
 26
0.0
 36
0.0
 17
0.0
 27
1.0
 37
0.0
 76
     0
330
1F
331
29
  0
MATERIAL
  5
3D
102
{ACAD_REACTORS
330
3B
102
}
330
3B
100
AcDbMaterial
  1
ByBlock
 72
     1
 94
      127
  0
MATERIAL
  5
3C
102
{ACAD_REACTORS
330
3B
102
}
330
3B
100
AcDbMaterial
  1
ByLayer
 72
     1
 94
      127
  0
MATERIAL
  5
3E
102
{ACAD_REACTORS
330
3B
102
}
330
3B
100
AcDbMaterial
  1
Global
 72
     1
 94
      127
  0
MLINESTYLE
  5
18
102
{ACAD_REACTORS
330
17
102
}
330
17
100
AcDbMlineStyle
  2
Standard
 70
     0
  3

 62
   256
 51
90.0
 52
90.0
 71
     2
 49
0.5
 62
   256
  6
BYLAYER
 49
-0.5
 62
   256
  6
BYLAYER
  0
ACDBPLACEHOLDER
  5
F
102
{ACAD_REACTORS
330
E
102
}
330
E
  0
VISUALSTYLE
  5
2F
102
{ACAD_REACTORS
330
2A
102
}
330
2A
100
AcDbVisualStyle
  2
2dWireframe
 70
     4
177
     2
291
     0
 71
     0
176
     1
 72
     2
176
     1
 73
     0
176
     1
 90
        0
176
     1
 40
-0.6
176
     1
 41
-30.0
176
     1
 62
     5
 63
     7
421
 16777215
176
     1
 74
     1
176
     1
 91
        4
176
     1
 64
     7
176
     1
 65
   257
176
     1
 75
     1
176
     1
175
     1
176
     1
 42
1.0
176
     1
 92
        0
176
     1
 66
   257
176
     1
 43
1.0
176
     1
 76
     1
176
     1
 77
     6
176
     1
 78
     2
176
     1
 67
     7
176
     1
 79
     5
176
     1
170
     0
176
     1
171
     0
176
     1
290
     0
176
     1
 93
        1
176
     1
 44
0.0
176
     1
173
     0
176
     1
  0
VISUALSTYLE
  5
31
102
{ACAD_REACTORS
330
2A
102
}
330
2A
100
AcDbVisualStyle
  2
3D Hidden
 70
     6
177
     2
291
     0
 71
     1
176
     1
 72
     2
176
     1
 73
     2
176
     1
 90
        0
176
     1
 40
-0.6
176
     1
 41
-30.0
176
     1
 62
     5
 63
     7
421
 16777215
176
     1
 74
     2
176
     1
 91
        2
176
     1
 64
     7
176
     1
 65
   257
176
     1
 75
     2
176
     1
175
     1
176
     1
 42
40.0
176
     1
 92
        0
176
     1
 66
   257
176
     1
 43
1.0
176
     1
 76
     1
176
     1
 77
     6
176
     1
 78
     2
176
     1
 67
     7
176
     1
 79
     3
176
     1
170
     0
176
     1
171
     0
176
     1
290
     0
176
     1
 93
        1
176
     1
 44
0.0
176
     1
173
     0
176
     1
  0
VISUALSTYLE
  5
30
102
{ACAD_REACTORS
330
2A
102
}
330
2A
100
AcDbVisualStyle
  2
3dWireframe
 70
     5
177
     2
291
     0
 71
     0
176
     1
 72
     2
176
     1
 73
     0
176
     1
 90
        0
176
     1
 40
-0.6
176
     1
 41
-30.0
176
     1
 62
     5
 63
     7
421
 16777215
176
     1
 74
     1
176
     1
 91
        4
176
     1
 64
     7
176
     1
 65
   257
176
     1
 75
     1
176
     1
175
     1
176
     1
 42
1.0
176
     1
 92
        0
176
     1
 66
   257
176
     1
 43
1.0
176
     1
 76
     1
176
     1
 77
     6
176
     1
 78
     2
176
     1
 67
     7
176
     1
 79
     5
176
     1
170
     0
176
     1
171
     0
176
     1
290
     0
176
     1
 93
        1
176
     1
 44
0.0
176
     1
173
     0
176
     1
  0
VISUALSTYLE
  5
32
102
{ACAD_REACTORS
330
2A
102
}
330
2A
100
AcDbVisualStyle
  2
Basic
 70
     7
177
     2
291
     1
 71
     1
176
     1
 72
     0
176
     1
 73
     1
176
     1
 90
        0
176
     1
 40
-0.6
176
     1
 41
-30.0
176
     1
 62
     5
 63
     7
421
 16777215
176
     1
 74
     0
176
     1
 91
        4
176
     1
 64
     7
176
     1
 65
   257
176
     1
 75
     1
176
     1
175
     1
176
     1
 42
1.0
176
     1
 92
        8
176
     1
 66
     7
176
     1
 43
1.0
176
     1
 76
     1
176
     1
 77
     6
176
     1
 78
     2
176
     1
 67
     7
176
     1
 79
     5
176
     1
170
     0
176
     1
171
     0
176
     1
290
     0
176
     1
 93
        1
176
     1
 44
0.0
176
     1
173
     0
176
     1
  0
VISUALSTYLE
  5
36
102
{ACAD_REACTORS
330
2A
102
}
330
2A
100
AcDbVisualStyle
  2
Brighten
 70
    12
177
     2
291
     1
 71
     2
176
     1
 72
     2
176
     1
 73
     0
176
     1
 90
        0
176
     1
 40
-0.6
176
     1
 41
-30.0
176
     1
 62
     5
 63
     7
421
 16777215
176
     1
 74
     1
176
     1
 91
        4
176
     1
 64
     7
176
     1
 65
   257
176
     1
 75
     1
176
     1
175
     1
176
     1
 42
1.0
176
     1
 92
        8
176
     1
 66
     7
176
     1
 43
1.0
176
     1
 76
     1
176
     1
 77
     6
176
     1
 78
     2
176
     1
 67
     7
176
     1
 79
     5
176
     1
170
     0
176
     1
171
     0
176
     1
290
     0
176
     1
 93
        1
176
     1
 44
50.0
176
     1
173
     0
176
     1
  0
VISUALSTYLE
  5
3A
102
{ACAD_REACTORS
330
2A
102
}
330
2A
100
AcDbVisualStyle
  2
ColorChange
 70
    16
177
     2
291
     1
 71
     2
176
     1
 72
     2
176
     1
 73
     3
176
     1
 90
        0
176
     1
 40
-0.6
176
     1
 41
-30.0
176
     1
 62
     5
 63
     8
421
  8421504
176
     1
 74
     1
176
     1
 91
        4
176
     1
 64
     7
176
     1
 65
   257
176
     1
 75
     1
176
     1
175
     1
176
     1
 42
1.0
176
     1
 92
        8
176
     1
 66
     8
424
  8421504
176
     1
 43
1.0
176
     1
 76
     1
176
     1
 77
     6
176
     1
 78
     2
176
     1
 67
     7
176
     1
 79
     5
176
     1
170
     0
176
     1
171
     0
176
     1
290
     0
176
     1
 93
        1
176
     1
 44
0.0
176
     1
173
     0
176
     1
  0
VISUALSTYLE
  5
34
102
{ACAD_REACTORS
330
2A
102
}
330
2A
100
AcDbVisualStyle
  2
Conceptual
 70
     9
177
     2
291
     0
 71
     3
176
     1
 72
     2
176
     1
 73
     0
176
     1
 90
        0
176
     1
 40
-0.6
176
     1
 41
-30.0
176
     1
 62
     5
 63
     7
421
 16777215
176
     1
 74
     2
176
     1
 91
        2
176
     1
 64
     7
176
     1
 65
   257
176
     1
 75
     1
176
     1
175
     1
176
     1
 42
40.0
176
     1
 92
        8
176
     1
 66
     7
176
     1
 43
1.0
176
     1
 76
     1
176
     1
 77
     6
176
     1
 78
     2
176
     1
 67
     7
176
     1
 79
     3
176
     1
170
     0
176
     1
171
     0
176
     1
290
     0
176
     1
 93
        1
176
     1
 44
0.0
176
     1
173
     0
176
     1
  0
VISUALSTYLE
  5
35
102
{ACAD_REACTORS
330
2A
102
}
330
2A
100
AcDbVisualStyle
  2
Dim
 70
    11
177
     2
291
     1
 71
     2
176
     1
 72
     2
176
     1
 73
     0
176
     1
 90
        0
176
     1
 40
-0.6
176
     1
 41
-30.0
176
     1
 62
     5
 63
     7
421
 16777215
176
     1
 74
     1
176
     1
 91
        4
176
     1
 64
     7
176
     1
 65
   257
176
     1
 75
     1
176
     1
175
     1
176
     1
 42
1.0
176
     1
 92
        8
176
     1
 66
     7
176
     1
 43
1.0
176
     1
 76
     1
176
     1
 77
     6
176
     1
 78
     2
176
     1
 67
     7
176
     1
 79
     5
176
     1
170
     0
176
     1
171
     0
176
     1
290
     0
176
     1
 93
        1
176
     1
 44
-50.0
176
     1
173
     0
176
     1
  0
VISUALSTYLE
  5
39
102
{ACAD_REACTORS
330
2A
102
}
330
2A
100
AcDbVisualStyle
  2
Facepattern
 70
    15
177
     2
291
     1
 71
     2
176
     1
 72
     2
176
     1
 73
     0
176
     1
 90
        0
176
     1
 40
-0.6
176
     1
 41
-30.0
176
     1
 62
     5
 63
     7
421
 16777215
176
     1
 74
     1
176
     1
 91
        4
176
     1
 64
     7
176
     1
 65
   257
176
     1
 75
     1
176
     1
175
     1
176
     1
 42
1.0
176
     1
 92
        8
176
     1
 66
     7
176
     1
 43
1.0
176
     1
 76
     1
176
     1
 77
     6
176
     1
 78
     2
176
     1
 67
     7
176
     1
 79
     5
176
     1
170
     0
176
     1
171
     0
176
     1
290
     0
176
     1
 93
        1
176
     1
 44
0.0
176
     1
173
     0
176
     1
  0
VISUALSTYLE
  5
2B
102
{ACAD_REACTORS
330
2A
102
}
330
2A
100
AcDbVisualStyle
  2
Flat
 70
     0
177
     2
291
     1
 71
     2
176
     1
 72
     1
176
     1
 73
     1
176
     1
 90
        2
176
     1
 40
-0.6
176
     1
 41
30.0
176
     1
 62
     5
 63
     7
421
 16777215
176
     1
 74
     0
176
     1
 91
        4
176
     1
 64
     7
176
     1
 65
   257
176
     1
 75
     1
176
     1
175
     1
176
     1
 42
1.0
176
     1
 92
        8
176
     1
 66
     7
176
     1
 43
1.0
176
     1
 76
     1
176
     1
 77
     6
176
     1
 78
     2
176
     1
 67
     7
176
     1
 79
     5
176
     1
170
     0
176
     1
171
     0
176
     1
290
     0
176
     1
 93
       13
176
     1
 44
0.0
176
     1
173
     0
176
     1
  0
VISUALSTYLE
  5
2C
102
{ACAD_REACTORS
330
2A
102
}
330
2A
100
AcDbVisualStyle
  2
FlatWithEdges
 70
     1
177
     2
291
     1
 71
     2
176
     1
 72
     1
176
     1
 73
     1
176
     1
 90
        2
176
     1
 40
-0.6
176
     1
 41
30.0
176
     1
 62
     5
 63
     7
421
 16777215
176
     1
 74
     1
176
     1
 91
        4
176
     1
 64
     7
176
     1
 65
   257
176
     1
 75
     1
176
     1
175
     1
176
     1
 42
1.0
176
     1
 92
        0
176
     1
 66
   257
176
     1
 43
1.0
176
     1
 76
     1
176
     1
 77
     6
176
     1
 78
     2
176
     1
 67
     7
176
     1
 79
     5
176
     1
170
     0
176
     1
171
     0
176
     1
290
     0
176
     1
 93
       13
176
     1
 44
0.0
176
     1
173
     0
176
     1
  0
VISUALSTYLE
  5
2D
102
{ACAD_REACTORS
330
2A
102
}
330
2A
100
AcDbVisualStyle
  2
Gouraud
 70
     2
177
     2
291
     1
 71
     2
176
     1
 72
     2
176
     1
 73
     1
176
     1
 90
        2
176
     1
 40
-0.6
176
     1
 41
30.0
176
     1
 62
     5
 63
     7
421
 16777215
176
     1
 74
     0
176
     1
 91
        4
176
     1
 64
     7
176
     1
 65
   257
176
     1
 75
     1
176
     1
175
     1
176
     1
 42
1.0
176
     1
 92
        0
176
     1
 66
     7
176
     1
 43
1.0
176
     1
 76
     1
176
     1
 77
     6
176
     1
 78
     2
176
     1
 67
     7
176
     1
 79
     5
176
     1
170
     0
176
     1
171
     0
176
     1
290
     0
176
     1
 93
       13
176
     1
 44
0.0
176
     1
173
     0
176
     1
  0
VISUALSTYLE
  5
2E
102
{ACAD_REACTORS
330
2A
102
}
330
2A
100
AcDbVisualStyle
  2
GouraudWithEdges
 70
     3
177
     2
291
     1
 71
     2
176
     1
 72
     2
176
     1
 73
     1
176
     1
 90
        2
176
     1
 40
-0.6
176
     1
 41
30.0
176
     1
 62
     5
 63
     7
421
 16777215
176
     1
 74
     1
176
     1
 91
        4
176
     1
 64
     7
176
     1
 65
   257
176
     1
 75
     1
176
     1
175
     1
176
     1
 42
1.0
176
     1
 92
        0
176
     1
 66
   257
176
     1
 43
1.0
176
     1
 76
     1
176
     1
 77
     6
176
     1
 78
     2
176
     1
 67
     7
176
     1
 79
     5
176
     1
170
     0
176
     1
171
     0
176
     1
290
     0
176
     1
 93
       13
176
     1
 44
0.0
176
     1
173
     0
176
     1
  0
VISUALSTYLE
  5
38
102
{ACAD_REACTORS
330
2A
102
}
330
2A
100
AcDbVisualStyle
  2
Linepattern
 70
    14
177
     2
291
     1
 71
     2
176
     1
 72
     2
176
     1
 73
     0
176
     1
 90
        0
176
     1
 40
-0.6
176
     1
 41
-30.0
176
     1
 62
     5
 63
     7
421
 16777215
176
     1
 74
     1
176
     1
 91
        4
176
     1
 64
     7
176
     1
 65
   257
176
     1
 75
     7
176
     1
175
     7
176
     1
 42
1.0
176
     1
 92
        8
176
     1
 66
     7
176
     1
 43
1.0
176
     1
 76
     1
176
     1
 77
     6
176
     1
 78
     2
176
     1
 67
     7
176
     1
 79
     5
176
     1
170
     0
176
     1
171
     0
176
     1
290
     0
176
     1
 93
        1
176
     1
 44
0.0
176
     1
173
     0
176
     1
  0
VISUALSTYLE
  5
33
102
{ACAD_REACTORS
330
2A
102
}
330
2A
100
AcDbVisualStyle
  2
Realistic
 70
     8
177
     2
291
     0
 71
     2
176
     1
 72
     2
176
     1
 73
     0
176
     1
 90
        0
176
     1
 40
-0.6
176
     1
 41
-30.0
176
     1
 62
     5
 63
     7
421
 16777215
176
     1
 74
     1
176
     1
 91
        0
176
     1
 64
     7
176
     1
 65
   257
176
     1
 75
     1
176
     1
175
     1
176
     1
 42
1.0
176
     1
 92
        8
176
     1
 66
     8
424
  7895160
176
     1
 43
1.0
176
     1
 76
     1
176
     1
 77
     6
176
     1
 78
     2
176
     1
 67
     7
176
     1
 79
     5
176
     1
170
     0
176
     1
171
     0
176
     1
290
     0
176
     1
 93
       13
176
     1
 44
0.0
176
     1
173
     0
176
     1
  0
VISUALSTYLE
  5
37
102
{ACAD_REACTORS
330
2A
102
}
330
2A
100
AcDbVisualStyle
  2
Thicken
 70
    13
177
     2
291
     1
 71
     2
176
     1
 72
     2
176
     1
 73
     0
176
     1
 90
        0
176
     1
 40
-0.6
176
     1
 41
-30.0
176
     1
 62
     5
 63
     7
421
 16777215
176
     1
 74
     1
176
     1
 91
        4
176
     1
 64
     7
176
     1
 65
   257
176
     1
 75
     1
176
     1
175
     1
176
     1
 42
1.0
176
     1
 92
       12
176
     1
 66
     7
176
     1
 43
1.0
176
     1
 76
     1
176
     1
 77
     6
176
     1
 78
     2
176
     1
 67
     7
176
     1
 79
     5
176
     1
170
     0
176
     1
171
     0
176
     1
290
     0
176
     1
 93
        1
176
     1
 44
0.0
176
     1
173
     0
176
     1
  0
ENDSEC
  0
EOF
