  0
SECTION
  2
HEADER
  9
$ACADVER
  1
AC1024
  9
$ACADMAINTVER
 70
     6
  9
$DWGCODEPAGE
  3
UNDEFINED
  9
$INSBASE
 10
0.0
 20
0.0
 30
0.0
  9
$EXTMIN
 10
1.000000000000000E+20
 20
1.000000000000000E+20
 30
1.000000000000000E+20
  9
$EXTMAX
 10
-1.000000000000000E+20
 20
-1.000000000000000E+20
 30
-1.000000000000000E+20
  9
$LIMMIN
 10
0.0
 20
0.0
  9
$LIMMAX
 10
12.0
 20
9.0
  9
$ORTHOMODE
 70
     0
  9
$REGENMODE
 70
     1
  9
$FILLMODE
 70
     1
  9
$QTEXTMODE
 70
     0
  9
$MIRRTEXT
 70
     1
  9
$LTSCALE
 40
1.0
  9
$ATTMODE
 70
     1
  9
$TEXTSIZE
 40
0.2
  9
$TRACEWID
 40
0.05
  9
$TEXTSTYLE
  7
Standard
  9
$CLAYER
  8
0
  9
$CELTYPE
  6
ByLayer
  9
$CECOLOR
 62
   256
  9
$CELTSCALE
 40
1.0
  9
$DISPSILH
 70
     0
  9
$DIMSCALE
 40
1.0
  9
$DIMASZ
 40
0.18
  9
$DIMEXO
 40
0.0625
  9
$DIMDLI
 40
0.38
  9
$DIMRND
 40
0.0
  9
$DIMDLE
 40
0.0
  9
$DIMEXE
 40
0.18
  9
$DIMTP
 40
0.0
  9
$DIMTM
 40
0.0
  9
$DIMTXT
 40
0.18
  9
$DIMCEN
 40
0.09
  9
$DIMTSZ
 40
0.0
  9
$DIMTOL
 70
     0
  9
$DIMLIM
 70
     0
  9
$DIMTIH
 70
     1
  9
$DIMTOH
 70
     1
  9
$DIMSE1
 70
     0
  9
$DIMSE2
 70
     0
  9
$DIMTAD
 70
     0
  9
$DIMZIN
 70
     0
  9
$DIMBLK
  1

  9
$DIMASO
 70
     1
  9
$DIMSHO
 70
     1
  9
$DIMPOST
  1

  9
$DIMAPOST
  1

  9
$DIMALT
 70
     0
  9
$DIMALTD
 70
     2
  9
$DIMALTF
 40
25.4
  9
$DIMLFAC
 40
1.0
  9
$DIMTOFL
 70
     0
  9
$DIMTVP
 40
0.0
  9
$DIMTIX
 70
     0
  9
$DIMSOXD
 70
     0
  9
$DIMSAH
 70
     0
  9
$DIMBLK1
  1

  9
$DIMBLK2
  1

  9
$DIMSTYLE
  2
Standard
  9
$DIMCLRD
 70
     0
  9
$DIMCLRE
 70
     0
  9
$DIMCLRT
 70
     0
  9
$DIMTFAC
 40
1.0
  9
$DIMGAP
 40
0.09
  9
$DIMJUST
 70
     0
  9
$DIMSD1
 70
     0
  9
$DIMSD2
 70
     0
  9
$DIMTOLJ
 70
     1
  9
$DIMTZIN
 70
     0
  9
$DIMALTZ
 70
     0
  9
$DIMALTTZ
 70
     0
  9
$DIMUPT
 70
     0
  9
$DIMDEC
 70
     4
  9
$DIMTDEC
 70
     4
  9
$DIMALTU
 70
     2
  9
$DIMALTTD
 70
     2
  9
$DIMTXSTY
  7
Standard
  9
$DIMAUNIT
 70
     0
  9
$DIMADEC
 70
     0
  9
$DIMALTRND
 40
0.0
  9
$DIMAZIN
 70
     0
  9
$DIMDSEP
 70
    46
  9
$DIMATFIT
 70
     3
  9
$DIMFRAC
 70
     0
  9
$DIMLDRBLK
  1

  9
$DIMLUNIT
 70
     2
  9
$DIMLWD
 70
    -2
  9
$DIMLWE
 70
    -2
  9
$DIMTMOVE
 70
     0
  9
$DIMFXL
 40
1.0
  9
$DIMFXLON
 70
     0
  9
$DIMJOGANG
 40
0.7853981633974483
  9
$DIMTFILL
 70
     0
  9
$DIMTFILLCLR
 70
     0
  9
$DIMARCSYM
 70
     0
  9
$DIMLTYPE
  6

  9
$DIMLTEX1
  6

  9
$DIMLTEX2
  6

  9
$DIMTXTDIRECTION
 70
     0
  9
$LUNITS
 70
     2
  9
$LUPREC
 70
     4
  9
$SKETCHINC
 40
0.1
  9
$FILLETRAD
 40
0.5
  9
$AUNITS
 70
     0
  9
$AUPREC
 70
     0
  9
$MENU
  1
.
  9
$ELEVATION
 40
0.0
  9
$PELEVATION
 40
0.0
  9
$THICKNESS
 40
0.0
  9
$LIMCHECK
 70
     0
  9
$CHAMFERA
 40
0.5
  9
$CHAMFERB
 40
0.5
  9
$CHAMFERC
 40
1.0
  9
$CHAMFERD
 40
0.0
  9
$SKPOLY
 70
     0
  9
$TDCREATE
 40
2457917.592777778
  9
$TDUCREATE
 40
2457917.217777778
  9
$TDUPDATE
 40
2457917.592777778
  9
$TDUUPDATE
 40
2457917.217777778
  9
$TDINDWG
 40
0.0000000116
  9
$TDUSRTIMER
 40
0.0000000116
  9
$USRTIMER
 70
     1
  9
$ANGBASE
 50
0.0
  9
$ANGDIR
 70
     0
  9
$PDMODE
 70
     0
  9
$PDSIZE
 40
0.0
  9
$PLINEWID
 40
0.0
  9
$SPLFRAME
 70
     0
  9
$SPLINETYPE
 70
     6
  9
$SPLINESEGS
 70
     8
  9
$HANDSEED
  5
15B
  9
$SURFTAB1
 70
     6
  9
$SURFTAB2
 70
     6
  9
$SURFTYPE
 70
     6
  9
$SURFU
 70
     6
  9
$SURFV
 70
     6
  9
$UCSBASE
  2

  9
$UCSNAME
  2

  9
$UCSORG
 10
0.0
 20
0.0
 30
0.0
  9
$UCSXDIR
 10
1.0
 20
0.0
 30
0.0
  9
$UCSYDIR
 10
0.0
 20
1.0
 30
0.0
  9
$UCSORTHOREF
  2

  9
$UCSORTHOVIEW
 70
     0
  9
$UCSORGTOP
 10
0.0
 20
0.0
 30
0.0
  9
$UCSORGBOTTOM
 10
0.0
 20
0.0
 30
0.0
  9
$UCSORGLEFT
 10
0.0
 20
0.0
 30
0.0
  9
$UCSORGRIGHT
 10
0.0
 20
0.0
 30
0.0
  9
$UCSORGFRONT
 10
0.0
 20
0.0
 30
0.0
  9
$UCSORGBACK
 10
0.0
 20
0.0
 30
0.0
  9
$PUCSBASE
  2

  9
$PUCSNAME
  2

  9
$PUCSORG
 10
0.0
 20
0.0
 30
0.0
  9
$PUCSXDIR
 10
1.0
 20
0.0
 30
0.0
  9
$PUCSYDIR
 10
0.0
 20
1.0
 30
0.0
  9
$PUCSORTHOREF
  2

  9
$PUCSORTHOVIEW
 70
     0
  9
$PUCSORGTOP
 10
0.0
 20
0.0
 30
0.0
  9
$PUCSORGBOTTOM
 10
0.0
 20
0.0
 30
0.0
  9
$PUCSORGLEFT
 10
0.0
 20
0.0
 30
0.0
  9
$PUCSORGRIGHT
 10
0.0
 20
0.0
 30
0.0
  9
$PUCSORGFRONT
 10
0.0
 20
0.0
 30
0.0
  9
$PUCSORGBACK
 10
0.0
 20
0.0
 30
0.0
  9
$USERI1
 70
     0
  9
$USERI2
 70
     0
  9
$USERI3
 70
     0
  9
$USERI4
 70
     0
  9
$USERI5
 70
     0
  9
$USERR1
 40
0.0
  9
$USERR2
 40
0.0
  9
$USERR3
 40
0.0
  9
$USERR4
 40
0.0
  9
$USERR5
 40
0.0
  9
$WORLDVIEW
 70
     1
  9
$SHADEDGE
 70
     3
  9
$SHADEDIF
 70
    70
  9
$TILEMODE
 70
     1
  9
$MAXACTVP
 70
    64
  9
$PINSBASE
 10
0.0
 20
0.0
 30
0.0
  9
$PLIMCHECK
 70
     0
  9
$PEXTMIN
 10
1.000000000000000E+20
 20
1.000000000000000E+20
 30
1.000000000000000E+20
  9
$PEXTMAX
 10
-1.000000000000000E+20
 20
-1.000000000000000E+20
 30
-1.000000000000000E+20
  9
$PLIMMIN
 10
0.0
 20
0.0
  9
$PLIMMAX
 10
12.0
 20
9.0
  9
$UNITMODE
 70
     0
  9
$VISRETAIN
 70
     1
  9
$PLINEGEN
 70
     0
  9
$PSLTSCALE
 70
     1
  9
$TREEDEPTH
 70
  3020
  9
$CMLSTYLE
  2
Standard
  9
$CMLJUST
 70
     0
  9
$CMLSCALE
 40
1.0
  9
$PROXYGRAPHICS
 70
     1
  9
$MEASUREMENT
 70
     0
  9
$CELWEIGHT
370
    -1
  9
$ENDCAPS
280
     0
  9
$JOINSTYLE
280
     0
  9
$LWDISPLAY
290
     1
  9
$INSUNITS
 70
     1
  9
$HYPERLINKBASE
  1

  9
$STYLESHEET
  1

  9
$XEDIT
290
     1
  9
$CEPSNTYPE
380
     0
  9
$PSTYLEMODE
290
     1
  9
$FINGERPRINTGUID
  2
{5507898B-CA1D-DFDE-EA0F-B46208BD7CCA}
  9
$VERSIONGUID
  2
{FAEB1C32-E019-11D5-929B-00C0DF256EC4}
  9
$EXTNAMES
290
     1
  9
$PSVPSCALE
 40
0.0
  9
$OLESTARTUP
290
     0
  9
$SORTENTS
280
   127
  9
$INDEXCTL
280
     0
  9
$HIDETEXT
280
     1
  9
$XCLIPFRAME
280
     2
  9
$HALOGAP
280
     0
  9
$OBSCOLOR
 70
   257
  9
$OBSLTYPE
280
     0
  9
$INTERSECTIONDISPLAY
280
     0
  9
$INTERSECTIONCOLOR
 70
   257
  9
$DIMASSOC
280
     2
  9
$PROJECTNAME
  1

  9
$CAMERADISPLAY
290
     0
  9
$LENSLENGTH
 40
50.0
  9
$CAMERAHEIGHT
 40
0.0
  9
$STEPSPERSEC
 40
2.0
  9
$STEPSIZE
 40
6.0
  9
$3DDWFPREC
 40
2.0
  9
$PSOLWIDTH
 40
0.25
  9
$PSOLHEIGHT
 40
4.0
  9
$LOFTANG1
 40
1.570796326794897
  9
$LOFTANG2
 40
1.570796326794897
  9
$LOFTMAG1
 40
0.0
  9
$LOFTMAG2
 40
0.0
  9
$LOFTPARAM
 70
     7
  9
$LOFTNORMALS
280
     1
  9
$LATITUDE
 40
37.795
  9
$LONGITUDE
 40
-122.394
  9
$NORTHDIRECTION
 40
0.0
  9
$TIMEZONE
 70
 -8000
  9
$LIGHTGLYPHDISPLAY
280
     1
  9
$TILEMODELIGHTSYNCH
280
     1
  9
$CMATERIAL
347
3C
  9
$SOLIDHIST
280
     1
  9
$SHOWHIST
280
     1
  9
$DWFFRAME
280
     2
  9
$DGNFRAME
280
     2
  9
$REALWORLDSCALE
290
     1
  9
$INTERFERECOLOR
 62
   256
  9
$CSHADOW
280
     0
  9
$SHADOWPLANELOCATION
 40
0.0
  0
ENDSEC
  0
SECTION
  2
CLASSES
  0
CLASS
  1
ACDBDICTIONARYWDFLT
  2
AcDbDictionaryWithDefault
  3
ObjectDBX Classes
 90
        0
 91
        4
280
     0
281
     0
  0
CLASS
  1
VISUALSTYLE
  2
AcDbVisualStyle
  3
ObjectDBX Classes
 90
     4095
 91
        4
280
     0
281
     0
  0
CLASS
  1
MATERIAL
  2
AcDbMaterial
  3
ObjectDBX Classes
 90
     1153
 91
        4
280
     0
281
     0
  0
CLASS
  1
SUN
  2
AcDbSun
  3
SCENEOE
 90
     1024
 91
        4
280
     0
281
     0
  0
ENDSEC
  0
SECTION
  2
TABLES
  0
TABLE
  2
VPORT
  5
8
330
0
100
AcDbSymbolTable
 70
     1
  0
VPORT
  5
29
330
8
100
AcDbSymbolTableRecord
100
AcDbViewportTableRecord
  2
*Active
 70
     0
 10
0.0
 20
0.0
 11
1.0
 21
1.0
 12
0.0
 22
0.0
 13
0.0
 23
0.0
 14
0.5
 24
0.5
 15
0.5
 25
0.5
 16
0.0
 26
0.0
 36
1.0
 17
63.499999984125
 27
-89.00059456108309
 37
0.0
 40
178.0011891221662
 41
0.7134783795241226
 42
50.0
 43
0.0
 44
0.0
 50
0.0
 51
0.0
 71
     0
 72
   100
 73
     1
 74
     3
 75
     0
 76
     0
 77
     0
 78
     0
281
     0
 65
     1
110
0.0
120
0.0
130
0.0
111
1.0
121
0.0
131
0.0
112
0.0
122
1.0
132
0.0
 79
     0
146
0.0
 60
     3
 61
     5
292
     1
282
     1
141
0.0
142
0.0
 63
   250
361
3F
  0
ENDTAB
  0
TABLE
  2
LTYPE
  5
5
330
0
100
AcDbSymbolTable
 70
     4
  0
LTYPE
  5
14
330
5
100
AcDbSymbolTableRecord
100
AcDbLinetypeTableRecord
  2
ByBlock
 70
     0
  3

 72
    65
 73
     0
 40
0.0
  0
LTYPE
  5
15
330
5
100
AcDbSymbolTableRecord
100
AcDbLinetypeTableRecord
  2
ByLayer
 70
     0
  3

 72
    65
 73
     0
 40
0.0
  0
LTYPE
  5
16
330
5
100
AcDbSymbolTableRecord
100
AcDbLinetypeTableRecord
  2
Continuous
 70
     0
  3
Solid line
 72
    65
 73
     0
 40
0.0
  0
LTYPE
  5
82
330
5
100
AcDbSymbolTableRecord
100
AcDbLinetypeTableRecord
  2
AI-Linetype-1
 70
     0
  3
Adobe Illustrator Linetype No. 1
 72
    65
 73
     2
 40
1.411111110758333
 49
0.7055555553791667
 74
     0
 49
-0.7055555553791667
 74
     0
  0
LTYPE
  5
87
330
5
100
AcDbSymbolTableRecord
100
AcDbLinetypeTableRecord
  2
AI-Linetype-2
 70
     0
  3
Adobe Illustrator Linetype No. 2
 72
    65
 73
     2
 40
1.411111110758333
 49
0.7055555553791667
 74
     0
 49
-0.7055555553791667
 74
     0
  0
LTYPE
  5
8C
330
5
100
AcDbSymbolTableRecord
100
AcDbLinetypeTableRecord
  2
AI-Linetype-3
 70
     0
  3
Adobe Illustrator Linetype No. 3
 72
    65
 73
     2
 40
1.411111110758333
 49
0.7055555553791667
 74
     0
 49
-0.7055555553791667
 74
     0
  0
ENDTAB
  0
TABLE
  2
LAYER
  5
2
330
0
100
AcDbSymbolTable
 70
     2
  0
LAYER
  5
10
330
2
100
AcDbSymbolTableRecord
100
AcDbLayerTableRecord
  2
0
 70
     0
 62
     7
  6
Continuous
370
    -3
390
F
347
3E
  0
LAYER
  5
40
330
2
100
AcDbSymbolTableRecord
100
AcDbLayerTableRecord
  2
_U+30EC_U+30A4_U+30E4_U+30FC 1
 70
     0
 62
     7
  6
Continuous
370
    -3
390
F
347
3E
  0
ENDTAB
  0
TABLE
  2
STYLE
  5
3
330
0
100
AcDbSymbolTable
 70
     1
  0
STYLE
  5
11
330
3
100
AcDbSymbolTableRecord
100
AcDbTextStyleTableRecord
  2
Standard
 70
     0
 40
0.0
 41
1.0
 50
0.0
 71
     0
 42
0.2
  3
txt
  4

  0
ENDTAB
  0
TABLE
  2
VIEW
  5
6
330
0
100
AcDbSymbolTable
 70
     0
  0
ENDTAB
  0
TABLE
  2
UCS
  5
7
330
0
100
AcDbSymbolTable
 70
     0
  0
ENDTAB
  0
TABLE
  2
APPID
  5
9
330
0
100
AcDbSymbolTable
 70
     1
  0
APPID
  5
12
330
9
100
AcDbSymbolTableRecord
100
AcDbRegAppTableRecord
  2
ACAD
 70
     0
  0
ENDTAB
  0
TABLE
  2
DIMSTYLE
  5
A
330
0
100
AcDbSymbolTable
 70
     1
100
AcDbDimStyleTable
  0
DIMSTYLE
105
27
330
A
100
AcDbSymbolTableRecord
100
AcDbDimStyleTableRecord
  2
Standard
 70
     0
178
     0
340
11
  0
ENDTAB
  0
TABLE
  2
BLOCK_RECORD
  5
1
330
0
100
AcDbSymbolTable
 70
     8
  0
BLOCK_RECORD
  5
1F
330
1
100
AcDbSymbolTableRecord
100
AcDbBlockTableRecord
  2
*Model_Space
340
22
 70
     0
280
     1
281
     0
  0
BLOCK_RECORD
  5
1B
330
1
100
AcDbSymbolTableRecord
100
AcDbBlockTableRecord
  2
*Paper_Space
340
1E
 70
     0
280
     1
281
     0
  0
BLOCK_RECORD
  5
23
330
1
100
AcDbSymbolTableRecord
100
AcDbBlockTableRecord
  2
*Paper_Space0
340
26
 70
     0
280
     1
281
     0
  0
BLOCK_RECORD
  5
41
330
1
100
AcDbSymbolTableRecord
100
AcDbBlockTableRecord
  2
block 2
340
0
102
{BLKREFS
331
42
102
}
 70
     0
280
     1
281
     0
  0
BLOCK_RECORD
  5
DD
330
1
100
AcDbSymbolTableRecord
100
AcDbBlockTableRecord
  2
block 3
340
0
102
{BLKREFS
331
DE
102
}
 70
     0
280
     1
281
     0
  0
BLOCK_RECORD
  5
FA
330
1
100
AcDbSymbolTableRecord
100
AcDbBlockTableRecord
  2
block 4
340
0
102
{BLKREFS
331
FB
102
}
 70
     0
280
     1
281
     0
  0
BLOCK_RECORD
  5
10B
330
1
100
AcDbSymbolTableRecord
100
AcDbBlockTableRecord
  2
block 5
340
0
102
{BLKREFS
331
10C
102
}
 70
     0
280
     1
281
     0
  0
BLOCK_RECORD
  5
11F
330
1
100
AcDbSymbolTableRecord
100
AcDbBlockTableRecord
  2
block 6
340
0
102
{BLKREFS
331
120
102
}
 70
     0
280
     1
281
     0
  0
BLOCK_RECORD
  5
142
330
1
100
AcDbSymbolTableRecord
100
AcDbBlockTableRecord
  2
block 7
340
0
102
{BLKREFS
331
143
102
}
 70
     0
280
     1
281
     0
  0
BLOCK_RECORD
  5
150
330
1
100
AcDbSymbolTableRecord
100
AcDbBlockTableRecord
  2
block 8
340
0
102
{BLKREFS
331
151
102
}
 70
     0
280
     1
281
     0
  0
ENDTAB
  0
ENDSEC
  0
SECTION
  2
BLOCKS
  0
BLOCK
  5
20
330
1F
100
AcDbEntity
  8
0
100
AcDbBlockBegin
  2
*Model_Space
 70
     0
 10
0.0
 20
0.0
 30
0.0
  3
*Model_Space
  1

  0
ENDBLK
  5
21
330
1F
100
AcDbEntity
  8
0
100
AcDbBlockEnd
  0
BLOCK
  5
1C
330
1B
100
AcDbEntity
 67
     1
  8
0
100
AcDbBlockBegin
  2
*Paper_Space
 70
     0
 10
0.0
 20
0.0
 30
0.0
  3
*Paper_Space
  1

  0
ENDBLK
  5
1D
330
1B
100
AcDbEntity
 67
     1
  8
0
100
AcDbBlockEnd
  0
BLOCK
  5
24
330
23
100
AcDbEntity
  8
0
100
AcDbBlockBegin
  2
*Paper_Space0
 70
     0
 10
0.0
 20
0.0
 30
0.0
  3
*Paper_Space0
  1

  0
ENDBLK
  5
25
330
23
100
AcDbEntity
  8
0
100
AcDbBlockEnd
  0
BLOCK
  5
43
330
41
100
AcDbEntity
  8
0
100
AcDbBlockBegin
  2
block 2
 70
     0
 10
0.0
 20
0.0
 30
0.0
  3
block 2
  1

  0
SPLINE
  5
45
330
41
100
AcDbEntity
  8
_U+30EC_U+30A4_U+30E4_U+30FC 1
370
     0
100
AcDbSpline
210
0.0
220
0.0
230
1.0
 70
    11
 71
     3
 72
    17
 73
    13
 74
     0
 42
0.0000000001
 43
0.0000000001
 12
1.0
 22
0.0
 32
0.0
 13
1.0
 23
0.0
 33
0.0
 40
0.0
 40
0.0
 40
0.0
 40
0.0
 40
1.0
 40
1.0
 40
1.0
 40
2.0
 40
2.0
 40
2.0
 40
3.0
 40
3.0
 40
3.0
 40
4.0
 40
4.0
 40
4.0
 40
4.0
 10
42.21998968128528
 20
-102.6149251045546
 30
0.0
 10
42.12748886750632
 20
-102.5091606731574
 30
0.0
 10
42.05703666483296
 20
-102.4712646228197
 30
0.0
 10
41.9755601566068
 20
-102.4392252348069
 30
0.0
 10
41.9755601566068
 20
-102.4392252348069
 30
0.0
 10
42.07185057541954
 20
-102.2745496706119
 30
0.0
 10
42.07185057541954
 20
-102.2745496706119
 30
0.0
 10
42.15711668867947
 20
-102.316579835532
 30
0.0
 10
42.26270886530238
 20
-102.3951280125957
 30
0.0
 10
42.30887314480473
 20
-102.4499050308111
 30
0.0
 10
42.30887314480473
 20
-102.4499050308111
 30
0.0
 10
42.21998968128528
 20
-102.6149251045546
 30
0.0
 10
42.21998968128528
 20
-102.6149251045546
 30
0.0
  0
SPLINE
  5
46
330
41
100
AcDbEntity
  8
_U+30EC_U+30A4_U+30E4_U+30FC 1
370
     0
100
AcDbSpline
210
0.0
220
0.0
230
1.0
 70
    11
 71
     3
 72
   182
 73
   178
 74
     0
 42
0.0000000001
 43
0.0000000001
 12
1.0
 22
0.0
 32
0.0
 13
1.0
 23
0.0
 33
0.0
 40
0.0
 40
0.0
 40
0.0
 40
0.0
 40
1.0
 40
1.0
 40
1.0
 40
2.0
 40
2.0
 40
2.0
 40
3.0
 40
3.0
 40
3.0
 40
4.0
 40
4.0
 40
4.0
 40
5.0
 40
5.0
 40
5.0
 40
6.0
 40
6.0
 40
6.0
 40
7.0
 40
7.0
 40
7.0
 40
8.0
 40
8.0
 40
8.0
 40
9.0
 40
9.0
 40
9.0
 40
10.0
 40
10.0
 40
10.0
 40
11.0
 40
11.0
 40
11.0
 40
12.0
 40
12.0
 40
12.0
 40
13.0
 40
13.0
 40
13.0
 40
14.0
 40
14.0
 40
14.0
 40
15.0
 40
15.0
 40
15.0
 40
16.0
 40
16.0
 40
16.0
 40
17.0
 40
17.0
 40
17.0
 40
18.0
 40
18.0
 40
18.0
 40
19.0
 40
19.0
 40
19.0
 40
20.0
 40
20.0
 40
20.0
 40
21.0
 40
21.0
 40
21.0
 40
22.0
 40
22.0
 40
22.0
 40
23.0
 40
23.0
 40
23.0
 40
24.0
 40
24.0
 40
24.0
 40
25.0
 40
25.0
 40
25.0
 40
26.0
 40
26.0
 40
26.0
 40
27.0
 40
27.0
 40
27.0
 40
28.0
 40
28.0
 40
28.0
 40
29.0
 40
29.0
 40
29.0
 40
30.0
 40
30.0
 40
30.0
 40
31.0
 40
31.0
 40
31.0
 40
32.0
 40
32.0
 40
32.0
 40
33.0
 40
33.0
 40
33.0
 40
34.0
 40
34.0
 40
34.0
 40
35.0
 40
35.0
 40
35.0
 40
36.0
 40
36.0
 40
36.0
 40
37.0
 40
37.0
 40
37.0
 40
38.0
 40
38.0
 40
38.0
 40
39.0
 40
39.0
 40
39.0
 40
40.0
 40
40.0
 40
40.0
 40
41.0
 40
41.0
 40
41.0
 40
42.0
 40
42.0
 40
42.0
 40
43.0
 40
43.0
 40
43.0
 40
44.0
 40
44.0
 40
44.0
 40
45.0
 40
45.0
 40
45.0
 40
46.0
 40
46.0
 40
46.0
 40
47.0
 40
47.0
 40
47.0
 40
48.0
 40
48.0
 40
48.0
 40
49.0
 40
49.0
 40
49.0
 40
50.0
 40
50.0
 40
50.0
 40
51.0
 40
51.0
 40
51.0
 40
52.0
 40
52.0
 40
52.0
 40
53.0
 40
53.0
 40
53.0
 40
54.0
 40
54.0
 40
54.0
 40
55.0
 40
55.0
 40
55.0
 40
56.0
 40
56.0
 40
56.0
 40
57.0
 40
57.0
 40
57.0
 40
58.0
 40
58.0
 40
58.0
 40
59.0
 40
59.0
 40
59.0
 40
59.0
 10
43.13483478739337
 20
-103.7931477605101
 30
0.0
 10
43.13483478739337
 20
-103.7931477605101
 30
0.0
 10
42.57741833787995
 20
-103.7931477605101
 30
0.0
 10
42.57741833787995
 20
-103.7931477605101
 30
0.0
 10
42.39034965303089
 20
-103.7931477605101
 30
0.0
 10
42.2015584204392
 20
-103.7976263846409
 30
0.0
 10
42.01448973559013
 20
-103.8103732379363
 30
0.0
 10
42.01448973559013
 20
-103.8103732379363
 30
0.0
 10
42.01448973559013
 20
-103.6029784897243
 30
0.0
 10
42.01448973559013
 20
-103.6029784897243
 30
0.0
 10
42.20896537573248
 20
-103.6157253430197
 30
0.0
 10
42.49215222462002
 20
-103.619859457602
 30
0.0
 10
42.57741833787995
 20
-103.619859457602
 30
0.0
 10
42.57741833787995
 20
-103.619859457602
 30
0.0
 10
42.76999917550542
 20
-103.619859457602
 30
0.0
 10
42.76999917550542
 20
-103.619859457602
 30
0.0
 10
42.76999917550542
 20
-103.619859457602
 30
0.0
 10
42.76999917550542
 20
-103.4782660331582
 30
0.0
 10
42.76999917550542
 20
-103.4782660331582
 30
0.0
 10
42.76999917550542
 20
-103.4782660331582
 30
0.0
 10
42.62926702493296
 20
-103.4782660331582
 30
0.0
 10
42.62926702493296
 20
-103.4782660331582
 30
0.0
 10
42.48491752410099
 20
-103.4782660331582
 30
0.0
 10
42.34039576849477
 20
-103.4824001477405
 30
0.0
 10
42.19587401288853
 20
-103.4972140583271
 30
0.0
 10
42.19587401288853
 20
-103.4972140583271
 30
0.0
 10
42.19587401288853
 20
-103.2877522528239
 30
0.0
 10
42.19587401288853
 20
-103.2877522528239
 30
0.0
 10
42.34590792127116
 20
-103.3025661634105
 30
0.0
 10
42.56260442729338
 20
-103.3067002779928
 30
0.0
 10
42.62926702493296
 20
-103.3067002779928
 30
0.0
 10
42.62926702493296
 20
-103.3067002779928
 30
0.0
 10
42.76999917550542
 20
-103.3067002779928
 30
0.0
 10
42.76999917550542
 20
-103.3067002779928
 30
0.0
 10
42.76638182524591
 20
-103.234697782351
 30
0.0
 10
42.76638182524591
 20
-103.2284966104776
 30
0.0
 10
42.76069741769525
 20
-103.1754421400048
 30
0.0
 10
42.76069741769525
 20
-103.1754421400048
 30
0.0
 10
42.88299830742162
 20
-103.1902560505913
 30
0.0
 10
42.88299830742162
 20
-103.1902560505913
 30
0.0
 10
42.88299830742162
 20
-103.1902560505913
 30
0.0
 10
42.79600964641906
 20
-103.0190348049744
 30
0.0
 10
42.79600964641906
 20
-103.0190348049744
 30
0.0
 10
42.836661773145
 20
-103.0252359768479
 30
0.0
 10
42.9014295682677
 20
-103.033848715561
 30
0.0
 10
42.91624347885428
 20
-103.033848715561
 30
0.0
 10
42.960685210614
 20
-103.033848715561
 30
0.0
 10
42.97549912120057
 20
-103.012833633101
 30
0.0
 10
42.97549912120057
 20
-102.9556450480458
 30
0.0
 10
42.97549912120057
 20
-102.9556450480458
 30
0.0
 10
42.97549912120057
 20
-102.8181857381844
 30
0.0
 10
42.97549912120057
 20
-102.8181857381844
 30
0.0
 10
42.97549912120057
 20
-102.8181857381844
 30
0.0
 10
42.88299830742162
 20
-102.8181857381844
 30
0.0
 10
42.88299830742162
 20
-102.8181857381844
 30
0.0
 10
42.76638182524591
 20
-102.8181857381844
 30
0.0
 10
42.62926702493296
 20
-102.8181857381844
 30
0.0
 10
42.52178004579316
 20
-102.8305880819313
 30
0.0
 10
42.52178004579316
 20
-102.8305880819313
 30
0.0
 10
42.52178004579316
 20
-102.6404188111455
 30
0.0
 10
42.52178004579316
 20
-102.6404188111455
 30
0.0
 10
42.66819660391629
 20
-102.6572997790232
 30
0.0
 10
42.87007919935193
 20
-102.6593668363143
 30
0.0
 10
42.88299830742162
 20
-102.6593668363143
 30
0.0
 10
42.88299830742162
 20
-102.6593668363143
 30
0.0
 10
42.97549912120057
 20
-102.6593668363143
 30
0.0
 10
42.97549912120057
 20
-102.6593668363143
 30
0.0
 10
42.97549912120057
 20
-102.6593668363143
 30
0.0
 10
42.97549912120057
 20
-102.5281086983263
 30
0.0
 10
42.97549912120057
 20
-102.5281086983263
 30
0.0
 10
42.97549912120057
 20
-102.5281086983263
 30
0.0
 10
42.94225394976791
 20
-102.5281086983263
 30
0.0
 10
42.94225394976791
 20
-102.5281086983263
 30
0.0
 10
42.90332437078459
 20
-102.5281086983263
 30
0.0
 10
42.79411484390216
 20
-102.5325873224571
 30
0.0
 10
42.71625568593552
 20
-102.5408555516217
 30
0.0
 10
42.71625568593552
 20
-102.5408555516217
 30
0.0
 10
42.71625568593552
 20
-102.4605848268154
 30
0.0
 10
42.71625568593552
 20
-102.4605848268154
 30
0.0
 10
42.66991915165891
 20
-102.4984808771532
 30
0.0
 10
42.64787054055331
 20
-102.5132947877397
 30
0.0
 10
42.61066350931262
 20
-102.5367214370394
 30
0.0
 10
42.61066350931262
 20
-102.5367214370394
 30
0.0
 10
42.44598794511767
 20
-102.4075303563426
 30
0.0
 10
42.44598794511767
 20
-102.4075303563426
 30
0.0
 10
42.51454534527414
 20
-102.3737684205871
 30
0.0
 10
42.65148789081282
 20
-102.3103786636585
 30
0.0
 10
42.7884304363515
 20
-102.1663736723751
 30
0.0
 10
42.86077744154175
 20
-102.0881700048599
 30
0.0
 10
42.92933484169822
 20
-102.0037651654713
 30
0.0
 10
42.97549912120057
 20
-101.9021348486564
 30
0.0
 10
42.97549912120057
 20
-101.9021348486564
 30
0.0
 10
43.16067300353275
 20
-101.9634575482939
 30
0.0
 10
43.16067300353275
 20
-101.9634575482939
 30
0.0
 10
43.17738171663621
 20
-101.9696587201673
 30
0.0
 10
43.18668347444639
 20
-101.9782714588804
 30
0.0
 10
43.18668347444639
 20
-101.9910183121759
 30
0.0
 10
43.18668347444639
 20
-102.0078992800536
 30
0.0
 10
43.17548691411933
 20
-102.014100451927
 30
0.0
 10
43.15326604823947
 20
-102.0268473052225
 30
0.0
 10
43.22371825091282
 20
-102.124343507455
 30
0.0
 10
43.3661729492279
 20
-102.2214952001391
 30
0.0
 10
43.39580077040105
 20
-102.240443225308
 30
0.0
 10
43.5274034179376
 20
-102.3293266888274
 30
0.0
 10
43.62731118700984
 20
-102.3568874527094
 30
0.0
 10
43.69586858716631
 20
-102.3758354778783
 30
0.0
 10
43.69586858716631
 20
-102.3758354778783
 30
0.0
 10
43.59217121306029
 20
-102.5453341757526
 30
0.0
 10
43.59217121306029
 20
-102.5453341757526
 30
0.0
 10
43.51810166012742
 20
-102.5157063545794
 30
0.0
 10
43.4736599283677
 20
-102.496413819862
 30
0.0
 10
43.36996255426168
 20
-102.4309570056423
 30
0.0
 10
43.36996255426168
 20
-102.4309570056423
 30
0.0
 10
43.36996255426168
 20
-102.5408555516217
 30
0.0
 10
43.36996255426168
 20
-102.5408555516217
 30
0.0
 10
43.29778780384569
 20
-102.5325873224571
 30
0.0
 10
43.18668347444639
 20
-102.5281086983263
 30
0.0
 10
43.14034694016978
 20
-102.5281086983263
 30
0.0
 10
43.14034694016978
 20
-102.5281086983263
 30
0.0
 10
43.14034694016978
 20
-102.6593668363143
 30
0.0
 10
43.14034694016978
 20
-102.6593668363143
 30
0.0
 10
43.14034694016978
 20
-102.6593668363143
 30
0.0
 10
43.24593911679268
 20
-102.6593668363143
 30
0.0
 10
43.24593911679268
 20
-102.6593668363143
 30
0.0
 10
43.24766166453531
 20
-102.6593668363143
 30
0.0
 10
43.45143906248784
 20
-102.6572997790232
 30
0.0
 10
43.60698512364687
 20
-102.6404188111455
 30
0.0
 10
43.60698512364687
 20
-102.6404188111455
 30
0.0
 10
43.60698512364687
 20
-102.8305880819313
 30
0.0
 10
43.60698512364687
 20
-102.8305880819313
 30
0.0
 10
43.49398599173067
 20
-102.8181857381844
 30
0.0
 10
43.35704344619199
 20
-102.8181857381844
 30
0.0
 10
43.24593911679268
 20
-102.8181857381844
 30
0.0
 10
43.24593911679268
 20
-102.8181857381844
 30
0.0
 10
43.14034694016978
 20
-102.8181857381844
 30
0.0
 10
43.14034694016978
 20
-102.8181857381844
 30
0.0
 10
43.14034694016978
 20
-102.8181857381844
 30
0.0
 10
43.14034694016978
 20
-103.0445285115653
 30
0.0
 10
43.14034694016978
 20
-103.0445285115653
 30
0.0
 10
43.14034694016978
 20
-103.1630397962579
 30
0.0
 10
43.11812607428992
 20
-103.1988687893045
 30
0.0
 10
42.97739392371746
 20
-103.213682699891
 30
0.0
 10
42.98101127397697
 20
-103.2326307250599
 30
0.0
 10
42.97549912120057
 20
-103.2433105210642
 30
0.0
 10
42.94225394976791
 20
-103.2663926608154
 30
0.0
 10
42.94035914725102
 20
-103.2856851955327
 30
0.0
 10
42.94035914725102
 20
-103.2918863674062
 30
0.0
 10
42.93846434473414
 20
-103.3067002779928
 30
0.0
 10
42.93846434473414
 20
-103.3067002779928
 30
0.0
 10
43.05887043194362
 20
-103.3067002779928
 30
0.0
 10
43.05887043194362
 20
-103.3067002779928
 30
0.0
 10
43.20321993277559
 20
-103.3067002779928
 30
0.0
 10
43.3496364908987
 20
-103.3025661634105
 30
0.0
 10
43.49588079424756
 20
-103.2877522528239
 30
0.0
 10
43.49588079424756
 20
-103.2877522528239
 30
0.0
 10
43.49588079424756
 20
-103.4951470010359
 30
0.0
 10
43.49588079424756
 20
-103.4951470010359
 30
0.0
 10
43.30691730688161
 20
-103.4782660331582
 30
0.0
 10
43.07557914504708
 20
-103.4782660331582
 30
0.0
 10
43.05887043194362
 20
-103.4782660331582
 30
0.0
 10
43.05887043194362
 20
-103.4782660331582
 30
0.0
 10
42.93656954221725
 20
-103.4782660331582
 30
0.0
 10
42.93656954221725
 20
-103.4782660331582
 30
0.0
 10
42.93656954221725
 20
-103.4782660331582
 30
0.0
 10
42.93656954221725
 20
-103.619859457602
 30
0.0
 10
42.93656954221725
 20
-103.619859457602
 30
0.0
 10
42.93656954221725
 20
-103.619859457602
 30
0.0
 10
43.13483478739337
 20
-103.619859457602
 30
0.0
 10
43.13483478739337
 20
-103.619859457602
 30
0.0
 10
43.32362601998507
 20
-103.619859457602
 30
0.0
 10
43.51431205509365
 20
-103.6157253430197
 30
0.0
 10
43.7032755424596
 20
-103.6029784897243
 30
0.0
 10
43.7032755424596
 20
-103.6029784897243
 30
0.0
 10
43.7032755424596
 20
-103.8103732379363
 30
0.0
 10
43.7032755424596
 20
-103.8103732379363
 30
0.0
 10
43.45695121526423
 20
-103.7931477605101
 30
0.0
 10
43.15516085075635
 20
-103.7931477605101
 30
0.0
 10
43.13483478739337
 20
-103.7931477605101
 30
0.0
  0
SPLINE
  5
47
330
41
100
AcDbEntity
  8
_U+30EC_U+30A4_U+30E4_U+30FC 1
370
     0
100
AcDbSpline
210
0.0
220
0.0
230
1.0
 70
    11
 71
     3
 72
    23
 73
    19
 74
     0
 42
0.0000000001
 43
0.0000000001
 12
1.0
 22
0.0
 32
0.0
 13
1.0
 23
0.0
 33
0.0
 40
0.0
 40
0.0
 40
0.0
 40
0.0
 40
1.0
 40
1.0
 40
1.0
 40
2.0
 40
2.0
 40
2.0
 40
3.0
 40
3.0
 40
3.0
 40
4.0
 40
4.0
 40
4.0
 40
5.0
 40
5.0
 40
5.0
 40
6.0
 40
6.0
 40
6.0
 40
6.0
 10
42.15522188616259
 20
-103.165106853549
 30
0.0
 10
42.15522188616259
 20
-103.186121936009
 30
0.0
 10
42.15711668867947
 20
-103.2243624958953
 30
0.0
 10
42.13489582279961
 20
-103.2243624958953
 30
0.0
 10
42.12559406498944
 20
-103.2243624958953
 30
0.0
 10
42.11818710969615
 20
-103.2178168144733
 30
0.0
 10
42.10888535188597
 20
-103.2009358465956
 30
0.0
 10
42.10888535188597
 20
-103.2009358465956
 30
0.0
 10
42.01810708584964
 20
-103.0190348049744
 30
0.0
 10
42.01810708584964
 20
-103.0190348049744
 30
0.0
 10
42.2070705732156
 20
-102.8898437242775
 30
0.0
 10
42.37932534747809
 20
-102.6128580472635
 30
0.0
 10
42.41997747420403
 20
-102.5408555516217
 30
0.0
 10
42.41997747420403
 20
-102.5408555516217
 30
0.0
 10
42.48302272158411
 20
-102.7206895359518
 30
0.0
 10
42.48302272158411
 20
-102.7206895359518
 30
0.0
 10
42.3664062394084
 20
-102.9174044881595
 30
0.0
 10
42.21258272599199
 20
-103.1013725870719
 30
0.0
 10
42.15522188616259
 20
-103.165106853549
 30
0.0
  0
SPLINE
  5
48
330
41
100
AcDbEntity
  8
_U+30EC_U+30A4_U+30E4_U+30FC 1
370
     0
100
AcDbSpline
210
0.0
220
0.0
230
1.0
 70
    11
 71
     3
 72
    17
 73
    13
 74
     0
 42
0.0000000001
 43
0.0000000001
 12
1.0
 22
0.0
 32
0.0
 13
1.0
 23
0.0
 33
0.0
 40
0.0
 40
0.0
 40
0.0
 40
0.0
 40
1.0
 40
1.0
 40
1.0
 40
2.0
 40
2.0
 40
2.0
 40
3.0
 40
3.0
 40
3.0
 40
4.0
 40
4.0
 40
4.0
 40
4.0
 10
42.3774305449612
 20
-102.2700710464811
 30
0.0
 10
42.3236870553913
 20
-102.1939344362571
 30
0.0
 10
42.21068792347511
 20
-102.1177978260331
 30
0.0
 10
42.12008191221304
 20
-102.0881700048599
 30
0.0
 10
42.12008191221304
 20
-102.0881700048599
 30
0.0
 10
42.20345322295609
 20
-101.9231499311164
 30
0.0
 10
42.20345322295609
 20
-101.9231499311164
 30
0.0
 10
42.29233668647553
 20
-101.9593234337116
 30
0.0
 10
42.38483750025448
 20
-102.0161675092182
 30
0.0
 10
42.46252440344687
 20
-102.096782743573
 30
0.0
 10
42.46252440344687
 20
-102.096782743573
 30
0.0
 10
42.3774305449612
 20
-102.2700710464811
 30
0.0
 10
42.3774305449612
 20
-102.2700710464811
 30
0.0
  0
SPLINE
  5
49
330
41
100
AcDbEntity
  8
_U+30EC_U+30A4_U+30E4_U+30FC 1
370
     0
100
AcDbSpline
210
0.0
220
0.0
230
1.0
 70
    11
 71
     3
 72
    23
 73
    19
 74
     0
 42
0.0000000001
 43
0.0000000001
 12
1.0
 22
0.0
 32
0.0
 13
1.0
 23
0.0
 33
0.0
 40
0.0
 40
0.0
 40
0.0
 40
0.0
 40
1.0
 40
1.0
 40
1.0
 40
2.0
 40
2.0
 40
2.0
 40
3.0
 40
3.0
 40
3.0
 40
4.0
 40
4.0
 40
4.0
 40
5.0
 40
5.0
 40
5.0
 40
6.0
 40
6.0
 40
6.0
 40
6.0
 10
42.77361652576493
 20
-102.9745930732147
 30
0.0
 10
42.75518526491884
 20
-102.9980197225144
 30
0.0
 10
42.66991915165891
 20
-103.109985325785
 30
0.0
 10
42.5477905167068
 20
-103.1902560505913
 30
0.0
 10
42.5477905167068
 20
-103.1902560505913
 30
0.0
 10
42.40154621335795
 20
-103.0696777086076
 30
0.0
 10
42.40154621335795
 20
-103.0696777086076
 30
0.0
 10
42.53297660612023
 20
-102.9935410983836
 30
0.0
 10
42.61996526712279
 20
-102.8984564629907
 30
0.0
 10
42.66268445113989
 20
-102.8454019925178
 30
0.0
 10
42.66268445113989
 20
-102.8454019925178
 30
0.0
 10
42.81444090726514
 20
-102.9280842841638
 30
0.0
 10
42.81444090726514
 20
-102.9280842841638
 30
0.0
 10
42.82184786255843
 20
-102.9322183987461
 30
0.0
 10
42.82925481785172
 20
-102.9387640801681
 30
0.0
 10
42.82925481785172
 20
-102.9490993666238
 30
0.0
 10
42.82925481785172
 20
-102.9745930732147
 30
0.0
 10
42.79773219416168
 20
-102.9745930732147
 30
0.0
 10
42.77361652576493
 20
-102.9745930732147
 30
0.0
  0
SPLINE
  5
4A
330
41
100
AcDbEntity
  8
_U+30EC_U+30A4_U+30E4_U+30FC 1
370
     0
100
AcDbSpline
210
0.0
220
0.0
230
1.0
 70
    11
 71
     3
 72
    20
 73
    16
 74
     0
 42
0.0000000001
 43
0.0000000001
 12
1.0
 22
0.0
 32
0.0
 13
1.0
 23
0.0
 33
0.0
 40
0.0
 40
0.0
 40
0.0
 40
0.0
 40
1.0
 40
1.0
 40
1.0
 40
2.0
 40
2.0
 40
2.0
 40
3.0
 40
3.0
 40
3.0
 40
4.0
 40
4.0
 40
4.0
 40
5.0
 40
5.0
 40
5.0
 40
5.0
 10
43.03475476354687
 20
-102.1326117366196
 30
0.0
 10
43.00150959211421
 20
-102.1811875829617
 30
0.0
 10
42.94776610254431
 20
-102.2597357600254
 30
0.0
 10
42.8256374675922
 20
-102.3696343060048
 30
0.0
 10
42.8959174154913
 20
-102.3737684205871
 30
0.0
 10
42.92175563163067
 20
-102.3737684205871
 30
0.0
 10
42.94225394976791
 20
-102.3737684205871
 30
0.0
 10
42.94225394976791
 20
-102.3737684205871
 30
0.0
 10
43.14224174268666
 20
-102.3737684205871
 30
0.0
 10
43.14224174268666
 20
-102.3737684205871
 30
0.0
 10
43.16997476134293
 20
-102.3737684205871
 30
0.0
 10
43.21252169058576
 20
-102.371701363296
 30
0.0
 10
43.27728948570846
 20
-102.3696343060048
 30
0.0
 10
43.1792765191531
 20
-102.2955647530719
 30
0.0
 10
43.13672958991027
 20
-102.2490559640211
 30
0.0
 10
43.03475476354687
 20
-102.1326117366196
 30
0.0
  0
SPLINE
  5
4B
330
41
100
AcDbEntity
  8
_U+30EC_U+30A4_U+30E4_U+30FC 1
370
     0
100
AcDbSpline
210
0.0
220
0.0
230
1.0
 70
    11
 71
     3
 72
    17
 73
    13
 74
     0
 42
0.0000000001
 43
0.0000000001
 12
1.0
 22
0.0
 32
0.0
 13
1.0
 23
0.0
 33
0.0
 40
0.0
 40
0.0
 40
0.0
 40
0.0
 40
1.0
 40
1.0
 40
1.0
 40
2.0
 40
2.0
 40
2.0
 40
3.0
 40
3.0
 40
3.0
 40
4.0
 40
4.0
 40
4.0
 40
4.0
 10
43.5255086154207
 20
-103.1881889933002
 30
0.0
 10
43.40699733072811
 20
-103.0762233900296
 30
0.0
 10
43.31449651694916
 20
-103.012833633101
 30
0.0
 10
43.21079914284314
 20
-102.9490993666238
 30
0.0
 10
43.21079914284314
 20
-102.9490993666238
 30
0.0
 10
43.32173121746818
 20
-102.8371337633532
 30
0.0
 10
43.32173121746818
 20
-102.8371337633532
 30
0.0
 10
43.43662515190126
 20
-102.8836425524041
 30
0.0
 10
43.532915570714
 20
-102.9408311374592
 30
0.0
 10
43.64212509759641
 20
-103.0424614542741
 30
0.0
 10
43.64212509759641
 20
-103.0424614542741
 30
0.0
 10
43.5255086154207
 20
-103.1881889933002
 30
0.0
 10
43.5255086154207
 20
-103.1881889933002
 30
0.0
  0
HATCH
  5
4C
330
41
100
AcDbEntity
  8
_U+30EC_U+30A4_U+30E4_U+30FC 1
 62
   179
420
  2234388
100
AcDbHatch
 10
0.0
 20
0.0
 30
0.0
210
0.0
220
0.0
230
1.0
  2
SOLID
 70
     1
 71
     0
 91
        7
 92
        1
 93
        1
 72
     4
 94
        3
 73
     0
 74
     1
 95
       17
 96
       13
 40
0.0
 40
0.0
 40
0.0
 40
0.0
 40
1.0
 40
1.0
 40
1.0
 40
2.0
 40
2.0
 40
2.0
 40
3.0
 40
3.0
 40
3.0
 40
4.0
 40
4.0
 40
4.0
 40
4.0
 10
42.21998968128528
 20
-102.6149251045546
 10
42.12748886750632
 20
-102.5091606731574
 10
42.05703666483296
 20
-102.4712646228197
 10
41.9755601566068
 20
-102.4392252348069
 10
41.9755601566068
 20
-102.4392252348069
 10
42.07185057541954
 20
-102.2745496706119
 10
42.07185057541954
 20
-102.2745496706119
 10
42.15711668867947
 20
-102.316579835532
 10
42.26270886530238
 20
-102.3951280125957
 10
42.30887314480473
 20
-102.4499050308111
 10
42.30887314480473
 20
-102.4499050308111
 10
42.21998968128528
 20
-102.6149251045546
 10
42.21998968128528
 20
-102.6149251045546
 97
        0
 97
        0
 92
        1
 93
        1
 72
     4
 94
        3
 73
     0
 74
     1
 95
      182
 96
      178
 40
0.0
 40
0.0
 40
0.0
 40
0.0
 40
1.0
 40
1.0
 40
1.0
 40
2.0
 40
2.0
 40
2.0
 40
3.0
 40
3.0
 40
3.0
 40
4.0
 40
4.0
 40
4.0
 40
5.0
 40
5.0
 40
5.0
 40
6.0
 40
6.0
 40
6.0
 40
7.0
 40
7.0
 40
7.0
 40
8.0
 40
8.0
 40
8.0
 40
9.0
 40
9.0
 40
9.0
 40
10.0
 40
10.0
 40
10.0
 40
11.0
 40
11.0
 40
11.0
 40
12.0
 40
12.0
 40
12.0
 40
13.0
 40
13.0
 40
13.0
 40
14.0
 40
14.0
 40
14.0
 40
15.0
 40
15.0
 40
15.0
 40
16.0
 40
16.0
 40
16.0
 40
17.0
 40
17.0
 40
17.0
 40
18.0
 40
18.0
 40
18.0
 40
19.0
 40
19.0
 40
19.0
 40
20.0
 40
20.0
 40
20.0
 40
21.0
 40
21.0
 40
21.0
 40
22.0
 40
22.0
 40
22.0
 40
23.0
 40
23.0
 40
23.0
 40
24.0
 40
24.0
 40
24.0
 40
25.0
 40
25.0
 40
25.0
 40
26.0
 40
26.0
 40
26.0
 40
27.0
 40
27.0
 40
27.0
 40
28.0
 40
28.0
 40
28.0
 40
29.0
 40
29.0
 40
29.0
 40
30.0
 40
30.0
 40
30.0
 40
31.0
 40
31.0
 40
31.0
 40
32.0
 40
32.0
 40
32.0
 40
33.0
 40
33.0
 40
33.0
 40
34.0
 40
34.0
 40
34.0
 40
35.0
 40
35.0
 40
35.0
 40
36.0
 40
36.0
 40
36.0
 40
37.0
 40
37.0
 40
37.0
 40
38.0
 40
38.0
 40
38.0
 40
39.0
 40
39.0
 40
39.0
 40
40.0
 40
40.0
 40
40.0
 40
41.0
 40
41.0
 40
41.0
 40
42.0
 40
42.0
 40
42.0
 40
43.0
 40
43.0
 40
43.0
 40
44.0
 40
44.0
 40
44.0
 40
45.0
 40
45.0
 40
45.0
 40
46.0
 40
46.0
 40
46.0
 40
47.0
 40
47.0
 40
47.0
 40
48.0
 40
48.0
 40
48.0
 40
49.0
 40
49.0
 40
49.0
 40
50.0
 40
50.0
 40
50.0
 40
51.0
 40
51.0
 40
51.0
 40
52.0
 40
52.0
 40
52.0
 40
53.0
 40
53.0
 40
53.0
 40
54.0
 40
54.0
 40
54.0
 40
55.0
 40
55.0
 40
55.0
 40
56.0
 40
56.0
 40
56.0
 40
57.0
 40
57.0
 40
57.0
 40
58.0
 40
58.0
 40
58.0
 40
59.0
 40
59.0
 40
59.0
 40
59.0
 10
43.13483478739337
 20
-103.7931477605101
 10
43.13483478739337
 20
-103.7931477605101
 10
42.57741833787995
 20
-103.7931477605101
 10
42.57741833787995
 20
-103.7931477605101
 10
42.39034965303089
 20
-103.7931477605101
 10
42.2015584204392
 20
-103.7976263846409
 10
42.01448973559013
 20
-103.8103732379363
 10
42.01448973559013
 20
-103.8103732379363
 10
42.01448973559013
 20
-103.6029784897243
 10
42.01448973559013
 20
-103.6029784897243
 10
42.20896537573248
 20
-103.6157253430197
 10
42.49215222462002
 20
-103.619859457602
 10
42.57741833787995
 20
-103.619859457602
 10
42.57741833787995
 20
-103.619859457602
 10
42.76999917550542
 20
-103.619859457602
 10
42.76999917550542
 20
-103.619859457602
 10
42.76999917550542
 20
-103.619859457602
 10
42.76999917550542
 20
-103.4782660331582
 10
42.76999917550542
 20
-103.4782660331582
 10
42.76999917550542
 20
-103.4782660331582
 10
42.62926702493296
 20
-103.4782660331582
 10
42.62926702493296
 20
-103.4782660331582
 10
42.48491752410099
 20
-103.4782660331582
 10
42.34039576849477
 20
-103.4824001477405
 10
42.19587401288853
 20
-103.4972140583271
 10
42.19587401288853
 20
-103.4972140583271
 10
42.19587401288853
 20
-103.2877522528239
 10
42.19587401288853
 20
-103.2877522528239
 10
42.34590792127116
 20
-103.3025661634105
 10
42.56260442729338
 20
-103.3067002779928
 10
42.62926702493296
 20
-103.3067002779928
 10
42.62926702493296
 20
-103.3067002779928
 10
42.76999917550542
 20
-103.3067002779928
 10
42.76999917550542
 20
-103.3067002779928
 10
42.76638182524591
 20
-103.234697782351
 10
42.76638182524591
 20
-103.2284966104776
 10
42.76069741769525
 20
-103.1754421400048
 10
42.76069741769525
 20
-103.1754421400048
 10
42.88299830742162
 20
-103.1902560505913
 10
42.88299830742162
 20
-103.1902560505913
 10
42.88299830742162
 20
-103.1902560505913
 10
42.79600964641906
 20
-103.0190348049744
 10
42.79600964641906
 20
-103.0190348049744
 10
42.836661773145
 20
-103.0252359768479
 10
42.9014295682677
 20
-103.033848715561
 10
42.91624347885428
 20
-103.033848715561
 10
42.960685210614
 20
-103.033848715561
 10
42.97549912120057
 20
-103.012833633101
 10
42.97549912120057
 20
-102.9556450480458
 10
42.97549912120057
 20
-102.9556450480458
 10
42.97549912120057
 20
-102.8181857381844
 10
42.97549912120057
 20
-102.8181857381844
 10
42.97549912120057
 20
-102.8181857381844
 10
42.88299830742162
 20
-102.8181857381844
 10
42.88299830742162
 20
-102.8181857381844
 10
42.76638182524591
 20
-102.8181857381844
 10
42.62926702493296
 20
-102.8181857381844
 10
42.52178004579316
 20
-102.8305880819313
 10
42.52178004579316
 20
-102.8305880819313
 10
42.52178004579316
 20
-102.6404188111455
 10
42.52178004579316
 20
-102.6404188111455
 10
42.66819660391629
 20
-102.6572997790232
 10
42.87007919935193
 20
-102.6593668363143
 10
42.88299830742162
 20
-102.6593668363143
 10
42.88299830742162
 20
-102.6593668363143
 10
42.97549912120057
 20
-102.6593668363143
 10
42.97549912120057
 20
-102.6593668363143
 10
42.97549912120057
 20
-102.6593668363143
 10
42.97549912120057
 20
-102.5281086983263
 10
42.97549912120057
 20
-102.5281086983263
 10
42.97549912120057
 20
-102.5281086983263
 10
42.94225394976791
 20
-102.5281086983263
 10
42.94225394976791
 20
-102.5281086983263
 10
42.90332437078459
 20
-102.5281086983263
 10
42.79411484390216
 20
-102.5325873224571
 10
42.71625568593552
 20
-102.5408555516217
 10
42.71625568593552
 20
-102.5408555516217
 10
42.71625568593552
 20
-102.4605848268154
 10
42.71625568593552
 20
-102.4605848268154
 10
42.66991915165891
 20
-102.4984808771532
 10
42.64787054055331
 20
-102.5132947877397
 10
42.61066350931262
 20
-102.5367214370394
 10
42.61066350931262
 20
-102.5367214370394
 10
42.44598794511767
 20
-102.4075303563426
 10
42.44598794511767
 20
-102.4075303563426
 10
42.51454534527414
 20
-102.3737684205871
 10
42.65148789081282
 20
-102.3103786636585
 10
42.7884304363515
 20
-102.1663736723751
 10
42.86077744154175
 20
-102.0881700048599
 10
42.92933484169822
 20
-102.0037651654713
 10
42.97549912120057
 20
-101.9021348486564
 10
42.97549912120057
 20
-101.9021348486564
 10
43.16067300353275
 20
-101.9634575482939
 10
43.16067300353275
 20
-101.9634575482939
 10
43.17738171663621
 20
-101.9696587201673
 10
43.18668347444639
 20
-101.9782714588804
 10
43.18668347444639
 20
-101.9910183121759
 10
43.18668347444639
 20
-102.0078992800536
 10
43.17548691411933
 20
-102.014100451927
 10
43.15326604823947
 20
-102.0268473052225
 10
43.22371825091282
 20
-102.124343507455
 10
43.3661729492279
 20
-102.2214952001391
 10
43.39580077040105
 20
-102.240443225308
 10
43.5274034179376
 20
-102.3293266888274
 10
43.62731118700984
 20
-102.3568874527094
 10
43.69586858716631
 20
-102.3758354778783
 10
43.69586858716631
 20
-102.3758354778783
 10
43.59217121306029
 20
-102.5453341757526
 10
43.59217121306029
 20
-102.5453341757526
 10
43.51810166012742
 20
-102.5157063545794
 10
43.4736599283677
 20
-102.496413819862
 10
43.36996255426168
 20
-102.4309570056423
 10
43.36996255426168
 20
-102.4309570056423
 10
43.36996255426168
 20
-102.5408555516217
 10
43.36996255426168
 20
-102.5408555516217
 10
43.29778780384569
 20
-102.5325873224571
 10
43.18668347444639
 20
-102.5281086983263
 10
43.14034694016978
 20
-102.5281086983263
 10
43.14034694016978
 20
-102.5281086983263
 10
43.14034694016978
 20
-102.6593668363143
 10
43.14034694016978
 20
-102.6593668363143
 10
43.14034694016978
 20
-102.6593668363143
 10
43.24593911679268
 20
-102.6593668363143
 10
43.24593911679268
 20
-102.6593668363143
 10
43.24766166453531
 20
-102.6593668363143
 10
43.45143906248784
 20
-102.6572997790232
 10
43.60698512364687
 20
-102.6404188111455
 10
43.60698512364687
 20
-102.6404188111455
 10
43.60698512364687
 20
-102.8305880819313
 10
43.60698512364687
 20
-102.8305880819313
 10
43.49398599173067
 20
-102.8181857381844
 10
43.35704344619199
 20
-102.8181857381844
 10
43.24593911679268
 20
-102.8181857381844
 10
43.24593911679268
 20
-102.8181857381844
 10
43.14034694016978
 20
-102.8181857381844
 10
43.14034694016978
 20
-102.8181857381844
 10
43.14034694016978
 20
-102.8181857381844
 10
43.14034694016978
 20
-103.0445285115653
 10
43.14034694016978
 20
-103.0445285115653
 10
43.14034694016978
 20
-103.1630397962579
 10
43.11812607428992
 20
-103.1988687893045
 10
42.97739392371746
 20
-103.213682699891
 10
42.98101127397697
 20
-103.2326307250599
 10
42.97549912120057
 20
-103.2433105210642
 10
42.94225394976791
 20
-103.2663926608154
 10
42.94035914725102
 20
-103.2856851955327
 10
42.94035914725102
 20
-103.2918863674062
 10
42.93846434473414
 20
-103.3067002779928
 10
42.93846434473414
 20
-103.3067002779928
 10
43.05887043194362
 20
-103.3067002779928
 10
43.05887043194362
 20
-103.3067002779928
 10
43.20321993277559
 20
-103.3067002779928
 10
43.3496364908987
 20
-103.3025661634105
 10
43.49588079424756
 20
-103.2877522528239
 10
43.49588079424756
 20
-103.2877522528239
 10
43.49588079424756
 20
-103.4951470010359
 10
43.49588079424756
 20
-103.4951470010359
 10
43.30691730688161
 20
-103.4782660331582
 10
43.07557914504708
 20
-103.4782660331582
 10
43.05887043194362
 20
-103.4782660331582
 10
43.05887043194362
 20
-103.4782660331582
 10
42.93656954221725
 20
-103.4782660331582
 10
42.93656954221725
 20
-103.4782660331582
 10
42.93656954221725
 20
-103.4782660331582
 10
42.93656954221725
 20
-103.619859457602
 10
42.93656954221725
 20
-103.619859457602
 10
42.93656954221725
 20
-103.619859457602
 10
43.13483478739337
 20
-103.619859457602
 10
43.13483478739337
 20
-103.619859457602
 10
43.32362601998507
 20
-103.619859457602
 10
43.51431205509365
 20
-103.6157253430197
 10
43.7032755424596
 20
-103.6029784897243
 10
43.7032755424596
 20
-103.6029784897243
 10
43.7032755424596
 20
-103.8103732379363
 10
43.7032755424596
 20
-103.8103732379363
 10
43.45695121526423
 20
-103.7931477605101
 10
43.15516085075635
 20
-103.7931477605101
 10
43.13483478739337
 20
-103.7931477605101
 97
        0
 97
        0
 92
        1
 93
        1
 72
     4
 94
        3
 73
     0
 74
     1
 95
       23
 96
       19
 40
0.0
 40
0.0
 40
0.0
 40
0.0
 40
1.0
 40
1.0
 40
1.0
 40
2.0
 40
2.0
 40
2.0
 40
3.0
 40
3.0
 40
3.0
 40
4.0
 40
4.0
 40
4.0
 40
5.0
 40
5.0
 40
5.0
 40
6.0
 40
6.0
 40
6.0
 40
6.0
 10
42.15522188616259
 20
-103.165106853549
 10
42.15522188616259
 20
-103.186121936009
 10
42.15711668867947
 20
-103.2243624958953
 10
42.13489582279961
 20
-103.2243624958953
 10
42.12559406498944
 20
-103.2243624958953
 10
42.11818710969615
 20
-103.2178168144733
 10
42.10888535188597
 20
-103.2009358465956
 10
42.10888535188597
 20
-103.2009358465956
 10
42.01810708584964
 20
-103.0190348049744
 10
42.01810708584964
 20
-103.0190348049744
 10
42.2070705732156
 20
-102.8898437242775
 10
42.37932534747809
 20
-102.6128580472635
 10
42.41997747420403
 20
-102.5408555516217
 10
42.41997747420403
 20
-102.5408555516217
 10
42.48302272158411
 20
-102.7206895359518
 10
42.48302272158411
 20
-102.7206895359518
 10
42.3664062394084
 20
-102.9174044881595
 10
42.21258272599199
 20
-103.1013725870719
 10
42.15522188616259
 20
-103.165106853549
 97
        0
 97
        0
 92
        1
 93
        1
 72
     4
 94
        3
 73
     0
 74
     1
 95
       17
 96
       13
 40
0.0
 40
0.0
 40
0.0
 40
0.0
 40
1.0
 40
1.0
 40
1.0
 40
2.0
 40
2.0
 40
2.0
 40
3.0
 40
3.0
 40
3.0
 40
4.0
 40
4.0
 40
4.0
 40
4.0
 10
42.3774305449612
 20
-102.2700710464811
 10
42.3236870553913
 20
-102.1939344362571
 10
42.21068792347511
 20
-102.1177978260331
 10
42.12008191221304
 20
-102.0881700048599
 10
42.12008191221304
 20
-102.0881700048599
 10
42.20345322295609
 20
-101.9231499311164
 10
42.20345322295609
 20
-101.9231499311164
 10
42.29233668647553
 20
-101.9593234337116
 10
42.38483750025448
 20
-102.0161675092182
 10
42.46252440344687
 20
-102.096782743573
 10
42.46252440344687
 20
-102.096782743573
 10
42.3774305449612
 20
-102.2700710464811
 10
42.3774305449612
 20
-102.2700710464811
 97
        0
 97
        0
 92
        1
 93
        1
 72
     4
 94
        3
 73
     0
 74
     1
 95
       23
 96
       19
 40
0.0
 40
0.0
 40
0.0
 40
0.0
 40
1.0
 40
1.0
 40
1.0
 40
2.0
 40
2.0
 40
2.0
 40
3.0
 40
3.0
 40
3.0
 40
4.0
 40
4.0
 40
4.0
 40
5.0
 40
5.0
 40
5.0
 40
6.0
 40
6.0
 40
6.0
 40
6.0
 10
42.77361652576493
 20
-102.9745930732147
 10
42.75518526491884
 20
-102.9980197225144
 10
42.66991915165891
 20
-103.109985325785
 10
42.5477905167068
 20
-103.1902560505913
 10
42.5477905167068
 20
-103.1902560505913
 10
42.40154621335795
 20
-103.0696777086076
 10
42.40154621335795
 20
-103.0696777086076
 10
42.53297660612023
 20
-102.9935410983836
 10
42.61996526712279
 20
-102.8984564629907
 10
42.66268445113989
 20
-102.8454019925178
 10
42.66268445113989
 20
-102.8454019925178
 10
42.81444090726514
 20
-102.9280842841638
 10
42.81444090726514
 20
-102.9280842841638
 10
42.82184786255843
 20
-102.9322183987461
 10
42.82925481785172
 20
-102.9387640801681
 10
42.82925481785172
 20
-102.9490993666238
 10
42.82925481785172
 20
-102.9745930732147
 10
42.79773219416168
 20
-102.9745930732147
 10
42.77361652576493
 20
-102.9745930732147
 97
        0
 97
        0
 92
        1
 93
        1
 72
     4
 94
        3
 73
     0
 74
     1
 95
       20
 96
       16
 40
0.0
 40
0.0
 40
0.0
 40
0.0
 40
1.0
 40
1.0
 40
1.0
 40
2.0
 40
2.0
 40
2.0
 40
3.0
 40
3.0
 40
3.0
 40
4.0
 40
4.0
 40
4.0
 40
5.0
 40
5.0
 40
5.0
 40
5.0
 10
43.03475476354687
 20
-102.1326117366196
 10
43.00150959211421
 20
-102.1811875829617
 10
42.94776610254431
 20
-102.2597357600254
 10
42.8256374675922
 20
-102.3696343060048
 10
42.8959174154913
 20
-102.3737684205871
 10
42.92175563163067
 20
-102.3737684205871
 10
42.94225394976791
 20
-102.3737684205871
 10
42.94225394976791
 20
-102.3737684205871
 10
43.14224174268666
 20
-102.3737684205871
 10
43.14224174268666
 20
-102.3737684205871
 10
43.16997476134293
 20
-102.3737684205871
 10
43.21252169058576
 20
-102.371701363296
 10
43.27728948570846
 20
-102.3696343060048
 10
43.1792765191531
 20
-102.2955647530719
 10
43.13672958991027
 20
-102.2490559640211
 10
43.03475476354687
 20
-102.1326117366196
 97
        0
 97
        0
 92
        1
 93
        1
 72
     4
 94
        3
 73
     0
 74
     1
 95
       17
 96
       13
 40
0.0
 40
0.0
 40
0.0
 40
0.0
 40
1.0
 40
1.0
 40
1.0
 40
2.0
 40
2.0
 40
2.0
 40
3.0
 40
3.0
 40
3.0
 40
4.0
 40
4.0
 40
4.0
 40
4.0
 10
43.5255086154207
 20
-103.1881889933002
 10
43.40699733072811
 20
-103.0762233900296
 10
43.31449651694916
 20
-103.012833633101
 10
43.21079914284314
 20
-102.9490993666238
 10
43.21079914284314
 20
-102.9490993666238
 10
43.32173121746818
 20
-102.8371337633532
 10
43.32173121746818
 20
-102.8371337633532
 10
43.43662515190126
 20
-102.8836425524041
 10
43.532915570714
 20
-102.9408311374592
 10
43.64212509759641
 20
-103.0424614542741
 10
43.64212509759641
 20
-103.0424614542741
 10
43.5255086154207
 20
-103.1881889933002
 10
43.5255086154207
 20
-103.1881889933002
 97
        0
 97
        0
 75
     2
 76
     1
 98
        0
  0
SPLINE
  5
4D
330
41
100
AcDbEntity
  8
_U+30EC_U+30A4_U+30E4_U+30FC 1
370
     0
100
AcDbSpline
210
0.0
220
0.0
230
1.0
 70
    11
 71
     3
 72
   113
 73
   109
 74
     0
 42
0.0000000001
 43
0.0000000001
 12
1.0
 22
0.0
 32
0.0
 13
1.0
 23
0.0
 33
0.0
 40
0.0
 40
0.0
 40
0.0
 40
0.0
 40
1.0
 40
1.0
 40
1.0
 40
2.0
 40
2.0
 40
2.0
 40
3.0
 40
3.0
 40
3.0
 40
4.0
 40
4.0
 40
4.0
 40
5.0
 40
5.0
 40
5.0
 40
6.0
 40
6.0
 40
6.0
 40
7.0
 40
7.0
 40
7.0
 40
8.0
 40
8.0
 40
8.0
 40
9.0
 40
9.0
 40
9.0
 40
10.0
 40
10.0
 40
10.0
 40
11.0
 40
11.0
 40
11.0
 40
12.0
 40
12.0
 40
12.0
 40
13.0
 40
13.0
 40
13.0
 40
14.0
 40
14.0
 40
14.0
 40
15.0
 40
15.0
 40
15.0
 40
16.0
 40
16.0
 40
16.0
 40
17.0
 40
17.0
 40
17.0
 40
18.0
 40
18.0
 40
18.0
 40
19.0
 40
19.0
 40
19.0
 40
20.0
 40
20.0
 40
20.0
 40
21.0
 40
21.0
 40
21.0
 40
22.0
 40
22.0
 40
22.0
 40
23.0
 40
23.0
 40
23.0
 40
24.0
 40
24.0
 40
24.0
 40
25.0
 40
25.0
 40
25.0
 40
26.0
 40
26.0
 40
26.0
 40
27.0
 40
27.0
 40
27.0
 40
28.0
 40
28.0
 40
28.0
 40
29.0
 40
29.0
 40
29.0
 40
30.0
 40
30.0
 40
30.0
 40
31.0
 40
31.0
 40
31.0
 40
32.0
 40
32.0
 40
32.0
 40
33.0
 40
33.0
 40
33.0
 40
34.0
 40
34.0
 40
34.0
 40
35.0
 40
35.0
 40
35.0
 40
36.0
 40
36.0
 40
36.0
 40
36.0
 10
45.17209200259587
 20
-103.165106853549
 30
0.0
 10
45.17209200259587
 20
-103.165106853549
 30
0.0
 10
45.25908066359843
 20
-103.2643256035242
 30
0.0
 10
45.25908066359843
 20
-103.2643256035242
 30
0.0
 10
45.2683824214086
 20
-103.2750053995285
 30
0.0
 10
45.27768417921877
 20
-103.2877522528239
 30
0.0
 10
45.27768417921877
 20
-103.3025661634105
 30
0.0
 10
45.27768417921877
 20
-103.3046332207016
 30
0.0
 10
45.27768417921877
 20
-103.3342610418748
 30
0.0
 10
45.24426675301185
 20
-103.3342610418748
 30
0.0
 10
45.23685979771857
 20
-103.3342610418748
 30
0.0
 10
45.20171982376902
 20
-103.3301269272925
 30
0.0
 10
45.19620767099261
 20
-103.3301269272925
 30
0.0
 10
45.16106769704307
 20
-103.3618218057568
 30
0.0
 10
45.12024331554286
 20
-103.3955837415122
 30
0.0
 10
45.0332546545403
 20
-103.4527723265674
 30
0.0
 10
45.16106769704307
 20
-103.5606038152557
 30
0.0
 10
45.29990504509864
 20
-103.6177924003108
 30
0.0
 10
45.53882241700072
 20
-103.6556884506486
 30
0.0
 10
45.53882241700072
 20
-103.6556884506486
 30
0.0
 10
45.40721976946417
 20
-103.8313883203963
 30
0.0
 10
45.40721976946417
 20
-103.8313883203963
 30
0.0
 10
45.17760415537226
 20
-103.7593858247546
 30
0.0
 10
45.04066160983358
 20
-103.6705023612352
 30
0.0
 10
44.973999012194
 20
-103.6177924003108
 30
0.0
 10
44.84256861943172
 20
-103.516162083496
 30
0.0
 10
44.71665037944584
 20
-103.3532090670437
 30
0.0
 10
44.64998778180625
 20
-103.1881889933002
 30
0.0
 10
44.59073213945996
 20
-103.2539903170685
 30
0.0
 10
44.525792089563
 20
-103.3067002779928
 30
0.0
 10
44.45740694418079
 20
-103.3552761243348
 30
0.0
 10
44.45740694418079
 20
-103.3552761243348
 30
0.0
 10
44.45740694418079
 20
-103.6071126043066
 30
0.0
 10
44.45740694418079
 20
-103.6071126043066
 30
0.0
 10
44.59986164249587
 20
-103.5816188977157
 30
0.0
 10
44.76281465894819
 20
-103.537177165956
 30
0.0
 10
44.81845295103497
 20
-103.5223632553694
 30
0.0
 10
44.81845295103497
 20
-103.5223632553694
 30
0.0
 10
44.79244248012134
 20
-103.6918619532437
 30
0.0
 10
44.79244248012134
 20
-103.6918619532437
 30
0.0
 10
44.79071993237871
 20
-103.6918619532437
 30
0.0
 10
44.77401121927525
 20
-103.6980631251172
 30
0.0
 10
44.77211641675837
 20
-103.6980631251172
 30
0.0
 10
44.59813909475324
 20
-103.7363036850034
 30
0.0
 10
44.32029214386785
 20
-103.8017604992232
 30
0.0
 10
44.14803736960535
 20
-103.8375894922698
 30
0.0
 10
44.13890786656944
 20
-103.854814969696
 30
0.0
 10
44.1184095484322
 20
-103.8865098481603
 30
0.0
 10
44.09808348506923
 20
-103.8865098481603
 30
0.0
 10
44.07396781667249
 20
-103.8865098481603
 30
0.0
 10
44.07035046641297
 20
-103.8672173134429
 30
0.0
 10
44.06845566389608
 20
-103.8482692882741
 30
0.0
 10
44.06845566389608
 20
-103.8482692882741
 30
0.0
 10
44.04623479801622
 20
-103.674980985366
 30
0.0
 10
44.04623479801622
 20
-103.674980985366
 30
0.0
 10
44.11100259313892
 20
-103.6663682466529
 30
0.0
 10
44.20557046420902
 20
-103.6536213933574
 30
0.0
 10
44.29996608050487
 20
-103.6326063108974
 30
0.0
 10
44.29996608050487
 20
-103.6326063108974
 30
0.0
 10
44.29996608050487
 20
-103.4548393838585
 30
0.0
 10
44.29996608050487
 20
-103.4548393838585
 30
0.0
 10
44.17404784051899
 20
-103.5268418795002
 30
0.0
 10
44.09067652977594
 20
-103.5564697006734
 30
0.0
 10
43.94632702894398
 20
-103.5860975218465
 30
0.0
 10
43.94632702894398
 20
-103.5860975218465
 30
0.0
 10
43.84073485232107
 20
-103.4165988239723
 30
0.0
 10
43.84073485232107
 20
-103.4165988239723
 30
0.0
 10
44.1184095484322
 20
-103.3893825696388
 30
0.0
 10
44.28704697243518
 20
-103.2960204819885
 30
0.0
 10
44.44259303359421
 20
-103.1630397962579
 30
0.0
 10
44.31477999109145
 20
-103.1630397962579
 30
0.0
 10
44.05174695079262
 20
-103.1671739108402
 30
0.0
 10
43.87966443130439
 20
-103.1733750827136
 30
0.0
 10
43.87966443130439
 20
-103.1733750827136
 30
0.0
 10
43.87966443130439
 20
-102.9956081556747
 30
0.0
 10
43.87966443130439
 20
-102.9956081556747
 30
0.0
 10
44.01471217432618
 20
-103.0021538370967
 30
0.0
 10
44.27395560959123
 20
-103.0083550089701
 30
0.0
 10
44.43518607830093
 20
-103.0083550089701
 30
0.0
 10
44.43518607830093
 20
-103.0083550089701
 30
0.0
 10
44.62035996063311
 20
-103.0083550089701
 30
0.0
 10
44.62035996063311
 20
-103.0083550089701
 30
0.0
 10
44.62035996063311
 20
-102.9132703735772
 30
0.0
 10
44.61846515811622
 20
-102.8626274699441
 30
0.0
 10
44.61295300533982
 20
-102.8161186808932
 30
0.0
 10
44.61295300533982
 20
-102.8161186808932
 30
0.0
 10
44.80174423793151
 20
-102.8329996487709
 30
0.0
 10
44.80174423793151
 20
-102.8329996487709
 30
0.0
 10
44.84429116717435
 20
-102.8371337633532
 30
0.0
 10
44.85169812246763
 20
-102.8519476739398
 30
0.0
 10
44.85169812246763
 20
-102.8667615845264
 30
0.0
 10
44.85169812246763
 20
-102.8922552911172
 30
0.0
 10
44.83688421188106
 20
-102.9005235202818
 30
0.0
 10
44.79244248012134
 20
-102.9260172268727
 30
0.0
 10
44.79071993237871
 20
-102.951166423915
 30
0.0
 10
44.79071993237871
 20
-102.957712105337
 30
0.0
 10
44.78882512986182
 20
-103.0083550089701
 30
0.0
 10
44.78882512986182
 20
-103.0083550089701
 30
0.0
 10
44.99070772529746
 20
-103.0083550089701
 30
0.0
 10
44.99070772529746
 20
-103.0083550089701
 30
0.0
 10
45.13505722612943
 20
-103.0083550089701
 30
0.0
 10
45.39068331113497
 20
-103.0021538370967
 30
0.0
 10
45.54795192003662
 20
-102.9956081556747
 30
0.0
 10
45.54795192003662
 20
-102.9956081556747
 30
0.0
 10
45.54795192003662
 20
-103.1733750827136
 30
0.0
 10
45.54795192003662
 20
-103.1733750827136
 30
0.0
 10
45.43512504289469
 20
-103.1692409681313
 30
0.0
 10
45.41462672475745
 20
-103.1692409681313
 30
0.0
 10
45.17209200259587
 20
-103.165106853549
 30
0.0
  0
SPLINE
  5
4E
330
41
100
AcDbEntity
  8
_U+30EC_U+30A4_U+30E4_U+30FC 1
370
     0
100
AcDbSpline
210
0.0
220
0.0
230
1.0
 70
    11
 71
     3
 72
    23
 73
    19
 74
     0
 42
0.0000000001
 43
0.0000000001
 12
1.0
 22
0.0
 32
0.0
 13
1.0
 23
0.0
 33
0.0
 40
0.0
 40
0.0
 40
0.0
 40
0.0
 40
1.0
 40
1.0
 40
1.0
 40
2.0
 40
2.0
 40
2.0
 40
3.0
 40
3.0
 40
3.0
 40
4.0
 40
4.0
 40
4.0
 40
5.0
 40
5.0
 40
5.0
 40
6.0
 40
6.0
 40
6.0
 40
6.0
 10
44.04812960053311
 20
-102.8137071140535
 30
0.0
 10
44.03331568994653
 20
-102.8540147312309
 30
0.0
 10
44.02780353717014
 20
-102.8708956991087
 30
0.0
 10
44.00920002154979
 20
-102.8708956991087
 30
0.0
 10
43.9962809134801
 20
-102.8708956991087
 30
0.0
 10
43.98697915566992
 20
-102.8540147312309
 30
0.0
 10
43.98146700289352
 20
-102.8412678779355
 30
0.0
 10
43.98146700289352
 20
-102.8412678779355
 30
0.0
 10
43.89447834189097
 20
-102.6762478041921
 30
0.0
 10
43.89447834189097
 20
-102.6762478041921
 30
0.0
 10
43.98336180541041
 20
-102.6445529257278
 30
0.0
 10
44.11479219817269
 20
-102.5894313979638
 30
0.0
 10
44.28876952017781
 20
-102.42682289106
 30
0.0
 10
44.28876952017781
 20
-102.42682289106
 30
0.0
 10
44.33889565948819
 20
-102.600111193968
 30
0.0
 10
44.33889565948819
 20
-102.600111193968
 30
0.0
 10
44.25741915126203
 20
-102.682793485614
 30
0.0
 10
44.17955999329539
 20
-102.7396375611206
 30
0.0
 10
44.04812960053311
 20
-102.8137071140535
 30
0.0
  0
SPLINE
  5
4F
330
41
100
AcDbEntity
  8
_U+30EC_U+30A4_U+30E4_U+30FC 1
370
     0
100
AcDbSpline
210
0.0
220
0.0
230
1.0
 70
    11
 71
     3
 72
    17
 73
    13
 74
     0
 42
0.0000000001
 43
0.0000000001
 12
1.0
 22
0.0
 32
0.0
 13
1.0
 23
0.0
 33
0.0
 40
0.0
 40
0.0
 40
0.0
 40
0.0
 40
1.0
 40
1.0
 40
1.0
 40
2.0
 40
2.0
 40
2.0
 40
3.0
 40
3.0
 40
3.0
 40
4.0
 40
4.0
 40
4.0
 40
4.0
 10
44.18145479581228
 20
-102.3482747139963
 30
0.0
 10
44.15544432489864
 20
-102.3083116063674
 30
0.0
 10
44.09618868255235
 20
-102.2108154041348
 30
0.0
 10
43.9370252711338
 20
-102.1009168581553
 30
0.0
 10
43.9370252711338
 20
-102.1009168581553
 30
0.0
 10
44.04812960053311
 20
-101.9675916628762
 30
0.0
 10
44.04812960053311
 20
-101.9675916628762
 30
0.0
 10
44.21108261698543
 20
-102.069221979691
 30
0.0
 10
44.26103650152155
 20
-102.1581054432105
 30
0.0
 10
44.2851521699183
 20
-102.200480117679
 30
0.0
 10
44.2851521699183
 20
-102.200480117679
 30
0.0
 10
44.18145479581228
 20
-102.3482747139963
 30
0.0
 10
44.18145479581228
 20
-102.3482747139963
 30
0.0
  0
SPLINE
  5
50
330
41
100
AcDbEntity
  8
_U+30EC_U+30A4_U+30E4_U+30FC 1
370
     0
100
AcDbSpline
210
0.0
220
0.0
230
1.0
 70
    11
 71
     3
 72
    38
 73
    34
 74
     0
 42
0.0000000001
 43
0.0000000001
 12
1.0
 22
0.0
 32
0.0
 13
1.0
 23
0.0
 33
0.0
 40
0.0
 40
0.0
 40
0.0
 40
0.0
 40
1.0
 40
1.0
 40
1.0
 40
2.0
 40
2.0
 40
2.0
 40
3.0
 40
3.0
 40
3.0
 40
4.0
 40
4.0
 40
4.0
 40
5.0
 40
5.0
 40
5.0
 40
6.0
 40
6.0
 40
6.0
 40
7.0
 40
7.0
 40
7.0
 40
8.0
 40
8.0
 40
8.0
 40
9.0
 40
9.0
 40
9.0
 40
10.0
 40
10.0
 40
10.0
 40
11.0
 40
11.0
 40
11.0
 40
11.0
 10
44.50357122368314
 20
-102.0437282731002
 30
0.0
 10
44.50184867594051
 20
-102.0902370621511
 30
0.0
 10
44.49995387342363
 20
-102.2066812895525
 30
0.0
 10
44.49995387342363
 20
-102.2511230213122
 30
0.0
 10
44.49995387342363
 20
-102.2511230213122
 30
0.0
 10
44.49995387342363
 20
-102.5980441366769
 30
0.0
 10
44.49995387342363
 20
-102.5980441366769
 30
0.0
 10
44.49995387342363
 20
-102.6848605429052
 30
0.0
 10
44.50184867594051
 20
-102.826453967349
 30
0.0
 10
44.51097817897642
 20
-102.9470323093327
 30
0.0
 10
44.51097817897642
 20
-102.9470323093327
 30
0.0
 10
44.34440781226459
 20
-102.9470323093327
 30
0.0
 10
44.34440781226459
 20
-102.9470323093327
 30
0.0
 10
44.34802516252411
 20
-102.8836425524041
 30
0.0
 10
44.35181476755788
 20
-102.8305880819313
 30
0.0
 10
44.35370957007477
 20
-102.7758110637158
 30
0.0
 10
44.35543211781739
 20
-102.6531656644409
 30
0.0
 10
44.35732692033428
 20
-102.6383517538543
 30
0.0
 10
44.35732692033428
 20
-102.5939100220946
 30
0.0
 10
44.35732692033428
 20
-102.5939100220946
 30
0.0
 10
44.35732692033428
 20
-102.2721381037722
 30
0.0
 10
44.35732692033428
 20
-102.2721381037722
 30
0.0
 10
44.35732692033428
 20
-102.2173610855568
 30
0.0
 10
44.34630261478148
 20
-101.9782714588804
 30
0.0
 10
44.34440781226459
 20
-101.9272840456987
 30
0.0
 10
44.34440781226459
 20
-101.9272840456987
 30
0.0
 10
44.5202799367866
 20
-101.9548448095807
 30
0.0
 10
44.5202799367866
 20
-101.9548448095807
 30
0.0
 10
44.53888345240695
 20
-101.9569118668719
 30
0.0
 10
44.56661647106321
 20
-101.9613904910027
 30
0.0
 10
44.56661647106321
 20
-101.986539688045
 30
0.0
 10
44.56661647106321
 20
-102.014100451927
 30
0.0
 10
44.52217473930349
 20
-102.0354600439356
 30
0.0
 10
44.50357122368314
 20
-102.0437282731002
 30
0.0
  0
SPLINE
  5
51
330
41
100
AcDbEntity
  8
_U+30EC_U+30A4_U+30E4_U+30FC 1
370
     0
100
AcDbSpline
210
0.0
220
0.0
230
1.0
 70
    11
 71
     3
 72
    83
 73
    79
 74
     0
 42
0.0000000001
 43
0.0000000001
 12
1.0
 22
0.0
 32
0.0
 13
1.0
 23
0.0
 33
0.0
 40
0.0
 40
0.0
 40
0.0
 40
0.0
 40
1.0
 40
1.0
 40
1.0
 40
2.0
 40
2.0
 40
2.0
 40
3.0
 40
3.0
 40
3.0
 40
4.0
 40
4.0
 40
4.0
 40
5.0
 40
5.0
 40
5.0
 40
6.0
 40
6.0
 40
6.0
 40
7.0
 40
7.0
 40
7.0
 40
8.0
 40
8.0
 40
8.0
 40
9.0
 40
9.0
 40
9.0
 40
10.0
 40
10.0
 40
10.0
 40
11.0
 40
11.0
 40
11.0
 40
12.0
 40
12.0
 40
12.0
 40
13.0
 40
13.0
 40
13.0
 40
14.0
 40
14.0
 40
14.0
 40
15.0
 40
15.0
 40
15.0
 40
16.0
 40
16.0
 40
16.0
 40
17.0
 40
17.0
 40
17.0
 40
18.0
 40
18.0
 40
18.0
 40
19.0
 40
19.0
 40
19.0
 40
20.0
 40
20.0
 40
20.0
 40
21.0
 40
21.0
 40
21.0
 40
22.0
 40
22.0
 40
22.0
 40
23.0
 40
23.0
 40
23.0
 40
24.0
 40
24.0
 40
24.0
 40
25.0
 40
25.0
 40
25.0
 40
26.0
 40
26.0
 40
26.0
 40
26.0
 10
45.20550942880279
 20
-102.3655001914225
 30
0.0
 10
45.20550942880279
 20
-102.3655001914225
 30
0.0
 10
45.12024331554286
 20
-102.3655001914225
 30
0.0
 10
45.12024331554286
 20
-102.3655001914225
 30
0.0
 10
45.12024331554286
 20
-102.3655001914225
 30
0.0
 10
45.12024331554286
 20
-102.6128580472635
 30
0.0
 10
45.12024331554286
 20
-102.6128580472635
 30
0.0
 10
45.12024331554286
 20
-102.6128580472635
 30
0.0
 10
45.19241806595884
 20
-102.6128580472635
 30
0.0
 10
45.19241806595884
 20
-102.6128580472635
 30
0.0
 10
45.24995116056252
 20
-102.6128580472635
 30
0.0
 10
45.37207979551462
 20
-102.6087239326812
 30
0.0
 10
45.45906845651718
 20
-102.600111193968
 30
0.0
 10
45.45906845651718
 20
-102.600111193968
 30
0.0
 10
45.45906845651718
 20
-102.7799451782981
 30
0.0
 10
45.45906845651718
 20
-102.7799451782981
 30
0.0
 10
45.37759194829102
 20
-102.7716769491335
 30
0.0
 10
45.24616155552874
 20
-102.7671983250027
 30
0.0
 10
45.19241806595884
 20
-102.7671983250027
 30
0.0
 10
45.19241806595884
 20
-102.7671983250027
 30
0.0
 10
44.92576767540051
 20
-102.7671983250027
 30
0.0
 10
44.92576767540051
 20
-102.7671983250027
 30
0.0
 10
44.87960339589816
 20
-102.7671983250027
 30
0.0
 10
44.75179035339539
 20
-102.7716769491335
 30
0.0
 10
44.65911728484217
 20
-102.7799451782981
 30
0.0
 10
44.65911728484217
 20
-102.7799451782981
 30
0.0
 10
44.65911728484217
 20
-102.600111193968
 30
0.0
 10
44.65911728484217
 20
-102.600111193968
 30
0.0
 10
44.74627820061899
 20
-102.6087239326812
 30
0.0
 10
44.86840683557109
 20
-102.6128580472635
 30
0.0
 10
44.92576767540051
 20
-102.6128580472635
 30
0.0
 10
44.92576767540051
 20
-102.6128580472635
 30
0.0
 10
44.96469725438383
 20
-102.6128580472635
 30
0.0
 10
44.96469725438383
 20
-102.6128580472635
 30
0.0
 10
44.96469725438383
 20
-102.6128580472635
 30
0.0
 10
44.96469725438383
 20
-102.3655001914225
 30
0.0
 10
44.96469725438383
 20
-102.3655001914225
 30
0.0
 10
44.96469725438383
 20
-102.3655001914225
 30
0.0
 10
44.89992945926113
 20
-102.3655001914225
 30
0.0
 10
44.89992945926113
 20
-102.3655001914225
 30
0.0
 10
44.84618596969123
 20
-102.3655001914225
 30
0.0
 10
44.69994166634238
 20
-102.3696343060048
 30
0.0
 10
44.59434948971947
 20
-102.3779025351694
 30
0.0
 10
44.59434948971947
 20
-102.3779025351694
 30
0.0
 10
44.59434948971947
 20
-102.200480117679
 30
0.0
 10
44.59434948971947
 20
-102.200480117679
 30
0.0
 10
44.69442951356598
 20
-102.2066812895525
 30
0.0
 10
44.83326686162155
 20
-102.2108154041348
 30
0.0
 10
44.89992945926113
 20
-102.2108154041348
 30
0.0
 10
44.89992945926113
 20
-102.2108154041348
 30
0.0
 10
44.96280245186694
 20
-102.2108154041348
 30
0.0
 10
44.96280245186694
 20
-102.2108154041348
 30
0.0
 10
44.95918510160743
 20
-102.0585421836868
 30
0.0
 10
44.95729029909054
 20
-102.0247802479313
 30
0.0
 10
44.95177814631414
 20
-101.9317626698296
 30
0.0
 10
44.95177814631414
 20
-101.9317626698296
 30
0.0
 10
45.13695202864632
 20
-101.9548448095807
 30
0.0
 10
45.13695202864632
 20
-101.9548448095807
 30
0.0
 10
45.15917289452618
 20
-101.9569118668719
 30
0.0
 10
45.17949895788915
 20
-101.9613904910027
 30
0.0
 10
45.17949895788915
 20
-101.9844726307539
 30
0.0
 10
45.17949895788915
 20
-102.0161675092182
 30
0.0
 10
45.14056937890583
 20
-102.0330484770959
 30
0.0
 10
45.12024331554286
 20
-102.041661215809
 30
0.0
 10
45.12024331554286
 20
-102.041661215809
 30
0.0
 10
45.12024331554286
 20
-102.2108154041348
 30
0.0
 10
45.12024331554286
 20
-102.2108154041348
 30
0.0
 10
45.12024331554286
 20
-102.2108154041348
 30
0.0
 10
45.20550942880279
 20
-102.2108154041348
 30
0.0
 10
45.20550942880279
 20
-102.2108154041348
 30
0.0
 10
45.27217202644238
 20
-102.2108154041348
 30
0.0
 10
45.41100937449794
 20
-102.2066812895525
 30
0.0
 10
45.51281194608708
 20
-102.200480117679
 30
0.0
 10
45.51281194608708
 20
-102.200480117679
 30
0.0
 10
45.51281194608708
 20
-102.3779025351694
 30
0.0
 10
45.51281194608708
 20
-102.3779025351694
 30
0.0
 10
45.41841632979123
 20
-102.371701363296
 30
0.0
 10
45.26648761889172
 20
-102.3655001914225
 30
0.0
 10
45.20550942880279
 20
-102.3655001914225
 30
0.0
  0
SPLINE
  5
52
330
41
100
AcDbEntity
  8
_U+30EC_U+30A4_U+30E4_U+30FC 1
370
     0
100
AcDbSpline
210
0.0
220
0.0
230
1.0
 70
    11
 71
     3
 72
    17
 73
    13
 74
     0
 42
0.0000000001
 43
0.0000000001
 12
1.0
 22
0.0
 32
0.0
 13
1.0
 23
0.0
 33
0.0
 40
0.0
 40
0.0
 40
0.0
 40
0.0
 40
1.0
 40
1.0
 40
1.0
 40
2.0
 40
2.0
 40
2.0
 40
3.0
 40
3.0
 40
3.0
 40
4.0
 40
4.0
 40
4.0
 40
4.0
 10
44.99070772529746
 20
-103.1630397962579
 30
0.0
 10
44.99070772529746
 20
-103.1630397962579
 30
0.0
 10
44.81294079825857
 20
-103.1630397962579
 30
0.0
 10
44.81294079825857
 20
-103.1630397962579
 30
0.0
 10
44.83688421188106
 20
-103.2219509290556
 30
0.0
 10
44.88511554867456
 20
-103.2939534246973
 30
0.0
 10
44.90923121707131
 20
-103.3235812458705
 30
0.0
 10
44.93317463069379
 20
-103.3087673352839
 30
0.0
 10
45.0332546545403
 20
-103.2453775783553
 30
0.0
 10
45.11283636024957
 20
-103.1630397962579
 30
0.0
 10
45.11283636024957
 20
-103.1630397962579
 30
0.0
 10
44.99070772529746
 20
-103.1630397962579
 30
0.0
 10
44.99070772529746
 20
-103.1630397962579
 30
0.0
  0
HATCH
  5
53
330
41
100
AcDbEntity
  8
_U+30EC_U+30A4_U+30E4_U+30FC 1
 62
   179
420
  2234388
100
AcDbHatch
 10
0.0
 20
0.0
 30
0.0
210
0.0
220
0.0
230
1.0
  2
SOLID
 70
     1
 71
     0
 91
        6
 92
        1
 93
        1
 72
     4
 94
        3
 73
     0
 74
     1
 95
      113
 96
      109
 40
0.0
 40
0.0
 40
0.0
 40
0.0
 40
1.0
 40
1.0
 40
1.0
 40
2.0
 40
2.0
 40
2.0
 40
3.0
 40
3.0
 40
3.0
 40
4.0
 40
4.0
 40
4.0
 40
5.0
 40
5.0
 40
5.0
 40
6.0
 40
6.0
 40
6.0
 40
7.0
 40
7.0
 40
7.0
 40
8.0
 40
8.0
 40
8.0
 40
9.0
 40
9.0
 40
9.0
 40
10.0
 40
10.0
 40
10.0
 40
11.0
 40
11.0
 40
11.0
 40
12.0
 40
12.0
 40
12.0
 40
13.0
 40
13.0
 40
13.0
 40
14.0
 40
14.0
 40
14.0
 40
15.0
 40
15.0
 40
15.0
 40
16.0
 40
16.0
 40
16.0
 40
17.0
 40
17.0
 40
17.0
 40
18.0
 40
18.0
 40
18.0
 40
19.0
 40
19.0
 40
19.0
 40
20.0
 40
20.0
 40
20.0
 40
21.0
 40
21.0
 40
21.0
 40
22.0
 40
22.0
 40
22.0
 40
23.0
 40
23.0
 40
23.0
 40
24.0
 40
24.0
 40
24.0
 40
25.0
 40
25.0
 40
25.0
 40
26.0
 40
26.0
 40
26.0
 40
27.0
 40
27.0
 40
27.0
 40
28.0
 40
28.0
 40
28.0
 40
29.0
 40
29.0
 40
29.0
 40
30.0
 40
30.0
 40
30.0
 40
31.0
 40
31.0
 40
31.0
 40
32.0
 40
32.0
 40
32.0
 40
33.0
 40
33.0
 40
33.0
 40
34.0
 40
34.0
 40
34.0
 40
35.0
 40
35.0
 40
35.0
 40
36.0
 40
36.0
 40
36.0
 40
36.0
 10
45.17209200259587
 20
-103.165106853549
 10
45.17209200259587
 20
-103.165106853549
 10
45.25908066359843
 20
-103.2643256035242
 10
45.25908066359843
 20
-103.2643256035242
 10
45.2683824214086
 20
-103.2750053995285
 10
45.27768417921877
 20
-103.2877522528239
 10
45.27768417921877
 20
-103.3025661634105
 10
45.27768417921877
 20
-103.3046332207016
 10
45.27768417921877
 20
-103.3342610418748
 10
45.24426675301185
 20
-103.3342610418748
 10
45.23685979771857
 20
-103.3342610418748
 10
45.20171982376902
 20
-103.3301269272925
 10
45.19620767099261
 20
-103.3301269272925
 10
45.16106769704307
 20
-103.3618218057568
 10
45.12024331554286
 20
-103.3955837415122
 10
45.0332546545403
 20
-103.4527723265674
 10
45.16106769704307
 20
-103.5606038152557
 10
45.29990504509864
 20
-103.6177924003108
 10
45.53882241700072
 20
-103.6556884506486
 10
45.53882241700072
 20
-103.6556884506486
 10
45.40721976946417
 20
-103.8313883203963
 10
45.40721976946417
 20
-103.8313883203963
 10
45.17760415537226
 20
-103.7593858247546
 10
45.04066160983358
 20
-103.6705023612352
 10
44.973999012194
 20
-103.6177924003108
 10
44.84256861943172
 20
-103.516162083496
 10
44.71665037944584
 20
-103.3532090670437
 10
44.64998778180625
 20
-103.1881889933002
 10
44.59073213945996
 20
-103.2539903170685
 10
44.525792089563
 20
-103.3067002779928
 10
44.45740694418079
 20
-103.3552761243348
 10
44.45740694418079
 20
-103.3552761243348
 10
44.45740694418079
 20
-103.6071126043066
 10
44.45740694418079
 20
-103.6071126043066
 10
44.59986164249587
 20
-103.5816188977157
 10
44.76281465894819
 20
-103.537177165956
 10
44.81845295103497
 20
-103.5223632553694
 10
44.81845295103497
 20
-103.5223632553694
 10
44.79244248012134
 20
-103.6918619532437
 10
44.79244248012134
 20
-103.6918619532437
 10
44.79071993237871
 20
-103.6918619532437
 10
44.77401121927525
 20
-103.6980631251172
 10
44.77211641675837
 20
-103.6980631251172
 10
44.59813909475324
 20
-103.7363036850034
 10
44.32029214386785
 20
-103.8017604992232
 10
44.14803736960535
 20
-103.8375894922698
 10
44.13890786656944
 20
-103.854814969696
 10
44.1184095484322
 20
-103.8865098481603
 10
44.09808348506923
 20
-103.8865098481603
 10
44.07396781667249
 20
-103.8865098481603
 10
44.07035046641297
 20
-103.8672173134429
 10
44.06845566389608
 20
-103.8482692882741
 10
44.06845566389608
 20
-103.8482692882741
 10
44.04623479801622
 20
-103.674980985366
 10
44.04623479801622
 20
-103.674980985366
 10
44.11100259313892
 20
-103.6663682466529
 10
44.20557046420902
 20
-103.6536213933574
 10
44.29996608050487
 20
-103.6326063108974
 10
44.29996608050487
 20
-103.6326063108974
 10
44.29996608050487
 20
-103.4548393838585
 10
44.29996608050487
 20
-103.4548393838585
 10
44.17404784051899
 20
-103.5268418795002
 10
44.09067652977594
 20
-103.5564697006734
 10
43.94632702894398
 20
-103.5860975218465
 10
43.94632702894398
 20
-103.5860975218465
 10
43.84073485232107
 20
-103.4165988239723
 10
43.84073485232107
 20
-103.4165988239723
 10
44.1184095484322
 20
-103.3893825696388
 10
44.28704697243518
 20
-103.2960204819885
 10
44.44259303359421
 20
-103.1630397962579
 10
44.31477999109145
 20
-103.1630397962579
 10
44.05174695079262
 20
-103.1671739108402
 10
43.87966443130439
 20
-103.1733750827136
 10
43.87966443130439
 20
-103.1733750827136
 10
43.87966443130439
 20
-102.9956081556747
 10
43.87966443130439
 20
-102.9956081556747
 10
44.01471217432618
 20
-103.0021538370967
 10
44.27395560959123
 20
-103.0083550089701
 10
44.43518607830093
 20
-103.0083550089701
 10
44.43518607830093
 20
-103.0083550089701
 10
44.62035996063311
 20
-103.0083550089701
 10
44.62035996063311
 20
-103.0083550089701
 10
44.62035996063311
 20
-102.9132703735772
 10
44.61846515811622
 20
-102.8626274699441
 10
44.61295300533982
 20
-102.8161186808932
 10
44.61295300533982
 20
-102.8161186808932
 10
44.80174423793151
 20
-102.8329996487709
 10
44.80174423793151
 20
-102.8329996487709
 10
44.84429116717435
 20
-102.8371337633532
 10
44.85169812246763
 20
-102.8519476739398
 10
44.85169812246763
 20
-102.8667615845264
 10
44.85169812246763
 20
-102.8922552911172
 10
44.83688421188106
 20
-102.9005235202818
 10
44.79244248012134
 20
-102.9260172268727
 10
44.79071993237871
 20
-102.951166423915
 10
44.79071993237871
 20
-102.957712105337
 10
44.78882512986182
 20
-103.0083550089701
 10
44.78882512986182
 20
-103.0083550089701
 10
44.99070772529746
 20
-103.0083550089701
 10
44.99070772529746
 20
-103.0083550089701
 10
45.13505722612943
 20
-103.0083550089701
 10
45.39068331113497
 20
-103.0021538370967
 10
45.54795192003662
 20
-102.9956081556747
 10
45.54795192003662
 20
-102.9956081556747
 10
45.54795192003662
 20
-103.1733750827136
 10
45.54795192003662
 20
-103.1733750827136
 10
45.43512504289469
 20
-103.1692409681313
 10
45.41462672475745
 20
-103.1692409681313
 10
45.17209200259587
 20
-103.165106853549
 97
        0
 97
        0
 92
        1
 93
        1
 72
     4
 94
        3
 73
     0
 74
     1
 95
       23
 96
       19
 40
0.0
 40
0.0
 40
0.0
 40
0.0
 40
1.0
 40
1.0
 40
1.0
 40
2.0
 40
2.0
 40
2.0
 40
3.0
 40
3.0
 40
3.0
 40
4.0
 40
4.0
 40
4.0
 40
5.0
 40
5.0
 40
5.0
 40
6.0
 40
6.0
 40
6.0
 40
6.0
 10
44.04812960053311
 20
-102.8137071140535
 10
44.03331568994653
 20
-102.8540147312309
 10
44.02780353717014
 20
-102.8708956991087
 10
44.00920002154979
 20
-102.8708956991087
 10
43.9962809134801
 20
-102.8708956991087
 10
43.98697915566992
 20
-102.8540147312309
 10
43.98146700289352
 20
-102.8412678779355
 10
43.98146700289352
 20
-102.8412678779355
 10
43.89447834189097
 20
-102.6762478041921
 10
43.89447834189097
 20
-102.6762478041921
 10
43.98336180541041
 20
-102.6445529257278
 10
44.11479219817269
 20
-102.5894313979638
 10
44.28876952017781
 20
-102.42682289106
 10
44.28876952017781
 20
-102.42682289106
 10
44.33889565948819
 20
-102.600111193968
 10
44.33889565948819
 20
-102.600111193968
 10
44.25741915126203
 20
-102.682793485614
 10
44.17955999329539
 20
-102.7396375611206
 10
44.04812960053311
 20
-102.8137071140535
 97
        0
 97
        0
 92
        1
 93
        1
 72
     4
 94
        3
 73
     0
 74
     1
 95
       17
 96
       13
 40
0.0
 40
0.0
 40
0.0
 40
0.0
 40
1.0
 40
1.0
 40
1.0
 40
2.0
 40
2.0
 40
2.0
 40
3.0
 40
3.0
 40
3.0
 40
4.0
 40
4.0
 40
4.0
 40
4.0
 10
44.18145479581228
 20
-102.3482747139963
 10
44.15544432489864
 20
-102.3083116063674
 10
44.09618868255235
 20
-102.2108154041348
 10
43.9370252711338
 20
-102.1009168581553
 10
43.9370252711338
 20
-102.1009168581553
 10
44.04812960053311
 20
-101.9675916628762
 10
44.04812960053311
 20
-101.9675916628762
 10
44.21108261698543
 20
-102.069221979691
 10
44.26103650152155
 20
-102.1581054432105
 10
44.2851521699183
 20
-102.200480117679
 10
44.2851521699183
 20
-102.200480117679
 10
44.18145479581228
 20
-102.3482747139963
 10
44.18145479581228
 20
-102.3482747139963
 97
        0
 97
        0
 92
        1
 93
        1
 72
     4
 94
        3
 73
     0
 74
     1
 95
       38
 96
       34
 40
0.0
 40
0.0
 40
0.0
 40
0.0
 40
1.0
 40
1.0
 40
1.0
 40
2.0
 40
2.0
 40
2.0
 40
3.0
 40
3.0
 40
3.0
 40
4.0
 40
4.0
 40
4.0
 40
5.0
 40
5.0
 40
5.0
 40
6.0
 40
6.0
 40
6.0
 40
7.0
 40
7.0
 40
7.0
 40
8.0
 40
8.0
 40
8.0
 40
9.0
 40
9.0
 40
9.0
 40
10.0
 40
10.0
 40
10.0
 40
11.0
 40
11.0
 40
11.0
 40
11.0
 10
44.50357122368314
 20
-102.0437282731002
 10
44.50184867594051
 20
-102.0902370621511
 10
44.49995387342363
 20
-102.2066812895525
 10
44.49995387342363
 20
-102.2511230213122
 10
44.49995387342363
 20
-102.2511230213122
 10
44.49995387342363
 20
-102.5980441366769
 10
44.49995387342363
 20
-102.5980441366769
 10
44.49995387342363
 20
-102.6848605429052
 10
44.50184867594051
 20
-102.826453967349
 10
44.51097817897642
 20
-102.9470323093327
 10
44.51097817897642
 20
-102.9470323093327
 10
44.34440781226459
 20
-102.9470323093327
 10
44.34440781226459
 20
-102.9470323093327
 10
44.34802516252411
 20
-102.8836425524041
 10
44.35181476755788
 20
-102.8305880819313
 10
44.35370957007477
 20
-102.7758110637158
 10
44.35543211781739
 20
-102.6531656644409
 10
44.35732692033428
 20
-102.6383517538543
 10
44.35732692033428
 20
-102.5939100220946
 10
44.35732692033428
 20
-102.5939100220946
 10
44.35732692033428
 20
-102.2721381037722
 10
44.35732692033428
 20
-102.2721381037722
 10
44.35732692033428
 20
-102.2173610855568
 10
44.34630261478148
 20
-101.9782714588804
 10
44.34440781226459
 20
-101.9272840456987
 10
44.34440781226459
 20
-101.9272840456987
 10
44.5202799367866
 20
-101.9548448095807
 10
44.5202799367866
 20
-101.9548448095807
 10
44.53888345240695
 20
-101.9569118668719
 10
44.56661647106321
 20
-101.9613904910027
 10
44.56661647106321
 20
-101.986539688045
 10
44.56661647106321
 20
-102.014100451927
 10
44.52217473930349
 20
-102.0354600439356
 10
44.50357122368314
 20
-102.0437282731002
 97
        0
 97
        0
 92
        1
 93
        1
 72
     4
 94
        3
 73
     0
 74
     1
 95
       83
 96
       79
 40
0.0
 40
0.0
 40
0.0
 40
0.0
 40
1.0
 40
1.0
 40
1.0
 40
2.0
 40
2.0
 40
2.0
 40
3.0
 40
3.0
 40
3.0
 40
4.0
 40
4.0
 40
4.0
 40
5.0
 40
5.0
 40
5.0
 40
6.0
 40
6.0
 40
6.0
 40
7.0
 40
7.0
 40
7.0
 40
8.0
 40
8.0
 40
8.0
 40
9.0
 40
9.0
 40
9.0
 40
10.0
 40
10.0
 40
10.0
 40
11.0
 40
11.0
 40
11.0
 40
12.0
 40
12.0
 40
12.0
 40
13.0
 40
13.0
 40
13.0
 40
14.0
 40
14.0
 40
14.0
 40
15.0
 40
15.0
 40
15.0
 40
16.0
 40
16.0
 40
16.0
 40
17.0
 40
17.0
 40
17.0
 40
18.0
 40
18.0
 40
18.0
 40
19.0
 40
19.0
 40
19.0
 40
20.0
 40
20.0
 40
20.0
 40
21.0
 40
21.0
 40
21.0
 40
22.0
 40
22.0
 40
22.0
 40
23.0
 40
23.0
 40
23.0
 40
24.0
 40
24.0
 40
24.0
 40
25.0
 40
25.0
 40
25.0
 40
26.0
 40
26.0
 40
26.0
 40
26.0
 10
45.20550942880279
 20
-102.3655001914225
 10
45.20550942880279
 20
-102.3655001914225
 10
45.12024331554286
 20
-102.3655001914225
 10
45.12024331554286
 20
-102.3655001914225
 10
45.12024331554286
 20
-102.3655001914225
 10
45.12024331554286
 20
-102.6128580472635
 10
45.12024331554286
 20
-102.6128580472635
 10
45.12024331554286
 20
-102.6128580472635
 10
45.19241806595884
 20
-102.6128580472635
 10
45.19241806595884
 20
-102.6128580472635
 10
45.24995116056252
 20
-102.6128580472635
 10
45.37207979551462
 20
-102.6087239326812
 10
45.45906845651718
 20
-102.600111193968
 10
45.45906845651718
 20
-102.600111193968
 10
45.45906845651718
 20
-102.7799451782981
 10
45.45906845651718
 20
-102.7799451782981
 10
45.37759194829102
 20
-102.7716769491335
 10
45.24616155552874
 20
-102.7671983250027
 10
45.19241806595884
 20
-102.7671983250027
 10
45.19241806595884
 20
-102.7671983250027
 10
44.92576767540051
 20
-102.7671983250027
 10
44.92576767540051
 20
-102.7671983250027
 10
44.87960339589816
 20
-102.7671983250027
 10
44.75179035339539
 20
-102.7716769491335
 10
44.65911728484217
 20
-102.7799451782981
 10
44.65911728484217
 20
-102.7799451782981
 10
44.65911728484217
 20
-102.600111193968
 10
44.65911728484217
 20
-102.600111193968
 10
44.74627820061899
 20
-102.6087239326812
 10
44.86840683557109
 20
-102.6128580472635
 10
44.92576767540051
 20
-102.6128580472635
 10
44.92576767540051
 20
-102.6128580472635
 10
44.96469725438383
 20
-102.6128580472635
 10
44.96469725438383
 20
-102.6128580472635
 10
44.96469725438383
 20
-102.6128580472635
 10
44.96469725438383
 20
-102.3655001914225
 10
44.96469725438383
 20
-102.3655001914225
 10
44.96469725438383
 20
-102.3655001914225
 10
44.89992945926113
 20
-102.3655001914225
 10
44.89992945926113
 20
-102.3655001914225
 10
44.84618596969123
 20
-102.3655001914225
 10
44.69994166634238
 20
-102.3696343060048
 10
44.59434948971947
 20
-102.3779025351694
 10
44.59434948971947
 20
-102.3779025351694
 10
44.59434948971947
 20
-102.200480117679
 10
44.59434948971947
 20
-102.200480117679
 10
44.69442951356598
 20
-102.2066812895525
 10
44.83326686162155
 20
-102.2108154041348
 10
44.89992945926113
 20
-102.2108154041348
 10
44.89992945926113
 20
-102.2108154041348
 10
44.96280245186694
 20
-102.2108154041348
 10
44.96280245186694
 20
-102.2108154041348
 10
44.95918510160743
 20
-102.0585421836868
 10
44.95729029909054
 20
-102.0247802479313
 10
44.95177814631414
 20
-101.9317626698296
 10
44.95177814631414
 20
-101.9317626698296
 10
45.13695202864632
 20
-101.9548448095807
 10
45.13695202864632
 20
-101.9548448095807
 10
45.15917289452618
 20
-101.9569118668719
 10
45.17949895788915
 20
-101.9613904910027
 10
45.17949895788915
 20
-101.9844726307539
 10
45.17949895788915
 20
-102.0161675092182
 10
45.14056937890583
 20
-102.0330484770959
 10
45.12024331554286
 20
-102.041661215809
 10
45.12024331554286
 20
-102.041661215809
 10
45.12024331554286
 20
-102.2108154041348
 10
45.12024331554286
 20
-102.2108154041348
 10
45.12024331554286
 20
-102.2108154041348
 10
45.20550942880279
 20
-102.2108154041348
 10
45.20550942880279
 20
-102.2108154041348
 10
45.27217202644238
 20
-102.2108154041348
 10
45.41100937449794
 20
-102.2066812895525
 10
45.51281194608708
 20
-102.200480117679
 10
45.51281194608708
 20
-102.200480117679
 10
45.51281194608708
 20
-102.3779025351694
 10
45.51281194608708
 20
-102.3779025351694
 10
45.41841632979123
 20
-102.371701363296
 10
45.26648761889172
 20
-102.3655001914225
 10
45.20550942880279
 20
-102.3655001914225
 97
        0
 97
        0
 92
        1
 93
        1
 72
     4
 94
        3
 73
     0
 74
     1
 95
       17
 96
       13
 40
0.0
 40
0.0
 40
0.0
 40
0.0
 40
1.0
 40
1.0
 40
1.0
 40
2.0
 40
2.0
 40
2.0
 40
3.0
 40
3.0
 40
3.0
 40
4.0
 40
4.0
 40
4.0
 40
4.0
 10
44.99070772529746
 20
-103.1630397962579
 10
44.99070772529746
 20
-103.1630397962579
 10
44.81294079825857
 20
-103.1630397962579
 10
44.81294079825857
 20
-103.1630397962579
 10
44.83688421188106
 20
-103.2219509290556
 10
44.88511554867456
 20
-103.2939534246973
 10
44.90923121707131
 20
-103.3235812458705
 10
44.93317463069379
 20
-103.3087673352839
 10
45.0332546545403
 20
-103.2453775783553
 10
45.11283636024957
 20
-103.1630397962579
 10
45.11283636024957
 20
-103.1630397962579
 10
44.99070772529746
 20
-103.1630397962579
 10
44.99070772529746
 20
-103.1630397962579
 97
        0
 97
        0
 75
     2
 76
     1
 98
        0
  0
SPLINE
  5
54
330
41
100
AcDbEntity
  8
_U+30EC_U+30A4_U+30E4_U+30FC 1
370
     0
100
AcDbSpline
210
0.0
220
0.0
230
1.0
 70
    11
 71
     3
 72
    77
 73
    73
 74
     0
 42
0.0000000001
 43
0.0000000001
 12
1.0
 22
0.0
 32
0.0
 13
1.0
 23
0.0
 33
0.0
 40
0.0
 40
0.0
 40
0.0
 40
0.0
 40
1.0
 40
1.0
 40
1.0
 40
2.0
 40
2.0
 40
2.0
 40
3.0
 40
3.0
 40
3.0
 40
4.0
 40
4.0
 40
4.0
 40
5.0
 40
5.0
 40
5.0
 40
6.0
 40
6.0
 40
6.0
 40
7.0
 40
7.0
 40
7.0
 40
8.0
 40
8.0
 40
8.0
 40
9.0
 40
9.0
 40
9.0
 40
10.0
 40
10.0
 40
10.0
 40
11.0
 40
11.0
 40
11.0
 40
12.0
 40
12.0
 40
12.0
 40
13.0
 40
13.0
 40
13.0
 40
14.0
 40
14.0
 40
14.0
 40
15.0
 40
15.0
 40
15.0
 40
16.0
 40
16.0
 40
16.0
 40
17.0
 40
17.0
 40
17.0
 40
18.0
 40
18.0
 40
18.0
 40
19.0
 40
19.0
 40
19.0
 40
20.0
 40
20.0
 40
20.0
 40
21.0
 40
21.0
 40
21.0
 40
22.0
 40
22.0
 40
22.0
 40
23.0
 40
23.0
 40
23.0
 40
24.0
 40
24.0
 40
24.0
 40
24.0
 10
47.17231444133192
 20
-103.7931477605101
 30
0.0
 10
47.13166231460598
 20
-103.8186414671009
 30
0.0
 10
47.02245278772356
 20
-103.8313883203963
 30
0.0
 10
46.95389538756709
 20
-103.8313883203963
 30
0.0
 10
46.94269882724002
 20
-103.8313883203963
 30
0.0
 10
46.92047796136016
 20
-103.8313883203963
 30
0.0
 10
46.89085014018701
 20
-103.827254205814
 30
0.0
 10
46.89085014018701
 20
-103.827254205814
 30
0.0
 10
46.80575628170134
 20
-103.6009114324331
 30
0.0
 10
46.80575628170134
 20
-103.6009114324331
 30
0.0
 10
46.83159449784071
 20
-103.6071126043066
 30
0.0
 10
46.8817206371511
 20
-103.6157253430197
 30
0.0
 10
46.98352320874023
 20
-103.6157253430197
 30
0.0
 10
47.0520806088967
 20
-103.6157253430197
 30
0.0
 10
47.05380315663933
 20
-103.5733506685511
 30
0.0
 10
47.05380315663933
 20
-103.516162083496
 30
0.0
 10
47.05380315663933
 20
-103.516162083496
 30
0.0
 10
47.05380315663933
 20
-103.1671739108402
 30
0.0
 10
47.05380315663933
 20
-103.1671739108402
 30
0.0
 10
47.05380315663933
 20
-103.1671739108402
 30
0.0
 10
46.6521050230592
 20
-103.1671739108402
 30
0.0
 10
46.6521050230592
 20
-103.1671739108402
 30
0.0
 10
46.65382757080182
 20
-103.3046332207016
 30
0.0
 10
46.65572237331871
 20
-103.5034152302005
 30
0.0
 10
46.66123452609511
 20
-103.6367404254797
 30
0.0
 10
46.66312932861199
 20
-103.6643011893617
 30
0.0
 10
46.66312932861199
 20
-103.7087429211214
 30
0.0
 10
46.67432588893906
 20
-103.7700656207589
 30
0.0
 10
46.67432588893906
 20
-103.7700656207589
 30
0.0
 10
46.46314153569325
 20
-103.7700656207589
 30
0.0
 10
46.46314153569325
 20
-103.7700656207589
 30
0.0
 10
46.48536240157311
 20
-103.6453531641928
 30
0.0
 10
46.48536240157311
 20
-103.3046332207016
 30
0.0
 10
46.48536240157311
 20
-103.1671739108402
 30
0.0
 10
46.48536240157311
 20
-103.1671739108402
 30
0.0
 10
46.09830592380528
 20
-103.1671739108402
 30
0.0
 10
46.09830592380528
 20
-103.1671739108402
 30
0.0
 10
46.07797986044231
 20
-103.3745686590522
 30
0.0
 10
46.02061902061291
 20
-103.6429415973532
 30
0.0
 10
45.84836424635041
 20
-103.827254205814
 30
0.0
 10
45.84836424635041
 20
-103.827254205814
 30
0.0
 10
45.68351642738121
 20
-103.7046088065391
 30
0.0
 10
45.68351642738121
 20
-103.7046088065391
 30
0.0
 10
45.90572508617982
 20
-103.4844672050317
 30
0.0
 10
45.93363035961035
 20
-103.1523600002536
 30
0.0
 10
45.93363035961035
 20
-102.8202527954755
 30
0.0
 10
45.93363035961035
 20
-102.8202527954755
 30
0.0
 10
45.93363035961035
 20
-102.3844482165914
 30
0.0
 10
45.93363035961035
 20
-102.3844482165914
 30
0.0
 10
45.93363035961035
 20
-102.3482747139963
 30
0.0
 10
45.93173555709345
 20
-102.1157307687419
 30
0.0
 10
45.92432860180017
 20
-102.014100451927
 30
0.0
 10
46.04645723675227
 20
-102.0247802479313
 30
0.0
 10
46.25764158999809
 20
-102.0247802479313
 30
0.0
 10
46.38355982998397
 20
-102.0247802479313
 30
0.0
 10
46.38355982998397
 20
-102.0247802479313
 30
0.0
 10
46.78543021833837
 20
-102.0247802479313
 30
0.0
 10
46.78543021833837
 20
-102.0247802479313
 30
0.0
 10
46.79834932640805
 20
-102.0247802479313
 30
0.0
 10
47.10392929594971
 20
-102.0247802479313
 30
0.0
 10
47.24276664400529
 20
-102.014100451927
 30
0.0
 10
47.24087184148839
 20
-102.0671549223999
 30
0.0
 10
47.23535968871199
 20
-102.2276963720125
 30
0.0
 10
47.23535968871199
 20
-102.2786837851942
 30
0.0
 10
47.23535968871199
 20
-102.2786837851942
 30
0.0
 10
47.23535968871199
 20
-102.8857096096952
 30
0.0
 10
47.23535968871199
 20
-102.8857096096952
 30
0.0
 10
47.23535968871199
 20
-102.9046576348641
 30
0.0
 10
47.24466144652217
 20
-103.4758544663185
 30
0.0
 10
47.24466144652217
 20
-103.5881645791377
 30
0.0
 10
47.24466144652217
 20
-103.6453531641928
 30
0.0
 10
47.24466144652217
 20
-103.7466389714592
 30
0.0
 10
47.17231444133192
 20
-103.7931477605101
 30
0.0
  0
POLYLINE
  5
55
330
41
100
AcDbEntity
  8
_U+30EC_U+30A4_U+30E4_U+30FC 1
370
     0
100
AcDb2dPolyline
 66
     1
 10
0.0
 20
0.0
 30
0.0
  0
VERTEX
  5
56
330
55
100
AcDbEntity
  8
_U+30EC_U+30A4_U+30E4_U+30FC 1
370
     0
100
AcDbVertex
100
AcDb2dVertex
 10
46.48536240157311
 20
-102.2066812895525
 30
0.0
  0
VERTEX
  5
57
330
55
100
AcDbEntity
  8
_U+30EC_U+30A4_U+30E4_U+30FC 1
370
     0
100
AcDbVertex
100
AcDb2dVertex
 10
46.10209552883906
 20
-102.2066812895525
 30
0.0
  0
VERTEX
  5
58
330
55
100
AcDbEntity
  8
_U+30EC_U+30A4_U+30E4_U+30FC 1
370
     0
100
AcDbVertex
100
AcDb2dVertex
 10
46.10209552883906
 20
-102.5112277304486
 30
0.0
  0
VERTEX
  5
59
330
55
100
AcDbEntity
  8
_U+30EC_U+30A4_U+30E4_U+30FC 1
370
     0
100
AcDbVertex
100
AcDb2dVertex
 10
46.48536240157311
 20
-102.5112277304486
 30
0.0
  0
VERTEX
  5
5A
330
55
100
AcDbEntity
  8
_U+30EC_U+30A4_U+30E4_U+30FC 1
370
     0
100
AcDbVertex
100
AcDb2dVertex
 10
46.48536240157311
 20
-102.2066812895525
 30
0.0
  0
SEQEND
  5
5B
330
55
100
AcDbEntity
  8
_U+30EC_U+30A4_U+30E4_U+30FC 1
370
     0
  0
POLYLINE
  5
5C
330
41
100
AcDbEntity
  8
_U+30EC_U+30A4_U+30E4_U+30FC 1
370
     0
100
AcDb2dPolyline
 66
     1
 10
0.0
 20
0.0
 30
0.0
  0
VERTEX
  5
5D
330
5C
100
AcDbEntity
  8
_U+30EC_U+30A4_U+30E4_U+30FC 1
370
     0
100
AcDbVertex
100
AcDb2dVertex
 10
46.48536240157311
 20
-102.6783148614832
 30
0.0
  0
VERTEX
  5
5E
330
5C
100
AcDbEntity
  8
_U+30EC_U+30A4_U+30E4_U+30FC 1
370
     0
100
AcDbVertex
100
AcDb2dVertex
 10
46.10209552883906
 20
-102.6783148614832
 30
0.0
  0
VERTEX
  5
5F
330
5C
100
AcDbEntity
  8
_U+30EC_U+30A4_U+30E4_U+30FC 1
370
     0
100
AcDbVertex
100
AcDb2dVertex
 10
46.10209552883906
 20
-102.9873399265101
 30
0.0
  0
VERTEX
  5
60
330
5C
100
AcDbEntity
  8
_U+30EC_U+30A4_U+30E4_U+30FC 1
370
     0
100
AcDbVertex
100
AcDb2dVertex
 10
46.48536240157311
 20
-102.9873399265101
 30
0.0
  0
VERTEX
  5
61
330
5C
100
AcDbEntity
  8
_U+30EC_U+30A4_U+30E4_U+30FC 1
370
     0
100
AcDbVertex
100
AcDb2dVertex
 10
46.48536240157311
 20
-102.6783148614832
 30
0.0
  0
SEQEND
  5
62
330
5C
100
AcDbEntity
  8
_U+30EC_U+30A4_U+30E4_U+30FC 1
370
     0
  0
POLYLINE
  5
63
330
41
100
AcDbEntity
  8
_U+30EC_U+30A4_U+30E4_U+30FC 1
370
     0
100
AcDb2dPolyline
 66
     1
 10
0.0
 20
0.0
 30
0.0
  0
VERTEX
  5
64
330
63
100
AcDbEntity
  8
_U+30EC_U+30A4_U+30E4_U+30FC 1
370
     0
100
AcDbVertex
100
AcDb2dVertex
 10
47.05380315663933
 20
-102.2066812895525
 30
0.0
  0
VERTEX
  5
65
330
63
100
AcDbEntity
  8
_U+30EC_U+30A4_U+30E4_U+30FC 1
370
     0
100
AcDbVertex
100
AcDb2dVertex
 10
46.6521050230592
 20
-102.2066812895525
 30
0.0
  0
VERTEX
  5
66
330
63
100
AcDbEntity
  8
_U+30EC_U+30A4_U+30E4_U+30FC 1
370
     0
100
AcDbVertex
100
AcDb2dVertex
 10
46.6521050230592
 20
-102.5112277304486
 30
0.0
  0
VERTEX
  5
67
330
63
100
AcDbEntity
  8
_U+30EC_U+30A4_U+30E4_U+30FC 1
370
     0
100
AcDbVertex
100
AcDb2dVertex
 10
47.05380315663933
 20
-102.5112277304486
 30
0.0
  0
VERTEX
  5
68
330
63
100
AcDbEntity
  8
_U+30EC_U+30A4_U+30E4_U+30FC 1
370
     0
100
AcDbVertex
100
AcDb2dVertex
 10
47.05380315663933
 20
-102.2066812895525
 30
0.0
  0
SEQEND
  5
69
330
63
100
AcDbEntity
  8
_U+30EC_U+30A4_U+30E4_U+30FC 1
370
     0
  0
POLYLINE
  5
6A
330
41
100
AcDbEntity
  8
_U+30EC_U+30A4_U+30E4_U+30FC 1
370
     0
100
AcDb2dPolyline
 66
     1
 10
0.0
 20
0.0
 30
0.0
  0
VERTEX
  5
6B
330
6A
100
AcDbEntity
  8
_U+30EC_U+30A4_U+30E4_U+30FC 1
370
     0
100
AcDbVertex
100
AcDb2dVertex
 10
47.05380315663933
 20
-102.6783148614832
 30
0.0
  0
VERTEX
  5
6C
330
6A
100
AcDbEntity
  8
_U+30EC_U+30A4_U+30E4_U+30FC 1
370
     0
100
AcDbVertex
100
AcDb2dVertex
 10
46.6521050230592
 20
-102.6783148614832
 30
0.0
  0
VERTEX
  5
6D
330
6A
100
AcDbEntity
  8
_U+30EC_U+30A4_U+30E4_U+30FC 1
370
     0
100
AcDbVertex
100
AcDb2dVertex
 10
46.6521050230592
 20
-102.9873399265101
 30
0.0
  0
VERTEX
  5
6E
330
6A
100
AcDbEntity
  8
_U+30EC_U+30A4_U+30E4_U+30FC 1
370
     0
100
AcDbVertex
100
AcDb2dVertex
 10
47.05380315663933
 20
-102.9873399265101
 30
0.0
  0
VERTEX
  5
6F
330
6A
100
AcDbEntity
  8
_U+30EC_U+30A4_U+30E4_U+30FC 1
370
     0
100
AcDbVertex
100
AcDb2dVertex
 10
47.05380315663933
 20
-102.6783148614832
 30
0.0
  0
SEQEND
  5
70
330
6A
100
AcDbEntity
  8
_U+30EC_U+30A4_U+30E4_U+30FC 1
370
     0
  0
HATCH
  5
71
330
41
100
AcDbEntity
  8
_U+30EC_U+30A4_U+30E4_U+30FC 1
 62
   179
420
  2234388
100
AcDbHatch
 10
0.0
 20
0.0
 30
0.0
210
0.0
220
0.0
230
1.0
  2
SOLID
 70
     1
 71
     0
 91
        5
 92
        1
 93
        1
 72
     4
 94
        3
 73
     0
 74
     1
 95
       77
 96
       73
 40
0.0
 40
0.0
 40
0.0
 40
0.0
 40
1.0
 40
1.0
 40
1.0
 40
2.0
 40
2.0
 40
2.0
 40
3.0
 40
3.0
 40
3.0
 40
4.0
 40
4.0
 40
4.0
 40
5.0
 40
5.0
 40
5.0
 40
6.0
 40
6.0
 40
6.0
 40
7.0
 40
7.0
 40
7.0
 40
8.0
 40
8.0
 40
8.0
 40
9.0
 40
9.0
 40
9.0
 40
10.0
 40
10.0
 40
10.0
 40
11.0
 40
11.0
 40
11.0
 40
12.0
 40
12.0
 40
12.0
 40
13.0
 40
13.0
 40
13.0
 40
14.0
 40
14.0
 40
14.0
 40
15.0
 40
15.0
 40
15.0
 40
16.0
 40
16.0
 40
16.0
 40
17.0
 40
17.0
 40
17.0
 40
18.0
 40
18.0
 40
18.0
 40
19.0
 40
19.0
 40
19.0
 40
20.0
 40
20.0
 40
20.0
 40
21.0
 40
21.0
 40
21.0
 40
22.0
 40
22.0
 40
22.0
 40
23.0
 40
23.0
 40
23.0
 40
24.0
 40
24.0
 40
24.0
 40
24.0
 10
47.17231444133192
 20
-103.7931477605101
 10
47.13166231460598
 20
-103.8186414671009
 10
47.02245278772356
 20
-103.8313883203963
 10
46.95389538756709
 20
-103.8313883203963
 10
46.94269882724002
 20
-103.8313883203963
 10
46.92047796136016
 20
-103.8313883203963
 10
46.89085014018701
 20
-103.827254205814
 10
46.89085014018701
 20
-103.827254205814
 10
46.80575628170134
 20
-103.6009114324331
 10
46.80575628170134
 20
-103.6009114324331
 10
46.83159449784071
 20
-103.6071126043066
 10
46.8817206371511
 20
-103.6157253430197
 10
46.98352320874023
 20
-103.6157253430197
 10
47.0520806088967
 20
-103.6157253430197
 10
47.05380315663933
 20
-103.5733506685511
 10
47.05380315663933
 20
-103.516162083496
 10
47.05380315663933
 20
-103.516162083496
 10
47.05380315663933
 20
-103.1671739108402
 10
47.05380315663933
 20
-103.1671739108402
 10
47.05380315663933
 20
-103.1671739108402
 10
46.6521050230592
 20
-103.1671739108402
 10
46.6521050230592
 20
-103.1671739108402
 10
46.65382757080182
 20
-103.3046332207016
 10
46.65572237331871
 20
-103.5034152302005
 10
46.66123452609511
 20
-103.6367404254797
 10
46.66312932861199
 20
-103.6643011893617
 10
46.66312932861199
 20
-103.7087429211214
 10
46.67432588893906
 20
-103.7700656207589
 10
46.67432588893906
 20
-103.7700656207589
 10
46.46314153569325
 20
-103.7700656207589
 10
46.46314153569325
 20
-103.7700656207589
 10
46.48536240157311
 20
-103.6453531641928
 10
46.48536240157311
 20
-103.3046332207016
 10
46.48536240157311
 20
-103.1671739108402
 10
46.48536240157311
 20
-103.1671739108402
 10
46.09830592380528
 20
-103.1671739108402
 10
46.09830592380528
 20
-103.1671739108402
 10
46.07797986044231
 20
-103.3745686590522
 10
46.02061902061291
 20
-103.6429415973532
 10
45.84836424635041
 20
-103.827254205814
 10
45.84836424635041
 20
-103.827254205814
 10
45.68351642738121
 20
-103.7046088065391
 10
45.68351642738121
 20
-103.7046088065391
 10
45.90572508617982
 20
-103.4844672050317
 10
45.93363035961035
 20
-103.1523600002536
 10
45.93363035961035
 20
-102.8202527954755
 10
45.93363035961035
 20
-102.8202527954755
 10
45.93363035961035
 20
-102.3844482165914
 10
45.93363035961035
 20
-102.3844482165914
 10
45.93363035961035
 20
-102.3482747139963
 10
45.93173555709345
 20
-102.1157307687419
 10
45.92432860180017
 20
-102.014100451927
 10
46.04645723675227
 20
-102.0247802479313
 10
46.25764158999809
 20
-102.0247802479313
 10
46.38355982998397
 20
-102.0247802479313
 10
46.38355982998397
 20
-102.0247802479313
 10
46.78543021833837
 20
-102.0247802479313
 10
46.78543021833837
 20
-102.0247802479313
 10
46.79834932640805
 20
-102.0247802479313
 10
47.10392929594971
 20
-102.0247802479313
 10
47.24276664400529
 20
-102.014100451927
 10
47.24087184148839
 20
-102.0671549223999
 10
47.23535968871199
 20
-102.2276963720125
 10
47.23535968871199
 20
-102.2786837851942
 10
47.23535968871199
 20
-102.2786837851942
 10
47.23535968871199
 20
-102.8857096096952
 10
47.23535968871199
 20
-102.8857096096952
 10
47.23535968871199
 20
-102.9046576348641
 10
47.24466144652217
 20
-103.4758544663185
 10
47.24466144652217
 20
-103.5881645791377
 10
47.24466144652217
 20
-103.6453531641928
 10
47.24466144652217
 20
-103.7466389714592
 10
47.17231444133192
 20
-103.7931477605101
 97
        0
 97
        0
 92
        1
 93
        4
 72
     1
 10
46.48536240157311
 20
-102.2066812895525
 11
46.10209552883906
 21
-102.2066812895525
 72
     1
 10
46.10209552883906
 20
-102.2066812895525
 11
46.10209552883906
 21
-102.5112277304486
 72
     1
 10
46.10209552883906
 20
-102.5112277304486
 11
46.48536240157311
 21
-102.5112277304486
 72
     1
 10
46.48536240157311
 20
-102.5112277304486
 11
46.48536240157311
 21
-102.2066812895525
 97
        0
 92
        1
 93
        4
 72
     1
 10
46.48536240157311
 20
-102.6783148614832
 11
46.10209552883906
 21
-102.6783148614832
 72
     1
 10
46.10209552883906
 20
-102.6783148614832
 11
46.10209552883906
 21
-102.9873399265101
 72
     1
 10
46.10209552883906
 20
-102.9873399265101
 11
46.48536240157311
 21
-102.9873399265101
 72
     1
 10
46.48536240157311
 20
-102.9873399265101
 11
46.48536240157311
 21
-102.6783148614832
 97
        0
 92
        1
 93
        4
 72
     1
 10
47.05380315663933
 20
-102.2066812895525
 11
46.6521050230592
 21
-102.2066812895525
 72
     1
 10
46.6521050230592
 20
-102.2066812895525
 11
46.6521050230592
 21
-102.5112277304486
 72
     1
 10
46.6521050230592
 20
-102.5112277304486
 11
47.05380315663933
 21
-102.5112277304486
 72
     1
 10
47.05380315663933
 20
-102.5112277304486
 11
47.05380315663933
 21
-102.2066812895525
 97
        0
 92
        1
 93
        4
 72
     1
 10
47.05380315663933
 20
-102.6783148614832
 11
46.6521050230592
 21
-102.6783148614832
 72
     1
 10
46.6521050230592
 20
-102.6783148614832
 11
46.6521050230592
 21
-102.9873399265101
 72
     1
 10
46.6521050230592
 20
-102.9873399265101
 11
47.05380315663933
 21
-102.9873399265101
 72
     1
 10
47.05380315663933
 20
-102.9873399265101
 11
47.05380315663933
 21
-102.6783148614832
 97
        0
 75
     2
 76
     1
 98
        0
  0
SPLINE
  5
72
330
41
100
AcDbEntity
  8
_U+30EC_U+30A4_U+30E4_U+30FC 1
370
     0
100
AcDbSpline
210
0.0
220
0.0
230
1.0
 70
    11
 71
     3
 72
    44
 73
    40
 74
     0
 42
0.0000000001
 43
0.0000000001
 12
1.0
 22
0.0
 32
0.0
 13
1.0
 23
0.0
 33
0.0
 40
0.0
 40
0.0
 40
0.0
 40
0.0
 40
1.0
 40
1.0
 40
1.0
 40
2.0
 40
2.0
 40
2.0
 40
3.0
 40
3.0
 40
3.0
 40
4.0
 40
4.0
 40
4.0
 40
5.0
 40
5.0
 40
5.0
 40
6.0
 40
6.0
 40
6.0
 40
7.0
 40
7.0
 40
7.0
 40
8.0
 40
8.0
 40
8.0
 40
9.0
 40
9.0
 40
9.0
 40
10.0
 40
10.0
 40
10.0
 40
11.0
 40
11.0
 40
11.0
 40
12.0
 40
12.0
 40
12.0
 40
13.0
 40
13.0
 40
13.0
 40
13.0
 10
48.8170030259902
 20
-102.5429226089129
 30
0.0
 10
48.71881780466057
 20
-102.9112033162861
 30
0.0
 10
48.67437607290086
 20
-103.0696777086076
 30
0.0
 10
48.50229355341262
 20
-103.3194471312882
 30
0.0
 10
48.34106308470293
 20
-103.5499240192514
 30
0.0
 10
48.13366833649089
 20
-103.7363036850034
 30
0.0
 10
47.88923881181241
 20
-103.8293212631052
 30
0.0
 10
47.88923881181241
 20
-103.8293212631052
 30
0.0
 10
47.72077364258369
 20
-103.6494872787751
 30
0.0
 10
47.72077364258369
 20
-103.6494872787751
 30
0.0
 10
48.28180744235663
 20
-103.4972140583271
 30
0.0
 10
48.57067869879483
 20
-102.9408311374592
 30
0.0
 10
48.62631699088162
 20
-102.5008924439928
 30
0.0
 10
48.62631699088162
 20
-102.5008924439928
 30
0.0
 10
47.955901409452
 20
-102.5008924439928
 30
0.0
 10
47.955901409452
 20
-102.5008924439928
 30
0.0
 10
47.87442490122584
 20
-102.5008924439928
 30
0.0
 10
47.71336668729041
 20
-102.5050265585751
 30
0.0
 10
47.57642414175173
 20
-102.523974583744
 30
0.0
 10
47.57642414175173
 20
-102.523974583744
 30
0.0
 10
47.57642414175173
 20
-102.3038329822365
 30
0.0
 10
47.57642414175173
 20
-102.3038329822365
 30
0.0
 10
47.65221624242722
 20
-102.3251925742451
 30
0.0
 10
47.87270235348321
 20
-102.3251925742451
 30
0.0
 10
47.95969101448578
 20
-102.3251925742451
 30
0.0
 10
47.95969101448578
 20
-102.3251925742451
 30
0.0
 10
48.33744573444342
 20
-102.3251925742451
 30
0.0
 10
48.33744573444342
 20
-102.3251925742451
 30
0.0
 10
48.37448051090986
 20
-102.3251925742451
 30
0.0
 10
48.57998045660501
 20
-102.323125516954
 30
0.0
 10
48.61339788281193
 20
-102.316579835532
 30
0.0
 10
48.65043265927837
 20
-102.3103786636585
 30
0.0
 10
48.65215520702099
 20
-102.3083116063674
 30
0.0
 10
48.70589869659089
 20
-102.2680039891899
 30
0.0
 10
48.70589869659089
 20
-102.2680039891899
 30
0.0
 10
48.87074651556009
 20
-102.4223442669291
 30
0.0
 10
48.87074651556009
 20
-102.4223442669291
 30
0.0
 10
48.84473604464646
 20
-102.4519720881023
 30
0.0
 10
48.83181693657677
 20
-102.4836669665666
 30
0.0
 10
48.8170030259902
 20
-102.5429226089129
 30
0.0
  0
SPLINE
  5
73
330
41
100
AcDbEntity
  8
_U+30EC_U+30A4_U+30E4_U+30FC 1
370
     0
100
AcDbSpline
210
0.0
220
0.0
230
1.0
 70
    11
 71
     3
 72
    17
 73
    13
 74
     0
 42
0.0000000001
 43
0.0000000001
 12
1.0
 22
0.0
 32
0.0
 13
1.0
 23
0.0
 33
0.0
 40
0.0
 40
0.0
 40
0.0
 40
0.0
 40
1.0
 40
1.0
 40
1.0
 40
2.0
 40
2.0
 40
2.0
 40
3.0
 40
3.0
 40
3.0
 40
4.0
 40
4.0
 40
4.0
 40
4.0
 10
49.00028210580549
 20
-102.344140599414
 30
0.0
 10
48.88917777640618
 20
-102.344140599414
 30
0.0
 10
48.80029431288673
 20
-102.2425102825991
 30
0.0
 10
48.80029431288673
 20
-102.1157307687419
 30
0.0
 10
48.80029431288673
 20
-101.9889512548847
 30
0.0
 10
48.88917777640618
 20
-101.8852538807787
 30
0.0
 10
49.00028210580549
 20
-101.8852538807787
 30
0.0
 10
49.11138643520479
 20
-101.8852538807787
 30
0.0
 10
49.20216470124113
 20
-101.9889512548847
 30
0.0
 10
49.20216470124113
 20
-102.1157307687419
 30
0.0
 10
49.20216470124113
 20
-102.2425102825991
 30
0.0
 10
49.11138643520479
 20
-102.344140599414
 30
0.0
 10
49.00028210580549
 20
-102.344140599414
 30
0.0
  0
SPLINE
  5
74
330
41
100
AcDbEntity
  8
_U+30EC_U+30A4_U+30E4_U+30FC 1
370
     0
100
AcDbSpline
210
0.0
220
0.0
230
1.0
 70
    11
 71
     3
 72
    17
 73
    13
 74
     0
 42
0.0000000001
 43
0.0000000001
 12
1.0
 22
0.0
 32
0.0
 13
1.0
 23
0.0
 33
0.0
 40
0.0
 40
0.0
 40
0.0
 40
0.0
 40
1.0
 40
1.0
 40
1.0
 40
2.0
 40
2.0
 40
2.0
 40
3.0
 40
3.0
 40
3.0
 40
4.0
 40
4.0
 40
4.0
 40
4.0
 10
48.99855955806287
 20
-102.014100451927
 30
0.0
 10
48.95032822126937
 20
-102.014100451927
 30
0.0
 10
48.91139864228604
 20
-102.0585421836868
 30
0.0
 10
48.91139864228604
 20
-102.1136637114508
 30
0.0
 10
48.91139864228604
 20
-102.1708522965059
 30
0.0
 10
48.95032822126937
 20
-102.2194281428479
 30
0.0
 10
49.00217690832238
 20
-102.2194281428479
 30
0.0
 10
49.05402559537539
 20
-102.2194281428479
 30
0.0
 10
49.08916556932493
 20
-102.1684407296662
 30
0.0
 10
49.08916556932493
 20
-102.1157307687419
 30
0.0
 10
49.08916556932493
 20
-102.0585421836868
 30
0.0
 10
49.04851344259899
 20
-102.014100451927
 30
0.0
 10
48.99855955806287
 20
-102.014100451927
 30
0.0
  0
HATCH
  5
75
330
41
100
AcDbEntity
  8
_U+30EC_U+30A4_U+30E4_U+30FC 1
 62
   179
420
  2234388
100
AcDbHatch
 10
0.0
 20
0.0
 30
0.0
210
0.0
220
0.0
230
1.0
  2
SOLID
 70
     1
 71
     0
 91
        3
 92
        1
 93
        1
 72
     4
 94
        3
 73
     0
 74
     1
 95
       44
 96
       40
 40
0.0
 40
0.0
 40
0.0
 40
0.0
 40
1.0
 40
1.0
 40
1.0
 40
2.0
 40
2.0
 40
2.0
 40
3.0
 40
3.0
 40
3.0
 40
4.0
 40
4.0
 40
4.0
 40
5.0
 40
5.0
 40
5.0
 40
6.0
 40
6.0
 40
6.0
 40
7.0
 40
7.0
 40
7.0
 40
8.0
 40
8.0
 40
8.0
 40
9.0
 40
9.0
 40
9.0
 40
10.0
 40
10.0
 40
10.0
 40
11.0
 40
11.0
 40
11.0
 40
12.0
 40
12.0
 40
12.0
 40
13.0
 40
13.0
 40
13.0
 40
13.0
 10
48.8170030259902
 20
-102.5429226089129
 10
48.71881780466057
 20
-102.9112033162861
 10
48.67437607290086
 20
-103.0696777086076
 10
48.50229355341262
 20
-103.3194471312882
 10
48.34106308470293
 20
-103.5499240192514
 10
48.13366833649089
 20
-103.7363036850034
 10
47.88923881181241
 20
-103.8293212631052
 10
47.88923881181241
 20
-103.8293212631052
 10
47.72077364258369
 20
-103.6494872787751
 10
47.72077364258369
 20
-103.6494872787751
 10
48.28180744235663
 20
-103.4972140583271
 10
48.57067869879483
 20
-102.9408311374592
 10
48.62631699088162
 20
-102.5008924439928
 10
48.62631699088162
 20
-102.5008924439928
 10
47.955901409452
 20
-102.5008924439928
 10
47.955901409452
 20
-102.5008924439928
 10
47.87442490122584
 20
-102.5008924439928
 10
47.71336668729041
 20
-102.5050265585751
 10
47.57642414175173
 20
-102.523974583744
 10
47.57642414175173
 20
-102.523974583744
 10
47.57642414175173
 20
-102.3038329822365
 10
47.57642414175173
 20
-102.3038329822365
 10
47.65221624242722
 20
-102.3251925742451
 10
47.87270235348321
 20
-102.3251925742451
 10
47.95969101448578
 20
-102.3251925742451
 10
47.95969101448578
 20
-102.3251925742451
 10
48.33744573444342
 20
-102.3251925742451
 10
48.33744573444342
 20
-102.3251925742451
 10
48.37448051090986
 20
-102.3251925742451
 10
48.57998045660501
 20
-102.323125516954
 10
48.61339788281193
 20
-102.316579835532
 10
48.65043265927837
 20
-102.3103786636585
 10
48.65215520702099
 20
-102.3083116063674
 10
48.70589869659089
 20
-102.2680039891899
 10
48.70589869659089
 20
-102.2680039891899
 10
48.87074651556009
 20
-102.4223442669291
 10
48.87074651556009
 20
-102.4223442669291
 10
48.84473604464646
 20
-102.4519720881023
 10
48.83181693657677
 20
-102.4836669665666
 10
48.8170030259902
 20
-102.5429226089129
 97
        0
 97
        0
 92
        1
 93
        1
 72
     4
 94
        3
 73
     0
 74
     1
 95
       17
 96
       13
 40
0.0
 40
0.0
 40
0.0
 40
0.0
 40
1.0
 40
1.0
 40
1.0
 40
2.0
 40
2.0
 40
2.0
 40
3.0
 40
3.0
 40
3.0
 40
4.0
 40
4.0
 40
4.0
 40
4.0
 10
49.00028210580549
 20
-102.344140599414
 10
48.88917777640618
 20
-102.344140599414
 10
48.80029431288673
 20
-102.2425102825991
 10
48.80029431288673
 20
-102.1157307687419
 10
48.80029431288673
 20
-101.9889512548847
 10
48.88917777640618
 20
-101.8852538807787
 10
49.00028210580549
 20
-101.8852538807787
 10
49.11138643520479
 20
-101.8852538807787
 10
49.20216470124113
 20
-101.9889512548847
 10
49.20216470124113
 20
-102.1157307687419
 10
49.20216470124113
 20
-102.2425102825991
 10
49.11138643520479
 20
-102.344140599414
 10
49.00028210580549
 20
-102.344140599414
 97
        0
 97
        0
 92
        1
 93
        1
 72
     4
 94
        3
 73
     0
 74
     1
 95
       17
 96
       13
 40
0.0
 40
0.0
 40
0.0
 40
0.0
 40
1.0
 40
1.0
 40
1.0
 40
2.0
 40
2.0
 40
2.0
 40
3.0
 40
3.0
 40
3.0
 40
4.0
 40
4.0
 40
4.0
 40
4.0
 10
48.99855955806287
 20
-102.014100451927
 10
48.95032822126937
 20
-102.014100451927
 10
48.91139864228604
 20
-102.0585421836868
 10
48.91139864228604
 20
-102.1136637114508
 10
48.91139864228604
 20
-102.1708522965059
 10
48.95032822126937
 20
-102.2194281428479
 10
49.00217690832238
 20
-102.2194281428479
 10
49.05402559537539
 20
-102.2194281428479
 10
49.08916556932493
 20
-102.1684407296662
 10
49.08916556932493
 20
-102.1157307687419
 10
49.08916556932493
 20
-102.0585421836868
 10
49.04851344259899
 20
-102.014100451927
 10
48.99855955806287
 20
-102.014100451927
 97
        0
 97
        0
 75
     2
 76
     1
 98
        0
  0
SPLINE
  5
76
330
41
100
AcDbEntity
  8
_U+30EC_U+30A4_U+30E4_U+30FC 1
370
     0
100
AcDbSpline
210
0.0
220
0.0
230
1.0
 70
    11
 71
     3
 72
    50
 73
    46
 74
     0
 42
0.0000000001
 43
0.0000000001
 12
1.0
 22
0.0
 32
0.0
 13
1.0
 23
0.0
 33
0.0
 40
0.0
 40
0.0
 40
0.0
 40
0.0
 40
1.0
 40
1.0
 40
1.0
 40
2.0
 40
2.0
 40
2.0
 40
3.0
 40
3.0
 40
3.0
 40
4.0
 40
4.0
 40
4.0
 40
5.0
 40
5.0
 40
5.0
 40
6.0
 40
6.0
 40
6.0
 40
7.0
 40
7.0
 40
7.0
 40
8.0
 40
8.0
 40
8.0
 40
9.0
 40
9.0
 40
9.0
 40
10.0
 40
10.0
 40
10.0
 40
11.0
 40
11.0
 40
11.0
 40
12.0
 40
12.0
 40
12.0
 40
13.0
 40
13.0
 40
13.0
 40
14.0
 40
14.0
 40
14.0
 40
15.0
 40
15.0
 40
15.0
 40
15.0
 10
50.57262368527351
 20
-102.8519476739398
 30
0.0
 10
50.5042385398913
 20
-103.0297146009787
 30
0.0
 10
50.38572725519871
 20
-103.2367648396422
 30
0.0
 10
50.26532116798923
 20
-103.3766357163433
 30
0.0
 10
50.11718206212348
 20
-103.5478569619603
 30
0.0
 10
49.97455510903414
 20
-103.6367404254797
 30
0.0
 10
49.69498561040611
 20
-103.7783338499235
 30
0.0
 10
49.69498561040611
 20
-103.7783338499235
 30
0.0
 10
49.54684650454038
 20
-103.5902316364288
 30
0.0
 10
49.54684650454038
 20
-103.5902316364288
 30
0.0
 10
49.70979952099269
 20
-103.5668049871291
 30
0.0
 10
49.85983342937532
 20
-103.4803330904494
 30
0.0
 10
49.99315862465449
 20
-103.3745686590522
 30
0.0
 10
50.22277423874639
 20
-103.192667617431
 30
0.0
 10
50.38934460545822
 20
-102.8795084378218
 30
0.0
 10
50.43189153470106
 20
-102.6976073962006
 30
0.0
 10
50.43189153470106
 20
-102.6976073962006
 30
0.0
 10
49.84501951878875
 20
-102.6976073962006
 30
0.0
 10
49.84501951878875
 20
-102.6976073962006
 30
0.0
 10
49.70600991595892
 20
-102.6976073962006
 30
0.0
 10
49.45055608572764
 20
-102.7058756253652
 30
0.0
 10
49.31723089044847
 20
-102.7227565932429
 30
0.0
 10
49.31723089044847
 20
-102.7227565932429
 30
0.0
 10
49.31723089044847
 20
-102.4943467625709
 30
0.0
 10
49.31723089044847
 20
-102.4943467625709
 30
0.0
 10
49.34685871162162
 20
-102.5008924439928
 30
0.0
 10
49.36907957750148
 20
-102.5070936158663
 30
0.0
 10
49.41541611177809
 20
-102.5112277304486
 30
0.0
 10
49.50429957529754
 20
-102.5177734118706
 30
0.0
 10
49.67638209478577
 20
-102.5198404691617
 30
0.0
 10
49.75045164771864
 20
-102.5198404691617
 30
0.0
 10
49.75045164771864
 20
-102.5198404691617
 30
0.0
 10
50.19314641757325
 20
-102.5198404691617
 30
0.0
 10
50.19314641757325
 20
-102.5198404691617
 30
0.0
 10
50.25240205991954
 20
-102.5198404691617
 30
0.0
 10
50.38004284764805
 20
-102.5157063545794
 30
0.0
 10
50.43378633721795
 20
-102.5091606731574
 30
0.0
 10
50.49683158459802
 20
-102.5008924439928
 30
0.0
 10
50.5207749982205
 20
-102.4860785334063
 30
0.0
 10
50.55040281939365
 20
-102.4626518841066
 30
0.0
 10
50.55040281939365
 20
-102.4626518841066
 30
0.0
 10
50.69492457499988
 20
-102.6297390151412
 30
0.0
 10
50.69492457499988
 20
-102.6297390151412
 30
0.0
 10
50.6337741301367
 20
-102.6976073962006
 30
0.0
 10
50.59312200341075
 20
-102.8013047703066
 30
0.0
 10
50.57262368527351
 20
-102.8519476739398
 30
0.0
  0
SPLINE
  5
77
330
41
100
AcDbEntity
  8
_U+30EC_U+30A4_U+30E4_U+30FC 1
370
     0
100
AcDbSpline
210
0.0
220
0.0
230
1.0
 70
    11
 71
     3
 72
    29
 73
    25
 74
     0
 42
0.0000000001
 43
0.0000000001
 12
1.0
 22
0.0
 32
0.0
 13
1.0
 23
0.0
 33
0.0
 40
0.0
 40
0.0
 40
0.0
 40
0.0
 40
1.0
 40
1.0
 40
1.0
 40
2.0
 40
2.0
 40
2.0
 40
3.0
 40
3.0
 40
3.0
 40
4.0
 40
4.0
 40
4.0
 40
5.0
 40
5.0
 40
5.0
 40
6.0
 40
6.0
 40
6.0
 40
7.0
 40
7.0
 40
7.0
 40
8.0
 40
8.0
 40
8.0
 40
8.0
 10
50.14129773052024
 20
-102.2256293147214
 30
0.0
 10
50.14129773052024
 20
-102.2256293147214
 30
0.0
 10
49.84312471627186
 20
-102.2256293147214
 30
0.0
 10
49.84312471627186
 20
-102.2256293147214
 30
0.0
 10
49.74304469242535
 20
-102.2256293147214
 30
0.0
 10
49.64124212083622
 20
-102.2301079388522
 30
0.0
 10
49.54133435176397
 20
-102.2449218494388
 30
0.0
 10
49.54133435176397
 20
-102.2449218494388
 30
0.0
 10
49.54133435176397
 20
-102.0354600439356
 30
0.0
 10
49.54133435176397
 20
-102.0354600439356
 30
0.0
 10
49.64503172586999
 20
-102.0502739545222
 30
0.0
 10
49.79678818199525
 20
-102.0544080691045
 30
0.0
 10
49.84312471627186
 20
-102.0544080691045
 30
0.0
 10
49.84312471627186
 20
-102.0544080691045
 30
0.0
 10
50.14129773052024
 20
-102.0544080691045
 30
0.0
 10
50.14129773052024
 20
-102.0544080691045
 30
0.0
 10
50.24310030210937
 20
-102.0544080691045
 30
0.0
 10
50.3449028736985
 20
-102.0502739545222
 30
0.0
 10
50.44670544528763
 20
-102.0354600439356
 30
0.0
 10
50.44670544528763
 20
-102.0354600439356
 30
0.0
 10
50.44670544528763
 20
-102.2449218494388
 30
0.0
 10
50.44670544528763
 20
-102.2449218494388
 30
0.0
 10
50.31527505252535
 20
-102.2256293147214
 30
0.0
 10
50.15421683858992
 20
-102.2256293147214
 30
0.0
 10
50.14129773052024
 20
-102.2256293147214
 30
0.0
  0
HATCH
  5
78
330
41
100
AcDbEntity
  8
_U+30EC_U+30A4_U+30E4_U+30FC 1
 62
   179
420
  2234388
100
AcDbHatch
 10
0.0
 20
0.0
 30
0.0
210
0.0
220
0.0
230
1.0
  2
SOLID
 70
     1
 71
     0
 91
        2
 92
        1
 93
        1
 72
     4
 94
        3
 73
     0
 74
     1
 95
       50
 96
       46
 40
0.0
 40
0.0
 40
0.0
 40
0.0
 40
1.0
 40
1.0
 40
1.0
 40
2.0
 40
2.0
 40
2.0
 40
3.0
 40
3.0
 40
3.0
 40
4.0
 40
4.0
 40
4.0
 40
5.0
 40
5.0
 40
5.0
 40
6.0
 40
6.0
 40
6.0
 40
7.0
 40
7.0
 40
7.0
 40
8.0
 40
8.0
 40
8.0
 40
9.0
 40
9.0
 40
9.0
 40
10.0
 40
10.0
 40
10.0
 40
11.0
 40
11.0
 40
11.0
 40
12.0
 40
12.0
 40
12.0
 40
13.0
 40
13.0
 40
13.0
 40
14.0
 40
14.0
 40
14.0
 40
15.0
 40
15.0
 40
15.0
 40
15.0
 10
50.57262368527351
 20
-102.8519476739398
 10
50.5042385398913
 20
-103.0297146009787
 10
50.38572725519871
 20
-103.2367648396422
 10
50.26532116798923
 20
-103.3766357163433
 10
50.11718206212348
 20
-103.5478569619603
 10
49.97455510903414
 20
-103.6367404254797
 10
49.69498561040611
 20
-103.7783338499235
 10
49.69498561040611
 20
-103.7783338499235
 10
49.54684650454038
 20
-103.5902316364288
 10
49.54684650454038
 20
-103.5902316364288
 10
49.70979952099269
 20
-103.5668049871291
 10
49.85983342937532
 20
-103.4803330904494
 10
49.99315862465449
 20
-103.3745686590522
 10
50.22277423874639
 20
-103.192667617431
 10
50.38934460545822
 20
-102.8795084378218
 10
50.43189153470106
 20
-102.6976073962006
 10
50.43189153470106
 20
-102.6976073962006
 10
49.84501951878875
 20
-102.6976073962006
 10
49.84501951878875
 20
-102.6976073962006
 10
49.70600991595892
 20
-102.6976073962006
 10
49.45055608572764
 20
-102.7058756253652
 10
49.31723089044847
 20
-102.7227565932429
 10
49.31723089044847
 20
-102.7227565932429
 10
49.31723089044847
 20
-102.4943467625709
 10
49.31723089044847
 20
-102.4943467625709
 10
49.34685871162162
 20
-102.5008924439928
 10
49.36907957750148
 20
-102.5070936158663
 10
49.41541611177809
 20
-102.5112277304486
 10
49.50429957529754
 20
-102.5177734118706
 10
49.67638209478577
 20
-102.5198404691617
 10
49.75045164771864
 20
-102.5198404691617
 10
49.75045164771864
 20
-102.5198404691617
 10
50.19314641757325
 20
-102.5198404691617
 10
50.19314641757325
 20
-102.5198404691617
 10
50.25240205991954
 20
-102.5198404691617
 10
50.38004284764805
 20
-102.5157063545794
 10
50.43378633721795
 20
-102.5091606731574
 10
50.49683158459802
 20
-102.5008924439928
 10
50.5207749982205
 20
-102.4860785334063
 10
50.55040281939365
 20
-102.4626518841066
 10
50.55040281939365
 20
-102.4626518841066
 10
50.69492457499988
 20
-102.6297390151412
 10
50.69492457499988
 20
-102.6297390151412
 10
50.6337741301367
 20
-102.6976073962006
 10
50.59312200341075
 20
-102.8013047703066
 10
50.57262368527351
 20
-102.8519476739398
 97
        0
 97
        0
 92
        1
 93
        1
 72
     4
 94
        3
 73
     0
 74
     1
 95
       29
 96
       25
 40
0.0
 40
0.0
 40
0.0
 40
0.0
 40
1.0
 40
1.0
 40
1.0
 40
2.0
 40
2.0
 40
2.0
 40
3.0
 40
3.0
 40
3.0
 40
4.0
 40
4.0
 40
4.0
 40
5.0
 40
5.0
 40
5.0
 40
6.0
 40
6.0
 40
6.0
 40
7.0
 40
7.0
 40
7.0
 40
8.0
 40
8.0
 40
8.0
 40
8.0
 10
50.14129773052024
 20
-102.2256293147214
 10
50.14129773052024
 20
-102.2256293147214
 10
49.84312471627186
 20
-102.2256293147214
 10
49.84312471627186
 20
-102.2256293147214
 10
49.74304469242535
 20
-102.2256293147214
 10
49.64124212083622
 20
-102.2301079388522
 10
49.54133435176397
 20
-102.2449218494388
 10
49.54133435176397
 20
-102.2449218494388
 10
49.54133435176397
 20
-102.0354600439356
 10
49.54133435176397
 20
-102.0354600439356
 10
49.64503172586999
 20
-102.0502739545222
 10
49.79678818199525
 20
-102.0544080691045
 10
49.84312471627186
 20
-102.0544080691045
 10
49.84312471627186
 20
-102.0544080691045
 10
50.14129773052024
 20
-102.0544080691045
 10
50.14129773052024
 20
-102.0544080691045
 10
50.24310030210937
 20
-102.0544080691045
 10
50.3449028736985
 20
-102.0502739545222
 10
50.44670544528763
 20
-102.0354600439356
 10
50.44670544528763
 20
-102.0354600439356
 10
50.44670544528763
 20
-102.2449218494388
 10
50.44670544528763
 20
-102.2449218494388
 10
50.31527505252535
 20
-102.2256293147214
 10
50.15421683858992
 20
-102.2256293147214
 10
50.14129773052024
 20
-102.2256293147214
 97
        0
 97
        0
 75
     2
 76
     1
 98
        0
  0
SPLINE
  5
79
330
41
100
AcDbEntity
  8
_U+30EC_U+30A4_U+30E4_U+30FC 1
370
     0
100
AcDbSpline
210
0.0
220
0.0
230
1.0
 70
    11
 71
     3
 72
    50
 73
    46
 74
     0
 42
0.0000000001
 43
0.0000000001
 12
1.0
 22
0.0
 32
0.0
 13
1.0
 23
0.0
 33
0.0
 40
0.0
 40
0.0
 40
0.0
 40
0.0
 40
1.0
 40
1.0
 40
1.0
 40
2.0
 40
2.0
 40
2.0
 40
3.0
 40
3.0
 40
3.0
 40
4.0
 40
4.0
 40
4.0
 40
5.0
 40
5.0
 40
5.0
 40
6.0
 40
6.0
 40
6.0
 40
7.0
 40
7.0
 40
7.0
 40
8.0
 40
8.0
 40
8.0
 40
9.0
 40
9.0
 40
9.0
 40
10.0
 40
10.0
 40
10.0
 40
11.0
 40
11.0
 40
11.0
 40
12.0
 40
12.0
 40
12.0
 40
13.0
 40
13.0
 40
13.0
 40
14.0
 40
14.0
 40
14.0
 40
15.0
 40
15.0
 40
15.0
 40
15.0
 10
52.0707234570344
 20
-102.2108154041348
 30
0.0
 10
51.88744437721911
 20
-102.4244113242203
 30
0.0
 10
51.82457138461331
 20
-102.496413819862
 30
0.0
 10
51.70037569237005
 20
-102.6149251045546
 30
0.0
 10
51.70037569237005
 20
-102.6149251045546
 30
0.0
 10
51.70037569237005
 20
-103.1819878214267
 30
0.0
 10
51.70037569237005
 20
-103.1819878214267
 30
0.0
 10
51.70037569237005
 20
-103.3321939845836
 30
0.0
 10
51.70606009992071
 20
-103.3511420097525
 30
0.0
 10
51.70967745018022
 20
-103.5289089367914
 30
0.0
 10
51.71157225269711
 20
-103.6601670747794
 30
0.0
 10
51.71708440547351
 20
-103.7087429211214
 30
0.0
 10
51.72259655824991
 20
-103.7679985634677
 30
0.0
 10
51.72259655824991
 20
-103.7679985634677
 30
0.0
 10
51.52450356784804
 20
-103.7679985634677
 30
0.0
 10
51.52450356784804
 20
-103.7679985634677
 30
0.0
 10
51.52829317288182
 20
-103.723556831708
 30
0.0
 10
51.53191052314133
 20
-103.6770480426571
 30
0.0
 10
51.53191052314133
 20
-103.668435303944
 30
0.0
 10
51.53191052314133
 20
-103.5881645791377
 30
0.0
 10
51.53570012817511
 20
-103.2367648396422
 30
0.0
 10
51.53570012817511
 20
-103.165106853549
 30
0.0
 10
51.53570012817511
 20
-103.165106853549
 30
0.0
 10
51.53570012817511
 20
-102.7589300958381
 30
0.0
 10
51.53570012817511
 20
-102.7589300958381
 30
0.0
 10
51.3763644619823
 20
-102.8836425524041
 30
0.0
 10
51.20600449023669
 20
-102.9935410983836
 30
0.0
 10
51.02823756319781
 20
-103.0803575046119
 30
0.0
 10
51.02823756319781
 20
-103.0803575046119
 30
0.0
 10
50.85047063615891
 20
-102.9174044881595
 30
0.0
 10
50.85047063615891
 20
-102.9174044881595
 30
0.0
 10
50.95795761529871
 20
-102.8815754951129
 30
0.0
 10
51.18188882183995
 20
-102.8075059421801
 30
0.0
 10
51.4838514411221
 20
-102.551535347626
 30
0.0
 10
51.67264267371379
 20
-102.392716445756
 30
0.0
 10
51.84110784294251
 20
-102.2046142322613
 30
0.0
 10
51.97443303822167
 20
-101.9844726307539
 30
0.0
 10
51.97443303822167
 20
-101.9844726307539
 30
0.0
 10
52.14307046222465
 20
-102.1284776220373
 30
0.0
 10
52.14307046222465
 20
-102.1284776220373
 30
0.0
 10
52.15409476777745
 20
-102.1388129084931
 30
0.0
 10
52.16150172307074
 20
-102.1536268190796
 30
0.0
 10
52.16150172307074
 20
-102.1663736723751
 30
0.0
 10
52.16150172307074
 20
-102.2066812895525
 30
0.0
 10
52.12825655163807
 20
-102.2066812895525
 30
0.0
 10
52.0707234570344
 20
-102.2108154041348
 30
0.0
  0
HATCH
  5
7A
330
41
100
AcDbEntity
  8
_U+30EC_U+30A4_U+30E4_U+30FC 1
 62
   179
420
  2234388
100
AcDbHatch
 10
0.0
 20
0.0
 30
0.0
210
0.0
220
0.0
230
1.0
  2
SOLID
 70
     1
 71
     0
 91
        1
 92
        1
 93
        1
 72
     4
 94
        3
 73
     0
 74
     1
 95
       50
 96
       46
 40
0.0
 40
0.0
 40
0.0
 40
0.0
 40
1.0
 40
1.0
 40
1.0
 40
2.0
 40
2.0
 40
2.0
 40
3.0
 40
3.0
 40
3.0
 40
4.0
 40
4.0
 40
4.0
 40
5.0
 40
5.0
 40
5.0
 40
6.0
 40
6.0
 40
6.0
 40
7.0
 40
7.0
 40
7.0
 40
8.0
 40
8.0
 40
8.0
 40
9.0
 40
9.0
 40
9.0
 40
10.0
 40
10.0
 40
10.0
 40
11.0
 40
11.0
 40
11.0
 40
12.0
 40
12.0
 40
12.0
 40
13.0
 40
13.0
 40
13.0
 40
14.0
 40
14.0
 40
14.0
 40
15.0
 40
15.0
 40
15.0
 40
15.0
 10
52.0707234570344
 20
-102.2108154041348
 10
51.88744437721911
 20
-102.4244113242203
 10
51.82457138461331
 20
-102.496413819862
 10
51.70037569237005
 20
-102.6149251045546
 10
51.70037569237005
 20
-102.6149251045546
 10
51.70037569237005
 20
-103.1819878214267
 10
51.70037569237005
 20
-103.1819878214267
 10
51.70037569237005
 20
-103.3321939845836
 10
51.70606009992071
 20
-103.3511420097525
 10
51.70967745018022
 20
-103.5289089367914
 10
51.71157225269711
 20
-103.6601670747794
 10
51.71708440547351
 20
-103.7087429211214
 10
51.72259655824991
 20
-103.7679985634677
 10
51.72259655824991
 20
-103.7679985634677
 10
51.52450356784804
 20
-103.7679985634677
 10
51.52450356784804
 20
-103.7679985634677
 10
51.52829317288182
 20
-103.723556831708
 10
51.53191052314133
 20
-103.6770480426571
 10
51.53191052314133
 20
-103.668435303944
 10
51.53191052314133
 20
-103.5881645791377
 10
51.53570012817511
 20
-103.2367648396422
 10
51.53570012817511
 20
-103.165106853549
 10
51.53570012817511
 20
-103.165106853549
 10
51.53570012817511
 20
-102.7589300958381
 10
51.53570012817511
 20
-102.7589300958381
 10
51.3763644619823
 20
-102.8836425524041
 10
51.20600449023669
 20
-102.9935410983836
 10
51.02823756319781
 20
-103.0803575046119
 10
51.02823756319781
 20
-103.0803575046119
 10
50.85047063615891
 20
-102.9174044881595
 10
50.85047063615891
 20
-102.9174044881595
 10
50.95795761529871
 20
-102.8815754951129
 10
51.18188882183995
 20
-102.8075059421801
 10
51.4838514411221
 20
-102.551535347626
 10
51.67264267371379
 20
-102.392716445756
 10
51.84110784294251
 20
-102.2046142322613
 10
51.97443303822167
 20
-101.9844726307539
 10
51.97443303822167
 20
-101.9844726307539
 10
52.14307046222465
 20
-102.1284776220373
 10
52.14307046222465
 20
-102.1284776220373
 10
52.15409476777745
 20
-102.1388129084931
 10
52.16150172307074
 20
-102.1536268190796
 10
52.16150172307074
 20
-102.1663736723751
 10
52.16150172307074
 20
-102.2066812895525
 10
52.12825655163807
 20
-102.2066812895525
 10
52.0707234570344
 20
-102.2108154041348
 97
        0
 97
        0
 75
     2
 76
     1
 98
        0
  0
SPLINE
  5
7B
330
41
100
AcDbEntity
  8
_U+30EC_U+30A4_U+30E4_U+30FC 1
370
     0
100
AcDbSpline
210
0.0
220
0.0
230
1.0
 70
    11
 71
     3
 72
    50
 73
    46
 74
     0
 42
0.0000000001
 43
0.0000000001
 12
1.0
 22
0.0
 32
0.0
 13
1.0
 23
0.0
 33
0.0
 40
0.0
 40
0.0
 40
0.0
 40
0.0
 40
1.0
 40
1.0
 40
1.0
 40
2.0
 40
2.0
 40
2.0
 40
3.0
 40
3.0
 40
3.0
 40
4.0
 40
4.0
 40
4.0
 40
5.0
 40
5.0
 40
5.0
 40
6.0
 40
6.0
 40
6.0
 40
7.0
 40
7.0
 40
7.0
 40
8.0
 40
8.0
 40
8.0
 40
9.0
 40
9.0
 40
9.0
 40
10.0
 40
10.0
 40
10.0
 40
11.0
 40
11.0
 40
11.0
 40
12.0
 40
12.0
 40
12.0
 40
13.0
 40
13.0
 40
13.0
 40
14.0
 40
14.0
 40
14.0
 40
15.0
 40
15.0
 40
15.0
 40
15.0
 10
53.56710068105267
 20
-102.7375705038295
 30
0.0
 10
53.51335719148278
 20
-102.8095729994712
 30
0.0
 10
53.28563637990776
 20
-103.1268662936627
 30
0.0
 10
53.23551024059738
 20
-103.1902560505913
 30
0.0
 10
53.30957979353025
 20
-103.2877522528239
 30
0.0
 10
53.35402152528997
 20
-103.3511420097525
 30
0.0
 10
53.41155461989364
 20
-103.4420925305631
 30
0.0
 10
53.41155461989364
 20
-103.4420925305631
 30
0.0
 10
53.25032415118395
 20
-103.5795518404246
 30
0.0
 10
53.25032415118395
 20
-103.5795518404246
 30
0.0
 10
53.13181286649135
 20
-103.3680229776302
 30
0.0
 10
52.98195121288299
 20
-103.1437472615405
 30
0.0
 10
52.72443032536056
 20
-102.9449652520415
 30
0.0
 10
52.72443032536056
 20
-102.9449652520415
 30
0.0
 10
52.85413817038022
 20
-102.7906249743023
 30
0.0
 10
52.85413817038022
 20
-102.7906249743023
 30
0.0
 10
52.95042858919295
 20
-102.8708956991087
 30
0.0
 10
53.04120685522928
 20
-102.9597791626281
 30
0.0
 10
53.12630071371495
 20
-103.054863798021
 30
0.0
 10
53.18555635606126
 20
-102.978727187797
 30
0.0
 10
53.36332328310014
 20
-102.7355034465383
 30
0.0
 10
53.47993976527585
 20
-102.5070936158663
 30
0.0
 10
53.47993976527585
 20
-102.5070936158663
 30
0.0
 10
52.89117294684665
 20
-102.5070936158663
 30
0.0
 10
52.89117294684665
 20
-102.5070936158663
 30
0.0
 10
52.78196341996424
 20
-102.5070936158663
 30
0.0
 10
52.56147730890824
 20
-102.5157063545794
 30
0.0
 10
52.37819822909295
 20
-102.5260416410352
 30
0.0
 10
52.37819822909295
 20
-102.5260416410352
 30
0.0
 10
52.37819822909295
 20
-102.3062445490762
 30
0.0
 10
52.37819822909295
 20
-102.3062445490762
 30
0.0
 10
52.53925644302839
 20
-102.3251925742451
 30
0.0
 10
52.71891817258416
 20
-102.3293266888274
 30
0.0
 10
52.88376599155337
 20
-102.3293266888274
 30
0.0
 10
52.88376599155337
 20
-102.3293266888274
 30
0.0
 10
53.32439370411682
 20
-102.3293266888274
 30
0.0
 10
53.32439370411682
 20
-102.3293266888274
 30
0.0
 10
53.62067191584831
 20
-102.3293266888274
 30
0.0
 10
53.65960149483163
 20
-102.3145127782408
 30
0.0
 10
53.73177624524762
 20
-102.2745496706119
 30
0.0
 10
53.73177624524762
 20
-102.2745496706119
 30
0.0
 10
53.87819280337073
 20
-102.4330240629334
 30
0.0
 10
53.87819280337073
 20
-102.4330240629334
 30
0.0
 10
53.74486760809156
 20
-102.5050265585751
 30
0.0
 10
53.61894936810568
 20
-102.6679795750275
 30
0.0
 10
53.56710068105267
 20
-102.7375705038295
 30
0.0
  0
HATCH
  5
7C
330
41
100
AcDbEntity
  8
_U+30EC_U+30A4_U+30E4_U+30FC 1
 62
   179
420
  2234388
100
AcDbHatch
 10
0.0
 20
0.0
 30
0.0
210
0.0
220
0.0
230
1.0
  2
SOLID
 70
     1
 71
     0
 91
        1
 92
        1
 93
        1
 72
     4
 94
        3
 73
     0
 74
     1
 95
       50
 96
       46
 40
0.0
 40
0.0
 40
0.0
 40
0.0
 40
1.0
 40
1.0
 40
1.0
 40
2.0
 40
2.0
 40
2.0
 40
3.0
 40
3.0
 40
3.0
 40
4.0
 40
4.0
 40
4.0
 40
5.0
 40
5.0
 40
5.0
 40
6.0
 40
6.0
 40
6.0
 40
7.0
 40
7.0
 40
7.0
 40
8.0
 40
8.0
 40
8.0
 40
9.0
 40
9.0
 40
9.0
 40
10.0
 40
10.0
 40
10.0
 40
11.0
 40
11.0
 40
11.0
 40
12.0
 40
12.0
 40
12.0
 40
13.0
 40
13.0
 40
13.0
 40
14.0
 40
14.0
 40
14.0
 40
15.0
 40
15.0
 40
15.0
 40
15.0
 10
53.56710068105267
 20
-102.7375705038295
 10
53.51335719148278
 20
-102.8095729994712
 10
53.28563637990776
 20
-103.1268662936627
 10
53.23551024059738
 20
-103.1902560505913
 10
53.30957979353025
 20
-103.2877522528239
 10
53.35402152528997
 20
-103.3511420097525
 10
53.41155461989364
 20
-103.4420925305631
 10
53.41155461989364
 20
-103.4420925305631
 10
53.25032415118395
 20
-103.5795518404246
 10
53.25032415118395
 20
-103.5795518404246
 10
53.13181286649135
 20
-103.3680229776302
 10
52.98195121288299
 20
-103.1437472615405
 10
52.72443032536056
 20
-102.9449652520415
 10
52.72443032536056
 20
-102.9449652520415
 10
52.85413817038022
 20
-102.7906249743023
 10
52.85413817038022
 20
-102.7906249743023
 10
52.95042858919295
 20
-102.8708956991087
 10
53.04120685522928
 20
-102.9597791626281
 10
53.12630071371495
 20
-103.054863798021
 10
53.18555635606126
 20
-102.978727187797
 10
53.36332328310014
 20
-102.7355034465383
 10
53.47993976527585
 20
-102.5070936158663
 10
53.47993976527585
 20
-102.5070936158663
 10
52.89117294684665
 20
-102.5070936158663
 10
52.89117294684665
 20
-102.5070936158663
 10
52.78196341996424
 20
-102.5070936158663
 10
52.56147730890824
 20
-102.5157063545794
 10
52.37819822909295
 20
-102.5260416410352
 10
52.37819822909295
 20
-102.5260416410352
 10
52.37819822909295
 20
-102.3062445490762
 10
52.37819822909295
 20
-102.3062445490762
 10
52.53925644302839
 20
-102.3251925742451
 10
52.71891817258416
 20
-102.3293266888274
 10
52.88376599155337
 20
-102.3293266888274
 10
52.88376599155337
 20
-102.3293266888274
 10
53.32439370411682
 20
-102.3293266888274
 10
53.32439370411682
 20
-102.3293266888274
 10
53.62067191584831
 20
-102.3293266888274
 10
53.65960149483163
 20
-102.3145127782408
 10
53.73177624524762
 20
-102.2745496706119
 10
53.73177624524762
 20
-102.2745496706119
 10
53.87819280337073
 20
-102.4330240629334
 10
53.87819280337073
 20
-102.4330240629334
 10
53.74486760809156
 20
-102.5050265585751
 10
53.61894936810568
 20
-102.6679795750275
 10
53.56710068105267
 20
-102.7375705038295
 97
        0
 97
        0
 75
     2
 76
     1
 98
        0
  0
SPLINE
  5
7D
330
41
100
AcDbEntity
  8
_U+30EC_U+30A4_U+30E4_U+30FC 1
370
     0
100
AcDbSpline
210
0.0
220
0.0
230
1.0
 70
    11
 71
     3
 72
    29
 73
    25
 74
     0
 42
0.0000000001
 43
0.0000000001
 12
1.0
 22
0.0
 32
0.0
 13
1.0
 23
0.0
 33
0.0
 40
0.0
 40
0.0
 40
0.0
 40
0.0
 40
1.0
 40
1.0
 40
1.0
 40
2.0
 40
2.0
 40
2.0
 40
3.0
 40
3.0
 40
3.0
 40
4.0
 40
4.0
 40
4.0
 40
5.0
 40
5.0
 40
5.0
 40
6.0
 40
6.0
 40
6.0
 40
7.0
 40
7.0
 40
7.0
 40
8.0
 40
8.0
 40
8.0
 40
8.0
 10
54.98940835213806
 20
-102.9807942450881
 30
0.0
 10
54.98940835213806
 20
-102.9807942450881
 30
0.0
 10
54.56531709790382
 20
-102.9807942450881
 30
0.0
 10
54.56531709790382
 20
-102.9807942450881
 30
0.0
 10
54.54120142950706
 20
-102.9807942450881
 30
0.0
 10
54.26352673339593
 20
-102.9807942450881
 30
0.0
 10
54.07835285106375
 20
-103.006287951679
 30
0.0
 10
54.07835285106375
 20
-103.006287951679
 30
0.0
 10
54.07835285106375
 20
-102.7758110637158
 30
0.0
 10
54.07835285106375
 20
-102.7758110637158
 30
0.0
 10
54.21719019911932
 20
-102.7988932034669
 30
0.0
 10
54.38393282060541
 20
-102.8013047703066
 30
0.0
 10
54.56531709790382
 20
-102.8013047703066
 30
0.0
 10
54.56531709790382
 20
-102.8013047703066
 30
0.0
 10
54.98940835213806
 20
-102.8013047703066
 30
0.0
 10
54.98940835213806
 20
-102.8013047703066
 30
0.0
 10
55.15236136859038
 20
-102.8013047703066
 30
0.0
 10
55.3153143850427
 20
-102.7988932034669
 30
0.0
 10
55.47637259897813
 20
-102.7758110637158
 30
0.0
 10
55.47637259897813
 20
-102.7758110637158
 30
0.0
 10
55.47637259897813
 20
-103.006287951679
 30
0.0
 10
55.47637259897813
 20
-103.006287951679
 30
0.0
 10
55.3153143850427
 20
-102.9832058119278
 30
0.0
 10
55.09861787902049
 20
-102.9807942450881
 30
0.0
 10
54.98940835213806
 20
-102.9807942450881
 30
0.0
  0
HATCH
  5
7E
330
41
100
AcDbEntity
  8
_U+30EC_U+30A4_U+30E4_U+30FC 1
 62
   179
420
  2234388
100
AcDbHatch
 10
0.0
 20
0.0
 30
0.0
210
0.0
220
0.0
230
1.0
  2
SOLID
 70
     1
 71
     0
 91
        1
 92
        1
 93
        1
 72
     4
 94
        3
 73
     0
 74
     1
 95
       29
 96
       25
 40
0.0
 40
0.0
 40
0.0
 40
0.0
 40
1.0
 40
1.0
 40
1.0
 40
2.0
 40
2.0
 40
2.0
 40
3.0
 40
3.0
 40
3.0
 40
4.0
 40
4.0
 40
4.0
 40
5.0
 40
5.0
 40
5.0
 40
6.0
 40
6.0
 40
6.0
 40
7.0
 40
7.0
 40
7.0
 40
8.0
 40
8.0
 40
8.0
 40
8.0
 10
54.98940835213806
 20
-102.9807942450881
 10
54.98940835213806
 20
-102.9807942450881
 10
54.56531709790382
 20
-102.9807942450881
 10
54.56531709790382
 20
-102.9807942450881
 10
54.54120142950706
 20
-102.9807942450881
 10
54.26352673339593
 20
-102.9807942450881
 10
54.07835285106375
 20
-103.006287951679
 10
54.07835285106375
 20
-103.006287951679
 10
54.07835285106375
 20
-102.7758110637158
 10
54.07835285106375
 20
-102.7758110637158
 10
54.21719019911932
 20
-102.7988932034669
 10
54.38393282060541
 20
-102.8013047703066
 10
54.56531709790382
 20
-102.8013047703066
 10
54.56531709790382
 20
-102.8013047703066
 10
54.98940835213806
 20
-102.8013047703066
 10
54.98940835213806
 20
-102.8013047703066
 10
55.15236136859038
 20
-102.8013047703066
 10
55.3153143850427
 20
-102.7988932034669
 10
55.47637259897813
 20
-102.7758110637158
 10
55.47637259897813
 20
-102.7758110637158
 10
55.47637259897813
 20
-103.006287951679
 10
55.47637259897813
 20
-103.006287951679
 10
55.3153143850427
 20
-102.9832058119278
 10
55.09861787902049
 20
-102.9807942450881
 10
54.98940835213806
 20
-102.9807942450881
 97
        0
 97
        0
 75
     2
 76
     1
 98
        0
  0
ENDBLK
  5
44
330
41
100
AcDbEntity
  8
0
100
AcDbBlockEnd
  0
BLOCK
  5
DF
330
DD
100
AcDbEntity
  8
0
100
AcDbBlockBegin
  2
block 3
 70
     0
 10
0.0
 20
0.0
 30
0.0
  3
block 3
  1

  0
SPLINE
  5
E1
330
DD
100
AcDbEntity
  8
_U+30EC_U+30A4_U+30E4_U+30FC 1
370
     0
100
AcDbSpline
210
0.0
220
0.0
230
1.0
 70
    11
 71
     3
 72
    29
 73
    25
 74
     0
 42
0.0000000001
 43
0.0000000001
 12
1.0
 22
0.0
 32
0.0
 13
1.0
 23
0.0
 33
0.0
 40
0.0
 40
0.0
 40
0.0
 40
0.0
 40
1.0
 40
1.0
 40
1.0
 40
2.0
 40
2.0
 40
2.0
 40
3.0
 40
3.0
 40
3.0
 40
4.0
 40
4.0
 40
4.0
 40
5.0
 40
5.0
 40
5.0
 40
6.0
 40
6.0
 40
6.0
 40
7.0
 40
7.0
 40
7.0
 40
8.0
 40
8.0
 40
8.0
 40
8.0
 10
68.65799694464106
 20
-91.00908743384495
 30
0.0
 10
68.86745875014425
 20
-91.1241536230523
 30
0.0
 10
68.88640677531312
 20
-91.30949976015874
 30
0.0
 10
68.88640677531312
 20
-91.43386770717626
 30
0.0
 10
68.88640677531312
 20
-91.60577797189022
 30
0.0
 10
68.83989798626224
 20
-91.75736217324122
 30
0.0
 10
68.65799694464106
 20
-91.8589924900561
 30
0.0
 10
68.46334904972444
 20
-91.96958005513261
 30
0.0
 10
68.22632648033925
 20
-91.99025062804411
 30
0.0
 10
68.06371797343546
 20
-91.99025062804411
 30
0.0
 10
67.91971298215202
 20
-91.99025062804411
 30
0.0
 10
67.66787650218026
 20
-91.97199162197228
 30
0.0
 10
67.46909449268134
 20
-91.8589924900561
 30
0.0
 10
67.26617836860012
 20
-91.74358179130022
 30
0.0
 10
67.24275171930043
 20
-91.57201603613478
 30
0.0
 10
67.24275171930043
 20
-91.43386770717626
 30
0.0
 10
67.24275171930043
 20
-91.26436900930197
 30
0.0
 10
67.28719345106015
 20
-91.1103732411113
 30
0.0
 10
67.46909449268134
 20
-91.00908743384495
 30
0.0
 10
67.6616753303068
 20
-90.90263398335074
 30
0.0
 10
67.89008516097887
 20
-90.87782929585694
 30
0.0
 10
68.06371797343546
 20
-90.87782929585694
 30
0.0
 10
68.23493921905238
 20
-90.87782929585694
 30
0.0
 10
68.4654161070156
 20
-90.90022241651106
 30
0.0
 10
68.65799694464106
 20
-91.00908743384495
 30
0.0
  0
SPLINE
  5
E2
330
DD
100
AcDbEntity
  8
_U+30EC_U+30A4_U+30E4_U+30FC 1
370
     0
100
AcDbSpline
210
0.0
220
0.0
230
1.0
 70
    11
 71
     3
 72
    17
 73
    13
 74
     0
 42
0.0000000001
 43
0.0000000001
 12
1.0
 22
0.0
 32
0.0
 13
1.0
 23
0.0
 33
0.0
 40
0.0
 40
0.0
 40
0.0
 40
0.0
 40
1.0
 40
1.0
 40
1.0
 40
2.0
 40
2.0
 40
2.0
 40
3.0
 40
3.0
 40
3.0
 40
4.0
 40
4.0
 40
4.0
 40
4.0
 10
67.43533255692589
 20
-91.43386770717626
 30
0.0
 10
67.43533255692589
 20
-91.70086260728313
 30
0.0
 10
67.71886391536195
 20
-91.75047198227072
 30
0.0
 10
68.06371797343546
 20
-91.75047198227072
 30
0.0
 10
68.38307832491812
 20
-91.75047198227072
 30
0.0
 10
68.6917588803965
 20
-91.71188691283592
 30
0.0
 10
68.6917588803965
 20
-91.43386770717626
 30
0.0
 10
68.6917588803965
 20
-91.16962888345759
 30
0.0
 10
68.41063908880012
 20
-91.1172634320818
 30
0.0
 10
68.06371797343546
 20
-91.1172634320818
 30
0.0
 10
67.74401311240428
 20
-91.1172634320818
 30
0.0
 10
67.43533255692589
 20
-91.15791555880774
 30
0.0
 10
67.43533255692589
 20
-91.43386770717626
 30
0.0
  0
HATCH
  5
E3
330
DD
100
AcDbEntity
  8
_U+30EC_U+30A4_U+30E4_U+30FC 1
 62
   179
420
  2234388
100
AcDbHatch
 10
0.0
 20
0.0
 30
0.0
210
0.0
220
0.0
230
1.0
  2
SOLID
 70
     1
 71
     0
 91
        2
 92
        1
 93
        1
 72
     4
 94
        3
 73
     0
 74
     1
 95
       29
 96
       25
 40
0.0
 40
0.0
 40
0.0
 40
0.0
 40
1.0
 40
1.0
 40
1.0
 40
2.0
 40
2.0
 40
2.0
 40
3.0
 40
3.0
 40
3.0
 40
4.0
 40
4.0
 40
4.0
 40
5.0
 40
5.0
 40
5.0
 40
6.0
 40
6.0
 40
6.0
 40
7.0
 40
7.0
 40
7.0
 40
8.0
 40
8.0
 40
8.0
 40
8.0
 10
68.65799694464106
 20
-91.00908743384495
 10
68.86745875014425
 20
-91.1241536230523
 10
68.88640677531312
 20
-91.30949976015874
 10
68.88640677531312
 20
-91.43386770717626
 10
68.88640677531312
 20
-91.60577797189022
 10
68.83989798626224
 20
-91.75736217324122
 10
68.65799694464106
 20
-91.8589924900561
 10
68.46334904972444
 20
-91.96958005513261
 10
68.22632648033925
 20
-91.99025062804411
 10
68.06371797343546
 20
-91.99025062804411
 10
67.91971298215202
 20
-91.99025062804411
 10
67.66787650218026
 20
-91.97199162197228
 10
67.46909449268134
 20
-91.8589924900561
 10
67.26617836860012
 20
-91.74358179130022
 10
67.24275171930043
 20
-91.57201603613478
 10
67.24275171930043
 20
-91.43386770717626
 10
67.24275171930043
 20
-91.26436900930197
 10
67.28719345106015
 20
-91.1103732411113
 10
67.46909449268134
 20
-91.00908743384495
 10
67.6616753303068
 20
-90.90263398335074
 10
67.89008516097887
 20
-90.87782929585694
 10
68.06371797343546
 20
-90.87782929585694
 10
68.23493921905238
 20
-90.87782929585694
 10
68.4654161070156
 20
-90.90022241651106
 10
68.65799694464106
 20
-91.00908743384495
 97
        0
 97
        0
 92
        1
 93
        1
 72
     4
 94
        3
 73
     0
 74
     1
 95
       17
 96
       13
 40
0.0
 40
0.0
 40
0.0
 40
0.0
 40
1.0
 40
1.0
 40
1.0
 40
2.0
 40
2.0
 40
2.0
 40
3.0
 40
3.0
 40
3.0
 40
4.0
 40
4.0
 40
4.0
 40
4.0
 10
67.43533255692589
 20
-91.43386770717626
 10
67.43533255692589
 20
-91.70086260728313
 10
67.71886391536195
 20
-91.75047198227072
 10
68.06371797343546
 20
-91.75047198227072
 10
68.38307832491812
 20
-91.75047198227072
 10
68.6917588803965
 20
-91.71188691283592
 10
68.6917588803965
 20
-91.43386770717626
 10
68.6917588803965
 20
-91.16962888345759
 10
68.41063908880012
 20
-91.1172634320818
 10
68.06371797343546
 20
-91.1172634320818
 10
67.74401311240428
 20
-91.1172634320818
 10
67.43533255692589
 20
-91.15791555880774
 10
67.43533255692589
 20
-91.43386770717626
 97
        0
 97
        0
 75
     2
 76
     1
 98
        0
  0
POLYLINE
  5
E4
330
DD
100
AcDbEntity
  8
_U+30EC_U+30A4_U+30E4_U+30FC 1
370
     0
100
AcDb2dPolyline
 66
     1
 10
0.0
 20
0.0
 30
0.0
  0
VERTEX
  5
E5
330
E4
100
AcDbEntity
  8
_U+30EC_U+30A4_U+30E4_U+30FC 1
370
     0
100
AcDbVertex
100
AcDb2dVertex
 10
68.83576387167994
 20
-90.64631887924814
 30
0.0
  0
VERTEX
  5
E6
330
E4
100
AcDbEntity
  8
_U+30EC_U+30A4_U+30E4_U+30FC 1
370
     0
100
AcDbVertex
100
AcDb2dVertex
 10
68.58392739170819
 20
-90.64631887924814
 30
0.0
  0
VERTEX
  5
E7
330
E4
100
AcDbEntity
  8
_U+30EC_U+30A4_U+30E4_U+30FC 1
370
     0
100
AcDbVertex
100
AcDb2dVertex
 10
68.58392739170819
 20
-90.37725692185013
 30
0.0
  0
VERTEX
  5
E8
330
E4
100
AcDbEntity
  8
_U+30EC_U+30A4_U+30E4_U+30FC 1
370
     0
100
AcDbVertex
100
AcDb2dVertex
 10
68.83576387167994
 20
-90.37725692185013
 30
0.0
  0
VERTEX
  5
E9
330
E4
100
AcDbEntity
  8
_U+30EC_U+30A4_U+30E4_U+30FC 1
370
     0
100
AcDbVertex
100
AcDb2dVertex
 10
68.83576387167994
 20
-90.64631887924814
 30
0.0
  0
SEQEND
  5
EA
330
E4
100
AcDbEntity
  8
_U+30EC_U+30A4_U+30E4_U+30FC 1
370
     0
  0
HATCH
  5
EB
330
DD
100
AcDbEntity
  8
_U+30EC_U+30A4_U+30E4_U+30FC 1
 62
   179
420
  2234388
100
AcDbHatch
 10
0.0
 20
0.0
 30
0.0
210
0.0
220
0.0
230
1.0
  2
SOLID
 70
     1
 71
     0
 91
        1
 92
        1
 93
        4
 72
     1
 10
68.83576387167994
 20
-90.64631887924814
 11
68.58392739170819
 21
-90.64631887924814
 72
     1
 10
68.58392739170819
 20
-90.64631887924814
 11
68.58392739170819
 21
-90.37725692185013
 72
     1
 10
68.58392739170819
 20
-90.37725692185013
 11
68.83576387167994
 21
-90.37725692185013
 72
     1
 10
68.83576387167994
 20
-90.37725692185013
 11
68.83576387167994
 21
-90.64631887924814
 97
        0
 75
     2
 76
     1
 98
        0
  0
SPLINE
  5
EC
330
DD
100
AcDbEntity
  8
_U+30EC_U+30A4_U+30E4_U+30FC 1
370
     0
100
AcDbSpline
210
0.0
220
0.0
230
1.0
 70
    11
 71
     3
 72
    53
 73
    49
 74
     0
 42
0.0000000001
 43
0.0000000001
 12
1.0
 22
0.0
 32
0.0
 13
1.0
 23
0.0
 33
0.0
 40
0.0
 40
0.0
 40
0.0
 40
0.0
 40
1.0
 40
1.0
 40
1.0
 40
2.0
 40
2.0
 40
2.0
 40
3.0
 40
3.0
 40
3.0
 40
4.0
 40
4.0
 40
4.0
 40
5.0
 40
5.0
 40
5.0
 40
6.0
 40
6.0
 40
6.0
 40
7.0
 40
7.0
 40
7.0
 40
8.0
 40
8.0
 40
8.0
 40
9.0
 40
9.0
 40
9.0
 40
10.0
 40
10.0
 40
10.0
 40
11.0
 40
11.0
 40
11.0
 40
12.0
 40
12.0
 40
12.0
 40
13.0
 40
13.0
 40
13.0
 40
14.0
 40
14.0
 40
14.0
 40
15.0
 40
15.0
 40
15.0
 40
16.0
 40
16.0
 40
16.0
 40
16.0
 10
68.88640677531312
 20
-89.61037866683353
 30
0.0
 10
68.88640677531312
 20
-89.69443899667361
 30
0.0
 10
68.8695258074354
 20
-89.80261499491046
 30
0.0
 10
68.80613605050681
 20
-89.91148001224435
 30
0.0
 10
68.69623750452733
 20
-90.0968261493508
 30
0.0
 10
68.56497936653932
 20
-90.11921927000492
 30
0.0
 10
68.457147877851
 20
-90.13954533336789
 30
0.0
 10
68.457147877851
 20
-90.13954533336789
 30
0.0
 10
68.457147877851
 20
-89.90217825443418
 30
0.0
 10
68.457147877851
 20
-89.90217825443418
 30
0.0
 10
68.65592988734991
 20
-89.84326712163642
 30
0.0
 10
68.68555770852306
 20
-89.70787486906609
 30
0.0
 10
68.68555770852306
 20
-89.60831160954237
 30
0.0
 10
68.68555770852306
 20
-89.45913897503105
 30
0.0
 10
68.58599444899934
 20
-89.29618595857873
 30
0.0
 10
68.35345050374498
 20
-89.29618595857873
 30
0.0
 10
68.09747990919091
 20
-89.29618595857873
 30
0.0
 10
68.02754447084034
 20
-89.48842228665568
 30
0.0
 10
68.02754447084034
 20
-89.61726885780402
 30
0.0
 10
68.02754447084034
 20
-89.651375303108
 30
0.0
 10
68.02754447084034
 20
-89.80261499491046
 30
0.0
 10
68.15673555153721
 20
-89.89769963030335
 30
0.0
 10
68.15673555153721
 20
-89.89769963030335
 30
0.0
 10
68.13778752636833
 20
-90.08545733424947
 30
0.0
 10
68.13778752636833
 20
-90.08545733424947
 30
0.0
 10
68.13778752636833
 20
-90.08545733424947
 30
0.0
 10
67.29132756564245
 20
-89.95661076310112
 30
0.0
 10
67.29132756564245
 20
-89.95661076310112
 30
0.0
 10
67.29132756564245
 20
-89.95661076310112
 30
0.0
 10
67.29132756564245
 20
-89.12462020341329
 30
0.0
 10
67.29132756564245
 20
-89.12462020341329
 30
0.0
 10
67.29132756564245
 20
-89.12462020341329
 30
0.0
 10
67.48597546055906
 20
-89.12462020341329
 30
0.0
 10
67.48597546055906
 20
-89.12462020341329
 30
0.0
 10
67.48597546055906
 20
-89.12462020341329
 30
0.0
 10
67.48597546055906
 20
-89.78263344109601
 30
0.0
 10
67.48597546055906
 20
-89.78263344109601
 30
0.0
 10
67.48597546055906
 20
-89.78263344109601
 30
0.0
 10
67.90903318614774
 20
-89.85256887944658
 30
0.0
 10
67.90903318614774
 20
-89.85256887944658
 30
0.0
 10
67.8752712503923
 20
-89.78676755567831
 30
0.0
 10
67.83496363321487
 20
-89.69857311125591
 30
0.0
 10
67.83496363321487
 20
-89.57213810694725
 30
0.0
 10
67.83496363321487
 20
-89.30100909225808
 30
0.0
 10
68.02134329896688
 20
-89.04762231931797
 30
0.0
 10
68.3345024785761
 20
-89.04762231931797
 30
0.0
 10
68.65179577276761
 20
-89.04762231931797
 30
0.0
 10
68.88640677531312
 20
-89.28722871031708
 30
0.0
 10
68.88640677531312
 20
-89.61037866683353
 30
0.0
  0
HATCH
  5
ED
330
DD
100
AcDbEntity
  8
_U+30EC_U+30A4_U+30E4_U+30FC 1
 62
   179
420
  2234388
100
AcDbHatch
 10
0.0
 20
0.0
 30
0.0
210
0.0
220
0.0
230
1.0
  2
SOLID
 70
     1
 71
     0
 91
        1
 92
        1
 93
        1
 72
     4
 94
        3
 73
     0
 74
     1
 95
       53
 96
       49
 40
0.0
 40
0.0
 40
0.0
 40
0.0
 40
1.0
 40
1.0
 40
1.0
 40
2.0
 40
2.0
 40
2.0
 40
3.0
 40
3.0
 40
3.0
 40
4.0
 40
4.0
 40
4.0
 40
5.0
 40
5.0
 40
5.0
 40
6.0
 40
6.0
 40
6.0
 40
7.0
 40
7.0
 40
7.0
 40
8.0
 40
8.0
 40
8.0
 40
9.0
 40
9.0
 40
9.0
 40
10.0
 40
10.0
 40
10.0
 40
11.0
 40
11.0
 40
11.0
 40
12.0
 40
12.0
 40
12.0
 40
13.0
 40
13.0
 40
13.0
 40
14.0
 40
14.0
 40
14.0
 40
15.0
 40
15.0
 40
15.0
 40
16.0
 40
16.0
 40
16.0
 40
16.0
 10
68.88640677531312
 20
-89.61037866683353
 10
68.88640677531312
 20
-89.69443899667361
 10
68.8695258074354
 20
-89.80261499491046
 10
68.80613605050681
 20
-89.91148001224435
 10
68.69623750452733
 20
-90.0968261493508
 10
68.56497936653932
 20
-90.11921927000492
 10
68.457147877851
 20
-90.13954533336789
 10
68.457147877851
 20
-90.13954533336789
 10
68.457147877851
 20
-89.90217825443418
 10
68.457147877851
 20
-89.90217825443418
 10
68.65592988734991
 20
-89.84326712163642
 10
68.68555770852306
 20
-89.70787486906609
 10
68.68555770852306
 20
-89.60831160954237
 10
68.68555770852306
 20
-89.45913897503105
 10
68.58599444899934
 20
-89.29618595857873
 10
68.35345050374498
 20
-89.29618595857873
 10
68.09747990919091
 20
-89.29618595857873
 10
68.02754447084034
 20
-89.48842228665568
 10
68.02754447084034
 20
-89.61726885780402
 10
68.02754447084034
 20
-89.651375303108
 10
68.02754447084034
 20
-89.80261499491046
 10
68.15673555153721
 20
-89.89769963030335
 10
68.15673555153721
 20
-89.89769963030335
 10
68.13778752636833
 20
-90.08545733424947
 10
68.13778752636833
 20
-90.08545733424947
 10
68.13778752636833
 20
-90.08545733424947
 10
67.29132756564245
 20
-89.95661076310112
 10
67.29132756564245
 20
-89.95661076310112
 10
67.29132756564245
 20
-89.95661076310112
 10
67.29132756564245
 20
-89.12462020341329
 10
67.29132756564245
 20
-89.12462020341329
 10
67.29132756564245
 20
-89.12462020341329
 10
67.48597546055906
 20
-89.12462020341329
 10
67.48597546055906
 20
-89.12462020341329
 10
67.48597546055906
 20
-89.12462020341329
 10
67.48597546055906
 20
-89.78263344109601
 10
67.48597546055906
 20
-89.78263344109601
 10
67.48597546055906
 20
-89.78263344109601
 10
67.90903318614774
 20
-89.85256887944658
 10
67.90903318614774
 20
-89.85256887944658
 10
67.8752712503923
 20
-89.78676755567831
 10
67.83496363321487
 20
-89.69857311125591
 10
67.83496363321487
 20
-89.57213810694725
 10
67.83496363321487
 20
-89.30100909225808
 10
68.02134329896688
 20
-89.04762231931797
 10
68.3345024785761
 20
-89.04762231931797
 10
68.65179577276761
 20
-89.04762231931797
 10
68.88640677531312
 20
-89.28722871031708
 10
68.88640677531312
 20
-89.61037866683353
 97
        0
 97
        0
 75
     2
 76
     1
 98
        0
  0
ENDBLK
  5
E0
330
DD
100
AcDbEntity
  8
0
100
AcDbBlockEnd
  0
BLOCK
  5
FC
330
FA
100
AcDbEntity
  8
0
100
AcDbBlockBegin
  2
block 4
 70
     0
 10
0.0
 20
0.0
 30
0.0
  3
block 4
  1

  0
SPLINE
  5
FE
330
FA
100
AcDbEntity
  8
_U+30EC_U+30A4_U+30E4_U+30FC 1
370
     0
100
AcDbSpline
210
0.0
220
0.0
230
1.0
 70
    11
 71
     3
 72
    26
 73
    22
 74
     0
 42
0.0000000001
 43
0.0000000001
 12
1.0
 22
0.0
 32
0.0
 13
1.0
 23
0.0
 33
0.0
 40
0.0
 40
0.0
 40
0.0
 40
0.0
 40
1.0
 40
1.0
 40
1.0
 40
2.0
 40
2.0
 40
2.0
 40
3.0
 40
3.0
 40
3.0
 40
4.0
 40
4.0
 40
4.0
 40
5.0
 40
5.0
 40
5.0
 40
6.0
 40
6.0
 40
6.0
 40
7.0
 40
7.0
 40
7.0
 40
7.0
 10
59.56483966609838
 20
-97.04455021445415
 30
0.0
 10
59.56483966609838
 20
-97.04455021445415
 30
0.0
 10
59.56483966609838
 20
-95.94039711143157
 30
0.0
 10
59.56483966609838
 20
-95.94039711143157
 30
0.0
 10
59.56483966609838
 20
-95.94039711143157
 30
0.0
 10
59.21206188840879
 20
-95.94039711143157
 30
0.0
 10
59.21206188840879
 20
-95.94039711143157
 30
0.0
 10
59.21206188840879
 20
-95.94039711143157
 30
0.0
 10
59.21206188840879
 20
-95.79225800556583
 30
0.0
 10
59.21206188840879
 20
-95.79225800556583
 30
0.0
 10
59.56707897816379
 20
-95.77744409497926
 30
0.0
 10
59.61686060792565
 20
-95.61449107852694
 30
0.0
 10
59.64838323161568
 20
-95.50011390841664
 30
0.0
 10
59.64838323161568
 20
-95.50011390841664
 30
0.0
 10
59.8044460570975
 20
-95.50011390841664
 30
0.0
 10
59.8044460570975
 20
-95.50011390841664
 30
0.0
 10
59.8044460570975
 20
-95.50011390841664
 30
0.0
 10
59.8044460570975
 20
-97.04455021445415
 30
0.0
 10
59.8044460570975
 20
-97.04455021445415
 30
0.0
 10
59.8044460570975
 20
-97.04455021445415
 30
0.0
 10
59.56483966609838
 20
-97.04455021445415
 30
0.0
 10
59.56483966609838
 20
-97.04455021445415
 30
0.0
  0
HATCH
  5
FF
330
FA
100
AcDbEntity
  8
_U+30EC_U+30A4_U+30E4_U+30FC 1
 62
   179
420
  2234388
100
AcDbHatch
 10
0.0
 20
0.0
 30
0.0
210
0.0
220
0.0
230
1.0
  2
SOLID
 70
     1
 71
     0
 91
        1
 92
        1
 93
        1
 72
     4
 94
        3
 73
     0
 74
     1
 95
       26
 96
       22
 40
0.0
 40
0.0
 40
0.0
 40
0.0
 40
1.0
 40
1.0
 40
1.0
 40
2.0
 40
2.0
 40
2.0
 40
3.0
 40
3.0
 40
3.0
 40
4.0
 40
4.0
 40
4.0
 40
5.0
 40
5.0
 40
5.0
 40
6.0
 40
6.0
 40
6.0
 40
7.0
 40
7.0
 40
7.0
 40
7.0
 10
59.56483966609838
 20
-97.04455021445415
 10
59.56483966609838
 20
-97.04455021445415
 10
59.56483966609838
 20
-95.94039711143157
 10
59.56483966609838
 20
-95.94039711143157
 10
59.56483966609838
 20
-95.94039711143157
 10
59.21206188840879
 20
-95.94039711143157
 10
59.21206188840879
 20
-95.94039711143157
 10
59.21206188840879
 20
-95.94039711143157
 10
59.21206188840879
 20
-95.79225800556583
 10
59.21206188840879
 20
-95.79225800556583
 10
59.56707897816379
 20
-95.77744409497926
 10
59.61686060792565
 20
-95.61449107852694
 10
59.64838323161568
 20
-95.50011390841664
 10
59.64838323161568
 20
-95.50011390841664
 10
59.8044460570975
 20
-95.50011390841664
 10
59.8044460570975
 20
-95.50011390841664
 10
59.8044460570975
 20
-95.50011390841664
 10
59.8044460570975
 20
-97.04455021445415
 10
59.8044460570975
 20
-97.04455021445415
 10
59.8044460570975
 20
-97.04455021445415
 10
59.56483966609838
 20
-97.04455021445415
 10
59.56483966609838
 20
-97.04455021445415
 97
        0
 97
        0
 75
     2
 76
     1
 98
        0
  0
SPLINE
  5
100
330
FA
100
AcDbEntity
  8
_U+30EC_U+30A4_U+30E4_U+30FC 1
370
     0
100
AcDbSpline
210
0.0
220
0.0
230
1.0
 70
    11
 71
     3
 72
    29
 73
    25
 74
     0
 42
0.0000000001
 43
0.0000000001
 12
1.0
 22
0.0
 32
0.0
 13
1.0
 23
0.0
 33
0.0
 40
0.0
 40
0.0
 40
0.0
 40
0.0
 40
1.0
 40
1.0
 40
1.0
 40
2.0
 40
2.0
 40
2.0
 40
3.0
 40
3.0
 40
3.0
 40
4.0
 40
4.0
 40
4.0
 40
5.0
 40
5.0
 40
5.0
 40
6.0
 40
6.0
 40
6.0
 40
7.0
 40
7.0
 40
7.0
 40
8.0
 40
8.0
 40
8.0
 40
8.0
 10
61.29961749769593
 20
-96.86678328741526
 30
0.0
 10
61.18437905371432
 20
-97.07624509291844
 30
0.0
 10
60.99903291660788
 20
-97.09519311808732
 30
0.0
 10
60.87466496959036
 20
-97.09519311808732
 30
0.0
 10
60.7027547048764
 20
-97.09519311808732
 30
0.0
 10
60.55134275829967
 20
-97.04868432903645
 30
0.0
 10
60.44954018671054
 20
-96.86678328741526
 30
0.0
 10
60.33878036685975
 20
-96.67213539249863
 30
0.0
 10
60.31845430349678
 20
-96.43545733266197
 30
0.0
 10
60.31845430349678
 20
-96.27250431620966
 30
0.0
 10
60.31845430349678
 20
-96.12849932492621
 30
0.0
 10
60.33654105479434
 20
-95.87666284495445
 30
0.0
 10
60.44954018671054
 20
-95.67788083545554
 30
0.0
 10
60.5649508854664
 20
-95.47496471137431
 30
0.0
 10
60.73668889540611
 20
-95.45153806207462
 30
0.0
 10
60.87466496959036
 20
-95.45153806207462
 30
0.0
 10
61.04416366746466
 20
-95.45153806207462
 30
0.0
 10
61.19798718088106
 20
-95.49597979383434
 30
0.0
 10
61.29961749769593
 20
-95.67788083545554
 30
0.0
 10
61.40589869341589
 20
-95.870461673081
 30
0.0
 10
61.43087563568395
 20
-96.09887150375306
 30
0.0
 10
61.43087563568395
 20
-96.27250431620966
 30
0.0
 10
61.43087563568395
 20
-96.44372556182657
 30
0.0
 10
61.4081380054813
 20
-96.67420244978979
 30
0.0
 10
61.29961749769593
 20
-96.86678328741526
 30
0.0
  0
SPLINE
  5
101
330
FA
100
AcDbEntity
  8
_U+30EC_U+30A4_U+30E4_U+30FC 1
370
     0
100
AcDbSpline
210
0.0
220
0.0
230
1.0
 70
    11
 71
     3
 72
    17
 73
    13
 74
     0
 42
0.0000000001
 43
0.0000000001
 12
1.0
 22
0.0
 32
0.0
 13
1.0
 23
0.0
 33
0.0
 40
0.0
 40
0.0
 40
0.0
 40
0.0
 40
1.0
 40
1.0
 40
1.0
 40
2.0
 40
2.0
 40
2.0
 40
3.0
 40
3.0
 40
3.0
 40
4.0
 40
4.0
 40
4.0
 40
4.0
 10
60.87466496959036
 20
-95.64411889970009
 30
0.0
 10
60.60784232425777
 20
-95.64411889970009
 30
0.0
 10
60.55806069449591
 20
-95.92765025813615
 30
0.0
 10
60.55806069449591
 20
-96.27250431620966
 30
0.0
 10
60.55806069449591
 20
-96.59186466769232
 30
0.0
 10
60.59647350915644
 20
-96.9005452231707
 30
0.0
 10
60.87466496959036
 20
-96.9005452231707
 30
0.0
 10
61.13907604808329
 20
-96.9005452231707
 30
0.0
 10
61.19109698991056
 20
-96.61942543157431
 30
0.0
 10
61.19109698991056
 20
-96.27250431620966
 30
0.0
 10
61.19109698991056
 20
-95.95279945517846
 30
0.0
 10
61.15044486318461
 20
-95.64411889970009
 30
0.0
 10
60.87466496959036
 20
-95.64411889970009
 30
0.0
  0
HATCH
  5
102
330
FA
100
AcDbEntity
  8
_U+30EC_U+30A4_U+30E4_U+30FC 1
 62
   179
420
  2234388
100
AcDbHatch
 10
0.0
 20
0.0
 30
0.0
210
0.0
220
0.0
230
1.0
  2
SOLID
 70
     1
 71
     0
 91
        2
 92
        1
 93
        1
 72
     4
 94
        3
 73
     0
 74
     1
 95
       29
 96
       25
 40
0.0
 40
0.0
 40
0.0
 40
0.0
 40
1.0
 40
1.0
 40
1.0
 40
2.0
 40
2.0
 40
2.0
 40
3.0
 40
3.0
 40
3.0
 40
4.0
 40
4.0
 40
4.0
 40
5.0
 40
5.0
 40
5.0
 40
6.0
 40
6.0
 40
6.0
 40
7.0
 40
7.0
 40
7.0
 40
8.0
 40
8.0
 40
8.0
 40
8.0
 10
61.29961749769593
 20
-96.86678328741526
 10
61.18437905371432
 20
-97.07624509291844
 10
60.99903291660788
 20
-97.09519311808732
 10
60.87466496959036
 20
-97.09519311808732
 10
60.7027547048764
 20
-97.09519311808732
 10
60.55134275829967
 20
-97.04868432903645
 10
60.44954018671054
 20
-96.86678328741526
 10
60.33878036685975
 20
-96.67213539249863
 10
60.31845430349678
 20
-96.43545733266197
 10
60.31845430349678
 20
-96.27250431620966
 10
60.31845430349678
 20
-96.12849932492621
 10
60.33654105479434
 20
-95.87666284495445
 10
60.44954018671054
 20
-95.67788083545554
 10
60.5649508854664
 20
-95.47496471137431
 10
60.73668889540611
 20
-95.45153806207462
 10
60.87466496959036
 20
-95.45153806207462
 10
61.04416366746466
 20
-95.45153806207462
 10
61.19798718088106
 20
-95.49597979383434
 10
61.29961749769593
 20
-95.67788083545554
 10
61.40589869341589
 20
-95.870461673081
 10
61.43087563568395
 20
-96.09887150375306
 10
61.43087563568395
 20
-96.27250431620966
 10
61.43087563568395
 20
-96.44372556182657
 10
61.4081380054813
 20
-96.67420244978979
 10
61.29961749769593
 20
-96.86678328741526
 97
        0
 97
        0
 92
        1
 93
        1
 72
     4
 94
        3
 73
     0
 74
     1
 95
       17
 96
       13
 40
0.0
 40
0.0
 40
0.0
 40
0.0
 40
1.0
 40
1.0
 40
1.0
 40
2.0
 40
2.0
 40
2.0
 40
3.0
 40
3.0
 40
3.0
 40
4.0
 40
4.0
 40
4.0
 40
4.0
 10
60.87466496959036
 20
-95.64411889970009
 10
60.60784232425777
 20
-95.64411889970009
 10
60.55806069449591
 20
-95.92765025813615
 10
60.55806069449591
 20
-96.27250431620966
 10
60.55806069449591
 20
-96.59186466769232
 10
60.59647350915644
 20
-96.9005452231707
 10
60.87466496959036
 20
-96.9005452231707
 10
61.13907604808329
 20
-96.9005452231707
 10
61.19109698991056
 20
-96.61942543157431
 10
61.19109698991056
 20
-96.27250431620966
 10
61.19109698991056
 20
-95.95279945517846
 10
61.15044486318461
 20
-95.64411889970009
 10
60.87466496959036
 20
-95.64411889970009
 97
        0
 97
        0
 75
     2
 76
     1
 98
        0
  0
ENDBLK
  5
FD
330
FA
100
AcDbEntity
  8
0
100
AcDbBlockEnd
  0
BLOCK
  5
10D
330
10B
100
AcDbEntity
  8
0
100
AcDbBlockBegin
  2
block 5
 70
     0
 10
0.0
 20
0.0
 30
0.0
  3
block 5
  1

  0
SPLINE
  5
10F
330
10B
100
AcDbEntity
  8
_U+30EC_U+30A4_U+30E4_U+30FC 1
370
     0
100
AcDbSpline
210
0.0
220
0.0
230
1.0
 70
    11
 71
     3
 72
    26
 73
    22
 74
     0
 42
0.0000000001
 43
0.0000000001
 12
1.0
 22
0.0
 32
0.0
 13
1.0
 23
0.0
 33
0.0
 40
0.0
 40
0.0
 40
0.0
 40
0.0
 40
1.0
 40
1.0
 40
1.0
 40
2.0
 40
2.0
 40
2.0
 40
3.0
 40
3.0
 40
3.0
 40
4.0
 40
4.0
 40
4.0
 40
5.0
 40
5.0
 40
5.0
 40
6.0
 40
6.0
 40
6.0
 40
7.0
 40
7.0
 40
7.0
 40
7.0
 10
48.56482203646991
 20
-97.04455021445415
 30
0.0
 10
48.56482203646991
 20
-97.04455021445415
 30
0.0
 10
48.56482203646991
 20
-95.94039711143157
 30
0.0
 10
48.56482203646991
 20
-95.94039711143157
 30
0.0
 10
48.56482203646991
 20
-95.94039711143157
 30
0.0
 10
48.21204425878032
 20
-95.94039711143157
 30
0.0
 10
48.21204425878032
 20
-95.94039711143157
 30
0.0
 10
48.21204425878032
 20
-95.94039711143157
 30
0.0
 10
48.21204425878032
 20
-95.79225800556583
 30
0.0
 10
48.21204425878032
 20
-95.79225800556583
 30
0.0
 10
48.56706134853532
 20
-95.77744409497926
 30
0.0
 10
48.61684297829718
 20
-95.61449107852694
 30
0.0
 10
48.64853785676148
 20
-95.50011390841664
 30
0.0
 10
48.64853785676148
 20
-95.50011390841664
 30
0.0
 10
48.80442842746903
 20
-95.50011390841664
 30
0.0
 10
48.80442842746903
 20
-95.50011390841664
 30
0.0
 10
48.80442842746903
 20
-95.50011390841664
 30
0.0
 10
48.80442842746903
 20
-97.04455021445415
 30
0.0
 10
48.80442842746903
 20
-97.04455021445415
 30
0.0
 10
48.80442842746903
 20
-97.04455021445415
 30
0.0
 10
48.56482203646991
 20
-97.04455021445415
 30
0.0
 10
48.56482203646991
 20
-97.04455021445415
 30
0.0
  0
HATCH
  5
110
330
10B
100
AcDbEntity
  8
_U+30EC_U+30A4_U+30E4_U+30FC 1
 62
   179
420
  2234388
100
AcDbHatch
 10
0.0
 20
0.0
 30
0.0
210
0.0
220
0.0
230
1.0
  2
SOLID
 70
     1
 71
     0
 91
        1
 92
        1
 93
        1
 72
     4
 94
        3
 73
     0
 74
     1
 95
       26
 96
       22
 40
0.0
 40
0.0
 40
0.0
 40
0.0
 40
1.0
 40
1.0
 40
1.0
 40
2.0
 40
2.0
 40
2.0
 40
3.0
 40
3.0
 40
3.0
 40
4.0
 40
4.0
 40
4.0
 40
5.0
 40
5.0
 40
5.0
 40
6.0
 40
6.0
 40
6.0
 40
7.0
 40
7.0
 40
7.0
 40
7.0
 10
48.56482203646991
 20
-97.04455021445415
 10
48.56482203646991
 20
-97.04455021445415
 10
48.56482203646991
 20
-95.94039711143157
 10
48.56482203646991
 20
-95.94039711143157
 10
48.56482203646991
 20
-95.94039711143157
 10
48.21204425878032
 20
-95.94039711143157
 10
48.21204425878032
 20
-95.94039711143157
 10
48.21204425878032
 20
-95.94039711143157
 10
48.21204425878032
 20
-95.79225800556583
 10
48.21204425878032
 20
-95.79225800556583
 10
48.56706134853532
 20
-95.77744409497926
 10
48.61684297829718
 20
-95.61449107852694
 10
48.64853785676148
 20
-95.50011390841664
 10
48.64853785676148
 20
-95.50011390841664
 10
48.80442842746903
 20
-95.50011390841664
 10
48.80442842746903
 20
-95.50011390841664
 10
48.80442842746903
 20
-95.50011390841664
 10
48.80442842746903
 20
-97.04455021445415
 10
48.80442842746903
 20
-97.04455021445415
 10
48.80442842746903
 20
-97.04455021445415
 10
48.56482203646991
 20
-97.04455021445415
 10
48.56482203646991
 20
-97.04455021445415
 97
        0
 97
        0
 75
     2
 76
     1
 98
        0
  0
SPLINE
  5
111
330
10B
100
AcDbEntity
  8
_U+30EC_U+30A4_U+30E4_U+30FC 1
370
     0
100
AcDbSpline
210
0.0
220
0.0
230
1.0
 70
    11
 71
     3
 72
    44
 73
    40
 74
     0
 42
0.0000000001
 43
0.0000000001
 12
1.0
 22
0.0
 32
0.0
 13
1.0
 23
0.0
 33
0.0
 40
0.0
 40
0.0
 40
0.0
 40
0.0
 40
1.0
 40
1.0
 40
1.0
 40
2.0
 40
2.0
 40
2.0
 40
3.0
 40
3.0
 40
3.0
 40
4.0
 40
4.0
 40
4.0
 40
5.0
 40
5.0
 40
5.0
 40
6.0
 40
6.0
 40
6.0
 40
7.0
 40
7.0
 40
7.0
 40
8.0
 40
8.0
 40
8.0
 40
9.0
 40
9.0
 40
9.0
 40
10.0
 40
10.0
 40
10.0
 40
11.0
 40
11.0
 40
11.0
 40
12.0
 40
12.0
 40
12.0
 40
13.0
 40
13.0
 40
13.0
 40
13.0
 10
49.97403834471135
 20
-96.46267358699545
 30
0.0
 10
49.74114988990846
 20
-96.62149248886547
 30
0.0
 10
49.64175888515901
 20
-96.69556204179834
 30
0.0
 10
49.58973794333173
 20
-96.83922252353325
 30
0.0
 10
49.58973794333173
 20
-96.83922252353325
 30
0.0
 10
50.42172850301957
 20
-96.83922252353325
 30
0.0
 10
50.42172850301957
 20
-96.83922252353325
 30
0.0
 10
50.42172850301957
 20
-96.83922252353325
 30
0.0
 10
50.42172850301957
 20
-97.04455021445415
 30
0.0
 10
50.42172850301957
 20
-97.04455021445415
 30
0.0
 10
50.42172850301957
 20
-97.04455021445415
 30
0.0
 10
49.32291529799913
 20
-97.04455021445415
 30
0.0
 10
49.32291529799913
 20
-97.04455021445415
 30
0.0
 10
49.35684948852884
 20
-96.68694930308521
 30
0.0
 10
49.42695718165368
 20
-96.60874563557005
 30
0.0
 10
49.83847383736677
 20
-96.3104003665474
 30
0.0
 10
50.11201441889561
 20
-96.11161835704848
 30
0.0
 10
50.18212211202044
 20
-96.04374997598907
 30
0.0
 10
50.18212211202044
 20
-95.9062906661276
 30
0.0
 10
50.18212211202044
 20
-95.787779381435
 30
0.0
 10
50.10512422792511
 20
-95.65686575299551
 30
0.0
 10
49.89497340332487
 20
-95.65686575299551
 30
0.0
 10
49.61695419766521
 20
-95.65686575299551
 30
0.0
 10
49.60782469462929
 20
-95.88734264095872
 30
0.0
 10
49.60334607049847
 20
-96.00378686836017
 30
0.0
 10
49.60334607049847
 20
-96.00378686836017
 30
0.0
 10
49.36373967949935
 20
-96.00378686836017
 30
0.0
 10
49.36373967949935
 20
-96.00378686836017
 30
0.0
 10
49.372696927761
 20
-95.87666284495445
 30
0.0
 10
49.38406574286232
 20
-95.76469724168383
 30
0.0
 10
49.46984862044504
 20
-95.64618595699123
 30
0.0
 10
49.58749863126632
 20
-95.48529999783007
 30
0.0
 10
49.7864528955395
 20
-95.45153806207462
 30
0.0
 10
49.91082084255702
 20
-95.45153806207462
 30
0.0
 10
50.20692679951424
 20
-95.45153806207462
 30
0.0
 10
50.4284464392158
 20
-95.63550616098696
 30
0.0
 10
50.4284464392158
 20
-95.90835772341875
 30
0.0
 10
50.4284464392158
 20
-96.13711206363934
 30
0.0
 10
50.30425074697255
 20
-96.23633081361453
 30
0.0
 10
49.97403834471135
 20
-96.46267358699545
 30
0.0
  0
HATCH
  5
112
330
10B
100
AcDbEntity
  8
_U+30EC_U+30A4_U+30E4_U+30FC 1
 62
   179
420
  2234388
100
AcDbHatch
 10
0.0
 20
0.0
 30
0.0
210
0.0
220
0.0
230
1.0
  2
SOLID
 70
     1
 71
     0
 91
        1
 92
        1
 93
        1
 72
     4
 94
        3
 73
     0
 74
     1
 95
       44
 96
       40
 40
0.0
 40
0.0
 40
0.0
 40
0.0
 40
1.0
 40
1.0
 40
1.0
 40
2.0
 40
2.0
 40
2.0
 40
3.0
 40
3.0
 40
3.0
 40
4.0
 40
4.0
 40
4.0
 40
5.0
 40
5.0
 40
5.0
 40
6.0
 40
6.0
 40
6.0
 40
7.0
 40
7.0
 40
7.0
 40
8.0
 40
8.0
 40
8.0
 40
9.0
 40
9.0
 40
9.0
 40
10.0
 40
10.0
 40
10.0
 40
11.0
 40
11.0
 40
11.0
 40
12.0
 40
12.0
 40
12.0
 40
13.0
 40
13.0
 40
13.0
 40
13.0
 10
49.97403834471135
 20
-96.46267358699545
 10
49.74114988990846
 20
-96.62149248886547
 10
49.64175888515901
 20
-96.69556204179834
 10
49.58973794333173
 20
-96.83922252353325
 10
49.58973794333173
 20
-96.83922252353325
 10
50.42172850301957
 20
-96.83922252353325
 10
50.42172850301957
 20
-96.83922252353325
 10
50.42172850301957
 20
-96.83922252353325
 10
50.42172850301957
 20
-97.04455021445415
 10
50.42172850301957
 20
-97.04455021445415
 10
50.42172850301957
 20
-97.04455021445415
 10
49.32291529799913
 20
-97.04455021445415
 10
49.32291529799913
 20
-97.04455021445415
 10
49.35684948852884
 20
-96.68694930308521
 10
49.42695718165368
 20
-96.60874563557005
 10
49.83847383736677
 20
-96.3104003665474
 10
50.11201441889561
 20
-96.11161835704848
 10
50.18212211202044
 20
-96.04374997598907
 10
50.18212211202044
 20
-95.9062906661276
 10
50.18212211202044
 20
-95.787779381435
 10
50.10512422792511
 20
-95.65686575299551
 10
49.89497340332487
 20
-95.65686575299551
 10
49.61695419766521
 20
-95.65686575299551
 10
49.60782469462929
 20
-95.88734264095872
 10
49.60334607049847
 20
-96.00378686836017
 10
49.60334607049847
 20
-96.00378686836017
 10
49.36373967949935
 20
-96.00378686836017
 10
49.36373967949935
 20
-96.00378686836017
 10
49.372696927761
 20
-95.87666284495445
 10
49.38406574286232
 20
-95.76469724168383
 10
49.46984862044504
 20
-95.64618595699123
 10
49.58749863126632
 20
-95.48529999783007
 10
49.7864528955395
 20
-95.45153806207462
 10
49.91082084255702
 20
-95.45153806207462
 10
50.20692679951424
 20
-95.45153806207462
 10
50.4284464392158
 20
-95.63550616098696
 10
50.4284464392158
 20
-95.90835772341875
 10
50.4284464392158
 20
-96.13711206363934
 10
50.30425074697255
 20
-96.23633081361453
 10
49.97403834471135
 20
-96.46267358699545
 97
        0
 97
        0
 75
     2
 76
     1
 98
        0
  0
ENDBLK
  5
10E
330
10B
100
AcDbEntity
  8
0
100
AcDbBlockEnd
  0
BLOCK
  5
121
330
11F
100
AcDbEntity
  8
0
100
AcDbBlockBegin
  2
block 6
 70
     0
 10
0.0
 20
0.0
 30
0.0
  3
block 6
  1

  0
SPLINE
  5
123
330
11F
100
AcDbEntity
  8
_U+30EC_U+30A4_U+30E4_U+30FC 1
370
     0
100
AcDbSpline
210
0.0
220
0.0
230
1.0
 70
    11
 71
     3
 72
    62
 73
    58
 74
     0
 42
0.0000000001
 43
0.0000000001
 12
1.0
 22
0.0
 32
0.0
 13
1.0
 23
0.0
 33
0.0
 40
0.0
 40
0.0
 40
0.0
 40
0.0
 40
1.0
 40
1.0
 40
1.0
 40
2.0
 40
2.0
 40
2.0
 40
3.0
 40
3.0
 40
3.0
 40
4.0
 40
4.0
 40
4.0
 40
5.0
 40
5.0
 40
5.0
 40
6.0
 40
6.0
 40
6.0
 40
7.0
 40
7.0
 40
7.0
 40
8.0
 40
8.0
 40
8.0
 40
9.0
 40
9.0
 40
9.0
 40
10.0
 40
10.0
 40
10.0
 40
11.0
 40
11.0
 40
11.0
 40
12.0
 40
12.0
 40
12.0
 40
13.0
 40
13.0
 40
13.0
 40
14.0
 40
14.0
 40
14.0
 40
15.0
 40
15.0
 40
15.0
 40
16.0
 40
16.0
 40
16.0
 40
17.0
 40
17.0
 40
17.0
 40
18.0
 40
18.0
 40
18.0
 40
19.0
 40
19.0
 40
19.0
 40
19.0
 10
60.6076700694835
 20
-77.59543590725045
 30
0.0
 10
60.50603975266863
 20
-77.59543590725045
 30
0.0
 10
60.27315129786574
 20
-77.57424857001617
 30
0.0
 10
60.13965384781231
 20
-77.38804115903841
 30
0.0
 10
60.06058890642583
 20
-77.27590330099353
 30
0.0
 10
60.056110282295
 20
-77.17651229624407
 30
0.0
 10
60.05145940338991
 20
-77.09193520208119
 30
0.0
 10
60.05145940338991
 20
-77.09193520208119
 30
0.0
 10
60.28675942503248
 20
-77.09193520208119
 30
0.0
 10
60.28675942503248
 20
-77.09193520208119
 30
0.0
 10
60.28899873709789
 20
-77.16600475501406
 30
0.0
 10
60.30019529742496
 20
-77.40078801233383
 30
0.0
 10
60.60319144535268
 20
-77.40078801233383
 30
0.0
 10
60.75012476779858
 20
-77.40078801233383
 30
0.0
 10
60.91290552947664
 20
-77.33102482875752
 30
0.0
 10
60.91290552947664
 20
-77.1024427433112
 30
0.0
 10
60.91290552947664
 20
-76.98617077068401
 30
0.0
 10
60.87225340275069
 20
-76.93742266956774
 30
0.0
 10
60.83831921222098
 20
-76.90572779110343
 30
0.0
 10
60.7592542708345
 20
-76.83165823817056
 30
0.0
 10
60.63488632381698
 20
-76.8190836396494
 30
0.0
 10
60.57614744579347
 20
-76.8190836396494
 30
0.0
 10
60.55564912765623
 20
-76.8190836396494
 30
0.0
 10
60.51723631299569
 20
-76.82115069694055
 30
0.0
 10
60.48795300137107
 20
-76.82528481152285
 30
0.0
 10
60.48795300137107
 20
-76.82528481152285
 30
0.0
 10
60.48795300137107
 20
-76.63063691660624
 30
0.0
 10
60.48795300137107
 20
-76.63063691660624
 30
0.0
 10
60.52860512809702
 20
-76.63701034325395
 30
0.0
 10
60.57373587895379
 20
-76.63924965531936
 30
0.0
 10
60.58062606992429
 20
-76.63924965531936
 30
0.0
 10
60.65073376304913
 20
-76.63924965531936
 30
0.0
 10
60.86312389971478
 20
-76.61806231808507
 30
0.0
 10
60.86312389971478
 20
-76.38103974869988
 30
0.0
 10
60.86312389971478
 20
-76.20344507643526
 30
0.0
 10
60.72308076823937
 20
-76.14832354867126
 30
0.0
 10
60.60543075741809
 20
-76.14832354867126
 30
0.0
 10
60.3229329276276
 20
-76.14832354867126
 30
0.0
 10
60.31380342459169
 20
-76.38103974869988
 30
0.0
 10
60.30932480046086
 20
-76.4530422443416
 30
0.0
 10
60.30932480046086
 20
-76.4530422443416
 30
0.0
 10
60.09228378489013
 20
-76.4530422443416
 30
0.0
 10
60.09228378489013
 20
-76.4530422443416
 30
0.0
 10
60.10124103315177
 20
-76.3281575330013
 30
0.0
 10
60.13069659955066
 20
-75.95160859646349
 30
0.0
 10
60.61903888458482
 20
-75.95160859646349
 30
0.0
 10
60.85864527558395
 20
-75.95160859646349
 30
0.0
 10
61.11633841788064
 20
-76.07856036509494
 30
0.0
 10
61.11633841788064
 20
-76.37466632205216
 30
0.0
 10
61.11633841788064
 20
-76.56087373302992
 30
0.0
 10
61.01470810106577
 20
-76.64338376990166
 30
0.0
 10
60.90842690534581
 20
-76.7047064695391
 30
0.0
 10
60.97405597433982
 20
-76.7322672334211
 30
0.0
 10
61.16835935970791
 20
-76.8127102130017
 30
0.0
 10
61.16835935970791
 20
-77.08986814479003
 30
0.0
 10
61.16835935970791
 20
-77.42834877621583
 30
0.0
 10
60.90394828121499
 20
-77.59543590725045
 30
0.0
 10
60.6076700694835
 20
-77.59543590725045
 30
0.0
  0
HATCH
  5
124
330
11F
100
AcDbEntity
  8
_U+30EC_U+30A4_U+30E4_U+30FC 1
 62
   179
420
  2234388
100
AcDbHatch
 10
0.0
 20
0.0
 30
0.0
210
0.0
220
0.0
230
1.0
  2
SOLID
 70
     1
 71
     0
 91
        1
 92
        1
 93
        1
 72
     4
 94
        3
 73
     0
 74
     1
 95
       62
 96
       58
 40
0.0
 40
0.0
 40
0.0
 40
0.0
 40
1.0
 40
1.0
 40
1.0
 40
2.0
 40
2.0
 40
2.0
 40
3.0
 40
3.0
 40
3.0
 40
4.0
 40
4.0
 40
4.0
 40
5.0
 40
5.0
 40
5.0
 40
6.0
 40
6.0
 40
6.0
 40
7.0
 40
7.0
 40
7.0
 40
8.0
 40
8.0
 40
8.0
 40
9.0
 40
9.0
 40
9.0
 40
10.0
 40
10.0
 40
10.0
 40
11.0
 40
11.0
 40
11.0
 40
12.0
 40
12.0
 40
12.0
 40
13.0
 40
13.0
 40
13.0
 40
14.0
 40
14.0
 40
14.0
 40
15.0
 40
15.0
 40
15.0
 40
16.0
 40
16.0
 40
16.0
 40
17.0
 40
17.0
 40
17.0
 40
18.0
 40
18.0
 40
18.0
 40
19.0
 40
19.0
 40
19.0
 40
19.0
 10
60.6076700694835
 20
-77.59543590725045
 10
60.50603975266863
 20
-77.59543590725045
 10
60.27315129786574
 20
-77.57424857001617
 10
60.13965384781231
 20
-77.38804115903841
 10
60.06058890642583
 20
-77.27590330099353
 10
60.056110282295
 20
-77.17651229624407
 10
60.05145940338991
 20
-77.09193520208119
 10
60.05145940338991
 20
-77.09193520208119
 10
60.28675942503248
 20
-77.09193520208119
 10
60.28675942503248
 20
-77.09193520208119
 10
60.28899873709789
 20
-77.16600475501406
 10
60.30019529742496
 20
-77.40078801233383
 10
60.60319144535268
 20
-77.40078801233383
 10
60.75012476779858
 20
-77.40078801233383
 10
60.91290552947664
 20
-77.33102482875752
 10
60.91290552947664
 20
-77.1024427433112
 10
60.91290552947664
 20
-76.98617077068401
 10
60.87225340275069
 20
-76.93742266956774
 10
60.83831921222098
 20
-76.90572779110343
 10
60.7592542708345
 20
-76.83165823817056
 10
60.63488632381698
 20
-76.8190836396494
 10
60.57614744579347
 20
-76.8190836396494
 10
60.55564912765623
 20
-76.8190836396494
 10
60.51723631299569
 20
-76.82115069694055
 10
60.48795300137107
 20
-76.82528481152285
 10
60.48795300137107
 20
-76.82528481152285
 10
60.48795300137107
 20
-76.63063691660624
 10
60.48795300137107
 20
-76.63063691660624
 10
60.52860512809702
 20
-76.63701034325395
 10
60.57373587895379
 20
-76.63924965531936
 10
60.58062606992429
 20
-76.63924965531936
 10
60.65073376304913
 20
-76.63924965531936
 10
60.86312389971478
 20
-76.61806231808507
 10
60.86312389971478
 20
-76.38103974869988
 10
60.86312389971478
 20
-76.20344507643526
 10
60.72308076823937
 20
-76.14832354867126
 10
60.60543075741809
 20
-76.14832354867126
 10
60.3229329276276
 20
-76.14832354867126
 10
60.31380342459169
 20
-76.38103974869988
 10
60.30932480046086
 20
-76.4530422443416
 10
60.30932480046086
 20
-76.4530422443416
 10
60.09228378489013
 20
-76.4530422443416
 10
60.09228378489013
 20
-76.4530422443416
 10
60.10124103315177
 20
-76.3281575330013
 10
60.13069659955066
 20
-75.95160859646349
 10
60.61903888458482
 20
-75.95160859646349
 10
60.85864527558395
 20
-75.95160859646349
 10
61.11633841788064
 20
-76.07856036509494
 10
61.11633841788064
 20
-76.37466632205216
 10
61.11633841788064
 20
-76.56087373302992
 10
61.01470810106577
 20
-76.64338376990166
 10
60.90842690534581
 20
-76.7047064695391
 10
60.97405597433982
 20
-76.7322672334211
 10
61.16835935970791
 20
-76.8127102130017
 10
61.16835935970791
 20
-77.08986814479003
 10
61.16835935970791
 20
-77.42834877621583
 10
60.90394828121499
 20
-77.59543590725045
 10
60.6076700694835
 20
-77.59543590725045
 97
        0
 97
        0
 75
     2
 76
     1
 98
        0
  0
SPLINE
  5
125
330
11F
100
AcDbEntity
  8
_U+30EC_U+30A4_U+30E4_U+30FC 1
370
     0
100
AcDbSpline
210
0.0
220
0.0
230
1.0
 70
    11
 71
     3
 72
    26
 73
    22
 74
     0
 42
0.0000000001
 43
0.0000000001
 12
1.0
 22
0.0
 32
0.0
 13
1.0
 23
0.0
 33
0.0
 40
0.0
 40
0.0
 40
0.0
 40
0.0
 40
1.0
 40
1.0
 40
1.0
 40
2.0
 40
2.0
 40
2.0
 40
3.0
 40
3.0
 40
3.0
 40
4.0
 40
4.0
 40
4.0
 40
5.0
 40
5.0
 40
5.0
 40
6.0
 40
6.0
 40
6.0
 40
7.0
 40
7.0
 40
7.0
 40
7.0
 10
61.77951929879124
 20
-77.54462074884302
 30
0.0
 10
61.77951929879124
 20
-77.54462074884302
 30
0.0
 10
61.52630478062537
 20
-77.54462074884302
 30
0.0
 10
61.52630478062537
 20
-77.54462074884302
 30
0.0
 10
61.55352103495885
 20
-77.23576793859037
 30
0.0
 10
61.75919323542826
 20
-76.71745332283453
 30
0.0
 10
62.19327526656974
 20
-76.21188556037411
 30
0.0
 10
62.19327526656974
 20
-76.21188556037411
 30
0.0
 10
61.29806720472757
 20
-76.21188556037411
 30
0.0
 10
61.29806720472757
 20
-76.21188556037411
 30
0.0
 10
61.29806720472757
 20
-76.21188556037411
 30
0.0
 10
61.29806720472757
 20
-76.00035669757978
 30
0.0
 10
61.29806720472757
 20
-76.00035669757978
 30
0.0
 10
61.29806720472757
 20
-76.00035669757978
 30
0.0
 10
62.4464897847356
 20
-76.00035669757978
 30
0.0
 10
62.4464897847356
 20
-76.00035669757978
 30
0.0
 10
62.4464897847356
 20
-76.00035669757978
 30
0.0
 10
62.4464897847356
 20
-76.21188556037411
 30
0.0
 10
62.4464897847356
 20
-76.21188556037411
 30
0.0
 10
62.10060219801652
 20
-76.50161809068362
 30
0.0
 10
61.81569280138635
 20
-77.09400225937233
 30
0.0
 10
61.77951929879124
 20
-77.54462074884302
 30
0.0
  0
HATCH
  5
126
330
11F
100
AcDbEntity
  8
_U+30EC_U+30A4_U+30E4_U+30FC 1
 62
   179
420
  2234388
100
AcDbHatch
 10
0.0
 20
0.0
 30
0.0
210
0.0
220
0.0
230
1.0
  2
SOLID
 70
     1
 71
     0
 91
        1
 92
        1
 93
        1
 72
     4
 94
        3
 73
     0
 74
     1
 95
       26
 96
       22
 40
0.0
 40
0.0
 40
0.0
 40
0.0
 40
1.0
 40
1.0
 40
1.0
 40
2.0
 40
2.0
 40
2.0
 40
3.0
 40
3.0
 40
3.0
 40
4.0
 40
4.0
 40
4.0
 40
5.0
 40
5.0
 40
5.0
 40
6.0
 40
6.0
 40
6.0
 40
7.0
 40
7.0
 40
7.0
 40
7.0
 10
61.77951929879124
 20
-77.54462074884302
 10
61.77951929879124
 20
-77.54462074884302
 10
61.52630478062537
 20
-77.54462074884302
 10
61.52630478062537
 20
-77.54462074884302
 10
61.55352103495885
 20
-77.23576793859037
 10
61.75919323542826
 20
-76.71745332283453
 10
62.19327526656974
 20
-76.21188556037411
 10
62.19327526656974
 20
-76.21188556037411
 10
61.29806720472757
 20
-76.21188556037411
 10
61.29806720472757
 20
-76.21188556037411
 10
61.29806720472757
 20
-76.21188556037411
 10
61.29806720472757
 20
-76.00035669757978
 10
61.29806720472757
 20
-76.00035669757978
 10
61.29806720472757
 20
-76.00035669757978
 10
62.4464897847356
 20
-76.00035669757978
 10
62.4464897847356
 20
-76.00035669757978
 10
62.4464897847356
 20
-76.00035669757978
 10
62.4464897847356
 20
-76.21188556037411
 10
62.4464897847356
 20
-76.21188556037411
 10
62.10060219801652
 20
-76.50161809068362
 10
61.81569280138635
 20
-77.09400225937233
 10
61.77951929879124
 20
-77.54462074884302
 97
        0
 97
        0
 75
     2
 76
     1
 98
        0
  0
ENDBLK
  5
122
330
11F
100
AcDbEntity
  8
0
100
AcDbBlockEnd
  0
BLOCK
  5
144
330
142
100
AcDbEntity
  8
0
100
AcDbBlockBegin
  2
block 7
 70
     0
 10
0.0
 20
0.0
 30
0.0
  3
block 7
  1

  0
SPLINE
  5
146
330
142
100
AcDbEntity
  8
_U+30EC_U+30A4_U+30E4_U+30FC 1
370
     0
100
AcDbSpline
210
0.0
220
0.0
230
1.0
 70
    11
 71
     3
 72
    26
 73
    22
 74
     0
 42
0.0000000001
 43
0.0000000001
 12
1.0
 22
0.0
 32
0.0
 13
1.0
 23
0.0
 33
0.0
 40
0.0
 40
0.0
 40
0.0
 40
0.0
 40
1.0
 40
1.0
 40
1.0
 40
2.0
 40
2.0
 40
2.0
 40
3.0
 40
3.0
 40
3.0
 40
4.0
 40
4.0
 40
4.0
 40
5.0
 40
5.0
 40
5.0
 40
6.0
 40
6.0
 40
6.0
 40
7.0
 40
7.0
 40
7.0
 40
7.0
 10
82.60029837344715
 20
-79.24839272107332
 30
0.0
 10
82.60029837344715
 20
-79.24839272107332
 30
0.0
 10
81.49614527042458
 20
-79.24839272107332
 30
0.0
 10
81.49614527042458
 20
-79.24839272107332
 30
0.0
 10
81.49614527042458
 20
-79.24839272107332
 30
0.0
 10
81.49614527042458
 20
-79.60117049876291
 30
0.0
 10
81.49614527042458
 20
-79.60117049876291
 30
0.0
 10
81.49614527042458
 20
-79.60117049876291
 30
0.0
 10
81.34800616455884
 20
-79.60117049876291
 30
0.0
 10
81.34800616455884
 20
-79.60117049876291
 30
0.0
 10
81.33319225397226
 20
-79.2461534090079
 30
0.0
 10
81.17023923751995
 20
-79.19637177924605
 30
0.0
 10
81.05586206740965
 20
-79.16484915555601
 30
0.0
 10
81.05586206740965
 20
-79.16484915555601
 30
0.0
 10
81.05586206740965
 20
-79.0087863300742
 30
0.0
 10
81.05586206740965
 20
-79.0087863300742
 30
0.0
 10
81.05586206740965
 20
-79.0087863300742
 30
0.0
 10
82.60029837344715
 20
-79.0087863300742
 30
0.0
 10
82.60029837344715
 20
-79.0087863300742
 30
0.0
 10
82.60029837344715
 20
-79.0087863300742
 30
0.0
 10
82.60029837344715
 20
-79.24839272107332
 30
0.0
 10
82.60029837344715
 20
-79.24839272107332
 30
0.0
  0
HATCH
  5
147
330
142
100
AcDbEntity
  8
_U+30EC_U+30A4_U+30E4_U+30FC 1
 62
   179
420
  2234388
100
AcDbHatch
 10
0.0
 20
0.0
 30
0.0
210
0.0
220
0.0
230
1.0
  2
SOLID
 70
     1
 71
     0
 91
        1
 92
        1
 93
        1
 72
     4
 94
        3
 73
     0
 74
     1
 95
       26
 96
       22
 40
0.0
 40
0.0
 40
0.0
 40
0.0
 40
1.0
 40
1.0
 40
1.0
 40
2.0
 40
2.0
 40
2.0
 40
3.0
 40
3.0
 40
3.0
 40
4.0
 40
4.0
 40
4.0
 40
5.0
 40
5.0
 40
5.0
 40
6.0
 40
6.0
 40
6.0
 40
7.0
 40
7.0
 40
7.0
 40
7.0
 10
82.60029837344715
 20
-79.24839272107332
 10
82.60029837344715
 20
-79.24839272107332
 10
81.49614527042458
 20
-79.24839272107332
 10
81.49614527042458
 20
-79.24839272107332
 10
81.49614527042458
 20
-79.24839272107332
 10
81.49614527042458
 20
-79.60117049876291
 10
81.49614527042458
 20
-79.60117049876291
 10
81.49614527042458
 20
-79.60117049876291
 10
81.34800616455884
 20
-79.60117049876291
 10
81.34800616455884
 20
-79.60117049876291
 10
81.33319225397226
 20
-79.2461534090079
 10
81.17023923751995
 20
-79.19637177924605
 10
81.05586206740965
 20
-79.16484915555601
 10
81.05586206740965
 20
-79.16484915555601
 10
81.05586206740965
 20
-79.0087863300742
 10
81.05586206740965
 20
-79.0087863300742
 10
81.05586206740965
 20
-79.0087863300742
 10
82.60029837344715
 20
-79.0087863300742
 10
82.60029837344715
 20
-79.0087863300742
 10
82.60029837344715
 20
-79.0087863300742
 10
82.60029837344715
 20
-79.24839272107332
 10
82.60029837344715
 20
-79.24839272107332
 97
        0
 97
        0
 75
     2
 76
     1
 98
        0
  0
ENDBLK
  5
145
330
142
100
AcDbEntity
  8
0
100
AcDbBlockEnd
  0
BLOCK
  5
152
330
150
100
AcDbEntity
  8
0
100
AcDbBlockBegin
  2
block 8
 70
     0
 10
0.0
 20
0.0
 30
0.0
  3
block 8
  1

  0
SPLINE
  5
154
330
150
100
AcDbEntity
  8
_U+30EC_U+30A4_U+30E4_U+30FC 1
370
     0
100
AcDbSpline
210
0.0
220
0.0
230
1.0
 70
    11
 71
     3
 72
    26
 73
    22
 74
     0
 42
0.0000000001
 43
0.0000000001
 12
1.0
 22
0.0
 32
0.0
 13
1.0
 23
0.0
 33
0.0
 40
0.0
 40
0.0
 40
0.0
 40
0.0
 40
1.0
 40
1.0
 40
1.0
 40
2.0
 40
2.0
 40
2.0
 40
3.0
 40
3.0
 40
3.0
 40
4.0
 40
4.0
 40
4.0
 40
5.0
 40
5.0
 40
5.0
 40
6.0
 40
6.0
 40
6.0
 40
7.0
 40
7.0
 40
7.0
 40
7.0
 10
82.60029837344715
 20
-89.0088649951089
 30
0.0
 10
82.60029837344715
 20
-89.0088649951089
 30
0.0
 10
81.49614527042458
 20
-89.0088649951089
 30
0.0
 10
81.49614527042458
 20
-89.0088649951089
 30
0.0
 10
81.49614527042458
 20
-89.0088649951089
 30
0.0
 10
81.49614527042458
 20
-89.36164277279848
 30
0.0
 10
81.49614527042458
 20
-89.36164277279848
 30
0.0
 10
81.49614527042458
 20
-89.36164277279848
 30
0.0
 10
81.34800616455884
 20
-89.36164277279848
 30
0.0
 10
81.34800616455884
 20
-89.36164277279848
 30
0.0
 10
81.33319225397226
 20
-89.00662568304348
 30
0.0
 10
81.17023923751995
 20
-88.95684405328163
 30
0.0
 10
81.05586206740965
 20
-88.92514917481732
 30
0.0
 10
81.05586206740965
 20
-88.92514917481732
 30
0.0
 10
81.05586206740965
 20
-88.76925860410978
 30
0.0
 10
81.05586206740965
 20
-88.76925860410978
 30
0.0
 10
81.05586206740965
 20
-88.76925860410978
 30
0.0
 10
82.60029837344715
 20
-88.76925860410978
 30
0.0
 10
82.60029837344715
 20
-88.76925860410978
 30
0.0
 10
82.60029837344715
 20
-88.76925860410978
 30
0.0
 10
82.60029837344715
 20
-89.0088649951089
 30
0.0
 10
82.60029837344715
 20
-89.0088649951089
 30
0.0
  0
HATCH
  5
155
330
150
100
AcDbEntity
  8
_U+30EC_U+30A4_U+30E4_U+30FC 1
 62
   179
420
  2234388
100
AcDbHatch
 10
0.0
 20
0.0
 30
0.0
210
0.0
220
0.0
230
1.0
  2
SOLID
 70
     1
 71
     0
 91
        1
 92
        1
 93
        1
 72
     4
 94
        3
 73
     0
 74
     1
 95
       26
 96
       22
 40
0.0
 40
0.0
 40
0.0
 40
0.0
 40
1.0
 40
1.0
 40
1.0
 40
2.0
 40
2.0
 40
2.0
 40
3.0
 40
3.0
 40
3.0
 40
4.0
 40
4.0
 40
4.0
 40
5.0
 40
5.0
 40
5.0
 40
6.0
 40
6.0
 40
6.0
 40
7.0
 40
7.0
 40
7.0
 40
7.0
 10
82.60029837344715
 20
-89.0088649951089
 10
82.60029837344715
 20
-89.0088649951089
 10
81.49614527042458
 20
-89.0088649951089
 10
81.49614527042458
 20
-89.0088649951089
 10
81.49614527042458
 20
-89.0088649951089
 10
81.49614527042458
 20
-89.36164277279848
 10
81.49614527042458
 20
-89.36164277279848
 10
81.49614527042458
 20
-89.36164277279848
 10
81.34800616455884
 20
-89.36164277279848
 10
81.34800616455884
 20
-89.36164277279848
 10
81.33319225397226
 20
-89.00662568304348
 10
81.17023923751995
 20
-88.95684405328163
 10
81.05586206740965
 20
-88.92514917481732
 10
81.05586206740965
 20
-88.92514917481732
 10
81.05586206740965
 20
-88.76925860410978
 10
81.05586206740965
 20
-88.76925860410978
 10
81.05586206740965
 20
-88.76925860410978
 10
82.60029837344715
 20
-88.76925860410978
 10
82.60029837344715
 20
-88.76925860410978
 10
82.60029837344715
 20
-88.76925860410978
 10
82.60029837344715
 20
-89.0088649951089
 10
82.60029837344715
 20
-89.0088649951089
 97
        0
 97
        0
 75
     2
 76
     1
 98
        0
  0
SPLINE
  5
156
330
150
100
AcDbEntity
  8
_U+30EC_U+30A4_U+30E4_U+30FC 1
370
     0
100
AcDbSpline
210
0.0
220
0.0
230
1.0
 70
    11
 71
     3
 72
    29
 73
    25
 74
     0
 42
0.0000000001
 43
0.0000000001
 12
1.0
 22
0.0
 32
0.0
 13
1.0
 23
0.0
 33
0.0
 40
0.0
 40
0.0
 40
0.0
 40
0.0
 40
1.0
 40
1.0
 40
1.0
 40
2.0
 40
2.0
 40
2.0
 40
3.0
 40
3.0
 40
3.0
 40
4.0
 40
4.0
 40
4.0
 40
5.0
 40
5.0
 40
5.0
 40
6.0
 40
6.0
 40
6.0
 40
7.0
 40
7.0
 40
7.0
 40
8.0
 40
8.0
 40
8.0
 40
8.0
 10
82.42253144640826
 20
-87.27408716351134
 30
0.0
 10
82.63199325191145
 20
-87.38932560749295
 30
0.0
 10
82.65094127708032
 20
-87.57467174459939
 30
0.0
 10
82.65094127708032
 20
-87.69903969161692
 30
0.0
 10
82.65094127708032
 20
-87.87094995633088
 30
0.0
 10
82.60443248802945
 20
-88.0223619029076
 30
0.0
 10
82.42253144640826
 20
-88.12416447449674
 30
0.0
 10
82.22788355149164
 20
-88.23492429434752
 30
0.0
 10
81.99120549165498
 20
-88.2552503577105
 30
0.0
 10
81.82825247520266
 20
-88.2552503577105
 30
0.0
 10
81.68424748391922
 20
-88.2552503577105
 30
0.0
 10
81.43241100394745
 20
-88.23716360641293
 30
0.0
 10
81.23362899444854
 20
-88.12416447449674
 30
0.0
 10
81.03071287036732
 20
-88.00875377574087
 30
0.0
 10
81.00728622106763
 20
-87.83701576580117
 30
0.0
 10
81.00728622106763
 20
-87.69903969161692
 30
0.0
 10
81.00728622106763
 20
-87.52954099374261
 30
0.0
 10
81.05172795282735
 20
-87.37571748032622
 30
0.0
 10
81.23362899444854
 20
-87.27408716351134
 30
0.0
 10
81.42620983207401
 20
-87.16780596779138
 30
0.0
 10
81.65461966274607
 20
-87.14300128029758
 30
0.0
 10
81.82825247520266
 20
-87.14300128029758
 30
0.0
 10
81.99947372081958
 20
-87.14300128029758
 30
0.0
 10
82.2299506087828
 20
-87.16556665572597
 30
0.0
 10
82.42253144640826
 20
-87.27408716351134
 30
0.0
  0
SPLINE
  5
157
330
150
100
AcDbEntity
  8
_U+30EC_U+30A4_U+30E4_U+30FC 1
370
     0
100
AcDbSpline
210
0.0
220
0.0
230
1.0
 70
    11
 71
     3
 72
    17
 73
    13
 74
     0
 42
0.0000000001
 43
0.0000000001
 12
1.0
 22
0.0
 32
0.0
 13
1.0
 23
0.0
 33
0.0
 40
0.0
 40
0.0
 40
0.0
 40
0.0
 40
1.0
 40
1.0
 40
1.0
 40
2.0
 40
2.0
 40
2.0
 40
3.0
 40
3.0
 40
3.0
 40
4.0
 40
4.0
 40
4.0
 40
4.0
 10
81.19986705869309
 20
-87.69903969161692
 30
0.0
 10
81.19986705869309
 20
-87.96586233694951
 30
0.0
 10
81.48339841712915
 20
-88.01564396671137
 30
0.0
 10
81.82825247520266
 20
-88.01564396671137
 30
0.0
 10
82.14761282668532
 20
-88.01564396671137
 30
0.0
 10
82.45629338216371
 20
-87.97723115205083
 30
0.0
 10
82.45629338216371
 20
-87.69903969161692
 30
0.0
 10
82.45629338216371
 20
-87.43462861312399
 30
0.0
 10
82.17517359056733
 20
-87.38260767129671
 30
0.0
 10
81.82825247520266
 20
-87.38260767129671
 30
0.0
 10
81.50854761417148
 20
-87.38260767129671
 30
0.0
 10
81.19986705869309
 20
-87.42325979802266
 30
0.0
 10
81.19986705869309
 20
-87.69903969161692
 30
0.0
  0
HATCH
  5
158
330
150
100
AcDbEntity
  8
_U+30EC_U+30A4_U+30E4_U+30FC 1
 62
   179
420
  2234388
100
AcDbHatch
 10
0.0
 20
0.0
 30
0.0
210
0.0
220
0.0
230
1.0
  2
SOLID
 70
     1
 71
     0
 91
        2
 92
        1
 93
        1
 72
     4
 94
        3
 73
     0
 74
     1
 95
       29
 96
       25
 40
0.0
 40
0.0
 40
0.0
 40
0.0
 40
1.0
 40
1.0
 40
1.0
 40
2.0
 40
2.0
 40
2.0
 40
3.0
 40
3.0
 40
3.0
 40
4.0
 40
4.0
 40
4.0
 40
5.0
 40
5.0
 40
5.0
 40
6.0
 40
6.0
 40
6.0
 40
7.0
 40
7.0
 40
7.0
 40
8.0
 40
8.0
 40
8.0
 40
8.0
 10
82.42253144640826
 20
-87.27408716351134
 10
82.63199325191145
 20
-87.38932560749295
 10
82.65094127708032
 20
-87.57467174459939
 10
82.65094127708032
 20
-87.69903969161692
 10
82.65094127708032
 20
-87.87094995633088
 10
82.60443248802945
 20
-88.0223619029076
 10
82.42253144640826
 20
-88.12416447449674
 10
82.22788355149164
 20
-88.23492429434752
 10
81.99120549165498
 20
-88.2552503577105
 10
81.82825247520266
 20
-88.2552503577105
 10
81.68424748391922
 20
-88.2552503577105
 10
81.43241100394745
 20
-88.23716360641293
 10
81.23362899444854
 20
-88.12416447449674
 10
81.03071287036732
 20
-88.00875377574087
 10
81.00728622106763
 20
-87.83701576580117
 10
81.00728622106763
 20
-87.69903969161692
 10
81.00728622106763
 20
-87.52954099374261
 10
81.05172795282735
 20
-87.37571748032622
 10
81.23362899444854
 20
-87.27408716351134
 10
81.42620983207401
 20
-87.16780596779138
 10
81.65461966274607
 20
-87.14300128029758
 10
81.82825247520266
 20
-87.14300128029758
 10
81.99947372081958
 20
-87.14300128029758
 10
82.2299506087828
 20
-87.16556665572597
 10
82.42253144640826
 20
-87.27408716351134
 97
        0
 97
        0
 92
        1
 93
        1
 72
     4
 94
        3
 73
     0
 74
     1
 95
       17
 96
       13
 40
0.0
 40
0.0
 40
0.0
 40
0.0
 40
1.0
 40
1.0
 40
1.0
 40
2.0
 40
2.0
 40
2.0
 40
3.0
 40
3.0
 40
3.0
 40
4.0
 40
4.0
 40
4.0
 40
4.0
 10
81.19986705869309
 20
-87.69903969161692
 10
81.19986705869309
 20
-87.96586233694951
 10
81.48339841712915
 20
-88.01564396671137
 10
81.82825247520266
 20
-88.01564396671137
 10
82.14761282668532
 20
-88.01564396671137
 10
82.45629338216371
 20
-87.97723115205083
 10
82.45629338216371
 20
-87.69903969161692
 10
82.45629338216371
 20
-87.43462861312399
 10
82.17517359056733
 20
-87.38260767129671
 10
81.82825247520266
 20
-87.38260767129671
 10
81.50854761417148
 20
-87.38260767129671
 10
81.19986705869309
 20
-87.42325979802266
 10
81.19986705869309
 20
-87.69903969161692
 97
        0
 97
        0
 75
     2
 76
     1
 98
        0
  0
ENDBLK
  5
153
330
150
100
AcDbEntity
  8
0
100
AcDbBlockEnd
  0
ENDSEC
  0
SECTION
  2
ENTITIES
  0
INSERT
  5
42
330
1F
100
AcDbEntity
  8
_U+30EC_U+30A4_U+30E4_U+30FC 1
100
AcDbBlockReference
  2
block 2
 10
0.0
 20
0.0
 30
0.0
  0
POLYLINE
  5
7F
330
1F
100
AcDbEntity
  8
_U+30EC_U+30A4_U+30E4_U+30FC 1
  6
AI-Linetype-1
 62
   154
420
    23468
370
    25
100
AcDb2dPolyline
 66
     1
 10
0.0
 20
0.0
 30
0.0
  0
VERTEX
  5
80
330
7F
100
AcDbEntity
  8
_U+30EC_U+30A4_U+30E4_U+30FC 1
  6
AI-Linetype-1
 62
   154
420
    23468
370
    25
100
AcDbVertex
100
AcDb2dVertex
 10
54.56928805226593
 20
-94.87517358739233
 30
0.0
  0
VERTEX
  5
81
330
7F
100
AcDbEntity
  8
_U+30EC_U+30A4_U+30E4_U+30FC 1
  6
AI-Linetype-1
 62
   154
420
    23468
370
    25
100
AcDbVertex
100
AcDb2dVertex
 10
54.56928805226593
 20
-83.94855220123503
 30
0.0
  0
SEQEND
  5
83
330
7F
100
AcDbEntity
  8
_U+30EC_U+30A4_U+30E4_U+30FC 1
  6
AI-Linetype-1
 62
   154
420
    23468
370
    25
  0
POLYLINE
  5
84
330
1F
100
AcDbEntity
  8
_U+30EC_U+30A4_U+30E4_U+30FC 1
  6
AI-Linetype-2
 62
   154
420
    23468
370
    25
100
AcDb2dPolyline
 66
     1
 10
0.0
 20
0.0
 30
0.0
  0
VERTEX
  5
85
330
84
100
AcDbEntity
  8
_U+30EC_U+30A4_U+30E4_U+30FC 1
  6
AI-Linetype-2
 62
   154
420
    23468
370
    25
100
AcDbVertex
100
AcDb2dVertex
 10
43.14602639925316
 20
-83.67705442352526
 30
0.0
  0
VERTEX
  5
86
330
84
100
AcDbEntity
  8
_U+30EC_U+30A4_U+30E4_U+30FC 1
  6
AI-Linetype-2
 62
   154
420
    23468
370
    25
100
AcDbVertex
100
AcDb2dVertex
 10
54.48003527676517
 20
-83.67705442352526
 30
0.0
  0
SEQEND
  5
88
330
84
100
AcDbEntity
  8
_U+30EC_U+30A4_U+30E4_U+30FC 1
  6
AI-Linetype-2
 62
   154
420
    23468
370
    25
  0
POLYLINE
  5
89
330
1F
100
AcDbEntity
  8
_U+30EC_U+30A4_U+30E4_U+30FC 1
  6
AI-Linetype-3
 62
   154
420
    23468
370
    25
100
AcDb2dPolyline
 66
     1
 10
0.0
 20
0.0
 30
0.0
  0
VERTEX
  5
8A
330
89
100
AcDbEntity
  8
_U+30EC_U+30A4_U+30E4_U+30FC 1
  6
AI-Linetype-3
 62
   154
420
    23468
370
    25
100
AcDbVertex
100
AcDb2dVertex
 10
55.03608359591253
 20
-95.06398025401188
 30
0.0
  0
VERTEX
  5
8B
330
89
100
AcDbEntity
  8
_U+30EC_U+30A4_U+30E4_U+30FC 1
  6
AI-Linetype-3
 62
   154
420
    23468
370
    25
100
AcDbVertex
100
AcDb2dVertex
 10
65.34587277733235
 20
-94.19854580978382
 30
0.0
  0
SEQEND
  5
8D
330
89
100
AcDbEntity
  8
_U+30EC_U+30A4_U+30E4_U+30FC 1
  6
AI-Linetype-3
 62
   154
420
    23468
370
    25
  0
POLYLINE
  5
8E
330
1F
100
AcDbEntity
  8
_U+30EC_U+30A4_U+30E4_U+30FC 1
 62
   179
420
  2234388
370
     9
100
AcDb2dPolyline
 66
     1
 10
0.0
 20
0.0
 30
0.0
  0
VERTEX
  5
8F
330
8E
100
AcDbEntity
  8
_U+30EC_U+30A4_U+30E4_U+30FC 1
 62
   179
420
  2234388
370
     9
100
AcDbVertex
100
AcDb2dVertex
 10
47.92747044393503
 20
-83.82038803460041
 30
0.0
  0
VERTEX
  5
90
330
8E
100
AcDbEntity
  8
_U+30EC_U+30A4_U+30E4_U+30FC 1
 62
   179
420
  2234388
370
     9
100
AcDbVertex
100
AcDb2dVertex
 10
43.87190193629009
 20
-101.4567016413027
 30
0.0
  0
SEQEND
  5
91
330
8E
100
AcDbEntity
  8
_U+30EC_U+30A4_U+30E4_U+30FC 1
 62
   179
420
  2234388
370
     9
  0
POLYLINE
  5
92
330
1F
100
AcDbEntity
  8
_U+30EC_U+30A4_U+30E4_U+30FC 1
 62
   179
420
  2234388
370
    25
100
AcDb2dPolyline
 66
     1
 10
0.0
 20
0.0
 30
0.0
  0
VERTEX
  5
93
330
92
100
AcDbEntity
  8
_U+30EC_U+30A4_U+30E4_U+30FC 1
 62
   179
420
  2234388
370
    25
100
AcDbVertex
100
AcDb2dVertex
 10
43.24628584113977
 20
-82.19619914611748
 30
0.0
  0
VERTEX
  5
94
330
92
100
AcDbEntity
  8
_U+30EC_U+30A4_U+30E4_U+30FC 1
 62
   179
420
  2234388
370
    25
100
AcDbVertex
100
AcDb2dVertex
 10
56.24600550948929
 20
-82.19619914611748
 30
0.0
  0
SEQEND
  5
95
330
92
100
AcDbEntity
  8
_U+30EC_U+30A4_U+30E4_U+30FC 1
 62
   179
420
  2234388
370
    25
  0
POLYLINE
  5
96
330
1F
100
AcDbEntity
  8
_U+30EC_U+30A4_U+30E4_U+30FC 1
 62
   179
420
  2234388
370
    25
100
AcDb2dPolyline
 66
     1
 10
0.0
 20
0.0
 30
0.0
  0
VERTEX
  5
97
330
96
100
AcDbEntity
  8
_U+30EC_U+30A4_U+30E4_U+30FC 1
 62
   179
420
  2234388
370
    25
100
AcDbVertex
100
AcDb2dVertex
 10
58.24622018068179
 20
-83.19579497920114
 30
0.0
  0
VERTEX
  5
98
330
96
100
AcDbEntity
  8
_U+30EC_U+30A4_U+30E4_U+30FC 1
 62
   179
420
  2234388
370
    25
100
AcDbVertex
100
AcDb2dVertex
 10
79.2461635338175
 20
-83.19579497920114
 30
0.0
  0
SEQEND
  5
99
330
96
100
AcDbEntity
  8
_U+30EC_U+30A4_U+30E4_U+30FC 1
 62
   179
420
  2234388
370
    25
  0
POLYLINE
  5
9A
330
1F
100
AcDbEntity
  8
_U+30EC_U+30A4_U+30E4_U+30FC 1
 62
   179
420
  2234388
370
    25
100
AcDb2dPolyline
 66
     1
 10
0.0
 20
0.0
 30
0.0
  0
VERTEX
  5
9B
330
9A
100
AcDbEntity
  8
_U+30EC_U+30A4_U+30E4_U+30FC 1
 62
   179
420
  2234388
370
    25
100
AcDbVertex
100
AcDb2dVertex
 10
43.24628584113977
 20
-82.18999025723042
 30
0.0
  0
VERTEX
  5
9C
330
9A
100
AcDbEntity
  8
_U+30EC_U+30A4_U+30E4_U+30FC 1
 62
   179
420
  2234388
370
    25
100
AcDbVertex
100
AcDb2dVertex
 10
43.24628584113977
 20
-83.18993886809152
 30
0.0
  0
SEQEND
  5
9D
330
9A
100
AcDbEntity
  8
_U+30EC_U+30A4_U+30E4_U+30FC 1
 62
   179
420
  2234388
370
    25
  0
POLYLINE
  5
9E
330
1F
100
AcDbEntity
  8
_U+30EC_U+30A4_U+30E4_U+30FC 1
 62
   179
420
  2234388
370
    25
100
AcDb2dPolyline
 66
     1
 10
0.0
 20
0.0
 30
0.0
  0
VERTEX
  5
9F
330
9E
100
AcDbEntity
  8
_U+30EC_U+30A4_U+30E4_U+30FC 1
 62
   179
420
  2234388
370
    25
100
AcDbVertex
100
AcDb2dVertex
 10
55.24623331277339
 20
-83.29534886806502
 30
0.0
  0
VERTEX
  5
A0
330
9E
100
AcDbEntity
  8
_U+30EC_U+30A4_U+30E4_U+30FC 1
 62
   179
420
  2234388
370
    25
100
AcDbVertex
100
AcDb2dVertex
 10
55.24623331277339
 20
-94.39560747640132
 30
0.0
  0
SEQEND
  5
A1
330
9E
100
AcDbEntity
  8
_U+30EC_U+30A4_U+30E4_U+30FC 1
 62
   179
420
  2234388
370
    25
  0
POLYLINE
  5
A2
330
1F
100
AcDbEntity
  8
_U+30EC_U+30A4_U+30E4_U+30FC 1
 62
   179
420
  2234388
370
    25
100
AcDb2dPolyline
 66
     1
 10
0.0
 20
0.0
 30
0.0
  0
VERTEX
  5
A3
330
A2
100
AcDbEntity
  8
_U+30EC_U+30A4_U+30E4_U+30FC 1
 62
   179
420
  2234388
370
    25
100
AcDbVertex
100
AcDb2dVertex
 10
65.24596611321451
 20
-93.19535164336814
 30
0.0
  0
VERTEX
  5
A4
330
A2
100
AcDbEntity
  8
_U+30EC_U+30A4_U+30E4_U+30FC 1
 62
   179
420
  2234388
370
    25
100
AcDbVertex
100
AcDb2dVertex
 10
65.24596611321451
 20
-93.69559053213186
 30
0.0
  0
SEQEND
  5
A5
330
A2
100
AcDbEntity
  8
_U+30EC_U+30A4_U+30E4_U+30FC 1
 62
   179
420
  2234388
370
    25
  0
POLYLINE
  5
A6
330
1F
100
AcDbEntity
  8
_U+30EC_U+30A4_U+30E4_U+30FC 1
 62
   179
420
  2234388
370
    25
100
AcDb2dPolyline
 66
     1
 10
0.0
 20
0.0
 30
0.0
  0
VERTEX
  5
A7
330
A6
100
AcDbEntity
  8
_U+30EC_U+30A4_U+30E4_U+30FC 1
 62
   179
420
  2234388
370
    25
100
AcDbVertex
100
AcDb2dVertex
 10
58.24622018068179
 20
-93.19535164336814
 30
0.0
  0
VERTEX
  5
A8
330
A6
100
AcDbEntity
  8
_U+30EC_U+30A4_U+30E4_U+30FC 1
 62
   179
420
  2234388
370
    25
100
AcDbVertex
100
AcDb2dVertex
 10
65.24596611321451
 20
-93.19535164336814
 30
0.0
  0
SEQEND
  5
A9
330
A6
100
AcDbEntity
  8
_U+30EC_U+30A4_U+30E4_U+30FC 1
 62
   179
420
  2234388
370
    25
  0
POLYLINE
  5
AA
330
1F
100
AcDbEntity
  8
_U+30EC_U+30A4_U+30E4_U+30FC 1
 62
   179
420
  2234388
370
    25
100
AcDb2dPolyline
 66
     1
 10
0.0
 20
0.0
 30
0.0
  0
VERTEX
  5
AB
330
AA
100
AcDbEntity
  8
_U+30EC_U+30A4_U+30E4_U+30FC 1
 62
   179
420
  2234388
370
    25
100
AcDbVertex
100
AcDb2dVertex
 10
57.24613048397399
 20
-82.19619914611748
 30
0.0
  0
VERTEX
  5
AC
330
AA
100
AcDbEntity
  8
_U+30EC_U+30A4_U+30E4_U+30FC 1
 62
   179
420
  2234388
370
    25
100
AcDbVertex
100
AcDb2dVertex
 10
79.2461635338175
 20
-82.19619914611748
 30
0.0
  0
SEQEND
  5
AD
330
AA
100
AcDbEntity
  8
_U+30EC_U+30A4_U+30E4_U+30FC 1
 62
   179
420
  2234388
370
    25
  0
POLYLINE
  5
AE
330
1F
100
AcDbEntity
  8
_U+30EC_U+30A4_U+30E4_U+30FC 1
 62
   179
420
  2234388
370
    25
100
AcDb2dPolyline
 66
     1
 10
0.0
 20
0.0
 30
0.0
  0
VERTEX
  5
AF
330
AE
100
AcDbEntity
  8
_U+30EC_U+30A4_U+30E4_U+30FC 1
 62
   179
420
  2234388
370
    25
100
AcDbVertex
100
AcDb2dVertex
 10
56.24600550948929
 20
-82.29540025720391
 30
0.0
  0
VERTEX
  5
B0
330
AE
100
AcDbEntity
  8
_U+30EC_U+30A4_U+30E4_U+30FC 1
 62
   179
420
  2234388
370
    25
100
AcDbVertex
100
AcDb2dVertex
 10
56.24600550948929
 20
-93.19535164336814
 30
0.0
  0
SEQEND
  5
B1
330
AE
100
AcDbEntity
  8
_U+30EC_U+30A4_U+30E4_U+30FC 1
 62
   179
420
  2234388
370
    25
  0
POLYLINE
  5
B2
330
1F
100
AcDbEntity
  8
_U+30EC_U+30A4_U+30E4_U+30FC 1
 62
   179
420
  2234388
370
    25
100
AcDb2dPolyline
 66
     1
 10
0.0
 20
0.0
 30
0.0
  0
VERTEX
  5
B3
330
B2
100
AcDbEntity
  8
_U+30EC_U+30A4_U+30E4_U+30FC 1
 62
   179
420
  2234388
370
    25
100
AcDbVertex
100
AcDb2dVertex
 10
57.24613048397399
 20
-82.19619914611748
 30
0.0
  0
VERTEX
  5
B4
330
B2
100
AcDbEntity
  8
_U+30EC_U+30A4_U+30E4_U+30FC 1
 62
   179
420
  2234388
370
    25
100
AcDbVertex
100
AcDb2dVertex
 10
57.24613048397399
 20
-93.19535164336814
 30
0.0
  0
SEQEND
  5
B5
330
B2
100
AcDbEntity
  8
_U+30EC_U+30A4_U+30E4_U+30FC 1
 62
   179
420
  2234388
370
    25
  0
POLYLINE
  5
B6
330
1F
100
AcDbEntity
  8
_U+30EC_U+30A4_U+30E4_U+30FC 1
 62
   179
420
  2234388
370
    25
100
AcDb2dPolyline
 66
     1
 10
0.0
 20
0.0
 30
0.0
  0
VERTEX
  5
B7
330
B6
100
AcDbEntity
  8
_U+30EC_U+30A4_U+30E4_U+30FC 1
 62
   179
420
  2234388
370
    25
100
AcDbVertex
100
AcDb2dVertex
 10
58.24622018068179
 20
-83.19579497920114
 30
0.0
  0
VERTEX
  5
B8
330
B6
100
AcDbEntity
  8
_U+30EC_U+30A4_U+30E4_U+30FC 1
 62
   179
420
  2234388
370
    25
100
AcDbVertex
100
AcDb2dVertex
 10
58.24622018068179
 20
-93.19535164336814
 30
0.0
  0
SEQEND
  5
B9
330
B6
100
AcDbEntity
  8
_U+30EC_U+30A4_U+30E4_U+30FC 1
 62
   179
420
  2234388
370
    25
  0
POLYLINE
  5
BA
330
1F
100
AcDbEntity
  8
_U+30EC_U+30A4_U+30E4_U+30FC 1
 62
   179
420
  2234388
370
    25
100
AcDb2dPolyline
 66
     1
 10
0.0
 20
0.0
 30
0.0
  0
VERTEX
  5
BB
330
BA
100
AcDbEntity
  8
_U+30EC_U+30A4_U+30E4_U+30FC 1
 62
   179
420
  2234388
370
    25
100
AcDbVertex
100
AcDb2dVertex
 10
56.24600550948929
 20
-93.19535164336814
 30
0.0
  0
VERTEX
  5
BC
330
BA
100
AcDbEntity
  8
_U+30EC_U+30A4_U+30E4_U+30FC 1
 62
   179
420
  2234388
370
    25
100
AcDbVertex
100
AcDb2dVertex
 10
57.24613048397399
 20
-93.19535164336814
 30
0.0
  0
SEQEND
  5
BD
330
BA
100
AcDbEntity
  8
_U+30EC_U+30A4_U+30E4_U+30FC 1
 62
   179
420
  2234388
370
    25
  0
POLYLINE
  5
BE
330
1F
100
AcDbEntity
  8
_U+30EC_U+30A4_U+30E4_U+30FC 1
 62
   179
420
  2234388
370
    25
100
AcDb2dPolyline
 66
     1
 10
0.0
 20
0.0
 30
0.0
  0
VERTEX
  5
BF
330
BE
100
AcDbEntity
  8
_U+30EC_U+30A4_U+30E4_U+30FC 1
 62
   179
420
  2234388
370
    25
100
AcDbVertex
100
AcDb2dVertex
 10
55.24623331277339
 20
-94.39560747640132
 30
0.0
  0
VERTEX
  5
C0
330
BE
100
AcDbEntity
  8
_U+30EC_U+30A4_U+30E4_U+30FC 1
 62
   179
420
  2234388
370
    25
100
AcDbVertex
100
AcDb2dVertex
 10
65.24596611321451
 20
-93.69559053213186
 30
0.0
  0
SEQEND
  5
C1
330
BE
100
AcDbEntity
  8
_U+30EC_U+30A4_U+30E4_U+30FC 1
 62
   179
420
  2234388
370
    25
  0
POLYLINE
  5
C2
330
1F
100
AcDbEntity
  8
_U+30EC_U+30A4_U+30E4_U+30FC 1
 62
   179
420
  2234388
370
    25
100
AcDb2dPolyline
 66
     1
 10
0.0
 20
0.0
 30
0.0
  0
VERTEX
  5
C3
330
C2
100
AcDbEntity
  8
_U+30EC_U+30A4_U+30E4_U+30FC 1
 62
   179
420
  2234388
370
    25
100
AcDbVertex
100
AcDb2dVertex
 10
79.2461635338175
 20
-82.30781803497868
 30
0.0
  0
VERTEX
  5
C4
330
C2
100
AcDbEntity
  8
_U+30EC_U+30A4_U+30E4_U+30FC 1
 62
   179
420
  2234388
370
    25
100
AcDbVertex
100
AcDb2dVertex
 10
79.2461635338175
 20
-83.10760053477874
 30
0.0
  0
SEQEND
  5
C5
330
C2
100
AcDbEntity
  8
_U+30EC_U+30A4_U+30E4_U+30FC 1
 62
   179
420
  2234388
370
    25
  0
POLYLINE
  5
C6
330
1F
100
AcDbEntity
  8
_U+30EC_U+30A4_U+30E4_U+30FC 1
 62
   179
420
  2234388
370
    25
100
AcDb2dPolyline
 66
     1
 10
0.0
 20
0.0
 30
0.0
  0
VERTEX
  5
C7
330
C6
100
AcDbEntity
  8
_U+30EC_U+30A4_U+30E4_U+30FC 1
 62
   179
420
  2234388
370
    25
100
AcDbVertex
100
AcDb2dVertex
 10
43.24628584113977
 20
-83.18993886809152
 30
0.0
  0
VERTEX
  5
C8
330
C6
100
AcDbEntity
  8
_U+30EC_U+30A4_U+30E4_U+30FC 1
 62
   179
420
  2234388
370
    25
100
AcDbVertex
100
AcDb2dVertex
 10
55.24623331277339
 20
-83.19579497920114
 30
0.0
  0
SEQEND
  5
C9
330
C6
100
AcDbEntity
  8
_U+30EC_U+30A4_U+30E4_U+30FC 1
 62
   179
420
  2234388
370
    25
  0
SPLINE
  5
CA
330
1F
100
AcDbEntity
  8
_U+30EC_U+30A4_U+30E4_U+30FC 1
 62
   179
420
  2234388
370
    25
100
AcDbSpline
210
0.0
220
0.0
230
1.0
 70
    11
 71
     3
 72
    17
 73
    13
 74
     0
 42
0.0000000001
 43
0.0000000001
 12
1.0
 22
0.0
 32
0.0
 13
1.0
 23
0.0
 33
0.0
 40
0.0
 40
0.0
 40
0.0
 40
0.0
 40
1.0
 40
1.0
 40
1.0
 40
2.0
 40
2.0
 40
2.0
 40
3.0
 40
3.0
 40
3.0
 40
4.0
 40
4.0
 40
4.0
 40
4.0
 10
43.34619250525761
 20
-78.8957866469427
 30
0.0
 10
43.34619250525761
 20
-78.83997720251226
 30
0.0
 10
43.30138972862284
 20
-78.79517442474554
 30
0.0
 10
43.24628584113977
 20
-78.79517442474554
 30
0.0
 10
43.19082917588793
 20
-78.79517442474554
 30
0.0
 10
43.14602639925316
 20
-78.83997720251226
 30
0.0
 10
43.14602639925316
 20
-78.8957866469427
 30
0.0
 10
43.14602639925316
 20
-78.95092581359546
 30
0.0
 10
43.19082917588793
 20
-78.99569331358434
 30
0.0
 10
43.24628584113977
 20
-78.99569331358434
 30
0.0
 10
43.30138972862284
 20
-78.99569331358434
 30
0.0
 10
43.34619250525761
 20
-78.95092581359546
 30
0.0
 10
43.34619250525761
 20
-78.8957866469427
 30
0.0
  0
SPLINE
  5
CB
330
1F
100
AcDbEntity
  8
_U+30EC_U+30A4_U+30E4_U+30FC 1
 62
   179
420
  2234388
370
     9
100
AcDbSpline
210
0.0
220
0.0
230
1.0
 70
    11
 71
     3
 72
    17
 73
    13
 74
     0
 42
0.0000000001
 43
0.0000000001
 12
1.0
 22
0.0
 32
0.0
 13
1.0
 23
0.0
 33
0.0
 40
0.0
 40
0.0
 40
0.0
 40
0.0
 40
1.0
 40
1.0
 40
1.0
 40
2.0
 40
2.0
 40
2.0
 40
3.0
 40
3.0
 40
3.0
 40
4.0
 40
4.0
 40
4.0
 40
4.0
 10
65.34587277733235
 20
-98.39607219762308
 30
0.0
 10
65.34587277733235
 20
-98.34093303097
 30
0.0
 10
65.30110527847445
 20
-98.29616553098145
 30
0.0
 10
65.24596611321451
 20
-98.29616553098145
 30
0.0
 10
65.19086387259105
 20
-98.29616553098145
 30
0.0
 10
65.14606109482433
 20
-98.34093303097
 30
0.0
 10
65.14606109482433
 20
-98.39607219762308
 30
0.0
 10
65.14606109482433
 20
-98.45117608649801
 30
0.0
 10
65.19086387259105
 20
-98.49597886426473
 30
0.0
 10
65.24596611321451
 20
-98.49597886426473
 30
0.0
 10
65.30110527847445
 20
-98.49597886426473
 30
0.0
 10
65.34587277733235
 20
-98.45117608649801
 30
0.0
 10
65.34587277733235
 20
-98.39607219762308
 30
0.0
  0
SPLINE
  5
CC
330
1F
100
AcDbEntity
  8
_U+30EC_U+30A4_U+30E4_U+30FC 1
 62
   179
420
  2234388
370
     9
100
AcDbSpline
210
0.0
220
0.0
230
1.0
 70
    11
 71
     3
 72
    17
 73
    13
 74
     0
 42
0.0000000001
 43
0.0000000001
 12
1.0
 22
0.0
 32
0.0
 13
1.0
 23
0.0
 33
0.0
 40
0.0
 40
0.0
 40
0.0
 40
0.0
 40
1.0
 40
1.0
 40
1.0
 40
2.0
 40
2.0
 40
2.0
 40
3.0
 40
3.0
 40
3.0
 40
4.0
 40
4.0
 40
4.0
 40
4.0
 10
55.34613997689122
 20
-98.39607219762308
 30
0.0
 10
55.34613997689122
 20
-98.34093303097
 30
0.0
 10
55.30137247803334
 20
-98.29616553098145
 30
0.0
 10
55.24623331277339
 20
-98.29616553098145
 30
0.0
 10
55.19077664752154
 20
-98.29616553098145
 30
0.0
 10
55.14597387088678
 20
-98.34093303097
 30
0.0
 10
55.14597387088678
 20
-98.39607219762308
 30
0.0
 10
55.14597387088678
 20
-98.45117608649801
 30
0.0
 10
55.19077664752154
 20
-98.49597886426473
 30
0.0
 10
55.24623331277339
 20
-98.49597886426473
 30
0.0
 10
55.30137247803334
 20
-98.49597886426473
 30
0.0
 10
55.34613997689122
 20
-98.45117608649801
 30
0.0
 10
55.34613997689122
 20
-98.39607219762308
 30
0.0
  0
SPLINE
  5
CD
330
1F
100
AcDbEntity
  8
_U+30EC_U+30A4_U+30E4_U+30FC 1
 62
   179
420
  2234388
370
     9
100
AcDbSpline
210
0.0
220
0.0
230
1.0
 70
    11
 71
     3
 72
    17
 73
    13
 74
     0
 42
0.0000000001
 43
0.0000000001
 12
1.0
 22
0.0
 32
0.0
 13
1.0
 23
0.0
 33
0.0
 40
0.0
 40
0.0
 40
0.0
 40
0.0
 40
1.0
 40
1.0
 40
1.0
 40
2.0
 40
2.0
 40
2.0
 40
3.0
 40
3.0
 40
3.0
 40
4.0
 40
4.0
 40
4.0
 40
4.0
 10
43.34619250525761
 20
-98.39607219762308
 30
0.0
 10
43.34619250525761
 20
-98.34093303097
 30
0.0
 10
43.30138972862284
 20
-98.29616553098145
 30
0.0
 10
43.24628584113977
 20
-98.29616553098145
 30
0.0
 10
43.19082917588793
 20
-98.29616553098145
 30
0.0
 10
43.14602639925316
 20
-98.34093303097
 30
0.0
 10
43.14602639925316
 20
-98.39607219762308
 30
0.0
 10
43.14602639925316
 20
-98.45117608649801
 30
0.0
 10
43.19082917588793
 20
-98.49597886426473
 30
0.0
 10
43.24628584113977
 20
-98.49597886426473
 30
0.0
 10
43.30138972862284
 20
-98.49597886426473
 30
0.0
 10
43.34619250525761
 20
-98.45117608649801
 30
0.0
 10
43.34619250525761
 20
-98.39607219762308
 30
0.0
  0
SPLINE
  5
CE
330
1F
100
AcDbEntity
  8
_U+30EC_U+30A4_U+30E4_U+30FC 1
 62
   179
420
  2234388
370
     9
100
AcDbSpline
210
0.0
220
0.0
230
1.0
 70
    11
 71
     3
 72
    17
 73
    13
 74
     0
 42
0.0000000001
 43
0.0000000001
 12
1.0
 22
0.0
 32
0.0
 13
1.0
 23
0.0
 33
0.0
 40
0.0
 40
0.0
 40
0.0
 40
0.0
 40
1.0
 40
1.0
 40
1.0
 40
2.0
 40
2.0
 40
2.0
 40
3.0
 40
3.0
 40
3.0
 40
4.0
 40
4.0
 40
4.0
 40
4.0
 10
69.34633739749421
 20
-93.19535164336814
 30
0.0
 10
69.34633739749421
 20
-93.14021247671506
 30
0.0
 10
69.30153462085944
 20
-93.09544497672587
 30
0.0
 10
69.24643073337637
 20
-93.09544497672587
 30
0.0
 10
69.19062129035575
 20
-93.09544497672587
 30
0.0
 10
69.14581851372098
 20
-93.14021247671506
 30
0.0
 10
69.14581851372098
 20
-93.19535164336814
 30
0.0
 10
69.14581851372098
 20
-93.25045553224307
 30
0.0
 10
69.19062129035575
 20
-93.29525831000979
 30
0.0
 10
69.24643073337637
 20
-93.29525831000979
 30
0.0
 10
69.30153462085944
 20
-93.29525831000979
 30
0.0
 10
69.34633739749421
 20
-93.25045553224307
 30
0.0
 10
69.34633739749421
 20
-93.19535164336814
 30
0.0
  0
SPLINE
  5
CF
330
1F
100
AcDbEntity
  8
_U+30EC_U+30A4_U+30E4_U+30FC 1
 62
   179
420
  2234388
370
     9
100
AcDbSpline
210
0.0
220
0.0
230
1.0
 70
    11
 71
     3
 72
    17
 73
    13
 74
     0
 42
0.0000000001
 43
0.0000000001
 12
1.0
 22
0.0
 32
0.0
 13
1.0
 23
0.0
 33
0.0
 40
0.0
 40
0.0
 40
0.0
 40
0.0
 40
1.0
 40
1.0
 40
1.0
 40
2.0
 40
2.0
 40
2.0
 40
3.0
 40
3.0
 40
3.0
 40
4.0
 40
4.0
 40
4.0
 40
4.0
 10
69.34633739749421
 20
-93.69559053213186
 30
0.0
 10
69.34633739749421
 20
-93.64045136547878
 30
0.0
 10
69.30153462085944
 20
-93.59564858771206
 30
0.0
 10
69.24643073337637
 20
-93.59564858771206
 30
0.0
 10
69.19062129035575
 20
-93.59564858771206
 30
0.0
 10
69.14581851372098
 20
-93.64045136547878
 30
0.0
 10
69.14581851372098
 20
-93.69559053213186
 30
0.0
 10
69.14581851372098
 20
-93.7513999765623
 30
0.0
 10
69.19062129035575
 20
-93.79616747655086
 30
0.0
 10
69.24643073337637
 20
-93.79616747655086
 30
0.0
 10
69.30153462085944
 20
-93.79616747655086
 30
0.0
 10
69.34633739749421
 20
-93.7513999765623
 30
0.0
 10
69.34633739749421
 20
-93.69559053213186
 30
0.0
  0
SPLINE
  5
D0
330
1F
100
AcDbEntity
  8
_U+30EC_U+30A4_U+30E4_U+30FC 1
 62
   179
420
  2234388
370
    25
100
AcDbSpline
210
0.0
220
0.0
230
1.0
 70
    11
 71
     3
 72
    17
 73
    13
 74
     0
 42
0.0000000001
 43
0.0000000001
 12
1.0
 22
0.0
 32
0.0
 13
1.0
 23
0.0
 33
0.0
 40
0.0
 40
0.0
 40
0.0
 40
0.0
 40
1.0
 40
1.0
 40
1.0
 40
2.0
 40
2.0
 40
2.0
 40
3.0
 40
3.0
 40
3.0
 40
4.0
 40
4.0
 40
4.0
 40
4.0
 10
79.34607220238559
 20
-78.8957866469427
 30
0.0
 10
79.34607220238559
 20
-78.83997720251226
 30
0.0
 10
79.30126942461887
 20
-78.79517442474554
 30
0.0
 10
79.2461635338175
 20
-78.79517442474554
 30
0.0
 10
79.19102436855754
 20
-78.79517442474554
 30
0.0
 10
79.14625686969966
 20
-78.83997720251226
 30
0.0
 10
79.14625686969966
 20
-78.8957866469427
 30
0.0
 10
79.14625686969966
 20
-78.95092581359546
 30
0.0
 10
79.19102436855754
 20
-78.99569331358434
 30
0.0
 10
79.2461635338175
 20
-78.99569331358434
 30
0.0
 10
79.30126942461887
 20
-78.99569331358434
 30
0.0
 10
79.34607220238559
 20
-78.95092581359546
 30
0.0
 10
79.34607220238559
 20
-78.8957866469427
 30
0.0
  0
POLYLINE
  5
D1
330
1F
100
AcDbEntity
  8
_U+30EC_U+30A4_U+30E4_U+30FC 1
 62
   179
420
  2234388
370
     9
100
AcDb2dPolyline
 66
     1
 10
0.0
 20
0.0
 30
0.0
  0
VERTEX
  5
D2
330
D1
100
AcDbEntity
  8
_U+30EC_U+30A4_U+30E4_U+30FC 1
 62
   179
420
  2234388
370
     9
100
AcDbVertex
100
AcDb2dVertex
 10
69.24643073337637
 20
-93.39583525442879
 30
0.0
  0
VERTEX
  5
D3
330
D1
100
AcDbEntity
  8
_U+30EC_U+30A4_U+30E4_U+30FC 1
 62
   179
420
  2234388
370
     9
100
AcDbVertex
100
AcDb2dVertex
 10
69.24643073337637
 20
-88.13778831129883
 30
0.0
  0
SEQEND
  5
D4
330
D1
100
AcDbEntity
  8
_U+30EC_U+30A4_U+30E4_U+30FC 1
 62
   179
420
  2234388
370
     9
  0
POLYLINE
  5
D5
330
1F
100
AcDbEntity
  8
_U+30EC_U+30A4_U+30E4_U+30FC 1
 62
   179
420
  2234388
370
     9
100
AcDb2dPolyline
 66
     1
 10
0.0
 20
0.0
 30
0.0
  0
VERTEX
  5
D6
330
D5
100
AcDbEntity
  8
_U+30EC_U+30A4_U+30E4_U+30FC 1
 62
   179
420
  2234388
370
     9
100
AcDbVertex
100
AcDb2dVertex
 10
69.24643073337637
 20
-93.19602192114552
 30
0.0
  0
VERTEX
  5
D7
330
D5
100
AcDbEntity
  8
_U+30EC_U+30A4_U+30E4_U+30FC 1
 62
   179
420
  2234388
370
     9
100
AcDbVertex
100
AcDb2dVertex
 10
69.24643073337637
 20
-94.69603303188175
 30
0.0
  0
SEQEND
  5
D8
330
D5
100
AcDbEntity
  8
_U+30EC_U+30A4_U+30E4_U+30FC 1
 62
   179
420
  2234388
370
     9
  0
POLYLINE
  5
D9
330
1F
100
AcDbEntity
  8
_U+30EC_U+30A4_U+30E4_U+30FC 1
 62
   179
420
  2234388
370
     9
100
AcDb2dPolyline
 66
     1
 10
0.0
 20
0.0
 30
0.0
  0
VERTEX
  5
DA
330
D9
100
AcDbEntity
  8
_U+30EC_U+30A4_U+30E4_U+30FC 1
 62
   179
420
  2234388
370
     9
100
AcDbVertex
100
AcDb2dVertex
 10
67.78638938173624
 20
-93.69559053213186
 30
0.0
  0
VERTEX
  5
DB
330
D9
100
AcDbEntity
  8
_U+30EC_U+30A4_U+30E4_U+30FC 1
 62
   179
420
  2234388
370
     9
100
AcDbVertex
100
AcDb2dVertex
 10
70.24616942688276
 20
-93.69559053213186
 30
0.0
  0
SEQEND
  5
DC
330
D9
100
AcDbEntity
  8
_U+30EC_U+30A4_U+30E4_U+30FC 1
 62
   179
420
  2234388
370
     9
  0
INSERT
  5
DE
330
1F
100
AcDbEntity
  8
_U+30EC_U+30A4_U+30E4_U+30FC 1
100
AcDbBlockReference
  2
block 3
 10
0.0
 20
0.0
 30
0.0
  0
POLYLINE
  5
EE
330
1F
100
AcDbEntity
  8
_U+30EC_U+30A4_U+30E4_U+30FC 1
 62
   179
420
  2234388
370
     9
100
AcDb2dPolyline
 66
     1
 10
0.0
 20
0.0
 30
0.0
  0
VERTEX
  5
EF
330
EE
100
AcDbEntity
  8
_U+30EC_U+30A4_U+30E4_U+30FC 1
 62
   179
420
  2234388
370
     9
100
AcDbVertex
100
AcDb2dVertex
 10
55.24623331277339
 20
-98.39607219762308
 30
0.0
  0
VERTEX
  5
F0
330
EE
100
AcDbEntity
  8
_U+30EC_U+30A4_U+30E4_U+30FC 1
 62
   179
420
  2234388
370
     9
100
AcDbVertex
100
AcDb2dVertex
 10
65.24596611321451
 20
-98.39607219762308
 30
0.0
  0
SEQEND
  5
F1
330
EE
100
AcDbEntity
  8
_U+30EC_U+30A4_U+30E4_U+30FC 1
 62
   179
420
  2234388
370
     9
  0
POLYLINE
  5
F2
330
1F
100
AcDbEntity
  8
_U+30EC_U+30A4_U+30E4_U+30FC 1
 62
   179
420
  2234388
370
     9
100
AcDb2dPolyline
 66
     1
 10
0.0
 20
0.0
 30
0.0
  0
VERTEX
  5
F3
330
F2
100
AcDbEntity
  8
_U+30EC_U+30A4_U+30E4_U+30FC 1
 62
   179
420
  2234388
370
     9
100
AcDbVertex
100
AcDb2dVertex
 10
55.24623331277339
 20
-96.93603080909938
 30
0.0
  0
VERTEX
  5
F4
330
F2
100
AcDbEntity
  8
_U+30EC_U+30A4_U+30E4_U+30FC 1
 62
   179
420
  2234388
370
     9
100
AcDbVertex
100
AcDb2dVertex
 10
55.24623331277339
 20
-99.39584441959563
 30
0.0
  0
SEQEND
  5
F5
330
F2
100
AcDbEntity
  8
_U+30EC_U+30A4_U+30E4_U+30FC 1
 62
   179
420
  2234388
370
     9
  0
POLYLINE
  5
F6
330
1F
100
AcDbEntity
  8
_U+30EC_U+30A4_U+30E4_U+30FC 1
 62
   179
420
  2234388
370
     9
100
AcDb2dPolyline
 66
     1
 10
0.0
 20
0.0
 30
0.0
  0
VERTEX
  5
F7
330
F6
100
AcDbEntity
  8
_U+30EC_U+30A4_U+30E4_U+30FC 1
 62
   179
420
  2234388
370
     9
100
AcDbVertex
100
AcDb2dVertex
 10
65.24596611321451
 20
-96.2359785870524
 30
0.0
  0
VERTEX
  5
F8
330
F6
100
AcDbEntity
  8
_U+30EC_U+30A4_U+30E4_U+30FC 1
 62
   179
420
  2234388
370
     9
100
AcDbVertex
100
AcDb2dVertex
 10
65.24596611321451
 20
-99.39584441959563
 30
0.0
  0
SEQEND
  5
F9
330
F6
100
AcDbEntity
  8
_U+30EC_U+30A4_U+30E4_U+30FC 1
 62
   179
420
  2234388
370
     9
  0
INSERT
  5
FB
330
1F
100
AcDbEntity
  8
_U+30EC_U+30A4_U+30E4_U+30FC 1
100
AcDbBlockReference
  2
block 4
 10
0.0
 20
0.0
 30
0.0
  0
POLYLINE
  5
103
330
1F
100
AcDbEntity
  8
_U+30EC_U+30A4_U+30E4_U+30FC 1
 62
   179
420
  2234388
370
     9
100
AcDb2dPolyline
 66
     1
 10
0.0
 20
0.0
 30
0.0
  0
VERTEX
  5
104
330
103
100
AcDbEntity
  8
_U+30EC_U+30A4_U+30E4_U+30FC 1
 62
   179
420
  2234388
370
     9
100
AcDbVertex
100
AcDb2dVertex
 10
43.24628584113977
 20
-98.39607219762308
 30
0.0
  0
VERTEX
  5
105
330
103
100
AcDbEntity
  8
_U+30EC_U+30A4_U+30E4_U+30FC 1
 62
   179
420
  2234388
370
     9
100
AcDbVertex
100
AcDb2dVertex
 10
55.24623331277339
 20
-98.39607219762308
 30
0.0
  0
SEQEND
  5
106
330
103
100
AcDbEntity
  8
_U+30EC_U+30A4_U+30E4_U+30FC 1
 62
   179
420
  2234388
370
     9
  0
POLYLINE
  5
107
330
1F
100
AcDbEntity
  8
_U+30EC_U+30A4_U+30E4_U+30FC 1
 62
   179
420
  2234388
370
     9
100
AcDb2dPolyline
 66
     1
 10
0.0
 20
0.0
 30
0.0
  0
VERTEX
  5
108
330
107
100
AcDbEntity
  8
_U+30EC_U+30A4_U+30E4_U+30FC 1
 62
   179
420
  2234388
370
     9
100
AcDbVertex
100
AcDb2dVertex
 10
43.24628584113977
 20
-86.4358824783909
 30
0.0
  0
VERTEX
  5
109
330
107
100
AcDbEntity
  8
_U+30EC_U+30A4_U+30E4_U+30FC 1
 62
   179
420
  2234388
370
     9
100
AcDbVertex
100
AcDb2dVertex
 10
43.24628584113977
 20
-99.39584441959563
 30
0.0
  0
SEQEND
  5
10A
330
107
100
AcDbEntity
  8
_U+30EC_U+30A4_U+30E4_U+30FC 1
 62
   179
420
  2234388
370
     9
  0
INSERT
  5
10C
330
1F
100
AcDbEntity
  8
_U+30EC_U+30A4_U+30E4_U+30FC 1
100
AcDbBlockReference
  2
block 5
 10
0.0
 20
0.0
 30
0.0
  0
POLYLINE
  5
113
330
1F
100
AcDbEntity
  8
_U+30EC_U+30A4_U+30E4_U+30FC 1
 62
   179
420
  2234388
370
     9
100
AcDb2dPolyline
 66
     1
 10
0.0
 20
0.0
 30
0.0
  0
VERTEX
  5
114
330
113
100
AcDbEntity
  8
_U+30EC_U+30A4_U+30E4_U+30FC 1
 62
   179
420
  2234388
370
     9
100
AcDbVertex
100
AcDb2dVertex
 10
43.24628584113977
 20
-78.8957866469427
 30
0.0
  0
VERTEX
  5
115
330
113
100
AcDbEntity
  8
_U+30EC_U+30A4_U+30E4_U+30FC 1
 62
   179
420
  2234388
370
     9
100
AcDbVertex
100
AcDb2dVertex
 10
79.2461635338175
 20
-78.8957866469427
 30
0.0
  0
SEQEND
  5
116
330
113
100
AcDbEntity
  8
_U+30EC_U+30A4_U+30E4_U+30FC 1
 62
   179
420
  2234388
370
     9
  0
POLYLINE
  5
117
330
1F
100
AcDbEntity
  8
_U+30EC_U+30A4_U+30E4_U+30FC 1
 62
   179
420
  2234388
370
     9
100
AcDb2dPolyline
 66
     1
 10
0.0
 20
0.0
 30
0.0
  0
VERTEX
  5
118
330
117
100
AcDbEntity
  8
_U+30EC_U+30A4_U+30E4_U+30FC 1
 62
   179
420
  2234388
370
     9
100
AcDbVertex
100
AcDb2dVertex
 10
43.24628584113977
 20
-80.3551224799112
 30
0.0
  0
VERTEX
  5
119
330
117
100
AcDbEntity
  8
_U+30EC_U+30A4_U+30E4_U+30FC 1
 62
   179
420
  2234388
370
     9
100
AcDbVertex
100
AcDb2dVertex
 10
43.24628584113977
 20
-77.8953441471928
 30
0.0
  0
SEQEND
  5
11A
330
117
100
AcDbEntity
  8
_U+30EC_U+30A4_U+30E4_U+30FC 1
 62
   179
420
  2234388
370
     9
  0
POLYLINE
  5
11B
330
1F
100
AcDbEntity
  8
_U+30EC_U+30A4_U+30E4_U+30FC 1
 62
   179
420
  2234388
370
     9
100
AcDb2dPolyline
 66
     1
 10
0.0
 20
0.0
 30
0.0
  0
VERTEX
  5
11C
330
11B
100
AcDbEntity
  8
_U+30EC_U+30A4_U+30E4_U+30FC 1
 62
   179
420
  2234388
370
     9
100
AcDbVertex
100
AcDb2dVertex
 10
79.2461635338175
 20
-80.3551224799112
 30
0.0
  0
VERTEX
  5
11D
330
11B
100
AcDbEntity
  8
_U+30EC_U+30A4_U+30E4_U+30FC 1
 62
   179
420
  2234388
370
     9
100
AcDbVertex
100
AcDb2dVertex
 10
79.2461635338175
 20
-77.8953441471928
 30
0.0
  0
SEQEND
  5
11E
330
11B
100
AcDbEntity
  8
_U+30EC_U+30A4_U+30E4_U+30FC 1
 62
   179
420
  2234388
370
     9
  0
INSERT
  5
120
330
1F
100
AcDbEntity
  8
_U+30EC_U+30A4_U+30E4_U+30FC 1
100
AcDbBlockReference
  2
block 6
 10
0.0
 20
0.0
 30
0.0
  0
POLYLINE
  5
127
330
1F
100
AcDbEntity
  8
_U+30EC_U+30A4_U+30E4_U+30FC 1
 62
   179
420
  2234388
370
     9
100
AcDb2dPolyline
 66
     1
 10
0.0
 20
0.0
 30
0.0
  0
VERTEX
  5
128
330
127
100
AcDbEntity
  8
_U+30EC_U+30A4_U+30E4_U+30FC 1
 62
   179
420
  2234388
370
     9
100
AcDbVertex
100
AcDb2dVertex
 10
67.78638938173624
 20
-93.19535164336814
 30
0.0
  0
VERTEX
  5
129
330
127
100
AcDbEntity
  8
_U+30EC_U+30A4_U+30E4_U+30FC 1
 62
   179
420
  2234388
370
     9
100
AcDbVertex
100
AcDb2dVertex
 10
70.24616942688276
 20
-93.19535164336814
 30
0.0
  0
SEQEND
  5
12A
330
127
100
AcDbEntity
  8
_U+30EC_U+30A4_U+30E4_U+30FC 1
 62
   179
420
  2234388
370
     9
  0
POLYLINE
  5
12B
330
1F
100
AcDbEntity
  8
_U+30EC_U+30A4_U+30E4_U+30FC 1
 62
   179
420
  2234388
370
     9
100
AcDb2dPolyline
 66
     1
 10
0.0
 20
0.0
 30
0.0
  0
VERTEX
  5
12C
330
12B
100
AcDbEntity
  8
_U+30EC_U+30A4_U+30E4_U+30FC 1
 62
   179
420
  2234388
370
     9
100
AcDbVertex
100
AcDb2dVertex
 10
67.78638938173624
 20
-93.19535164336814
 30
0.0
  0
VERTEX
  5
12D
330
12B
100
AcDbEntity
  8
_U+30EC_U+30A4_U+30E4_U+30FC 1
 62
   179
420
  2234388
370
     9
100
AcDbVertex
100
AcDb2dVertex
 10
84.2463650729184
 20
-93.19535164336814
 30
0.0
  0
SEQEND
  5
12E
330
12B
100
AcDbEntity
  8
_U+30EC_U+30A4_U+30E4_U+30FC 1
 62
   179
420
  2234388
370
     9
  0
SPLINE
  5
12F
330
1F
100
AcDbEntity
  8
_U+30EC_U+30A4_U+30E4_U+30FC 1
 62
   179
420
  2234388
370
     9
100
AcDbSpline
210
0.0
220
0.0
230
1.0
 70
    11
 71
     3
 72
    17
 73
    13
 74
     0
 42
0.0000000001
 43
0.0000000001
 12
1.0
 22
0.0
 32
0.0
 13
1.0
 23
0.0
 33
0.0
 40
0.0
 40
0.0
 40
0.0
 40
0.0
 40
1.0
 40
1.0
 40
1.0
 40
2.0
 40
2.0
 40
2.0
 40
3.0
 40
3.0
 40
3.0
 40
4.0
 40
4.0
 40
4.0
 40
4.0
 10
83.34649954032031
 20
-82.19619914611748
 30
0.0
 10
83.34649954032031
 20
-82.14021331279815
 30
0.0
 10
83.30173204146243
 20
-82.09541053503176
 30
0.0
 10
83.24592259844181
 20
-82.09541053503176
 30
0.0
 10
83.19078343318185
 20
-82.09541053503176
 30
0.0
 10
83.14601593432397
 20
-82.14021331279815
 30
0.0
 10
83.14601593432397
 20
-82.19619914611748
 30
0.0
 10
83.14601593432397
 20
-82.25130303499272
 30
0.0
 10
83.19078343318185
 20
-82.29610581275944
 30
0.0
 10
83.24592259844181
 20
-82.29610581275944
 30
0.0
 10
83.30173204146243
 20
-82.29610581275944
 30
0.0
 10
83.34649954032031
 20
-82.25130303499272
 30
0.0
 10
83.34649954032031
 20
-82.19619914611748
 30
0.0
  0
SPLINE
  5
130
330
1F
100
AcDbEntity
  8
_U+30EC_U+30A4_U+30E4_U+30FC 1
 62
   179
420
  2234388
370
     9
100
AcDbSpline
210
0.0
220
0.0
230
1.0
 70
    11
 71
     3
 72
    17
 73
    13
 74
     0
 42
0.0000000001
 43
0.0000000001
 12
1.0
 22
0.0
 32
0.0
 13
1.0
 23
0.0
 33
0.0
 40
0.0
 40
0.0
 40
0.0
 40
0.0
 40
1.0
 40
1.0
 40
1.0
 40
2.0
 40
2.0
 40
2.0
 40
3.0
 40
3.0
 40
3.0
 40
4.0
 40
4.0
 40
4.0
 40
4.0
 10
83.34649954032031
 20
-83.19579497920114
 30
0.0
 10
83.34649954032031
 20
-83.14065581254806
 30
0.0
 10
83.30173204146243
 20
-83.0958883125595
 30
0.0
 10
83.24592259844181
 20
-83.0958883125595
 30
0.0
 10
83.19078343318185
 20
-83.0958883125595
 30
0.0
 10
83.14601593432397
 20
-83.14065581254806
 30
0.0
 10
83.14601593432397
 20
-83.19579497920114
 30
0.0
 10
83.14601593432397
 20
-83.25089886807605
 30
0.0
 10
83.19078343318185
 20
-83.29570164584277
 30
0.0
 10
83.24592259844181
 20
-83.29570164584277
 30
0.0
 10
83.30173204146243
 20
-83.29570164584277
 30
0.0
 10
83.34649954032031
 20
-83.25089886807605
 30
0.0
 10
83.34649954032031
 20
-83.19579497920114
 30
0.0
  0
SPLINE
  5
131
330
1F
100
AcDbEntity
  8
_U+30EC_U+30A4_U+30E4_U+30FC 1
 62
   179
420
  2234388
370
    25
100
AcDbSpline
210
0.0
220
0.0
230
1.0
 70
    11
 71
     3
 72
    17
 73
    13
 74
     0
 42
0.0000000001
 43
0.0000000001
 12
1.0
 22
0.0
 32
0.0
 13
1.0
 23
0.0
 33
0.0
 40
0.0
 40
0.0
 40
0.0
 40
0.0
 40
1.0
 40
1.0
 40
1.0
 40
2.0
 40
2.0
 40
2.0
 40
3.0
 40
3.0
 40
3.0
 40
4.0
 40
4.0
 40
4.0
 40
4.0
 10
83.34649954032031
 20
-93.19535164336814
 30
0.0
 10
83.34649954032031
 20
-93.14021247671506
 30
0.0
 10
83.30173204146243
 20
-93.09544497672587
 30
0.0
 10
83.24592259844181
 20
-93.09544497672587
 30
0.0
 10
83.19078343318185
 20
-93.09544497672587
 30
0.0
 10
83.14601593432397
 20
-93.14021247671506
 30
0.0
 10
83.14601593432397
 20
-93.19535164336814
 30
0.0
 10
83.14601593432397
 20
-93.25045553224307
 30
0.0
 10
83.19078343318185
 20
-93.29525831000979
 30
0.0
 10
83.24592259844181
 20
-93.29525831000979
 30
0.0
 10
83.30173204146243
 20
-93.29525831000979
 30
0.0
 10
83.34649954032031
 20
-93.25045553224307
 30
0.0
 10
83.34649954032031
 20
-93.19535164336814
 30
0.0
  0
POLYLINE
  5
132
330
1F
100
AcDbEntity
  8
_U+30EC_U+30A4_U+30E4_U+30FC 1
 62
   179
420
  2234388
370
     9
100
AcDb2dPolyline
 66
     1
 10
0.0
 20
0.0
 30
0.0
  0
VERTEX
  5
133
330
132
100
AcDbEntity
  8
_U+30EC_U+30A4_U+30E4_U+30FC 1
 62
   179
420
  2234388
370
     9
100
AcDbVertex
100
AcDb2dVertex
 10
83.24592259844181
 20
-84.22311914561081
 30
0.0
  0
VERTEX
  5
134
330
132
100
AcDbEntity
  8
_U+30EC_U+30A4_U+30E4_U+30FC 1
 62
   179
420
  2234388
370
     9
100
AcDbVertex
100
AcDb2dVertex
 10
83.24592259844181
 20
-78.42571025817149
 30
0.0
  0
SEQEND
  5
135
330
132
100
AcDbEntity
  8
_U+30EC_U+30A4_U+30E4_U+30FC 1
 62
   179
420
  2234388
370
     9
  0
POLYLINE
  5
136
330
1F
100
AcDbEntity
  8
_U+30EC_U+30A4_U+30E4_U+30FC 1
 62
   179
420
  2234388
370
     9
100
AcDb2dPolyline
 66
     1
 10
0.0
 20
0.0
 30
0.0
  0
VERTEX
  5
137
330
136
100
AcDbEntity
  8
_U+30EC_U+30A4_U+30E4_U+30FC 1
 62
   179
420
  2234388
370
     9
100
AcDbVertex
100
AcDb2dVertex
 10
83.24592259844181
 20
-82.19619914611748
 30
0.0
  0
VERTEX
  5
138
330
136
100
AcDbEntity
  8
_U+30EC_U+30A4_U+30E4_U+30FC 1
 62
   179
420
  2234388
370
     9
100
AcDbVertex
100
AcDb2dVertex
 10
83.24592259844181
 20
-83.19579497920114
 30
0.0
  0
SEQEND
  5
139
330
136
100
AcDbEntity
  8
_U+30EC_U+30A4_U+30E4_U+30FC 1
 62
   179
420
  2234388
370
     9
  0
POLYLINE
  5
13A
330
1F
100
AcDbEntity
  8
_U+30EC_U+30A4_U+30E4_U+30FC 1
 62
   179
420
  2234388
370
     9
100
AcDb2dPolyline
 66
     1
 10
0.0
 20
0.0
 30
0.0
  0
VERTEX
  5
13B
330
13A
100
AcDbEntity
  8
_U+30EC_U+30A4_U+30E4_U+30FC 1
 62
   179
420
  2234388
370
     9
100
AcDbVertex
100
AcDb2dVertex
 10
81.78588331288712
 20
-82.19619914611748
 30
0.0
  0
VERTEX
  5
13C
330
13A
100
AcDbEntity
  8
_U+30EC_U+30A4_U+30E4_U+30FC 1
 62
   179
420
  2234388
370
     9
100
AcDbVertex
100
AcDb2dVertex
 10
84.2463650729184
 20
-82.19619914611748
 30
0.0
  0
SEQEND
  5
13D
330
13A
100
AcDbEntity
  8
_U+30EC_U+30A4_U+30E4_U+30FC 1
 62
   179
420
  2234388
370
     9
  0
POLYLINE
  5
13E
330
1F
100
AcDbEntity
  8
_U+30EC_U+30A4_U+30E4_U+30FC 1
 62
   179
420
  2234388
370
     9
100
AcDb2dPolyline
 66
     1
 10
0.0
 20
0.0
 30
0.0
  0
VERTEX
  5
13F
330
13E
100
AcDbEntity
  8
_U+30EC_U+30A4_U+30E4_U+30FC 1
 62
   179
420
  2234388
370
     9
100
AcDbVertex
100
AcDb2dVertex
 10
81.78588331288712
 20
-83.19579497920114
 30
0.0
  0
VERTEX
  5
140
330
13E
100
AcDbEntity
  8
_U+30EC_U+30A4_U+30E4_U+30FC 1
 62
   179
420
  2234388
370
     9
100
AcDbVertex
100
AcDb2dVertex
 10
84.2463650729184
 20
-83.19579497920114
 30
0.0
  0
SEQEND
  5
141
330
13E
100
AcDbEntity
  8
_U+30EC_U+30A4_U+30E4_U+30FC 1
 62
   179
420
  2234388
370
     9
  0
INSERT
  5
143
330
1F
100
AcDbEntity
  8
_U+30EC_U+30A4_U+30E4_U+30FC 1
100
AcDbBlockReference
  2
block 7
 10
0.0
 20
0.0
 30
0.0
  0
POLYLINE
  5
148
330
1F
100
AcDbEntity
  8
_U+30EC_U+30A4_U+30E4_U+30FC 1
 62
   179
420
  2234388
370
     9
100
AcDb2dPolyline
 66
     1
 10
0.0
 20
0.0
 30
0.0
  0
VERTEX
  5
149
330
148
100
AcDbEntity
  8
_U+30EC_U+30A4_U+30E4_U+30FC 1
 62
   179
420
  2234388
370
     9
100
AcDbVertex
100
AcDb2dVertex
 10
83.24592259844181
 20
-83.19579497920114
 30
0.0
  0
VERTEX
  5
14A
330
148
100
AcDbEntity
  8
_U+30EC_U+30A4_U+30E4_U+30FC 1
 62
   179
420
  2234388
370
     9
100
AcDbVertex
100
AcDb2dVertex
 10
83.24592259844181
 20
-93.19535164336814
 30
0.0
  0
SEQEND
  5
14B
330
148
100
AcDbEntity
  8
_U+30EC_U+30A4_U+30E4_U+30FC 1
 62
   179
420
  2234388
370
     9
  0
POLYLINE
  5
14C
330
1F
100
AcDbEntity
  8
_U+30EC_U+30A4_U+30E4_U+30FC 1
 62
   179
420
  2234388
370
     9
100
AcDb2dPolyline
 66
     1
 10
0.0
 20
0.0
 30
0.0
  0
VERTEX
  5
14D
330
14C
100
AcDbEntity
  8
_U+30EC_U+30A4_U+30E4_U+30FC 1
 62
   179
420
  2234388
370
     9
100
AcDbVertex
100
AcDb2dVertex
 10
81.78588331288712
 20
-83.19579497920114
 30
0.0
  0
VERTEX
  5
14E
330
14C
100
AcDbEntity
  8
_U+30EC_U+30A4_U+30E4_U+30FC 1
 62
   179
420
  2234388
370
     9
100
AcDbVertex
100
AcDb2dVertex
 10
84.2463650729184
 20
-83.19579497920114
 30
0.0
  0
SEQEND
  5
14F
330
14C
100
AcDbEntity
  8
_U+30EC_U+30A4_U+30E4_U+30FC 1
 62
   179
420
  2234388
370
     9
  0
INSERT
  5
151
330
1F
100
AcDbEntity
  8
_U+30EC_U+30A4_U+30E4_U+30FC 1
100
AcDbBlockReference
  2
block 8
 10
0.0
 20
0.0
 30
0.0
  0
ENDSEC
  0
SECTION
  2
OBJECTS
  0
DICTIONARY
  5
C
330
0
100
AcDbDictionary
281
     1
  3
ACAD_GROUP
350
D
  3
ACAD_LAYOUT
350
1A
  3
ACAD_MATERIAL
350
3B
  3
ACAD_MLEADERSTYLE
350
15A
  3
ACAD_MLINESTYLE
350
17
  3
ACAD_PLOTSETTINGS
350
19
  3
ACAD_PLOTSTYLENAME
350
E
  3
ACAD_TABLESTYLE
350
159
  3
ACAD_VISUALSTYLE
350
2A
  0
SUN
  5
3F
330
29
100
AcDbSun
 90
        1
290
     0
 63
     7
421
 16777215
 40
1.0
291
     1
 91
  2455826
 92
 54000000
292
     0
 70
     2
 71
   256
280
     1
  0
DICTIONARY
  5
D
102
{ACAD_REACTORS
330
C
102
}
330
C
100
AcDbDictionary
281
     1
  0
DICTIONARY
  5
1A
102
{ACAD_REACTORS
330
C
102
}
330
C
100
AcDbDictionary
281
     1
  3
Layout1
350
1E
  3
Layout2
350
26
  3
Model
350
22
  0
DICTIONARY
  5
3B
102
{ACAD_REACTORS
330
C
102
}
330
C
100
AcDbDictionary
281
     1
  3
ByBlock
350
3D
  3
ByLayer
350
3C
  3
Global
350
3E
  0
DICTIONARY
  5
15A
102
{ACAD_REACTORS
330
C
102
}
330
C
100
AcDbDictionary
281
     1
  0
DICTIONARY
  5
17
102
{ACAD_REACTORS
330
C
102
}
330
C
100
AcDbDictionary
281
     1
  3
Standard
350
18
  0
DICTIONARY
  5
19
102
{ACAD_REACTORS
330
C
102
}
330
C
100
AcDbDictionary
281
     1
  0
ACDBDICTIONARYWDFLT
  5
E
102
{ACAD_REACTORS
330
C
102
}
330
C
100
AcDbDictionary
281
     1
  3
Normal
350
F
100
AcDbDictionaryWithDefault
340
F
  0
DICTIONARY
  5
159
102
{ACAD_REACTORS
330
C
102
}
330
C
100
AcDbDictionary
281
     1
  0
DICTIONARY
  5
2A
102
{ACAD_REACTORS
330
C
102
}
330
C
100
AcDbDictionary
281
     1
  3
2dWireframe
350
2F
  3
3D Hidden
350
31
  3
3dWireframe
350
30
  3
Basic
350
32
  3
Brighten
350
36
  3
ColorChange
350
3A
  3
Conceptual
350
34
  3
Dim
350
35
  3
Facepattern
350
39
  3
Flat
350
2B
  3
FlatWithEdges
350
2C
  3
Gouraud
350
2D
  3
GouraudWithEdges
350
2E
  3
Linepattern
350
38
  3
Realistic
350
33
  3
Thicken
350
37
  0
LAYOUT
  5
1E
102
{ACAD_REACTORS
330
1A
102
}
330
1A
100
AcDbPlotSettings
  1

  2
none_device
  4

  6

 40
0.0
 41
0.0
 42
0.0
 43
0.0
 44
0.0
 45
0.0
 46
0.0
 47
0.0
 48
0.0
 49
0.0
140
0.0
141
0.0
142
1.0
143
1.0
 70
   688
 72
     0
 73
     0
 74
     5
  7

 75
    16
 76
     0
 77
     2
 78
   300
147
1.0
148
0.0
149
0.0
100
AcDbLayout
  1
Layout1
 70
     1
 71
     1
 10
0.0
 20
0.0
 11
12.0
 21
9.0
 12
0.0
 22
0.0
 32
0.0
 14
1.000000000000000E+20
 24
1.000000000000000E+20
 34
1.000000000000000E+20
 15
-1.000000000000000E+20
 25
-1.000000000000000E+20
 35
-1.000000000000000E+20
146
0.0
 13
0.0
 23
0.0
 33
0.0
 16
1.0
 26
0.0
 36
0.0
 17
0.0
 27
1.0
 37
0.0
 76
     0
330
1B
  0
LAYOUT
  5
26
102
{ACAD_REACTORS
330
1A
102
}
330
1A
100
AcDbPlotSettings
  1

  2
none_device
  4

  6

 40
0.0
 41
0.0
 42
0.0
 43
0.0
 44
0.0
 45
0.0
 46
0.0
 47
0.0
 48
0.0
 49
0.0
140
0.0
141
0.0
142
1.0
143
1.0
 70
   688
 72
     0
 73
     0
 74
     5
  7

 75
    16
 76
     0
 77
     2
 78
   300
147
1.0
148
0.0
149
0.0
100
AcDbLayout
  1
Layout2
 70
     1
 71
     2
 10
0.0
 20
0.0
 11
0.0
 21
0.0
 12
0.0
 22
0.0
 32
0.0
 14
0.0
 24
0.0
 34
0.0
 15
0.0
 25
0.0
 35
0.0
146
0.0
 13
0.0
 23
0.0
 33
0.0
 16
1.0
 26
0.0
 36
0.0
 17
0.0
 27
1.0
 37
0.0
 76
     0
330
23
  0
LAYOUT
  5
22
102
{ACAD_REACTORS
330
1A
102
}
330
1A
100
AcDbPlotSettings
  1

  2
none_device
  4

  6

 40
0.0
 41
0.0
 42
0.0
 43
0.0
 44
0.0
 45
0.0
 46
0.0
 47
0.0
 48
0.0
 49
0.0
140
0.0
141
0.0
142
1.0
143
1.0
 70
  1712
 72
     0
 73
     0
 74
     0
  7

 75
     0
 76
     0
 77
     2
 78
   300
147
1.0
148
0.0
149
0.0
100
AcDbLayout
  1
Model
 70
     1
 71
     0
 10
0.0
 20
0.0
 11
12.0
 21
9.0
 12
0.0
 22
0.0
 32
0.0
 14
1.000000000000000E+20
 24
1.000000000000000E+20
 34
1.000000000000000E+20
 15
-1.000000000000000E+20
 25
-1.000000000000000E+20
 35
-1.000000000000000E+20
146
0.0
 13
0.0
 23
0.0
 33
0.0
 16
1.0
 26
0.0
 36
0.0
 17
0.0
 27
1.0
 37
0.0
 76
     0
330
1F
331
29
  0
MATERIAL
  5
3D
102
{ACAD_REACTORS
330
3B
102
}
330
3B
100
AcDbMaterial
  1
ByBlock
 72
     1
 94
      127
  0
MATERIAL
  5
3C
102
{ACAD_REACTORS
330
3B
102
}
330
3B
100
AcDbMaterial
  1
ByLayer
 72
     1
 94
      127
  0
MATERIAL
  5
3E
102
{ACAD_REACTORS
330
3B
102
}
330
3B
100
AcDbMaterial
  1
Global
 72
     1
 94
      127
  0
MLINESTYLE
  5
18
102
{ACAD_REACTORS
330
17
102
}
330
17
100
AcDbMlineStyle
  2
Standard
 70
     0
  3

 62
   256
 51
90.0
 52
90.0
 71
     2
 49
0.5
 62
   256
  6
BYLAYER
 49
-0.5
 62
   256
  6
BYLAYER
  0
ACDBPLACEHOLDER
  5
F
102
{ACAD_REACTORS
330
E
102
}
330
E
  0
VISUALSTYLE
  5
2F
102
{ACAD_REACTORS
330
2A
102
}
330
2A
100
AcDbVisualStyle
  2
2dWireframe
 70
     4
177
     2
291
     0
 71
     0
176
     1
 72
     2
176
     1
 73
     0
176
     1
 90
        0
176
     1
 40
-0.6
176
     1
 41
-30.0
176
     1
 62
     5
 63
     7
421
 16777215
176
     1
 74
     1
176
     1
 91
        4
176
     1
 64
     7
176
     1
 65
   257
176
     1
 75
     1
176
     1
175
     1
176
     1
 42
1.0
176
     1
 92
        0
176
     1
 66
   257
176
     1
 43
1.0
176
     1
 76
     1
176
     1
 77
     6
176
     1
 78
     2
176
     1
 67
     7
176
     1
 79
     5
176
     1
170
     0
176
     1
171
     0
176
     1
290
     0
176
     1
 93
        1
176
     1
 44
0.0
176
     1
173
     0
176
     1
  0
VISUALSTYLE
  5
31
102
{ACAD_REACTORS
330
2A
102
}
330
2A
100
AcDbVisualStyle
  2
3D Hidden
 70
     6
177
     2
291
     0
 71
     1
176
     1
 72
     2
176
     1
 73
     2
176
     1
 90
        0
176
     1
 40
-0.6
176
     1
 41
-30.0
176
     1
 62
     5
 63
     7
421
 16777215
176
     1
 74
     2
176
     1
 91
        2
176
     1
 64
     7
176
     1
 65
   257
176
     1
 75
     2
176
     1
175
     1
176
     1
 42
40.0
176
     1
 92
        0
176
     1
 66
   257
176
     1
 43
1.0
176
     1
 76
     1
176
     1
 77
     6
176
     1
 78
     2
176
     1
 67
     7
176
     1
 79
     3
176
     1
170
     0
176
     1
171
     0
176
     1
290
     0
176
     1
 93
        1
176
     1
 44
0.0
176
     1
173
     0
176
     1
  0
VISUALSTYLE
  5
30
102
{ACAD_REACTORS
330
2A
102
}
330
2A
100
AcDbVisualStyle
  2
3dWireframe
 70
     5
177
     2
291
     0
 71
     0
176
     1
 72
     2
176
     1
 73
     0
176
     1
 90
        0
176
     1
 40
-0.6
176
     1
 41
-30.0
176
     1
 62
     5
 63
     7
421
 16777215
176
     1
 74
     1
176
     1
 91
        4
176
     1
 64
     7
176
     1
 65
   257
176
     1
 75
     1
176
     1
175
     1
176
     1
 42
1.0
176
     1
 92
        0
176
     1
 66
   257
176
     1
 43
1.0
176
     1
 76
     1
176
     1
 77
     6
176
     1
 78
     2
176
     1
 67
     7
176
     1
 79
     5
176
     1
170
     0
176
     1
171
     0
176
     1
290
     0
176
     1
 93
        1
176
     1
 44
0.0
176
     1
173
     0
176
     1
  0
VISUALSTYLE
  5
32
102
{ACAD_REACTORS
330
2A
102
}
330
2A
100
AcDbVisualStyle
  2
Basic
 70
     7
177
     2
291
     1
 71
     1
176
     1
 72
     0
176
     1
 73
     1
176
     1
 90
        0
176
     1
 40
-0.6
176
     1
 41
-30.0
176
     1
 62
     5
 63
     7
421
 16777215
176
     1
 74
     0
176
     1
 91
        4
176
     1
 64
     7
176
     1
 65
   257
176
     1
 75
     1
176
     1
175
     1
176
     1
 42
1.0
176
     1
 92
        8
176
     1
 66
     7
176
     1
 43
1.0
176
     1
 76
     1
176
     1
 77
     6
176
     1
 78
     2
176
     1
 67
     7
176
     1
 79
     5
176
     1
170
     0
176
     1
171
     0
176
     1
290
     0
176
     1
 93
        1
176
     1
 44
0.0
176
     1
173
     0
176
     1
  0
VISUALSTYLE
  5
36
102
{ACAD_REACTORS
330
2A
102
}
330
2A
100
AcDbVisualStyle
  2
Brighten
 70
    12
177
     2
291
     1
 71
     2
176
     1
 72
     2
176
     1
 73
     0
176
     1
 90
        0
176
     1
 40
-0.6
176
     1
 41
-30.0
176
     1
 62
     5
 63
     7
421
 16777215
176
     1
 74
     1
176
     1
 91
        4
176
     1
 64
     7
176
     1
 65
   257
176
     1
 75
     1
176
     1
175
     1
176
     1
 42
1.0
176
     1
 92
        8
176
     1
 66
     7
176
     1
 43
1.0
176
     1
 76
     1
176
     1
 77
     6
176
     1
 78
     2
176
     1
 67
     7
176
     1
 79
     5
176
     1
170
     0
176
     1
171
     0
176
     1
290
     0
176
     1
 93
        1
176
     1
 44
50.0
176
     1
173
     0
176
     1
  0
VISUALSTYLE
  5
3A
102
{ACAD_REACTORS
330
2A
102
}
330
2A
100
AcDbVisualStyle
  2
ColorChange
 70
    16
177
     2
291
     1
 71
     2
176
     1
 72
     2
176
     1
 73
     3
176
     1
 90
        0
176
     1
 40
-0.6
176
     1
 41
-30.0
176
     1
 62
     5
 63
     8
421
  8421504
176
     1
 74
     1
176
     1
 91
        4
176
     1
 64
     7
176
     1
 65
   257
176
     1
 75
     1
176
     1
175
     1
176
     1
 42
1.0
176
     1
 92
        8
176
     1
 66
     8
424
  8421504
176
     1
 43
1.0
176
     1
 76
     1
176
     1
 77
     6
176
     1
 78
     2
176
     1
 67
     7
176
     1
 79
     5
176
     1
170
     0
176
     1
171
     0
176
     1
290
     0
176
     1
 93
        1
176
     1
 44
0.0
176
     1
173
     0
176
     1
  0
VISUALSTYLE
  5
34
102
{ACAD_REACTORS
330
2A
102
}
330
2A
100
AcDbVisualStyle
  2
Conceptual
 70
     9
177
     2
291
     0
 71
     3
176
     1
 72
     2
176
     1
 73
     0
176
     1
 90
        0
176
     1
 40
-0.6
176
     1
 41
-30.0
176
     1
 62
     5
 63
     7
421
 16777215
176
     1
 74
     2
176
     1
 91
        2
176
     1
 64
     7
176
     1
 65
   257
176
     1
 75
     1
176
     1
175
     1
176
     1
 42
40.0
176
     1
 92
        8
176
     1
 66
     7
176
     1
 43
1.0
176
     1
 76
     1
176
     1
 77
     6
176
     1
 78
     2
176
     1
 67
     7
176
     1
 79
     3
176
     1
170
     0
176
     1
171
     0
176
     1
290
     0
176
     1
 93
        1
176
     1
 44
0.0
176
     1
173
     0
176
     1
  0
VISUALSTYLE
  5
35
102
{ACAD_REACTORS
330
2A
102
}
330
2A
100
AcDbVisualStyle
  2
Dim
 70
    11
177
     2
291
     1
 71
     2
176
     1
 72
     2
176
     1
 73
     0
176
     1
 90
        0
176
     1
 40
-0.6
176
     1
 41
-30.0
176
     1
 62
     5
 63
     7
421
 16777215
176
     1
 74
     1
176
     1
 91
        4
176
     1
 64
     7
176
     1
 65
   257
176
     1
 75
     1
176
     1
175
     1
176
     1
 42
1.0
176
     1
 92
        8
176
     1
 66
     7
176
     1
 43
1.0
176
     1
 76
     1
176
     1
 77
     6
176
     1
 78
     2
176
     1
 67
     7
176
     1
 79
     5
176
     1
170
     0
176
     1
171
     0
176
     1
290
     0
176
     1
 93
        1
176
     1
 44
-50.0
176
     1
173
     0
176
     1
  0
VISUALSTYLE
  5
39
102
{ACAD_REACTORS
330
2A
102
}
330
2A
100
AcDbVisualStyle
  2
Facepattern
 70
    15
177
     2
291
     1
 71
     2
176
     1
 72
     2
176
     1
 73
     0
176
     1
 90
        0
176
     1
 40
-0.6
176
     1
 41
-30.0
176
     1
 62
     5
 63
     7
421
 16777215
176
     1
 74
     1
176
     1
 91
        4
176
     1
 64
     7
176
     1
 65
   257
176
     1
 75
     1
176
     1
175
     1
176
     1
 42
1.0
176
     1
 92
        8
176
     1
 66
     7
176
     1
 43
1.0
176
     1
 76
     1
176
     1
 77
     6
176
     1
 78
     2
176
     1
 67
     7
176
     1
 79
     5
176
     1
170
     0
176
     1
171
     0
176
     1
290
     0
176
     1
 93
        1
176
     1
 44
0.0
176
     1
173
     0
176
     1
  0
VISUALSTYLE
  5
2B
102
{ACAD_REACTORS
330
2A
102
}
330
2A
100
AcDbVisualStyle
  2
Flat
 70
     0
177
     2
291
     1
 71
     2
176
     1
 72
     1
176
     1
 73
     1
176
     1
 90
        2
176
     1
 40
-0.6
176
     1
 41
30.0
176
     1
 62
     5
 63
     7
421
 16777215
176
     1
 74
     0
176
     1
 91
        4
176
     1
 64
     7
176
     1
 65
   257
176
     1
 75
     1
176
     1
175
     1
176
     1
 42
1.0
176
     1
 92
        8
176
     1
 66
     7
176
     1
 43
1.0
176
     1
 76
     1
176
     1
 77
     6
176
     1
 78
     2
176
     1
 67
     7
176
     1
 79
     5
176
     1
170
     0
176
     1
171
     0
176
     1
290
     0
176
     1
 93
       13
176
     1
 44
0.0
176
     1
173
     0
176
     1
  0
VISUALSTYLE
  5
2C
102
{ACAD_REACTORS
330
2A
102
}
330
2A
100
AcDbVisualStyle
  2
FlatWithEdges
 70
     1
177
     2
291
     1
 71
     2
176
     1
 72
     1
176
     1
 73
     1
176
     1
 90
        2
176
     1
 40
-0.6
176
     1
 41
30.0
176
     1
 62
     5
 63
     7
421
 16777215
176
     1
 74
     1
176
     1
 91
        4
176
     1
 64
     7
176
     1
 65
   257
176
     1
 75
     1
176
     1
175
     1
176
     1
 42
1.0
176
     1
 92
        0
176
     1
 66
   257
176
     1
 43
1.0
176
     1
 76
     1
176
     1
 77
     6
176
     1
 78
     2
176
     1
 67
     7
176
     1
 79
     5
176
     1
170
     0
176
     1
171
     0
176
     1
290
     0
176
     1
 93
       13
176
     1
 44
0.0
176
     1
173
     0
176
     1
  0
VISUALSTYLE
  5
2D
102
{ACAD_REACTORS
330
2A
102
}
330
2A
100
AcDbVisualStyle
  2
Gouraud
 70
     2
177
     2
291
     1
 71
     2
176
     1
 72
     2
176
     1
 73
     1
176
     1
 90
        2
176
     1
 40
-0.6
176
     1
 41
30.0
176
     1
 62
     5
 63
     7
421
 16777215
176
     1
 74
     0
176
     1
 91
        4
176
     1
 64
     7
176
     1
 65
   257
176
     1
 75
     1
176
     1
175
     1
176
     1
 42
1.0
176
     1
 92
        0
176
     1
 66
     7
176
     1
 43
1.0
176
     1
 76
     1
176
     1
 77
     6
176
     1
 78
     2
176
     1
 67
     7
176
     1
 79
     5
176
     1
170
     0
176
     1
171
     0
176
     1
290
     0
176
     1
 93
       13
176
     1
 44
0.0
176
     1
173
     0
176
     1
  0
VISUALSTYLE
  5
2E
102
{ACAD_REACTORS
330
2A
102
}
330
2A
100
AcDbVisualStyle
  2
GouraudWithEdges
 70
     3
177
     2
291
     1
 71
     2
176
     1
 72
     2
176
     1
 73
     1
176
     1
 90
        2
176
     1
 40
-0.6
176
     1
 41
30.0
176
     1
 62
     5
 63
     7
421
 16777215
176
     1
 74
     1
176
     1
 91
        4
176
     1
 64
     7
176
     1
 65
   257
176
     1
 75
     1
176
     1
175
     1
176
     1
 42
1.0
176
     1
 92
        0
176
     1
 66
   257
176
     1
 43
1.0
176
     1
 76
     1
176
     1
 77
     6
176
     1
 78
     2
176
     1
 67
     7
176
     1
 79
     5
176
     1
170
     0
176
     1
171
     0
176
     1
290
     0
176
     1
 93
       13
176
     1
 44
0.0
176
     1
173
     0
176
     1
  0
VISUALSTYLE
  5
38
102
{ACAD_REACTORS
330
2A
102
}
330
2A
100
AcDbVisualStyle
  2
Linepattern
 70
    14
177
     2
291
     1
 71
     2
176
     1
 72
     2
176
     1
 73
     0
176
     1
 90
        0
176
     1
 40
-0.6
176
     1
 41
-30.0
176
     1
 62
     5
 63
     7
421
 16777215
176
     1
 74
     1
176
     1
 91
        4
176
     1
 64
     7
176
     1
 65
   257
176
     1
 75
     7
176
     1
175
     7
176
     1
 42
1.0
176
     1
 92
        8
176
     1
 66
     7
176
     1
 43
1.0
176
     1
 76
     1
176
     1
 77
     6
176
     1
 78
     2
176
     1
 67
     7
176
     1
 79
     5
176
     1
170
     0
176
     1
171
     0
176
     1
290
     0
176
     1
 93
        1
176
     1
 44
0.0
176
     1
173
     0
176
     1
  0
VISUALSTYLE
  5
33
102
{ACAD_REACTORS
330
2A
102
}
330
2A
100
AcDbVisualStyle
  2
Realistic
 70
     8
177
     2
291
     0
 71
     2
176
     1
 72
     2
176
     1
 73
     0
176
     1
 90
        0
176
     1
 40
-0.6
176
     1
 41
-30.0
176
     1
 62
     5
 63
     7
421
 16777215
176
     1
 74
     1
176
     1
 91
        0
176
     1
 64
     7
176
     1
 65
   257
176
     1
 75
     1
176
     1
175
     1
176
     1
 42
1.0
176
     1
 92
        8
176
     1
 66
     8
424
  7895160
176
     1
 43
1.0
176
     1
 76
     1
176
     1
 77
     6
176
     1
 78
     2
176
     1
 67
     7
176
     1
 79
     5
176
     1
170
     0
176
     1
171
     0
176
     1
290
     0
176
     1
 93
       13
176
     1
 44
0.0
176
     1
173
     0
176
     1
  0
VISUALSTYLE
  5
37
102
{ACAD_REACTORS
330
2A
102
}
330
2A
100
AcDbVisualStyle
  2
Thicken
 70
    13
177
     2
291
     1
 71
     2
176
     1
 72
     2
176
     1
 73
     0
176
     1
 90
        0
176
     1
 40
-0.6
176
     1
 41
-30.0
176
     1
 62
     5
 63
     7
421
 16777215
176
     1
 74
     1
176
     1
 91
        4
176
     1
 64
     7
176
     1
 65
   257
176
     1
 75
     1
176
     1
175
     1
176
     1
 42
1.0
176
     1
 92
       12
176
     1
 66
     7
176
     1
 43
1.0
176
     1
 76
     1
176
     1
 77
     6
176
     1
 78
     2
176
     1
 67
     7
176
     1
 79
     5
176
     1
170
     0
176
     1
171
     0
176
     1
290
     0
176
     1
 93
        1
176
     1
 44
0.0
176
     1
173
     0
176
     1
  0
ENDSEC
  0
EOF
