  0
SECTION
  2
HEADER
  9
$ACADVER
  1
AC1024
  9
$ACADMAINTVER
 70
     6
  9
$DWGCODEPAGE
  3
UNDEFINED
  9
$INSBASE
 10
0.0
 20
0.0
 30
0.0
  9
$EXTMIN
 10
1.000000000000000E+20
 20
1.000000000000000E+20
 30
1.000000000000000E+20
  9
$EXTMAX
 10
-1.000000000000000E+20
 20
-1.000000000000000E+20
 30
-1.000000000000000E+20
  9
$LIMMIN
 10
0.0
 20
0.0
  9
$LIMMAX
 10
12.0
 20
9.0
  9
$ORTHOMODE
 70
     0
  9
$REGENMODE
 70
     1
  9
$FILLMODE
 70
     1
  9
$QTEXTMODE
 70
     0
  9
$MIRRTEXT
 70
     1
  9
$LTSCALE
 40
1.0
  9
$ATTMODE
 70
     1
  9
$TEXTSIZE
 40
0.2
  9
$TRACEWID
 40
0.05
  9
$TEXTSTYLE
  7
Standard
  9
$CLAYER
  8
0
  9
$CELTYPE
  6
ByLayer
  9
$CECOLOR
 62
   256
  9
$CELTSCALE
 40
1.0
  9
$DISPSILH
 70
     0
  9
$DIMSCALE
 40
1.0
  9
$DIMASZ
 40
0.18
  9
$DIMEXO
 40
0.0625
  9
$DIMDLI
 40
0.38
  9
$DIMRND
 40
0.0
  9
$DIMDLE
 40
0.0
  9
$DIMEXE
 40
0.18
  9
$DIMTP
 40
0.0
  9
$DIMTM
 40
0.0
  9
$DIMTXT
 40
0.18
  9
$DIMCEN
 40
0.09
  9
$DIMTSZ
 40
0.0
  9
$DIMTOL
 70
     0
  9
$DIMLIM
 70
     0
  9
$DIMTIH
 70
     1
  9
$DIMTOH
 70
     1
  9
$DIMSE1
 70
     0
  9
$DIMSE2
 70
     0
  9
$DIMTAD
 70
     0
  9
$DIMZIN
 70
     0
  9
$DIMBLK
  1

  9
$DIMASO
 70
     1
  9
$DIMSHO
 70
     1
  9
$DIMPOST
  1

  9
$DIMAPOST
  1

  9
$DIMALT
 70
     0
  9
$DIMALTD
 70
     2
  9
$DIMALTF
 40
25.4
  9
$DIMLFAC
 40
1.0
  9
$DIMTOFL
 70
     0
  9
$DIMTVP
 40
0.0
  9
$DIMTIX
 70
     0
  9
$DIMSOXD
 70
     0
  9
$DIMSAH
 70
     0
  9
$DIMBLK1
  1

  9
$DIMBLK2
  1

  9
$DIMSTYLE
  2
Standard
  9
$DIMCLRD
 70
     0
  9
$DIMCLRE
 70
     0
  9
$DIMCLRT
 70
     0
  9
$DIMTFAC
 40
1.0
  9
$DIMGAP
 40
0.09
  9
$DIMJUST
 70
     0
  9
$DIMSD1
 70
     0
  9
$DIMSD2
 70
     0
  9
$DIMTOLJ
 70
     1
  9
$DIMTZIN
 70
     0
  9
$DIMALTZ
 70
     0
  9
$DIMALTTZ
 70
     0
  9
$DIMUPT
 70
     0
  9
$DIMDEC
 70
     4
  9
$DIMTDEC
 70
     4
  9
$DIMALTU
 70
     2
  9
$DIMALTTD
 70
     2
  9
$DIMTXSTY
  7
Standard
  9
$DIMAUNIT
 70
     0
  9
$DIMADEC
 70
     0
  9
$DIMALTRND
 40
0.0
  9
$DIMAZIN
 70
     0
  9
$DIMDSEP
 70
    46
  9
$DIMATFIT
 70
     3
  9
$DIMFRAC
 70
     0
  9
$DIMLDRBLK
  1

  9
$DIMLUNIT
 70
     2
  9
$DIMLWD
 70
    -2
  9
$DIMLWE
 70
    -2
  9
$DIMTMOVE
 70
     0
  9
$DIMFXL
 40
1.0
  9
$DIMFXLON
 70
     0
  9
$DIMJOGANG
 40
0.7853981633974483
  9
$DIMTFILL
 70
     0
  9
$DIMTFILLCLR
 70
     0
  9
$DIMARCSYM
 70
     0
  9
$DIMLTYPE
  6

  9
$DIMLTEX1
  6

  9
$DIMLTEX2
  6

  9
$DIMTXTDIRECTION
 70
     0
  9
$LUNITS
 70
     2
  9
$LUPREC
 70
     4
  9
$SKETCHINC
 40
0.1
  9
$FILLETRAD
 40
0.5
  9
$AUNITS
 70
     0
  9
$AUPREC
 70
     0
  9
$MENU
  1
.
  9
$ELEVATION
 40
0.0
  9
$PELEVATION
 40
0.0
  9
$THICKNESS
 40
0.0
  9
$LIMCHECK
 70
     0
  9
$CHAMFERA
 40
0.5
  9
$CHAMFERB
 40
0.5
  9
$CHAMFERC
 40
1.0
  9
$CHAMFERD
 40
0.0
  9
$SKPOLY
 70
     0
  9
$TDCREATE
 40
2458263.574918982
  9
$TDUCREATE
 40
2458263.199918982
  9
$TDUPDATE
 40
2458263.574918982
  9
$TDUUPDATE
 40
2458263.199918982
  9
$TDINDWG
 40
0.0000000116
  9
$TDUSRTIMER
 40
0.0000000116
  9
$USRTIMER
 70
     1
  9
$ANGBASE
 50
0.0
  9
$ANGDIR
 70
     0
  9
$PDMODE
 70
     0
  9
$PDSIZE
 40
0.0
  9
$PLINEWID
 40
0.0
  9
$SPLFRAME
 70
     0
  9
$SPLINETYPE
 70
     6
  9
$SPLINESEGS
 70
     8
  9
$HANDSEED
  5
172
  9
$SURFTAB1
 70
     6
  9
$SURFTAB2
 70
     6
  9
$SURFTYPE
 70
     6
  9
$SURFU
 70
     6
  9
$SURFV
 70
     6
  9
$UCSBASE
  2

  9
$UCSNAME
  2

  9
$UCSORG
 10
0.0
 20
0.0
 30
0.0
  9
$UCSXDIR
 10
1.0
 20
0.0
 30
0.0
  9
$UCSYDIR
 10
0.0
 20
1.0
 30
0.0
  9
$UCSORTHOREF
  2

  9
$UCSORTHOVIEW
 70
     0
  9
$UCSORGTOP
 10
0.0
 20
0.0
 30
0.0
  9
$UCSORGBOTTOM
 10
0.0
 20
0.0
 30
0.0
  9
$UCSORGLEFT
 10
0.0
 20
0.0
 30
0.0
  9
$UCSORGRIGHT
 10
0.0
 20
0.0
 30
0.0
  9
$UCSORGFRONT
 10
0.0
 20
0.0
 30
0.0
  9
$UCSORGBACK
 10
0.0
 20
0.0
 30
0.0
  9
$PUCSBASE
  2

  9
$PUCSNAME
  2

  9
$PUCSORG
 10
0.0
 20
0.0
 30
0.0
  9
$PUCSXDIR
 10
1.0
 20
0.0
 30
0.0
  9
$PUCSYDIR
 10
0.0
 20
1.0
 30
0.0
  9
$PUCSORTHOREF
  2

  9
$PUCSORTHOVIEW
 70
     0
  9
$PUCSORGTOP
 10
0.0
 20
0.0
 30
0.0
  9
$PUCSORGBOTTOM
 10
0.0
 20
0.0
 30
0.0
  9
$PUCSORGLEFT
 10
0.0
 20
0.0
 30
0.0
  9
$PUCSORGRIGHT
 10
0.0
 20
0.0
 30
0.0
  9
$PUCSORGFRONT
 10
0.0
 20
0.0
 30
0.0
  9
$PUCSORGBACK
 10
0.0
 20
0.0
 30
0.0
  9
$USERI1
 70
     0
  9
$USERI2
 70
     0
  9
$USERI3
 70
     0
  9
$USERI4
 70
     0
  9
$USERI5
 70
     0
  9
$USERR1
 40
0.0
  9
$USERR2
 40
0.0
  9
$USERR3
 40
0.0
  9
$USERR4
 40
0.0
  9
$USERR5
 40
0.0
  9
$WORLDVIEW
 70
     1
  9
$SHADEDGE
 70
     3
  9
$SHADEDIF
 70
    70
  9
$TILEMODE
 70
     1
  9
$MAXACTVP
 70
    64
  9
$PINSBASE
 10
0.0
 20
0.0
 30
0.0
  9
$PLIMCHECK
 70
     0
  9
$PEXTMIN
 10
1.000000000000000E+20
 20
1.000000000000000E+20
 30
1.000000000000000E+20
  9
$PEXTMAX
 10
-1.000000000000000E+20
 20
-1.000000000000000E+20
 30
-1.000000000000000E+20
  9
$PLIMMIN
 10
0.0
 20
0.0
  9
$PLIMMAX
 10
12.0
 20
9.0
  9
$UNITMODE
 70
     0
  9
$VISRETAIN
 70
     1
  9
$PLINEGEN
 70
     0
  9
$PSLTSCALE
 70
     1
  9
$TREEDEPTH
 70
  3020
  9
$CMLSTYLE
  2
Standard
  9
$CMLJUST
 70
     0
  9
$CMLSCALE
 40
1.0
  9
$PROXYGRAPHICS
 70
     1
  9
$MEASUREMENT
 70
     0
  9
$CELWEIGHT
370
    -1
  9
$ENDCAPS
280
     0
  9
$JOINSTYLE
280
     0
  9
$LWDISPLAY
290
     1
  9
$INSUNITS
 70
     1
  9
$HYPERLINKBASE
  1

  9
$STYLESHEET
  1

  9
$XEDIT
290
     1
  9
$CEPSNTYPE
380
     0
  9
$PSTYLEMODE
290
     1
  9
$FINGERPRINTGUID
  2
{68CA7783-1D21-6D49-304E-21E8BDE4EC40}
  9
$VERSIONGUID
  2
{FAEB1C32-E019-11D5-929B-00C0DF256EC4}
  9
$EXTNAMES
290
     1
  9
$PSVPSCALE
 40
0.0
  9
$OLESTARTUP
290
     0
  9
$SORTENTS
280
   127
  9
$INDEXCTL
280
     0
  9
$HIDETEXT
280
     1
  9
$XCLIPFRAME
280
     2
  9
$HALOGAP
280
     0
  9
$OBSCOLOR
 70
   257
  9
$OBSLTYPE
280
     0
  9
$INTERSECTIONDISPLAY
280
     0
  9
$INTERSECTIONCOLOR
 70
   257
  9
$DIMASSOC
280
     2
  9
$PROJECTNAME
  1

  9
$CAMERADISPLAY
290
     0
  9
$LENSLENGTH
 40
50.0
  9
$CAMERAHEIGHT
 40
0.0
  9
$STEPSPERSEC
 40
2.0
  9
$STEPSIZE
 40
6.0
  9
$3DDWFPREC
 40
2.0
  9
$PSOLWIDTH
 40
0.25
  9
$PSOLHEIGHT
 40
4.0
  9
$LOFTANG1
 40
1.570796326794897
  9
$LOFTANG2
 40
1.570796326794897
  9
$LOFTMAG1
 40
0.0
  9
$LOFTMAG2
 40
0.0
  9
$LOFTPARAM
 70
     7
  9
$LOFTNORMALS
280
     1
  9
$LATITUDE
 40
37.795
  9
$LONGITUDE
 40
-122.394
  9
$NORTHDIRECTION
 40
0.0
  9
$TIMEZONE
 70
 -8000
  9
$LIGHTGLYPHDISPLAY
280
     1
  9
$TILEMODELIGHTSYNCH
280
     1
  9
$CMATERIAL
347
3C
  9
$SOLIDHIST
280
     1
  9
$SHOWHIST
280
     1
  9
$DWFFRAME
280
     2
  9
$DGNFRAME
280
     2
  9
$REALWORLDSCALE
290
     1
  9
$INTERFERECOLOR
 62
   256
  9
$CSHADOW
280
     0
  9
$SHADOWPLANELOCATION
 40
0.0
  0
ENDSEC
  0
SECTION
  2
CLASSES
  0
CLASS
  1
ACDBDICTIONARYWDFLT
  2
AcDbDictionaryWithDefault
  3
ObjectDBX Classes
 90
        0
 91
        4
280
     0
281
     0
  0
CLASS
  1
VISUALSTYLE
  2
AcDbVisualStyle
  3
ObjectDBX Classes
 90
     4095
 91
        4
280
     0
281
     0
  0
CLASS
  1
MATERIAL
  2
AcDbMaterial
  3
ObjectDBX Classes
 90
     1153
 91
        4
280
     0
281
     0
  0
CLASS
  1
SUN
  2
AcDbSun
  3
SCENEOE
 90
     1024
 91
        4
280
     0
281
     0
  0
ENDSEC
  0
SECTION
  2
TABLES
  0
TABLE
  2
VPORT
  5
8
330
0
100
AcDbSymbolTable
 70
     1
  0
VPORT
  5
29
330
8
100
AcDbSymbolTableRecord
100
AcDbViewportTableRecord
  2
*Active
 70
     0
 10
0.0
 20
0.0
 11
1.0
 21
1.0
 12
0.0
 22
0.0
 13
0.0
 23
0.0
 14
0.5
 24
0.5
 15
0.5
 25
0.5
 16
0.0
 26
0.0
 36
1.0
 17
105.0007777515277
 27
-148.5000416295416
 37
0.0
 40
297.0000832590831
 41
0.7070757462376333
 42
50.0
 43
0.0
 44
0.0
 50
0.0
 51
0.0
 71
     0
 72
   100
 73
     1
 74
     3
 75
     0
 76
     0
 77
     0
 78
     0
281
     0
 65
     1
110
0.0
120
0.0
130
0.0
111
1.0
121
0.0
131
0.0
112
0.0
122
1.0
132
0.0
 79
     0
146
0.0
 60
     3
 61
     5
292
     1
282
     1
141
0.0
142
0.0
 63
   250
361
3F
  0
ENDTAB
  0
TABLE
  2
LTYPE
  5
5
330
0
100
AcDbSymbolTable
 70
     4
  0
LTYPE
  5
14
330
5
100
AcDbSymbolTableRecord
100
AcDbLinetypeTableRecord
  2
ByBlock
 70
     0
  3

 72
    65
 73
     0
 40
0.0
  0
LTYPE
  5
15
330
5
100
AcDbSymbolTableRecord
100
AcDbLinetypeTableRecord
  2
ByLayer
 70
     0
  3

 72
    65
 73
     0
 40
0.0
  0
LTYPE
  5
16
330
5
100
AcDbSymbolTableRecord
100
AcDbLinetypeTableRecord
  2
Continuous
 70
     0
  3
Solid line
 72
    65
 73
     0
 40
0.0
  0
LTYPE
  5
44
330
5
100
AcDbSymbolTableRecord
100
AcDbLinetypeTableRecord
  2
AI-Linetype-1
 70
     0
  3
Adobe Illustrator Linetype No. 1
 72
    65
 73
     2
 40
1.411111110758333
 49
0.7055555553791667
 74
     0
 49
-0.7055555553791667
 74
     0
  0
LTYPE
  5
49
330
5
100
AcDbSymbolTableRecord
100
AcDbLinetypeTableRecord
  2
AI-Linetype-2
 70
     0
  3
Adobe Illustrator Linetype No. 2
 72
    65
 73
     2
 40
1.411111110758333
 49
0.7055555553791667
 74
     0
 49
-0.7055555553791667
 74
     0
  0
LTYPE
  5
4E
330
5
100
AcDbSymbolTableRecord
100
AcDbLinetypeTableRecord
  2
AI-Linetype-3
 70
     0
  3
Adobe Illustrator Linetype No. 3
 72
    65
 73
     2
 40
1.411111110758333
 49
0.7055555553791667
 74
     0
 49
-0.7055555553791667
 74
     0
  0
ENDTAB
  0
TABLE
  2
LAYER
  5
2
330
0
100
AcDbSymbolTable
 70
     2
  0
LAYER
  5
10
330
2
100
AcDbSymbolTableRecord
100
AcDbLayerTableRecord
  2
0
 70
     0
 62
     7
  6
Continuous
370
    -3
390
F
347
3E
  0
LAYER
  5
40
330
2
100
AcDbSymbolTableRecord
100
AcDbLayerTableRecord
  2
_U+30EC_U+30A4_U+30E4_U+30FC 1
 70
     0
 62
     7
  6
Continuous
370
    -3
390
F
347
3E
  0
ENDTAB
  0
TABLE
  2
STYLE
  5
3
330
0
100
AcDbSymbolTable
 70
     1
  0
STYLE
  5
11
330
3
100
AcDbSymbolTableRecord
100
AcDbTextStyleTableRecord
  2
Standard
 70
     0
 40
0.0
 41
1.0
 50
0.0
 71
     0
 42
0.2
  3
txt
  4

  0
ENDTAB
  0
TABLE
  2
VIEW
  5
6
330
0
100
AcDbSymbolTable
 70
     0
  0
ENDTAB
  0
TABLE
  2
UCS
  5
7
330
0
100
AcDbSymbolTable
 70
     0
  0
ENDTAB
  0
TABLE
  2
APPID
  5
9
330
0
100
AcDbSymbolTable
 70
     1
  0
APPID
  5
12
330
9
100
AcDbSymbolTableRecord
100
AcDbRegAppTableRecord
  2
ACAD
 70
     0
  0
ENDTAB
  0
TABLE
  2
DIMSTYLE
  5
A
330
0
100
AcDbSymbolTable
 70
     1
100
AcDbDimStyleTable
  0
DIMSTYLE
105
27
330
A
100
AcDbSymbolTableRecord
100
AcDbDimStyleTableRecord
  2
Standard
 70
     0
178
     0
340
11
  0
ENDTAB
  0
TABLE
  2
BLOCK_RECORD
  5
1
330
0
100
AcDbSymbolTable
 70
     8
  0
BLOCK_RECORD
  5
1F
330
1
100
AcDbSymbolTableRecord
100
AcDbBlockTableRecord
  2
*Model_Space
340
22
 70
     0
280
     1
281
     0
  0
BLOCK_RECORD
  5
1B
330
1
100
AcDbSymbolTableRecord
100
AcDbBlockTableRecord
  2
*Paper_Space
340
1E
 70
     0
280
     1
281
     0
  0
BLOCK_RECORD
  5
23
330
1
100
AcDbSymbolTableRecord
100
AcDbBlockTableRecord
  2
*Paper_Space0
340
26
 70
     0
280
     1
281
     0
  0
BLOCK_RECORD
  5
50
330
1
100
AcDbSymbolTableRecord
100
AcDbBlockTableRecord
  2
block 2
340
0
102
{BLKREFS
331
51
102
}
 70
     0
280
     1
281
     0
  0
BLOCK_RECORD
  5
E4
330
1
100
AcDbSymbolTableRecord
100
AcDbBlockTableRecord
  2
block 3
340
0
102
{BLKREFS
331
E5
102
}
 70
     0
280
     1
281
     0
  0
BLOCK_RECORD
  5
FA
330
1
100
AcDbSymbolTableRecord
100
AcDbBlockTableRecord
  2
block 4
340
0
102
{BLKREFS
331
FB
102
}
 70
     0
280
     1
281
     0
  0
BLOCK_RECORD
  5
117
330
1
100
AcDbSymbolTableRecord
100
AcDbBlockTableRecord
  2
block 5
340
0
102
{BLKREFS
331
118
102
}
 70
     0
280
     1
281
     0
  0
BLOCK_RECORD
  5
128
330
1
100
AcDbSymbolTableRecord
100
AcDbBlockTableRecord
  2
block 6
340
0
102
{BLKREFS
331
129
102
}
 70
     0
280
     1
281
     0
  0
BLOCK_RECORD
  5
13C
330
1
100
AcDbSymbolTableRecord
100
AcDbBlockTableRecord
  2
block 7
340
0
102
{BLKREFS
331
13D
102
}
 70
     0
280
     1
281
     0
  0
BLOCK_RECORD
  5
15F
330
1
100
AcDbSymbolTableRecord
100
AcDbBlockTableRecord
  2
block 8
340
0
102
{BLKREFS
331
160
102
}
 70
     0
280
     1
281
     0
  0
ENDTAB
  0
ENDSEC
  0
SECTION
  2
BLOCKS
  0
BLOCK
  5
20
330
1F
100
AcDbEntity
  8
0
100
AcDbBlockBegin
  2
*Model_Space
 70
     0
 10
0.0
 20
0.0
 30
0.0
  3
*Model_Space
  1

  0
ENDBLK
  5
21
330
1F
100
AcDbEntity
  8
0
100
AcDbBlockEnd
  0
BLOCK
  5
1C
330
1B
100
AcDbEntity
 67
     1
  8
0
100
AcDbBlockBegin
  2
*Paper_Space
 70
     0
 10
0.0
 20
0.0
 30
0.0
  3
*Paper_Space
  1

  0
ENDBLK
  5
1D
330
1B
100
AcDbEntity
 67
     1
  8
0
100
AcDbBlockEnd
  0
BLOCK
  5
24
330
23
100
AcDbEntity
  8
0
100
AcDbBlockBegin
  2
*Paper_Space0
 70
     0
 10
0.0
 20
0.0
 30
0.0
  3
*Paper_Space0
  1

  0
ENDBLK
  5
25
330
23
100
AcDbEntity
  8
0
100
AcDbBlockEnd
  0
BLOCK
  5
52
330
50
100
AcDbEntity
  8
0
100
AcDbBlockBegin
  2
block 2
 70
     0
 10
0.0
 20
0.0
 30
0.0
  3
block 2
  1

  0
SPLINE
  5
54
330
50
100
AcDbEntity
  8
_U+30EC_U+30A4_U+30E4_U+30FC 1
370
     0
100
AcDbSpline
210
0.0
220
0.0
230
1.0
 70
    11
 71
     3
 72
    17
 73
    13
 74
     0
 42
0.0000000001
 43
0.0000000001
 12
1.0
 22
0.0
 32
0.0
 13
1.0
 23
0.0
 33
0.0
 40
0.0
 40
0.0
 40
0.0
 40
0.0
 40
1.0
 40
1.0
 40
1.0
 40
2.0
 40
2.0
 40
2.0
 40
3.0
 40
3.0
 40
3.0
 40
4.0
 40
4.0
 40
4.0
 40
4.0
 10
85.50124102680178
 20
-161.3451903893512
 30
0.0
 10
85.40874021302282
 20
-161.239425957954
 30
0.0
 10
85.33828801034946
 20
-161.2011853980678
 30
0.0
 10
85.2568115021233
 20
-161.1694905196035
 30
0.0
 10
85.2568115021233
 20
-161.1694905196035
 30
0.0
 10
85.35310192093604
 20
-161.00447044586
 30
0.0
 10
85.35310192093604
 20
-161.00447044586
 30
0.0
 10
85.43836803419596
 20
-161.0468451203286
 30
0.0
 10
85.54378795604461
 20
-161.1250487878438
 30
0.0
 10
85.59012449032122
 20
-161.1801703156077
 30
0.0
 10
85.59012449032122
 20
-161.1801703156077
 30
0.0
 10
85.50124102680178
 20
-161.3451903893512
 30
0.0
 10
85.50124102680178
 20
-161.3451903893512
 30
0.0
  0
SPLINE
  5
55
330
50
100
AcDbEntity
  8
_U+30EC_U+30A4_U+30E4_U+30FC 1
370
     0
100
AcDbSpline
210
0.0
220
0.0
230
1.0
 70
    11
 71
     3
 72
   182
 73
   178
 74
     0
 42
0.0000000001
 43
0.0000000001
 12
1.0
 22
0.0
 32
0.0
 13
1.0
 23
0.0
 33
0.0
 40
0.0
 40
0.0
 40
0.0
 40
0.0
 40
1.0
 40
1.0
 40
1.0
 40
2.0
 40
2.0
 40
2.0
 40
3.0
 40
3.0
 40
3.0
 40
4.0
 40
4.0
 40
4.0
 40
5.0
 40
5.0
 40
5.0
 40
6.0
 40
6.0
 40
6.0
 40
7.0
 40
7.0
 40
7.0
 40
8.0
 40
8.0
 40
8.0
 40
9.0
 40
9.0
 40
9.0
 40
10.0
 40
10.0
 40
10.0
 40
11.0
 40
11.0
 40
11.0
 40
12.0
 40
12.0
 40
12.0
 40
13.0
 40
13.0
 40
13.0
 40
14.0
 40
14.0
 40
14.0
 40
15.0
 40
15.0
 40
15.0
 40
16.0
 40
16.0
 40
16.0
 40
17.0
 40
17.0
 40
17.0
 40
18.0
 40
18.0
 40
18.0
 40
19.0
 40
19.0
 40
19.0
 40
20.0
 40
20.0
 40
20.0
 40
21.0
 40
21.0
 40
21.0
 40
22.0
 40
22.0
 40
22.0
 40
23.0
 40
23.0
 40
23.0
 40
24.0
 40
24.0
 40
24.0
 40
25.0
 40
25.0
 40
25.0
 40
26.0
 40
26.0
 40
26.0
 40
27.0
 40
27.0
 40
27.0
 40
28.0
 40
28.0
 40
28.0
 40
29.0
 40
29.0
 40
29.0
 40
30.0
 40
30.0
 40
30.0
 40
31.0
 40
31.0
 40
31.0
 40
32.0
 40
32.0
 40
32.0
 40
33.0
 40
33.0
 40
33.0
 40
34.0
 40
34.0
 40
34.0
 40
35.0
 40
35.0
 40
35.0
 40
36.0
 40
36.0
 40
36.0
 40
37.0
 40
37.0
 40
37.0
 40
38.0
 40
38.0
 40
38.0
 40
39.0
 40
39.0
 40
39.0
 40
40.0
 40
40.0
 40
40.0
 40
41.0
 40
41.0
 40
41.0
 40
42.0
 40
42.0
 40
42.0
 40
43.0
 40
43.0
 40
43.0
 40
44.0
 40
44.0
 40
44.0
 40
45.0
 40
45.0
 40
45.0
 40
46.0
 40
46.0
 40
46.0
 40
47.0
 40
47.0
 40
47.0
 40
48.0
 40
48.0
 40
48.0
 40
49.0
 40
49.0
 40
49.0
 40
50.0
 40
50.0
 40
50.0
 40
51.0
 40
51.0
 40
51.0
 40
52.0
 40
52.0
 40
52.0
 40
53.0
 40
53.0
 40
53.0
 40
54.0
 40
54.0
 40
54.0
 40
55.0
 40
55.0
 40
55.0
 40
56.0
 40
56.0
 40
56.0
 40
57.0
 40
57.0
 40
57.0
 40
58.0
 40
58.0
 40
58.0
 40
59.0
 40
59.0
 40
59.0
 40
59.0
 10
86.41608613290987
 20
-162.5234130453067
 30
0.0
 10
86.41608613290987
 20
-162.5234130453067
 30
0.0
 10
85.85866968339644
 20
-162.5234130453067
 30
0.0
 10
85.85866968339644
 20
-162.5234130453067
 30
0.0
 10
85.67160099854738
 20
-162.5234130453067
 30
0.0
 10
85.4828097659557
 20
-162.527547159889
 30
0.0
 10
85.29574108110663
 20
-162.5402940131844
 30
0.0
 10
85.29574108110663
 20
-162.5402940131844
 30
0.0
 10
85.29574108110663
 20
-162.3332437745209
 30
0.0
 10
85.29574108110663
 20
-162.3332437745209
 30
0.0
 10
85.49021672124898
 20
-162.3456461182678
 30
0.0
 10
85.77357582491078
 20
-162.3501247423986
 30
0.0
 10
85.85866968339644
 20
-162.3501247423986
 30
0.0
 10
85.85866968339644
 20
-162.3501247423986
 30
0.0
 10
86.05125052102191
 20
-162.3501247423986
 30
0.0
 10
86.05125052102191
 20
-162.3501247423986
 30
0.0
 10
86.05125052102191
 20
-162.3501247423986
 30
0.0
 10
86.05125052102191
 20
-162.2081868084063
 30
0.0
 10
86.05125052102191
 20
-162.2081868084063
 30
0.0
 10
86.05125052102191
 20
-162.2081868084063
 30
0.0
 10
85.91051837044945
 20
-162.2081868084063
 30
0.0
 10
85.91051837044945
 20
-162.2081868084063
 30
0.0
 10
85.76599661484323
 20
-162.2081868084063
 30
0.0
 10
85.62164711401125
 20
-162.2126654325371
 30
0.0
 10
85.47729761317929
 20
-162.2274793431237
 30
0.0
 10
85.47729761317929
 20
-162.2274793431237
 30
0.0
 10
85.47729761317929
 20
-162.0180175376205
 30
0.0
 10
85.47729761317929
 20
-162.0180175376205
 30
0.0
 10
85.62715926678766
 20
-162.0328314482071
 30
0.0
 10
85.84385577280987
 20
-162.0369655627894
 30
0.0
 10
85.91051837044945
 20
-162.0369655627894
 30
0.0
 10
85.91051837044945
 20
-162.0369655627894
 30
0.0
 10
86.05125052102191
 20
-162.0369655627894
 30
0.0
 10
86.05125052102191
 20
-162.0369655627894
 30
0.0
 10
86.04746091598814
 20
-161.9649630671477
 30
0.0
 10
86.04746091598814
 20
-161.9587618952742
 30
0.0
 10
86.04194876321174
 20
-161.9057074248014
 30
0.0
 10
86.04194876321174
 20
-161.9057074248014
 30
0.0
 10
86.16424965293811
 20
-161.9205213353879
 30
0.0
 10
86.16424965293811
 20
-161.9205213353879
 30
0.0
 10
86.16424965293811
 20
-161.9205213353879
 30
0.0
 10
86.07708873716129
 20
-161.749300089771
 30
0.0
 10
86.07708873716129
 20
-161.749300089771
 30
0.0
 10
86.11791311866149
 20
-161.7555012616445
 30
0.0
 10
86.1826809137842
 20
-161.7641140003576
 30
0.0
 10
86.19749482437076
 20
-161.7641140003576
 30
0.0
 10
86.2419365561305
 20
-161.7641140003576
 30
0.0
 10
86.25675046671707
 20
-161.742754408349
 30
0.0
 10
86.25675046671707
 20
-161.6859103328424
 30
0.0
 10
86.25675046671707
 20
-161.6859103328424
 30
0.0
 10
86.25675046671707
 20
-161.5481065134324
 30
0.0
 10
86.25675046671707
 20
-161.5481065134324
 30
0.0
 10
86.25675046671707
 20
-161.5481065134324
 30
0.0
 10
86.16424965293811
 20
-161.5481065134324
 30
0.0
 10
86.16424965293811
 20
-161.5481065134324
 30
0.0
 10
86.04746091598814
 20
-161.5481065134324
 30
0.0
 10
85.91051837044945
 20
-161.5481065134324
 30
0.0
 10
85.80320364608393
 20
-161.5608533667279
 30
0.0
 10
85.80320364608393
 20
-161.5608533667279
 30
0.0
 10
85.80320364608393
 20
-161.3706840959421
 30
0.0
 10
85.80320364608393
 20
-161.3706840959421
 30
0.0
 10
85.94944794943278
 20
-161.3875650638198
 30
0.0
 10
86.15115829009416
 20
-161.3896321211109
 30
0.0
 10
86.16424965293811
 20
-161.3896321211109
 30
0.0
 10
86.16424965293811
 20
-161.3896321211109
 30
0.0
 10
86.25675046671707
 20
-161.3896321211109
 30
0.0
 10
86.25675046671707
 20
-161.3896321211109
 30
0.0
 10
86.25675046671707
 20
-161.3896321211109
 30
0.0
 10
86.25675046671707
 20
-161.2583739831229
 30
0.0
 10
86.25675046671707
 20
-161.2583739831229
 30
0.0
 10
86.25675046671707
 20
-161.2583739831229
 30
0.0
 10
86.22350529528441
 20
-161.2583739831229
 30
0.0
 10
86.22350529528441
 20
-161.2583739831229
 30
0.0
 10
86.18457571630108
 20
-161.2583739831229
 30
0.0
 10
86.07536618941866
 20
-161.2625080977052
 30
0.0
 10
85.99750703145202
 20
-161.2711208364183
 30
0.0
 10
85.99750703145202
 20
-161.2711208364183
 30
0.0
 10
85.99750703145202
 20
-161.190850111612
 30
0.0
 10
85.99750703145202
 20
-161.190850111612
 30
0.0
 10
85.95134275194967
 20
-161.2287461619498
 30
0.0
 10
85.92894963129554
 20
-161.2435600725363
 30
0.0
 10
85.89208710960337
 20
-161.266986721836
 30
0.0
 10
85.89208710960337
 20
-161.266986721836
 30
0.0
 10
85.72723929063416
 20
-161.1377956411392
 30
0.0
 10
85.72723929063416
 20
-161.1377956411392
 30
0.0
 10
85.79562443601638
 20
-161.1040337053837
 30
0.0
 10
85.93273923632933
 20
-161.0406439484551
 30
0.0
 10
86.06985403664227
 20
-160.8966389571717
 30
0.0
 10
86.14202878705825
 20
-160.8184352896565
 30
0.0
 10
86.21041393244046
 20
-160.7336859407194
 30
0.0
 10
86.25675046671707
 20
-160.6320556239045
 30
0.0
 10
86.25675046671707
 20
-160.6320556239045
 30
0.0
 10
86.44192434904924
 20
-160.6937228330905
 30
0.0
 10
86.44192434904924
 20
-160.6937228330905
 30
0.0
 10
86.4586330621527
 20
-160.6999240049639
 30
0.0
 10
86.46793481996288
 20
-160.708536743677
 30
0.0
 10
86.46793481996288
 20
-160.7209390874239
 30
0.0
 10
86.46793481996288
 20
-160.7381645648502
 30
0.0
 10
86.45673825963581
 20
-160.7443657367236
 30
0.0
 10
86.43451739375595
 20
-160.7571125900191
 30
0.0
 10
86.50496959642932
 20
-160.8542642827031
 30
0.0
 10
86.64759654951867
 20
-160.9517604849357
 30
0.0
 10
86.6772243706918
 20
-160.9707085101045
 30
0.0
 10
86.80865476345409
 20
-161.059591973624
 30
0.0
 10
86.90856253252633
 20
-161.087152737506
 30
0.0
 10
86.97711993268281
 20
-161.1061007626749
 30
0.0
 10
86.97711993268281
 20
-161.1061007626749
 30
0.0
 10
86.87342255857679
 20
-161.2752549510006
 30
0.0
 10
86.87342255857679
 20
-161.2752549510006
 30
0.0
 10
86.79935300564392
 20
-161.2456271298275
 30
0.0
 10
86.75491127388419
 20
-161.2266791046586
 30
0.0
 10
86.65121389977817
 20
-161.1612222904389
 30
0.0
 10
86.65121389977817
 20
-161.1612222904389
 30
0.0
 10
86.65121389977817
 20
-161.2711208364183
 30
0.0
 10
86.65121389977817
 20
-161.2711208364183
 30
0.0
 10
86.57903914936219
 20
-161.2625080977052
 30
0.0
 10
86.46793481996288
 20
-161.2583739831229
 30
0.0
 10
86.42159828568627
 20
-161.2583739831229
 30
0.0
 10
86.42159828568627
 20
-161.2583739831229
 30
0.0
 10
86.42159828568627
 20
-161.3896321211109
 30
0.0
 10
86.42159828568627
 20
-161.3896321211109
 30
0.0
 10
86.42159828568627
 20
-161.3896321211109
 30
0.0
 10
86.52719046230918
 20
-161.3896321211109
 30
0.0
 10
86.52719046230918
 20
-161.3896321211109
 30
0.0
 10
86.52908526482607
 20
-161.3896321211109
 30
0.0
 10
86.73269040800433
 20
-161.3875650638198
 30
0.0
 10
86.88823646916336
 20
-161.3706840959421
 30
0.0
 10
86.88823646916336
 20
-161.3706840959421
 30
0.0
 10
86.88823646916336
 20
-161.5608533667279
 30
0.0
 10
86.88823646916336
 20
-161.5608533667279
 30
0.0
 10
86.77523733724716
 20
-161.5481065134324
 30
0.0
 10
86.63829479170849
 20
-161.5481065134324
 30
0.0
 10
86.52719046230918
 20
-161.5481065134324
 30
0.0
 10
86.52719046230918
 20
-161.5481065134324
 30
0.0
 10
86.42159828568627
 20
-161.5481065134324
 30
0.0
 10
86.42159828568627
 20
-161.5481065134324
 30
0.0
 10
86.42159828568627
 20
-161.5481065134324
 30
0.0
 10
86.42159828568627
 20
-161.7744492868133
 30
0.0
 10
86.42159828568627
 20
-161.7744492868133
 30
0.0
 10
86.42159828568627
 20
-161.8929605715059
 30
0.0
 10
86.39937741980641
 20
-161.9291340741011
 30
0.0
 10
86.25864526923395
 20
-161.9439479846876
 30
0.0
 10
86.26243487426773
 20
-161.9628960098565
 30
0.0
 10
86.25675046671707
 20
-161.9735758058608
 30
0.0
 10
86.22350529528441
 20
-161.996657945612
 30
0.0
 10
86.22161049276752
 20
-162.0156059707808
 30
0.0
 10
86.22161049276752
 20
-162.0221516522028
 30
0.0
 10
86.21971569025062
 20
-162.0369655627894
 30
0.0
 10
86.21971569025062
 20
-162.0369655627894
 30
0.0
 10
86.34012177746011
 20
-162.0369655627894
 30
0.0
 10
86.34012177746011
 20
-162.0369655627894
 30
0.0
 10
86.48464353306635
 20
-162.0369655627894
 30
0.0
 10
86.6308878364152
 20
-162.0328314482071
 30
0.0
 10
86.77713213976405
 20
-162.0180175376205
 30
0.0
 10
86.77713213976405
 20
-162.0180175376205
 30
0.0
 10
86.77713213976405
 20
-162.225067776284
 30
0.0
 10
86.77713213976405
 20
-162.225067776284
 30
0.0
 10
86.58834090717237
 20
-162.2081868084063
 30
0.0
 10
86.35683049056357
 20
-162.2081868084063
 30
0.0
 10
86.34012177746011
 20
-162.2081868084063
 30
0.0
 10
86.34012177746011
 20
-162.2081868084063
 30
0.0
 10
86.217993142508
 20
-162.2081868084063
 30
0.0
 10
86.217993142508
 20
-162.2081868084063
 30
0.0
 10
86.217993142508
 20
-162.2081868084063
 30
0.0
 10
86.217993142508
 20
-162.3501247423986
 30
0.0
 10
86.217993142508
 20
-162.3501247423986
 30
0.0
 10
86.217993142508
 20
-162.3501247423986
 30
0.0
 10
86.41608613290987
 20
-162.3501247423986
 30
0.0
 10
86.41608613290987
 20
-162.3501247423986
 30
0.0
 10
86.60487736550157
 20
-162.3501247423986
 30
0.0
 10
86.7957356553844
 20
-162.3456461182678
 30
0.0
 10
86.98452688797609
 20
-162.3332437745209
 30
0.0
 10
86.98452688797609
 20
-162.3332437745209
 30
0.0
 10
86.98452688797609
 20
-162.5402940131844
 30
0.0
 10
86.98452688797609
 20
-162.5402940131844
 30
0.0
 10
86.73820256078073
 20
-162.5234130453067
 30
0.0
 10
86.43641219627284
 20
-162.5234130453067
 30
0.0
 10
86.41608613290987
 20
-162.5234130453067
 30
0.0
  0
SPLINE
  5
56
330
50
100
AcDbEntity
  8
_U+30EC_U+30A4_U+30E4_U+30FC 1
370
     0
100
AcDbSpline
210
0.0
220
0.0
230
1.0
 70
    11
 71
     3
 72
    23
 73
    19
 74
     0
 42
0.0000000001
 43
0.0000000001
 12
1.0
 22
0.0
 32
0.0
 13
1.0
 23
0.0
 33
0.0
 40
0.0
 40
0.0
 40
0.0
 40
0.0
 40
1.0
 40
1.0
 40
1.0
 40
2.0
 40
2.0
 40
2.0
 40
3.0
 40
3.0
 40
3.0
 40
4.0
 40
4.0
 40
4.0
 40
5.0
 40
5.0
 40
5.0
 40
6.0
 40
6.0
 40
6.0
 40
6.0
 10
85.43647323167907
 20
-161.8950276287971
 30
0.0
 10
85.43647323167907
 20
-161.9163872208056
 30
0.0
 10
85.43836803419596
 20
-161.9542832711434
 30
0.0
 10
85.4161471683161
 20
-161.9542832711434
 30
0.0
 10
85.40684541050594
 20
-161.9542832711434
 30
0.0
 10
85.39943845521265
 20
-161.9480820992699
 30
0.0
 10
85.39013669740247
 20
-161.9312011313922
 30
0.0
 10
85.39013669740247
 20
-161.9312011313922
 30
0.0
 10
85.2995306861404
 20
-161.749300089771
 30
0.0
 10
85.2995306861404
 20
-161.749300089771
 30
0.0
 10
85.48832191873208
 20
-161.6201090090742
 30
0.0
 10
85.66057669299458
 20
-161.3431233320601
 30
0.0
 10
85.70122881972053
 20
-161.2711208364183
 30
0.0
 10
85.70122881972053
 20
-161.2711208364183
 30
0.0
 10
85.7642740671006
 20
-161.4509548207484
 30
0.0
 10
85.7642740671006
 20
-161.4509548207484
 30
0.0
 10
85.64748533015063
 20
-161.6476697729561
 30
0.0
 10
85.49383407150849
 20
-161.8316378718685
 30
0.0
 10
85.43647323167907
 20
-161.8950276287971
 30
0.0
  0
SPLINE
  5
57
330
50
100
AcDbEntity
  8
_U+30EC_U+30A4_U+30E4_U+30FC 1
370
     0
100
AcDbSpline
210
0.0
220
0.0
230
1.0
 70
    11
 71
     3
 72
    17
 73
    13
 74
     0
 42
0.0000000001
 43
0.0000000001
 12
1.0
 22
0.0
 32
0.0
 13
1.0
 23
0.0
 33
0.0
 40
0.0
 40
0.0
 40
0.0
 40
0.0
 40
1.0
 40
1.0
 40
1.0
 40
2.0
 40
2.0
 40
2.0
 40
3.0
 40
3.0
 40
3.0
 40
4.0
 40
4.0
 40
4.0
 40
4.0
 10
85.6586818904777
 20
-161.0003363312777
 30
0.0
 10
85.6049384009078
 20
-160.9241997210537
 30
0.0
 10
85.49211152376587
 20
-160.8480631108297
 30
0.0
 10
85.40133325772953
 20
-160.8184352896565
 30
0.0
 10
85.40133325772953
 20
-160.8184352896565
 30
0.0
 10
85.48453231369831
 20
-160.653415215913
 30
0.0
 10
85.48453231369831
 20
-160.653415215913
 30
0.0
 10
85.57341577721776
 20
-160.6892442089596
 30
0.0
 10
85.66608884577099
 20
-160.7464327940148
 30
0.0
 10
85.74394800373763
 20
-160.8267035188211
 30
0.0
 10
85.74394800373763
 20
-160.8267035188211
 30
0.0
 10
85.6586818904777
 20
-161.0003363312777
 30
0.0
 10
85.6586818904777
 20
-161.0003363312777
 30
0.0
  0
SPLINE
  5
58
330
50
100
AcDbEntity
  8
_U+30EC_U+30A4_U+30E4_U+30FC 1
370
     0
100
AcDbSpline
210
0.0
220
0.0
230
1.0
 70
    11
 71
     3
 72
    23
 73
    19
 74
     0
 42
0.0000000001
 43
0.0000000001
 12
1.0
 22
0.0
 32
0.0
 13
1.0
 23
0.0
 33
0.0
 40
0.0
 40
0.0
 40
0.0
 40
0.0
 40
1.0
 40
1.0
 40
1.0
 40
2.0
 40
2.0
 40
2.0
 40
3.0
 40
3.0
 40
3.0
 40
4.0
 40
4.0
 40
4.0
 40
5.0
 40
5.0
 40
5.0
 40
6.0
 40
6.0
 40
6.0
 40
6.0
 10
86.05504012605569
 20
-161.7048583580113
 30
0.0
 10
86.03643661043535
 20
-161.7279404977625
 30
0.0
 10
85.95134275194967
 20
-161.8402506105816
 30
0.0
 10
85.82904186222329
 20
-161.9205213353879
 30
0.0
 10
85.82904186222329
 20
-161.9205213353879
 30
0.0
 10
85.68279755887444
 20
-161.7999429934042
 30
0.0
 10
85.68279755887444
 20
-161.7999429934042
 30
0.0
 10
85.81422795163672
 20
-161.7238063831802
 30
0.0
 10
85.90121661263929
 20
-161.6287217477873
 30
0.0
 10
85.94376354188212
 20
-161.5756672773144
 30
0.0
 10
85.94376354188212
 20
-161.5756672773144
 30
0.0
 10
86.09569225278163
 20
-161.6583495689604
 30
0.0
 10
86.09569225278163
 20
-161.6583495689604
 30
0.0
 10
86.10309920807492
 20
-161.6624836835427
 30
0.0
 10
86.11050616336821
 20
-161.6686848554162
 30
0.0
 10
86.11050616336821
 20
-161.6793646514205
 30
0.0
 10
86.11050616336821
 20
-161.7048583580113
 30
0.0
 10
86.07898353967818
 20
-161.7048583580113
 30
0.0
 10
86.05504012605569
 20
-161.7048583580113
 30
0.0
  0
SPLINE
  5
59
330
50
100
AcDbEntity
  8
_U+30EC_U+30A4_U+30E4_U+30FC 1
370
     0
100
AcDbSpline
210
0.0
220
0.0
230
1.0
 70
    11
 71
     3
 72
    20
 73
    16
 74
     0
 42
0.0000000001
 43
0.0000000001
 12
1.0
 22
0.0
 32
0.0
 13
1.0
 23
0.0
 33
0.0
 40
0.0
 40
0.0
 40
0.0
 40
0.0
 40
1.0
 40
1.0
 40
1.0
 40
2.0
 40
2.0
 40
2.0
 40
3.0
 40
3.0
 40
3.0
 40
4.0
 40
4.0
 40
4.0
 40
5.0
 40
5.0
 40
5.0
 40
5.0
 10
86.31600610906337
 20
-160.8628770214162
 30
0.0
 10
86.2827609376307
 20
-160.9114528677582
 30
0.0
 10
86.2290174480608
 20
-160.9896565352734
 30
0.0
 10
86.10671655833444
 20
-161.0998995908014
 30
0.0
 10
86.17716876100779
 20
-161.1040337053837
 30
0.0
 10
86.20317923192142
 20
-161.1040337053837
 30
0.0
 10
86.22350529528441
 20
-161.1040337053837
 30
0.0
 10
86.22350529528441
 20
-161.1040337053837
 30
0.0
 10
86.42349308820316
 20
-161.1040337053837
 30
0.0
 10
86.42349308820316
 20
-161.1040337053837
 30
0.0
 10
86.45122610685942
 20
-161.1040337053837
 30
0.0
 10
86.49377303610225
 20
-161.1019666480926
 30
0.0
 10
86.55871308599922
 20
-161.0998995908014
 30
0.0
 10
86.4605278646696
 20
-161.0258300378686
 30
0.0
 10
86.4178086806525
 20
-160.9793212488177
 30
0.0
 10
86.31600610906337
 20
-160.8628770214162
 30
0.0
  0
SPLINE
  5
5A
330
50
100
AcDbEntity
  8
_U+30EC_U+30A4_U+30E4_U+30FC 1
370
     0
100
AcDbSpline
210
0.0
220
0.0
230
1.0
 70
    11
 71
     3
 72
    17
 73
    13
 74
     0
 42
0.0000000001
 43
0.0000000001
 12
1.0
 22
0.0
 32
0.0
 13
1.0
 23
0.0
 33
0.0
 40
0.0
 40
0.0
 40
0.0
 40
0.0
 40
1.0
 40
1.0
 40
1.0
 40
2.0
 40
2.0
 40
2.0
 40
3.0
 40
3.0
 40
3.0
 40
4.0
 40
4.0
 40
4.0
 40
4.0
 10
86.8067599609372
 20
-161.9184542780968
 30
0.0
 10
86.68824867624461
 20
-161.8064886748262
 30
0.0
 10
86.59557560769139
 20
-161.742754408349
 30
0.0
 10
86.49187823358537
 20
-161.6793646514205
 30
0.0
 10
86.49187823358537
 20
-161.6793646514205
 30
0.0
 10
86.60315481775893
 20
-161.5673990481498
 30
0.0
 10
86.60315481775893
 20
-161.5673990481498
 30
0.0
 10
86.71787649741776
 20
-161.6139078372007
 30
0.0
 10
86.81416691623049
 20
-161.6710964222559
 30
0.0
 10
86.92337644311291
 20
-161.7723822295222
 30
0.0
 10
86.92337644311291
 20
-161.7723822295222
 30
0.0
 10
86.8067599609372
 20
-161.9184542780968
 30
0.0
 10
86.8067599609372
 20
-161.9184542780968
 30
0.0
  0
HATCH
  5
5B
330
50
100
AcDbEntity
  8
_U+30EC_U+30A4_U+30E4_U+30FC 1
 62
   179
420
  2234388
100
AcDbHatch
 10
0.0
 20
0.0
 30
0.0
210
0.0
220
0.0
230
1.0
  2
SOLID
 70
     1
 71
     0
 91
        7
 92
        1
 93
        1
 72
     4
 94
        3
 73
     0
 74
     1
 95
       17
 96
       13
 40
0.0
 40
0.0
 40
0.0
 40
0.0
 40
1.0
 40
1.0
 40
1.0
 40
2.0
 40
2.0
 40
2.0
 40
3.0
 40
3.0
 40
3.0
 40
4.0
 40
4.0
 40
4.0
 40
4.0
 10
85.50124102680178
 20
-161.3451903893512
 10
85.40874021302282
 20
-161.239425957954
 10
85.33828801034946
 20
-161.2011853980678
 10
85.2568115021233
 20
-161.1694905196035
 10
85.2568115021233
 20
-161.1694905196035
 10
85.35310192093604
 20
-161.00447044586
 10
85.35310192093604
 20
-161.00447044586
 10
85.43836803419596
 20
-161.0468451203286
 10
85.54378795604461
 20
-161.1250487878438
 10
85.59012449032122
 20
-161.1801703156077
 10
85.59012449032122
 20
-161.1801703156077
 10
85.50124102680178
 20
-161.3451903893512
 10
85.50124102680178
 20
-161.3451903893512
 97
        0
 97
        0
 92
        1
 93
        1
 72
     4
 94
        3
 73
     0
 74
     1
 95
      182
 96
      178
 40
0.0
 40
0.0
 40
0.0
 40
0.0
 40
1.0
 40
1.0
 40
1.0
 40
2.0
 40
2.0
 40
2.0
 40
3.0
 40
3.0
 40
3.0
 40
4.0
 40
4.0
 40
4.0
 40
5.0
 40
5.0
 40
5.0
 40
6.0
 40
6.0
 40
6.0
 40
7.0
 40
7.0
 40
7.0
 40
8.0
 40
8.0
 40
8.0
 40
9.0
 40
9.0
 40
9.0
 40
10.0
 40
10.0
 40
10.0
 40
11.0
 40
11.0
 40
11.0
 40
12.0
 40
12.0
 40
12.0
 40
13.0
 40
13.0
 40
13.0
 40
14.0
 40
14.0
 40
14.0
 40
15.0
 40
15.0
 40
15.0
 40
16.0
 40
16.0
 40
16.0
 40
17.0
 40
17.0
 40
17.0
 40
18.0
 40
18.0
 40
18.0
 40
19.0
 40
19.0
 40
19.0
 40
20.0
 40
20.0
 40
20.0
 40
21.0
 40
21.0
 40
21.0
 40
22.0
 40
22.0
 40
22.0
 40
23.0
 40
23.0
 40
23.0
 40
24.0
 40
24.0
 40
24.0
 40
25.0
 40
25.0
 40
25.0
 40
26.0
 40
26.0
 40
26.0
 40
27.0
 40
27.0
 40
27.0
 40
28.0
 40
28.0
 40
28.0
 40
29.0
 40
29.0
 40
29.0
 40
30.0
 40
30.0
 40
30.0
 40
31.0
 40
31.0
 40
31.0
 40
32.0
 40
32.0
 40
32.0
 40
33.0
 40
33.0
 40
33.0
 40
34.0
 40
34.0
 40
34.0
 40
35.0
 40
35.0
 40
35.0
 40
36.0
 40
36.0
 40
36.0
 40
37.0
 40
37.0
 40
37.0
 40
38.0
 40
38.0
 40
38.0
 40
39.0
 40
39.0
 40
39.0
 40
40.0
 40
40.0
 40
40.0
 40
41.0
 40
41.0
 40
41.0
 40
42.0
 40
42.0
 40
42.0
 40
43.0
 40
43.0
 40
43.0
 40
44.0
 40
44.0
 40
44.0
 40
45.0
 40
45.0
 40
45.0
 40
46.0
 40
46.0
 40
46.0
 40
47.0
 40
47.0
 40
47.0
 40
48.0
 40
48.0
 40
48.0
 40
49.0
 40
49.0
 40
49.0
 40
50.0
 40
50.0
 40
50.0
 40
51.0
 40
51.0
 40
51.0
 40
52.0
 40
52.0
 40
52.0
 40
53.0
 40
53.0
 40
53.0
 40
54.0
 40
54.0
 40
54.0
 40
55.0
 40
55.0
 40
55.0
 40
56.0
 40
56.0
 40
56.0
 40
57.0
 40
57.0
 40
57.0
 40
58.0
 40
58.0
 40
58.0
 40
59.0
 40
59.0
 40
59.0
 40
59.0
 10
86.41608613290987
 20
-162.5234130453067
 10
86.41608613290987
 20
-162.5234130453067
 10
85.85866968339644
 20
-162.5234130453067
 10
85.85866968339644
 20
-162.5234130453067
 10
85.67160099854738
 20
-162.5234130453067
 10
85.4828097659557
 20
-162.527547159889
 10
85.29574108110663
 20
-162.5402940131844
 10
85.29574108110663
 20
-162.5402940131844
 10
85.29574108110663
 20
-162.3332437745209
 10
85.29574108110663
 20
-162.3332437745209
 10
85.49021672124898
 20
-162.3456461182678
 10
85.77357582491078
 20
-162.3501247423986
 10
85.85866968339644
 20
-162.3501247423986
 10
85.85866968339644
 20
-162.3501247423986
 10
86.05125052102191
 20
-162.3501247423986
 10
86.05125052102191
 20
-162.3501247423986
 10
86.05125052102191
 20
-162.3501247423986
 10
86.05125052102191
 20
-162.2081868084063
 10
86.05125052102191
 20
-162.2081868084063
 10
86.05125052102191
 20
-162.2081868084063
 10
85.91051837044945
 20
-162.2081868084063
 10
85.91051837044945
 20
-162.2081868084063
 10
85.76599661484323
 20
-162.2081868084063
 10
85.62164711401125
 20
-162.2126654325371
 10
85.47729761317929
 20
-162.2274793431237
 10
85.47729761317929
 20
-162.2274793431237
 10
85.47729761317929
 20
-162.0180175376205
 10
85.47729761317929
 20
-162.0180175376205
 10
85.62715926678766
 20
-162.0328314482071
 10
85.84385577280987
 20
-162.0369655627894
 10
85.91051837044945
 20
-162.0369655627894
 10
85.91051837044945
 20
-162.0369655627894
 10
86.05125052102191
 20
-162.0369655627894
 10
86.05125052102191
 20
-162.0369655627894
 10
86.04746091598814
 20
-161.9649630671477
 10
86.04746091598814
 20
-161.9587618952742
 10
86.04194876321174
 20
-161.9057074248014
 10
86.04194876321174
 20
-161.9057074248014
 10
86.16424965293811
 20
-161.9205213353879
 10
86.16424965293811
 20
-161.9205213353879
 10
86.16424965293811
 20
-161.9205213353879
 10
86.07708873716129
 20
-161.749300089771
 10
86.07708873716129
 20
-161.749300089771
 10
86.11791311866149
 20
-161.7555012616445
 10
86.1826809137842
 20
-161.7641140003576
 10
86.19749482437076
 20
-161.7641140003576
 10
86.2419365561305
 20
-161.7641140003576
 10
86.25675046671707
 20
-161.742754408349
 10
86.25675046671707
 20
-161.6859103328424
 10
86.25675046671707
 20
-161.6859103328424
 10
86.25675046671707
 20
-161.5481065134324
 10
86.25675046671707
 20
-161.5481065134324
 10
86.25675046671707
 20
-161.5481065134324
 10
86.16424965293811
 20
-161.5481065134324
 10
86.16424965293811
 20
-161.5481065134324
 10
86.04746091598814
 20
-161.5481065134324
 10
85.91051837044945
 20
-161.5481065134324
 10
85.80320364608393
 20
-161.5608533667279
 10
85.80320364608393
 20
-161.5608533667279
 10
85.80320364608393
 20
-161.3706840959421
 10
85.80320364608393
 20
-161.3706840959421
 10
85.94944794943278
 20
-161.3875650638198
 10
86.15115829009416
 20
-161.3896321211109
 10
86.16424965293811
 20
-161.3896321211109
 10
86.16424965293811
 20
-161.3896321211109
 10
86.25675046671707
 20
-161.3896321211109
 10
86.25675046671707
 20
-161.3896321211109
 10
86.25675046671707
 20
-161.3896321211109
 10
86.25675046671707
 20
-161.2583739831229
 10
86.25675046671707
 20
-161.2583739831229
 10
86.25675046671707
 20
-161.2583739831229
 10
86.22350529528441
 20
-161.2583739831229
 10
86.22350529528441
 20
-161.2583739831229
 10
86.18457571630108
 20
-161.2583739831229
 10
86.07536618941866
 20
-161.2625080977052
 10
85.99750703145202
 20
-161.2711208364183
 10
85.99750703145202
 20
-161.2711208364183
 10
85.99750703145202
 20
-161.190850111612
 10
85.99750703145202
 20
-161.190850111612
 10
85.95134275194967
 20
-161.2287461619498
 10
85.92894963129554
 20
-161.2435600725363
 10
85.89208710960337
 20
-161.266986721836
 10
85.89208710960337
 20
-161.266986721836
 10
85.72723929063416
 20
-161.1377956411392
 10
85.72723929063416
 20
-161.1377956411392
 10
85.79562443601638
 20
-161.1040337053837
 10
85.93273923632933
 20
-161.0406439484551
 10
86.06985403664227
 20
-160.8966389571717
 10
86.14202878705825
 20
-160.8184352896565
 10
86.21041393244046
 20
-160.7336859407194
 10
86.25675046671707
 20
-160.6320556239045
 10
86.25675046671707
 20
-160.6320556239045
 10
86.44192434904924
 20
-160.6937228330905
 10
86.44192434904924
 20
-160.6937228330905
 10
86.4586330621527
 20
-160.6999240049639
 10
86.46793481996288
 20
-160.708536743677
 10
86.46793481996288
 20
-160.7209390874239
 10
86.46793481996288
 20
-160.7381645648502
 10
86.45673825963581
 20
-160.7443657367236
 10
86.43451739375595
 20
-160.7571125900191
 10
86.50496959642932
 20
-160.8542642827031
 10
86.64759654951867
 20
-160.9517604849357
 10
86.6772243706918
 20
-160.9707085101045
 10
86.80865476345409
 20
-161.059591973624
 10
86.90856253252633
 20
-161.087152737506
 10
86.97711993268281
 20
-161.1061007626749
 10
86.97711993268281
 20
-161.1061007626749
 10
86.87342255857679
 20
-161.2752549510006
 10
86.87342255857679
 20
-161.2752549510006
 10
86.79935300564392
 20
-161.2456271298275
 10
86.75491127388419
 20
-161.2266791046586
 10
86.65121389977817
 20
-161.1612222904389
 10
86.65121389977817
 20
-161.1612222904389
 10
86.65121389977817
 20
-161.2711208364183
 10
86.65121389977817
 20
-161.2711208364183
 10
86.57903914936219
 20
-161.2625080977052
 10
86.46793481996288
 20
-161.2583739831229
 10
86.42159828568627
 20
-161.2583739831229
 10
86.42159828568627
 20
-161.2583739831229
 10
86.42159828568627
 20
-161.3896321211109
 10
86.42159828568627
 20
-161.3896321211109
 10
86.42159828568627
 20
-161.3896321211109
 10
86.52719046230918
 20
-161.3896321211109
 10
86.52719046230918
 20
-161.3896321211109
 10
86.52908526482607
 20
-161.3896321211109
 10
86.73269040800433
 20
-161.3875650638198
 10
86.88823646916336
 20
-161.3706840959421
 10
86.88823646916336
 20
-161.3706840959421
 10
86.88823646916336
 20
-161.5608533667279
 10
86.88823646916336
 20
-161.5608533667279
 10
86.77523733724716
 20
-161.5481065134324
 10
86.63829479170849
 20
-161.5481065134324
 10
86.52719046230918
 20
-161.5481065134324
 10
86.52719046230918
 20
-161.5481065134324
 10
86.42159828568627
 20
-161.5481065134324
 10
86.42159828568627
 20
-161.5481065134324
 10
86.42159828568627
 20
-161.5481065134324
 10
86.42159828568627
 20
-161.7744492868133
 10
86.42159828568627
 20
-161.7744492868133
 10
86.42159828568627
 20
-161.8929605715059
 10
86.39937741980641
 20
-161.9291340741011
 10
86.25864526923395
 20
-161.9439479846876
 10
86.26243487426773
 20
-161.9628960098565
 10
86.25675046671707
 20
-161.9735758058608
 10
86.22350529528441
 20
-161.996657945612
 10
86.22161049276752
 20
-162.0156059707808
 10
86.22161049276752
 20
-162.0221516522028
 10
86.21971569025062
 20
-162.0369655627894
 10
86.21971569025062
 20
-162.0369655627894
 10
86.34012177746011
 20
-162.0369655627894
 10
86.34012177746011
 20
-162.0369655627894
 10
86.48464353306635
 20
-162.0369655627894
 10
86.6308878364152
 20
-162.0328314482071
 10
86.77713213976405
 20
-162.0180175376205
 10
86.77713213976405
 20
-162.0180175376205
 10
86.77713213976405
 20
-162.225067776284
 10
86.77713213976405
 20
-162.225067776284
 10
86.58834090717237
 20
-162.2081868084063
 10
86.35683049056357
 20
-162.2081868084063
 10
86.34012177746011
 20
-162.2081868084063
 10
86.34012177746011
 20
-162.2081868084063
 10
86.217993142508
 20
-162.2081868084063
 10
86.217993142508
 20
-162.2081868084063
 10
86.217993142508
 20
-162.2081868084063
 10
86.217993142508
 20
-162.3501247423986
 10
86.217993142508
 20
-162.3501247423986
 10
86.217993142508
 20
-162.3501247423986
 10
86.41608613290987
 20
-162.3501247423986
 10
86.41608613290987
 20
-162.3501247423986
 10
86.60487736550157
 20
-162.3501247423986
 10
86.7957356553844
 20
-162.3456461182678
 10
86.98452688797609
 20
-162.3332437745209
 10
86.98452688797609
 20
-162.3332437745209
 10
86.98452688797609
 20
-162.5402940131844
 10
86.98452688797609
 20
-162.5402940131844
 10
86.73820256078073
 20
-162.5234130453067
 10
86.43641219627284
 20
-162.5234130453067
 10
86.41608613290987
 20
-162.5234130453067
 97
        0
 97
        0
 92
        1
 93
        1
 72
     4
 94
        3
 73
     0
 74
     1
 95
       23
 96
       19
 40
0.0
 40
0.0
 40
0.0
 40
0.0
 40
1.0
 40
1.0
 40
1.0
 40
2.0
 40
2.0
 40
2.0
 40
3.0
 40
3.0
 40
3.0
 40
4.0
 40
4.0
 40
4.0
 40
5.0
 40
5.0
 40
5.0
 40
6.0
 40
6.0
 40
6.0
 40
6.0
 10
85.43647323167907
 20
-161.8950276287971
 10
85.43647323167907
 20
-161.9163872208056
 10
85.43836803419596
 20
-161.9542832711434
 10
85.4161471683161
 20
-161.9542832711434
 10
85.40684541050594
 20
-161.9542832711434
 10
85.39943845521265
 20
-161.9480820992699
 10
85.39013669740247
 20
-161.9312011313922
 10
85.39013669740247
 20
-161.9312011313922
 10
85.2995306861404
 20
-161.749300089771
 10
85.2995306861404
 20
-161.749300089771
 10
85.48832191873208
 20
-161.6201090090742
 10
85.66057669299458
 20
-161.3431233320601
 10
85.70122881972053
 20
-161.2711208364183
 10
85.70122881972053
 20
-161.2711208364183
 10
85.7642740671006
 20
-161.4509548207484
 10
85.7642740671006
 20
-161.4509548207484
 10
85.64748533015063
 20
-161.6476697729561
 10
85.49383407150849
 20
-161.8316378718685
 10
85.43647323167907
 20
-161.8950276287971
 97
        0
 97
        0
 92
        1
 93
        1
 72
     4
 94
        3
 73
     0
 74
     1
 95
       17
 96
       13
 40
0.0
 40
0.0
 40
0.0
 40
0.0
 40
1.0
 40
1.0
 40
1.0
 40
2.0
 40
2.0
 40
2.0
 40
3.0
 40
3.0
 40
3.0
 40
4.0
 40
4.0
 40
4.0
 40
4.0
 10
85.6586818904777
 20
-161.0003363312777
 10
85.6049384009078
 20
-160.9241997210537
 10
85.49211152376587
 20
-160.8480631108297
 10
85.40133325772953
 20
-160.8184352896565
 10
85.40133325772953
 20
-160.8184352896565
 10
85.48453231369831
 20
-160.653415215913
 10
85.48453231369831
 20
-160.653415215913
 10
85.57341577721776
 20
-160.6892442089596
 10
85.66608884577099
 20
-160.7464327940148
 10
85.74394800373763
 20
-160.8267035188211
 10
85.74394800373763
 20
-160.8267035188211
 10
85.6586818904777
 20
-161.0003363312777
 10
85.6586818904777
 20
-161.0003363312777
 97
        0
 97
        0
 92
        1
 93
        1
 72
     4
 94
        3
 73
     0
 74
     1
 95
       23
 96
       19
 40
0.0
 40
0.0
 40
0.0
 40
0.0
 40
1.0
 40
1.0
 40
1.0
 40
2.0
 40
2.0
 40
2.0
 40
3.0
 40
3.0
 40
3.0
 40
4.0
 40
4.0
 40
4.0
 40
5.0
 40
5.0
 40
5.0
 40
6.0
 40
6.0
 40
6.0
 40
6.0
 10
86.05504012605569
 20
-161.7048583580113
 10
86.03643661043535
 20
-161.7279404977625
 10
85.95134275194967
 20
-161.8402506105816
 10
85.82904186222329
 20
-161.9205213353879
 10
85.82904186222329
 20
-161.9205213353879
 10
85.68279755887444
 20
-161.7999429934042
 10
85.68279755887444
 20
-161.7999429934042
 10
85.81422795163672
 20
-161.7238063831802
 10
85.90121661263929
 20
-161.6287217477873
 10
85.94376354188212
 20
-161.5756672773144
 10
85.94376354188212
 20
-161.5756672773144
 10
86.09569225278163
 20
-161.6583495689604
 10
86.09569225278163
 20
-161.6583495689604
 10
86.10309920807492
 20
-161.6624836835427
 10
86.11050616336821
 20
-161.6686848554162
 10
86.11050616336821
 20
-161.6793646514205
 10
86.11050616336821
 20
-161.7048583580113
 10
86.07898353967818
 20
-161.7048583580113
 10
86.05504012605569
 20
-161.7048583580113
 97
        0
 97
        0
 92
        1
 93
        1
 72
     4
 94
        3
 73
     0
 74
     1
 95
       20
 96
       16
 40
0.0
 40
0.0
 40
0.0
 40
0.0
 40
1.0
 40
1.0
 40
1.0
 40
2.0
 40
2.0
 40
2.0
 40
3.0
 40
3.0
 40
3.0
 40
4.0
 40
4.0
 40
4.0
 40
5.0
 40
5.0
 40
5.0
 40
5.0
 10
86.31600610906337
 20
-160.8628770214162
 10
86.2827609376307
 20
-160.9114528677582
 10
86.2290174480608
 20
-160.9896565352734
 10
86.10671655833444
 20
-161.0998995908014
 10
86.17716876100779
 20
-161.1040337053837
 10
86.20317923192142
 20
-161.1040337053837
 10
86.22350529528441
 20
-161.1040337053837
 10
86.22350529528441
 20
-161.1040337053837
 10
86.42349308820316
 20
-161.1040337053837
 10
86.42349308820316
 20
-161.1040337053837
 10
86.45122610685942
 20
-161.1040337053837
 10
86.49377303610225
 20
-161.1019666480926
 10
86.55871308599922
 20
-161.0998995908014
 10
86.4605278646696
 20
-161.0258300378686
 10
86.4178086806525
 20
-160.9793212488177
 10
86.31600610906337
 20
-160.8628770214162
 97
        0
 97
        0
 92
        1
 93
        1
 72
     4
 94
        3
 73
     0
 74
     1
 95
       17
 96
       13
 40
0.0
 40
0.0
 40
0.0
 40
0.0
 40
1.0
 40
1.0
 40
1.0
 40
2.0
 40
2.0
 40
2.0
 40
3.0
 40
3.0
 40
3.0
 40
4.0
 40
4.0
 40
4.0
 40
4.0
 10
86.8067599609372
 20
-161.9184542780968
 10
86.68824867624461
 20
-161.8064886748262
 10
86.59557560769139
 20
-161.742754408349
 10
86.49187823358537
 20
-161.6793646514205
 10
86.49187823358537
 20
-161.6793646514205
 10
86.60315481775893
 20
-161.5673990481498
 10
86.60315481775893
 20
-161.5673990481498
 10
86.71787649741776
 20
-161.6139078372007
 10
86.81416691623049
 20
-161.6710964222559
 10
86.92337644311291
 20
-161.7723822295222
 10
86.92337644311291
 20
-161.7723822295222
 10
86.8067599609372
 20
-161.9184542780968
 10
86.8067599609372
 20
-161.9184542780968
 97
        0
 97
        0
 75
     2
 76
     1
 98
        0
  0
SPLINE
  5
5C
330
50
100
AcDbEntity
  8
_U+30EC_U+30A4_U+30E4_U+30FC 1
370
     0
100
AcDbSpline
210
0.0
220
0.0
230
1.0
 70
    11
 71
     3
 72
   113
 73
   109
 74
     0
 42
0.0000000001
 43
0.0000000001
 12
1.0
 22
0.0
 32
0.0
 13
1.0
 23
0.0
 33
0.0
 40
0.0
 40
0.0
 40
0.0
 40
0.0
 40
1.0
 40
1.0
 40
1.0
 40
2.0
 40
2.0
 40
2.0
 40
3.0
 40
3.0
 40
3.0
 40
4.0
 40
4.0
 40
4.0
 40
5.0
 40
5.0
 40
5.0
 40
6.0
 40
6.0
 40
6.0
 40
7.0
 40
7.0
 40
7.0
 40
8.0
 40
8.0
 40
8.0
 40
9.0
 40
9.0
 40
9.0
 40
10.0
 40
10.0
 40
10.0
 40
11.0
 40
11.0
 40
11.0
 40
12.0
 40
12.0
 40
12.0
 40
13.0
 40
13.0
 40
13.0
 40
14.0
 40
14.0
 40
14.0
 40
15.0
 40
15.0
 40
15.0
 40
16.0
 40
16.0
 40
16.0
 40
17.0
 40
17.0
 40
17.0
 40
18.0
 40
18.0
 40
18.0
 40
19.0
 40
19.0
 40
19.0
 40
20.0
 40
20.0
 40
20.0
 40
21.0
 40
21.0
 40
21.0
 40
22.0
 40
22.0
 40
22.0
 40
23.0
 40
23.0
 40
23.0
 40
24.0
 40
24.0
 40
24.0
 40
25.0
 40
25.0
 40
25.0
 40
26.0
 40
26.0
 40
26.0
 40
27.0
 40
27.0
 40
27.0
 40
28.0
 40
28.0
 40
28.0
 40
29.0
 40
29.0
 40
29.0
 40
30.0
 40
30.0
 40
30.0
 40
31.0
 40
31.0
 40
31.0
 40
32.0
 40
32.0
 40
32.0
 40
33.0
 40
33.0
 40
33.0
 40
34.0
 40
34.0
 40
34.0
 40
35.0
 40
35.0
 40
35.0
 40
36.0
 40
36.0
 40
36.0
 40
36.0
 10
88.45334334811237
 20
-161.8950276287971
 30
0.0
 10
88.45334334811237
 20
-161.8950276287971
 30
0.0
 10
88.54033200911492
 20
-161.9945908883208
 30
0.0
 10
88.54033200911492
 20
-161.9945908883208
 30
0.0
 10
88.5496337669251
 20
-162.0052706843251
 30
0.0
 10
88.55893552473528
 20
-162.0180175376205
 30
0.0
 10
88.55893552473528
 20
-162.0328314482071
 30
0.0
 10
88.55893552473528
 20
-162.0348985054982
 30
0.0
 10
88.55893552473528
 20
-162.0645263266714
 30
0.0
 10
88.52551809852835
 20
-162.0645263266714
 30
0.0
 10
88.51811114323506
 20
-162.0645263266714
 30
0.0
 10
88.4829711692855
 20
-162.0600477025405
 30
0.0
 10
88.47745901650912
 20
-162.0600477025405
 30
0.0
 10
88.4421467877853
 20
-162.0920870905534
 30
0.0
 10
88.40149466105935
 20
-162.1258490263088
 30
0.0
 10
88.3145060000568
 20
-162.183037611364
 30
0.0
 10
88.4421467877853
 20
-162.2908691000523
 30
0.0
 10
88.58115639061513
 20
-162.3480576851074
 30
0.0
 10
88.82007376251721
 20
-162.3859537354452
 30
0.0
 10
88.82007376251721
 20
-162.3859537354452
 30
0.0
 10
88.68847111498066
 20
-162.5616536051929
 30
0.0
 10
88.68847111498066
 20
-162.5616536051929
 30
0.0
 10
88.45885550088876
 20
-162.4896511095512
 30
0.0
 10
88.32191295535009
 20
-162.4007676460318
 30
0.0
 10
88.2552503577105
 20
-162.3480576851074
 30
0.0
 10
88.12381996494821
 20
-162.2464273682926
 30
0.0
 10
87.99772947018808
 20
-162.0834743518402
 30
0.0
 10
87.93123912732275
 20
-161.9184542780968
 30
0.0
 10
87.87198348497645
 20
-161.9839110923165
 30
0.0
 10
87.80704343507949
 20
-162.0369655627894
 30
0.0
 10
87.73865828969728
 20
-162.0855414091314
 30
0.0
 10
87.73865828969728
 20
-162.0855414091314
 30
0.0
 10
87.73865828969728
 20
-162.3373778891032
 30
0.0
 10
87.73865828969728
 20
-162.3373778891032
 30
0.0
 10
87.88111298801236
 20
-162.3118841825123
 30
0.0
 10
88.04406600446468
 20
-162.2674424507526
 30
0.0
 10
88.09970429655147
 20
-162.252628540166
 30
0.0
 10
88.09970429655147
 20
-162.252628540166
 30
0.0
 10
88.07369382563783
 20
-162.4217827284918
 30
0.0
 10
88.07369382563783
 20
-162.4217827284918
 30
0.0
 10
88.07179902312095
 20
-162.4217827284918
 30
0.0
 10
88.05526256479175
 20
-162.4283284099137
 30
0.0
 10
88.05336776227486
 20
-162.4283284099137
 30
0.0
 10
87.87921818549547
 20
-162.4662244602515
 30
0.0
 10
87.60154348938434
 20
-162.5320257840198
 30
0.0
 10
87.42928871512184
 20
-162.5678547770664
 30
0.0
 10
87.41998695731168
 20
-162.5847357449441
 30
0.0
 10
87.3996608939487
 20
-162.6164306234084
 30
0.0
 10
87.37933483058572
 20
-162.6164306234084
 30
0.0
 10
87.35521916218897
 20
-162.6164306234084
 30
0.0
 10
87.35160181192947
 20
-162.5974825982395
 30
0.0
 10
87.34970700941258
 20
-162.5785345730706
 30
0.0
 10
87.34970700941258
 20
-162.5785345730706
 30
0.0
 10
87.32748614353271
 20
-162.4049017606141
 30
0.0
 10
87.32748614353271
 20
-162.4049017606141
 30
0.0
 10
87.39225393865541
 20
-162.3966335314495
 30
0.0
 10
87.48682180972553
 20
-162.383886678154
 30
0.0
 10
87.58121742602137
 20
-162.362871595694
 30
0.0
 10
87.58121742602137
 20
-162.362871595694
 30
0.0
 10
87.58121742602137
 20
-162.1851046686551
 30
0.0
 10
87.58121742602137
 20
-162.1851046686551
 30
0.0
 10
87.45529918603549
 20
-162.2567626547483
 30
0.0
 10
87.37192787529244
 20
-162.2863904759215
 30
0.0
 10
87.22740611968621
 20
-162.3160182970946
 30
0.0
 10
87.22740611968621
 20
-162.3160182970946
 30
0.0
 10
87.12198619783756
 20
-162.1468641087689
 30
0.0
 10
87.12198619783756
 20
-162.1468641087689
 30
0.0
 10
87.3996608939487
 20
-162.1193033448868
 30
0.0
 10
87.56812606317742
 20
-162.0262857667851
 30
0.0
 10
87.72384437911072
 20
-161.8929605715059
 30
0.0
 10
87.59603133660794
 20
-161.8929605715059
 30
0.0
 10
87.33299829630911
 20
-161.8974391956368
 30
0.0
 10
87.16091577682089
 20
-161.9036403675102
 30
0.0
 10
87.16091577682089
 20
-161.9036403675102
 30
0.0
 10
87.16091577682089
 20
-161.7258734404713
 30
0.0
 10
87.16091577682089
 20
-161.7258734404713
 30
0.0
 10
87.29596351984269
 20
-161.7324191218933
 30
0.0
 10
87.55520695510774
 20
-161.7386202937667
 30
0.0
 10
87.71626516904315
 20
-161.7386202937667
 30
0.0
 10
87.71626516904315
 20
-161.7386202937667
 30
0.0
 10
87.9016113061496
 20
-161.7386202937667
 30
0.0
 10
87.9016113061496
 20
-161.7386202937667
 30
0.0
 10
87.9016113061496
 20
-161.6435356583738
 30
0.0
 10
87.89971650363272
 20
-161.5925482451921
 30
0.0
 10
87.89403209608206
 20
-161.5460394561413
 30
0.0
 10
87.89403209608206
 20
-161.5460394561413
 30
0.0
 10
88.08299558344801
 20
-161.562920424019
 30
0.0
 10
88.08299558344801
 20
-161.562920424019
 30
0.0
 10
88.12554251269084
 20
-161.5673990481498
 30
0.0
 10
88.13294946798413
 20
-161.5822129587364
 30
0.0
 10
88.13294946798413
 20
-161.597026869323
 30
0.0
 10
88.13294946798413
 20
-161.6221760663653
 30
0.0
 10
88.11813555739755
 20
-161.6307888050784
 30
0.0
 10
88.07369382563783
 20
-161.6562825116693
 30
0.0
 10
88.07179902312095
 20
-161.6814317087116
 30
0.0
 10
88.07179902312095
 20
-161.6879773901336
 30
0.0
 10
88.07007647537831
 20
-161.7386202937667
 30
0.0
 10
88.07007647537831
 20
-161.7386202937667
 30
0.0
 10
88.27195907081396
 20
-161.7386202937667
 30
0.0
 10
88.27195907081396
 20
-161.7386202937667
 30
0.0
 10
88.41630857164593
 20
-161.7386202937667
 30
0.0
 10
88.67193465665146
 20
-161.7324191218933
 30
0.0
 10
88.82920326555312
 20
-161.7258734404713
 30
0.0
 10
88.82920326555312
 20
-161.7258734404713
 30
0.0
 10
88.82920326555312
 20
-161.9036403675102
 30
0.0
 10
88.82920326555312
 20
-161.9036403675102
 30
0.0
 10
88.71637638841119
 20
-161.8995062529279
 30
0.0
 10
88.69587807027395
 20
-161.8995062529279
 30
0.0
 10
88.45334334811237
 20
-161.8950276287971
 30
0.0
  0
SPLINE
  5
5D
330
50
100
AcDbEntity
  8
_U+30EC_U+30A4_U+30E4_U+30FC 1
370
     0
100
AcDbSpline
210
0.0
220
0.0
230
1.0
 70
    11
 71
     3
 72
    23
 73
    19
 74
     0
 42
0.0000000001
 43
0.0000000001
 12
1.0
 22
0.0
 32
0.0
 13
1.0
 23
0.0
 33
0.0
 40
0.0
 40
0.0
 40
0.0
 40
0.0
 40
1.0
 40
1.0
 40
1.0
 40
2.0
 40
2.0
 40
2.0
 40
3.0
 40
3.0
 40
3.0
 40
4.0
 40
4.0
 40
4.0
 40
5.0
 40
5.0
 40
5.0
 40
6.0
 40
6.0
 40
6.0
 40
6.0
 10
87.3293809460496
 20
-161.5439723988501
 30
0.0
 10
87.31456703546303
 20
-161.5842800160275
 30
0.0
 10
87.30905488268662
 20
-161.6011609839053
 30
0.0
 10
87.29045136706628
 20
-161.6011609839053
 30
0.0
 10
87.27753225899659
 20
-161.6011609839053
 30
0.0
 10
87.26823050118642
 20
-161.5842800160275
 30
0.0
 10
87.26271834841002
 20
-161.5715331627321
 30
0.0
 10
87.26271834841002
 20
-161.5715331627321
 30
0.0
 10
87.17572968740745
 20
-161.4065130889886
 30
0.0
 10
87.17572968740745
 20
-161.4065130889886
 30
0.0
 10
87.2646131509269
 20
-161.3748182105244
 30
0.0
 10
87.39604354368919
 20
-161.3196966827604
 30
0.0
 10
87.5700208656943
 20
-161.156743666308
 30
0.0
 10
87.5700208656943
 20
-161.156743666308
 30
0.0
 10
87.6201470050047
 20
-161.3303764787646
 30
0.0
 10
87.6201470050047
 20
-161.3303764787646
 30
0.0
 10
87.53849824200427
 20
-161.4127142608621
 30
0.0
 10
87.46081133881188
 20
-161.4699028459173
 30
0.0
 10
87.3293809460496
 20
-161.5439723988501
 30
0.0
  0
SPLINE
  5
5E
330
50
100
AcDbEntity
  8
_U+30EC_U+30A4_U+30E4_U+30FC 1
370
     0
100
AcDbSpline
210
0.0
220
0.0
230
1.0
 70
    11
 71
     3
 72
    17
 73
    13
 74
     0
 42
0.0000000001
 43
0.0000000001
 12
1.0
 22
0.0
 32
0.0
 13
1.0
 23
0.0
 33
0.0
 40
0.0
 40
0.0
 40
0.0
 40
0.0
 40
1.0
 40
1.0
 40
1.0
 40
2.0
 40
2.0
 40
2.0
 40
3.0
 40
3.0
 40
3.0
 40
4.0
 40
4.0
 40
4.0
 40
4.0
 10
87.46270614132877
 20
-161.0785399987929
 30
0.0
 10
87.43669567041513
 20
-161.0382323816154
 30
0.0
 10
87.37744002806883
 20
-160.9410806889314
 30
0.0
 10
87.2182766166503
 20
-160.8311821429519
 30
0.0
 10
87.2182766166503
 20
-160.8311821429519
 30
0.0
 10
87.3293809460496
 20
-160.6978569476728
 30
0.0
 10
87.3293809460496
 20
-160.6978569476728
 30
0.0
 10
87.49233396250192
 20
-160.7994872644876
 30
0.0
 10
87.54228784703804
 20
-160.8883707280071
 30
0.0
 10
87.56640351543479
 20
-160.9304008929271
 30
0.0
 10
87.56640351543479
 20
-160.9304008929271
 30
0.0
 10
87.46270614132877
 20
-161.0785399987929
 30
0.0
 10
87.46270614132877
 20
-161.0785399987929
 30
0.0
  0
SPLINE
  5
5F
330
50
100
AcDbEntity
  8
_U+30EC_U+30A4_U+30E4_U+30FC 1
370
     0
100
AcDbSpline
210
0.0
220
0.0
230
1.0
 70
    11
 71
     3
 72
    38
 73
    34
 74
     0
 42
0.0000000001
 43
0.0000000001
 12
1.0
 22
0.0
 32
0.0
 13
1.0
 23
0.0
 33
0.0
 40
0.0
 40
0.0
 40
0.0
 40
0.0
 40
1.0
 40
1.0
 40
1.0
 40
2.0
 40
2.0
 40
2.0
 40
3.0
 40
3.0
 40
3.0
 40
4.0
 40
4.0
 40
4.0
 40
5.0
 40
5.0
 40
5.0
 40
6.0
 40
6.0
 40
6.0
 40
7.0
 40
7.0
 40
7.0
 40
8.0
 40
8.0
 40
8.0
 40
9.0
 40
9.0
 40
9.0
 40
10.0
 40
10.0
 40
10.0
 40
11.0
 40
11.0
 40
11.0
 40
11.0
 10
87.78482256919963
 20
-160.7739935578968
 30
0.0
 10
87.783100021457
 20
-160.8205023469476
 30
0.0
 10
87.78120521894012
 20
-160.9369465743491
 30
0.0
 10
87.78120521894012
 20
-160.9813883061088
 30
0.0
 10
87.78120521894012
 20
-160.9813883061088
 30
0.0
 10
87.78120521894012
 20
-161.3283094214735
 30
0.0
 10
87.78120521894012
 20
-161.3283094214735
 30
0.0
 10
87.78120521894012
 20
-161.4151258277018
 30
0.0
 10
87.783100021457
 20
-161.5567192521455
 30
0.0
 10
87.79222952449292
 20
-161.6772975941293
 30
0.0
 10
87.79222952449292
 20
-161.6772975941293
 30
0.0
 10
87.62565915778109
 20
-161.6772975941293
 30
0.0
 10
87.62565915778109
 20
-161.6772975941293
 30
0.0
 10
87.6292765080406
 20
-161.6139078372007
 30
0.0
 10
87.63306611307438
 20
-161.5608533667279
 30
0.0
 10
87.63496091559126
 20
-161.5060763485124
 30
0.0
 10
87.6366834633339
 20
-161.383086439689
 30
0.0
 10
87.63857826585078
 20
-161.3682725291024
 30
0.0
 10
87.63857826585078
 20
-161.3238307973427
 30
0.0
 10
87.63857826585078
 20
-161.3238307973427
 30
0.0
 10
87.63857826585078
 20
-161.0024033885688
 30
0.0
 10
87.63857826585078
 20
-161.0024033885688
 30
0.0
 10
87.63857826585078
 20
-160.9472818608048
 30
0.0
 10
87.62738170552372
 20
-160.708536743677
 30
0.0
 10
87.62565915778109
 20
-160.6575493304953
 30
0.0
 10
87.62565915778109
 20
-160.6575493304953
 30
0.0
 10
87.80153128230309
 20
-160.6851100943773
 30
0.0
 10
87.80153128230309
 20
-160.6851100943773
 30
0.0
 10
87.81996254314917
 20
-160.6871771516685
 30
0.0
 10
87.84786781657971
 20
-160.6913112662508
 30
0.0
 10
87.84786781657971
 20
-160.7168049728416
 30
0.0
 10
87.84786781657971
 20
-160.7443657367236
 30
0.0
 10
87.80342608481998
 20
-160.7653808191837
 30
0.0
 10
87.78482256919963
 20
-160.7739935578968
 30
0.0
  0
SPLINE
  5
60
330
50
100
AcDbEntity
  8
_U+30EC_U+30A4_U+30E4_U+30FC 1
370
     0
100
AcDbSpline
210
0.0
220
0.0
230
1.0
 70
    11
 71
     3
 72
    83
 73
    79
 74
     0
 42
0.0000000001
 43
0.0000000001
 12
1.0
 22
0.0
 32
0.0
 13
1.0
 23
0.0
 33
0.0
 40
0.0
 40
0.0
 40
0.0
 40
0.0
 40
1.0
 40
1.0
 40
1.0
 40
2.0
 40
2.0
 40
2.0
 40
3.0
 40
3.0
 40
3.0
 40
4.0
 40
4.0
 40
4.0
 40
5.0
 40
5.0
 40
5.0
 40
6.0
 40
6.0
 40
6.0
 40
7.0
 40
7.0
 40
7.0
 40
8.0
 40
8.0
 40
8.0
 40
9.0
 40
9.0
 40
9.0
 40
10.0
 40
10.0
 40
10.0
 40
11.0
 40
11.0
 40
11.0
 40
12.0
 40
12.0
 40
12.0
 40
13.0
 40
13.0
 40
13.0
 40
14.0
 40
14.0
 40
14.0
 40
15.0
 40
15.0
 40
15.0
 40
16.0
 40
16.0
 40
16.0
 40
17.0
 40
17.0
 40
17.0
 40
18.0
 40
18.0
 40
18.0
 40
19.0
 40
19.0
 40
19.0
 40
20.0
 40
20.0
 40
20.0
 40
21.0
 40
21.0
 40
21.0
 40
22.0
 40
22.0
 40
22.0
 40
23.0
 40
23.0
 40
23.0
 40
24.0
 40
24.0
 40
24.0
 40
25.0
 40
25.0
 40
25.0
 40
26.0
 40
26.0
 40
26.0
 40
26.0
 10
88.48658851954502
 20
-161.0954209666706
 30
0.0
 10
88.48658851954502
 20
-161.0954209666706
 30
0.0
 10
88.40149466105935
 20
-161.0954209666706
 30
0.0
 10
88.40149466105935
 20
-161.0954209666706
 30
0.0
 10
88.40149466105935
 20
-161.0954209666706
 30
0.0
 10
88.40149466105935
 20
-161.3431233320601
 30
0.0
 10
88.40149466105935
 20
-161.3431233320601
 30
0.0
 10
88.40149466105935
 20
-161.3431233320601
 30
0.0
 10
88.47366941147534
 20
-161.3431233320601
 30
0.0
 10
88.47366941147534
 20
-161.3431233320601
 30
0.0
 10
88.53103025130474
 20
-161.3431233320601
 30
0.0
 10
88.65333114103112
 20
-161.3386447079292
 30
0.0
 10
88.74031980203367
 20
-161.3303764787646
 30
0.0
 10
88.74031980203367
 20
-161.3303764787646
 30
0.0
 10
88.74031980203367
 20
-161.5102104630947
 30
0.0
 10
88.74031980203367
 20
-161.5102104630947
 30
0.0
 10
88.65884329380752
 20
-161.5015977243816
 30
0.0
 10
88.52741290104524
 20
-161.4974636097992
 30
0.0
 10
88.47366941147534
 20
-161.4974636097992
 30
0.0
 10
88.47366941147534
 20
-161.4974636097992
 30
0.0
 10
88.207019020917
 20
-161.4974636097992
 30
0.0
 10
88.207019020917
 20
-161.4974636097992
 30
0.0
 10
88.16068248664038
 20
-161.4974636097992
 30
0.0
 10
88.03304169891189
 20
-161.5015977243816
 30
0.0
 10
87.94036863035866
 20
-161.5102104630947
 30
0.0
 10
87.94036863035866
 20
-161.5102104630947
 30
0.0
 10
87.94036863035866
 20
-161.3303764787646
 30
0.0
 10
87.94036863035866
 20
-161.3303764787646
 30
0.0
 10
88.02735729136123
 20
-161.3386447079292
 30
0.0
 10
88.14965818108759
 20
-161.3431233320601
 30
0.0
 10
88.207019020917
 20
-161.3431233320601
 30
0.0
 10
88.207019020917
 20
-161.3431233320601
 30
0.0
 10
88.24594859990032
 20
-161.3431233320601
 30
0.0
 10
88.24594859990032
 20
-161.3431233320601
 30
0.0
 10
88.24594859990032
 20
-161.3431233320601
 30
0.0
 10
88.24594859990032
 20
-161.0954209666706
 30
0.0
 10
88.24594859990032
 20
-161.0954209666706
 30
0.0
 10
88.24594859990032
 20
-161.0954209666706
 30
0.0
 10
88.18118080477763
 20
-161.0954209666706
 30
0.0
 10
88.18118080477763
 20
-161.0954209666706
 30
0.0
 10
88.12743731520773
 20
-161.0954209666706
 30
0.0
 10
87.98119301185888
 20
-161.0998995908014
 30
0.0
 10
87.87560083523597
 20
-161.108167819966
 30
0.0
 10
87.87560083523597
 20
-161.108167819966
 30
0.0
 10
87.87560083523597
 20
-160.9304008929271
 30
0.0
 10
87.87560083523597
 20
-160.9304008929271
 30
0.0
 10
87.97568085908247
 20
-160.9369465743491
 30
0.0
 10
88.11451820713805
 20
-160.9410806889314
 30
0.0
 10
88.18118080477763
 20
-160.9410806889314
 30
0.0
 10
88.18118080477763
 20
-160.9410806889314
 30
0.0
 10
88.24405379738343
 20
-160.9410806889314
 30
0.0
 10
88.24405379738343
 20
-160.9410806889314
 30
0.0
 10
88.24043644712393
 20
-160.7888074684834
 30
0.0
 10
88.23854164460704
 20
-160.7550455327279
 30
0.0
 10
88.23302949183064
 20
-160.6616834450776
 30
0.0
 10
88.23302949183064
 20
-160.6616834450776
 30
0.0
 10
88.41820337416281
 20
-160.6851100943773
 30
0.0
 10
88.41820337416281
 20
-160.6851100943773
 30
0.0
 10
88.44042424004267
 20
-160.6871771516685
 30
0.0
 10
88.46075030340565
 20
-160.6913112662508
 30
0.0
 10
88.46075030340565
 20
-160.7147379155505
 30
0.0
 10
88.46075030340565
 20
-160.7464327940148
 30
0.0
 10
88.42182072442233
 20
-160.7633137618925
 30
0.0
 10
88.40149466105935
 20
-160.7719265006056
 30
0.0
 10
88.40149466105935
 20
-160.7719265006056
 30
0.0
 10
88.40149466105935
 20
-160.9410806889314
 30
0.0
 10
88.40149466105935
 20
-160.9410806889314
 30
0.0
 10
88.40149466105935
 20
-160.9410806889314
 30
0.0
 10
88.48658851954502
 20
-160.9410806889314
 30
0.0
 10
88.48658851954502
 20
-160.9410806889314
 30
0.0
 10
88.55342337195887
 20
-160.9410806889314
 30
0.0
 10
88.69226072001445
 20
-160.9369465743491
 30
0.0
 10
88.79406329160358
 20
-160.9304008929271
 30
0.0
 10
88.79406329160358
 20
-160.9304008929271
 30
0.0
 10
88.79406329160358
 20
-161.108167819966
 30
0.0
 10
88.79406329160358
 20
-161.108167819966
 30
0.0
 10
88.69966767530772
 20
-161.1019666480926
 30
0.0
 10
88.54773896440821
 20
-161.0954209666706
 30
0.0
 10
88.48658851954502
 20
-161.0954209666706
 30
0.0
  0
SPLINE
  5
61
330
50
100
AcDbEntity
  8
_U+30EC_U+30A4_U+30E4_U+30FC 1
370
     0
100
AcDbSpline
210
0.0
220
0.0
230
1.0
 70
    11
 71
     3
 72
    17
 73
    13
 74
     0
 42
0.0000000001
 43
0.0000000001
 12
1.0
 22
0.0
 32
0.0
 13
1.0
 23
0.0
 33
0.0
 40
0.0
 40
0.0
 40
0.0
 40
0.0
 40
1.0
 40
1.0
 40
1.0
 40
2.0
 40
2.0
 40
2.0
 40
3.0
 40
3.0
 40
3.0
 40
4.0
 40
4.0
 40
4.0
 40
4.0
 10
88.27195907081396
 20
-161.8929605715059
 30
0.0
 10
88.27195907081396
 20
-161.8929605715059
 30
0.0
 10
88.09419214377506
 20
-161.8929605715059
 30
0.0
 10
88.09419214377506
 20
-161.8929605715059
 30
0.0
 10
88.11813555739755
 20
-161.9522162138522
 30
0.0
 10
88.16636689419106
 20
-162.024218709494
 30
0.0
 10
88.19031030781353
 20
-162.0538465306671
 30
0.0
 10
88.2144259762103
 20
-162.0390326200805
 30
0.0
 10
88.3145060000568
 20
-161.9756428631519
 30
0.0
 10
88.39408770576607
 20
-161.8929605715059
 30
0.0
 10
88.39408770576607
 20
-161.8929605715059
 30
0.0
 10
88.27195907081396
 20
-161.8929605715059
 30
0.0
 10
88.27195907081396
 20
-161.8929605715059
 30
0.0
  0
HATCH
  5
62
330
50
100
AcDbEntity
  8
_U+30EC_U+30A4_U+30E4_U+30FC 1
 62
   179
420
  2234388
100
AcDbHatch
 10
0.0
 20
0.0
 30
0.0
210
0.0
220
0.0
230
1.0
  2
SOLID
 70
     1
 71
     0
 91
        6
 92
        1
 93
        1
 72
     4
 94
        3
 73
     0
 74
     1
 95
      113
 96
      109
 40
0.0
 40
0.0
 40
0.0
 40
0.0
 40
1.0
 40
1.0
 40
1.0
 40
2.0
 40
2.0
 40
2.0
 40
3.0
 40
3.0
 40
3.0
 40
4.0
 40
4.0
 40
4.0
 40
5.0
 40
5.0
 40
5.0
 40
6.0
 40
6.0
 40
6.0
 40
7.0
 40
7.0
 40
7.0
 40
8.0
 40
8.0
 40
8.0
 40
9.0
 40
9.0
 40
9.0
 40
10.0
 40
10.0
 40
10.0
 40
11.0
 40
11.0
 40
11.0
 40
12.0
 40
12.0
 40
12.0
 40
13.0
 40
13.0
 40
13.0
 40
14.0
 40
14.0
 40
14.0
 40
15.0
 40
15.0
 40
15.0
 40
16.0
 40
16.0
 40
16.0
 40
17.0
 40
17.0
 40
17.0
 40
18.0
 40
18.0
 40
18.0
 40
19.0
 40
19.0
 40
19.0
 40
20.0
 40
20.0
 40
20.0
 40
21.0
 40
21.0
 40
21.0
 40
22.0
 40
22.0
 40
22.0
 40
23.0
 40
23.0
 40
23.0
 40
24.0
 40
24.0
 40
24.0
 40
25.0
 40
25.0
 40
25.0
 40
26.0
 40
26.0
 40
26.0
 40
27.0
 40
27.0
 40
27.0
 40
28.0
 40
28.0
 40
28.0
 40
29.0
 40
29.0
 40
29.0
 40
30.0
 40
30.0
 40
30.0
 40
31.0
 40
31.0
 40
31.0
 40
32.0
 40
32.0
 40
32.0
 40
33.0
 40
33.0
 40
33.0
 40
34.0
 40
34.0
 40
34.0
 40
35.0
 40
35.0
 40
35.0
 40
36.0
 40
36.0
 40
36.0
 40
36.0
 10
88.45334334811237
 20
-161.8950276287971
 10
88.45334334811237
 20
-161.8950276287971
 10
88.54033200911492
 20
-161.9945908883208
 10
88.54033200911492
 20
-161.9945908883208
 10
88.5496337669251
 20
-162.0052706843251
 10
88.55893552473528
 20
-162.0180175376205
 10
88.55893552473528
 20
-162.0328314482071
 10
88.55893552473528
 20
-162.0348985054982
 10
88.55893552473528
 20
-162.0645263266714
 10
88.52551809852835
 20
-162.0645263266714
 10
88.51811114323506
 20
-162.0645263266714
 10
88.4829711692855
 20
-162.0600477025405
 10
88.47745901650912
 20
-162.0600477025405
 10
88.4421467877853
 20
-162.0920870905534
 10
88.40149466105935
 20
-162.1258490263088
 10
88.3145060000568
 20
-162.183037611364
 10
88.4421467877853
 20
-162.2908691000523
 10
88.58115639061513
 20
-162.3480576851074
 10
88.82007376251721
 20
-162.3859537354452
 10
88.82007376251721
 20
-162.3859537354452
 10
88.68847111498066
 20
-162.5616536051929
 10
88.68847111498066
 20
-162.5616536051929
 10
88.45885550088876
 20
-162.4896511095512
 10
88.32191295535009
 20
-162.4007676460318
 10
88.2552503577105
 20
-162.3480576851074
 10
88.12381996494821
 20
-162.2464273682926
 10
87.99772947018808
 20
-162.0834743518402
 10
87.93123912732275
 20
-161.9184542780968
 10
87.87198348497645
 20
-161.9839110923165
 10
87.80704343507949
 20
-162.0369655627894
 10
87.73865828969728
 20
-162.0855414091314
 10
87.73865828969728
 20
-162.0855414091314
 10
87.73865828969728
 20
-162.3373778891032
 10
87.73865828969728
 20
-162.3373778891032
 10
87.88111298801236
 20
-162.3118841825123
 10
88.04406600446468
 20
-162.2674424507526
 10
88.09970429655147
 20
-162.252628540166
 10
88.09970429655147
 20
-162.252628540166
 10
88.07369382563783
 20
-162.4217827284918
 10
88.07369382563783
 20
-162.4217827284918
 10
88.07179902312095
 20
-162.4217827284918
 10
88.05526256479175
 20
-162.4283284099137
 10
88.05336776227486
 20
-162.4283284099137
 10
87.87921818549547
 20
-162.4662244602515
 10
87.60154348938434
 20
-162.5320257840198
 10
87.42928871512184
 20
-162.5678547770664
 10
87.41998695731168
 20
-162.5847357449441
 10
87.3996608939487
 20
-162.6164306234084
 10
87.37933483058572
 20
-162.6164306234084
 10
87.35521916218897
 20
-162.6164306234084
 10
87.35160181192947
 20
-162.5974825982395
 10
87.34970700941258
 20
-162.5785345730706
 10
87.34970700941258
 20
-162.5785345730706
 10
87.32748614353271
 20
-162.4049017606141
 10
87.32748614353271
 20
-162.4049017606141
 10
87.39225393865541
 20
-162.3966335314495
 10
87.48682180972553
 20
-162.383886678154
 10
87.58121742602137
 20
-162.362871595694
 10
87.58121742602137
 20
-162.362871595694
 10
87.58121742602137
 20
-162.1851046686551
 10
87.58121742602137
 20
-162.1851046686551
 10
87.45529918603549
 20
-162.2567626547483
 10
87.37192787529244
 20
-162.2863904759215
 10
87.22740611968621
 20
-162.3160182970946
 10
87.22740611968621
 20
-162.3160182970946
 10
87.12198619783756
 20
-162.1468641087689
 10
87.12198619783756
 20
-162.1468641087689
 10
87.3996608939487
 20
-162.1193033448868
 10
87.56812606317742
 20
-162.0262857667851
 10
87.72384437911072
 20
-161.8929605715059
 10
87.59603133660794
 20
-161.8929605715059
 10
87.33299829630911
 20
-161.8974391956368
 10
87.16091577682089
 20
-161.9036403675102
 10
87.16091577682089
 20
-161.9036403675102
 10
87.16091577682089
 20
-161.7258734404713
 10
87.16091577682089
 20
-161.7258734404713
 10
87.29596351984269
 20
-161.7324191218933
 10
87.55520695510774
 20
-161.7386202937667
 10
87.71626516904315
 20
-161.7386202937667
 10
87.71626516904315
 20
-161.7386202937667
 10
87.9016113061496
 20
-161.7386202937667
 10
87.9016113061496
 20
-161.7386202937667
 10
87.9016113061496
 20
-161.6435356583738
 10
87.89971650363272
 20
-161.5925482451921
 10
87.89403209608206
 20
-161.5460394561413
 10
87.89403209608206
 20
-161.5460394561413
 10
88.08299558344801
 20
-161.562920424019
 10
88.08299558344801
 20
-161.562920424019
 10
88.12554251269084
 20
-161.5673990481498
 10
88.13294946798413
 20
-161.5822129587364
 10
88.13294946798413
 20
-161.597026869323
 10
88.13294946798413
 20
-161.6221760663653
 10
88.11813555739755
 20
-161.6307888050784
 10
88.07369382563783
 20
-161.6562825116693
 10
88.07179902312095
 20
-161.6814317087116
 10
88.07179902312095
 20
-161.6879773901336
 10
88.07007647537831
 20
-161.7386202937667
 10
88.07007647537831
 20
-161.7386202937667
 10
88.27195907081396
 20
-161.7386202937667
 10
88.27195907081396
 20
-161.7386202937667
 10
88.41630857164593
 20
-161.7386202937667
 10
88.67193465665146
 20
-161.7324191218933
 10
88.82920326555312
 20
-161.7258734404713
 10
88.82920326555312
 20
-161.7258734404713
 10
88.82920326555312
 20
-161.9036403675102
 10
88.82920326555312
 20
-161.9036403675102
 10
88.71637638841119
 20
-161.8995062529279
 10
88.69587807027395
 20
-161.8995062529279
 10
88.45334334811237
 20
-161.8950276287971
 97
        0
 97
        0
 92
        1
 93
        1
 72
     4
 94
        3
 73
     0
 74
     1
 95
       23
 96
       19
 40
0.0
 40
0.0
 40
0.0
 40
0.0
 40
1.0
 40
1.0
 40
1.0
 40
2.0
 40
2.0
 40
2.0
 40
3.0
 40
3.0
 40
3.0
 40
4.0
 40
4.0
 40
4.0
 40
5.0
 40
5.0
 40
5.0
 40
6.0
 40
6.0
 40
6.0
 40
6.0
 10
87.3293809460496
 20
-161.5439723988501
 10
87.31456703546303
 20
-161.5842800160275
 10
87.30905488268662
 20
-161.6011609839053
 10
87.29045136706628
 20
-161.6011609839053
 10
87.27753225899659
 20
-161.6011609839053
 10
87.26823050118642
 20
-161.5842800160275
 10
87.26271834841002
 20
-161.5715331627321
 10
87.26271834841002
 20
-161.5715331627321
 10
87.17572968740745
 20
-161.4065130889886
 10
87.17572968740745
 20
-161.4065130889886
 10
87.2646131509269
 20
-161.3748182105244
 10
87.39604354368919
 20
-161.3196966827604
 10
87.5700208656943
 20
-161.156743666308
 10
87.5700208656943
 20
-161.156743666308
 10
87.6201470050047
 20
-161.3303764787646
 10
87.6201470050047
 20
-161.3303764787646
 10
87.53849824200427
 20
-161.4127142608621
 10
87.46081133881188
 20
-161.4699028459173
 10
87.3293809460496
 20
-161.5439723988501
 97
        0
 97
        0
 92
        1
 93
        1
 72
     4
 94
        3
 73
     0
 74
     1
 95
       17
 96
       13
 40
0.0
 40
0.0
 40
0.0
 40
0.0
 40
1.0
 40
1.0
 40
1.0
 40
2.0
 40
2.0
 40
2.0
 40
3.0
 40
3.0
 40
3.0
 40
4.0
 40
4.0
 40
4.0
 40
4.0
 10
87.46270614132877
 20
-161.0785399987929
 10
87.43669567041513
 20
-161.0382323816154
 10
87.37744002806883
 20
-160.9410806889314
 10
87.2182766166503
 20
-160.8311821429519
 10
87.2182766166503
 20
-160.8311821429519
 10
87.3293809460496
 20
-160.6978569476728
 10
87.3293809460496
 20
-160.6978569476728
 10
87.49233396250192
 20
-160.7994872644876
 10
87.54228784703804
 20
-160.8883707280071
 10
87.56640351543479
 20
-160.9304008929271
 10
87.56640351543479
 20
-160.9304008929271
 10
87.46270614132877
 20
-161.0785399987929
 10
87.46270614132877
 20
-161.0785399987929
 97
        0
 97
        0
 92
        1
 93
        1
 72
     4
 94
        3
 73
     0
 74
     1
 95
       38
 96
       34
 40
0.0
 40
0.0
 40
0.0
 40
0.0
 40
1.0
 40
1.0
 40
1.0
 40
2.0
 40
2.0
 40
2.0
 40
3.0
 40
3.0
 40
3.0
 40
4.0
 40
4.0
 40
4.0
 40
5.0
 40
5.0
 40
5.0
 40
6.0
 40
6.0
 40
6.0
 40
7.0
 40
7.0
 40
7.0
 40
8.0
 40
8.0
 40
8.0
 40
9.0
 40
9.0
 40
9.0
 40
10.0
 40
10.0
 40
10.0
 40
11.0
 40
11.0
 40
11.0
 40
11.0
 10
87.78482256919963
 20
-160.7739935578968
 10
87.783100021457
 20
-160.8205023469476
 10
87.78120521894012
 20
-160.9369465743491
 10
87.78120521894012
 20
-160.9813883061088
 10
87.78120521894012
 20
-160.9813883061088
 10
87.78120521894012
 20
-161.3283094214735
 10
87.78120521894012
 20
-161.3283094214735
 10
87.78120521894012
 20
-161.4151258277018
 10
87.783100021457
 20
-161.5567192521455
 10
87.79222952449292
 20
-161.6772975941293
 10
87.79222952449292
 20
-161.6772975941293
 10
87.62565915778109
 20
-161.6772975941293
 10
87.62565915778109
 20
-161.6772975941293
 10
87.6292765080406
 20
-161.6139078372007
 10
87.63306611307438
 20
-161.5608533667279
 10
87.63496091559126
 20
-161.5060763485124
 10
87.6366834633339
 20
-161.383086439689
 10
87.63857826585078
 20
-161.3682725291024
 10
87.63857826585078
 20
-161.3238307973427
 10
87.63857826585078
 20
-161.3238307973427
 10
87.63857826585078
 20
-161.0024033885688
 10
87.63857826585078
 20
-161.0024033885688
 10
87.63857826585078
 20
-160.9472818608048
 10
87.62738170552372
 20
-160.708536743677
 10
87.62565915778109
 20
-160.6575493304953
 10
87.62565915778109
 20
-160.6575493304953
 10
87.80153128230309
 20
-160.6851100943773
 10
87.80153128230309
 20
-160.6851100943773
 10
87.81996254314917
 20
-160.6871771516685
 10
87.84786781657971
 20
-160.6913112662508
 10
87.84786781657971
 20
-160.7168049728416
 10
87.84786781657971
 20
-160.7443657367236
 10
87.80342608481998
 20
-160.7653808191837
 10
87.78482256919963
 20
-160.7739935578968
 97
        0
 97
        0
 92
        1
 93
        1
 72
     4
 94
        3
 73
     0
 74
     1
 95
       83
 96
       79
 40
0.0
 40
0.0
 40
0.0
 40
0.0
 40
1.0
 40
1.0
 40
1.0
 40
2.0
 40
2.0
 40
2.0
 40
3.0
 40
3.0
 40
3.0
 40
4.0
 40
4.0
 40
4.0
 40
5.0
 40
5.0
 40
5.0
 40
6.0
 40
6.0
 40
6.0
 40
7.0
 40
7.0
 40
7.0
 40
8.0
 40
8.0
 40
8.0
 40
9.0
 40
9.0
 40
9.0
 40
10.0
 40
10.0
 40
10.0
 40
11.0
 40
11.0
 40
11.0
 40
12.0
 40
12.0
 40
12.0
 40
13.0
 40
13.0
 40
13.0
 40
14.0
 40
14.0
 40
14.0
 40
15.0
 40
15.0
 40
15.0
 40
16.0
 40
16.0
 40
16.0
 40
17.0
 40
17.0
 40
17.0
 40
18.0
 40
18.0
 40
18.0
 40
19.0
 40
19.0
 40
19.0
 40
20.0
 40
20.0
 40
20.0
 40
21.0
 40
21.0
 40
21.0
 40
22.0
 40
22.0
 40
22.0
 40
23.0
 40
23.0
 40
23.0
 40
24.0
 40
24.0
 40
24.0
 40
25.0
 40
25.0
 40
25.0
 40
26.0
 40
26.0
 40
26.0
 40
26.0
 10
88.48658851954502
 20
-161.0954209666706
 10
88.48658851954502
 20
-161.0954209666706
 10
88.40149466105935
 20
-161.0954209666706
 10
88.40149466105935
 20
-161.0954209666706
 10
88.40149466105935
 20
-161.0954209666706
 10
88.40149466105935
 20
-161.3431233320601
 10
88.40149466105935
 20
-161.3431233320601
 10
88.40149466105935
 20
-161.3431233320601
 10
88.47366941147534
 20
-161.3431233320601
 10
88.47366941147534
 20
-161.3431233320601
 10
88.53103025130474
 20
-161.3431233320601
 10
88.65333114103112
 20
-161.3386447079292
 10
88.74031980203367
 20
-161.3303764787646
 10
88.74031980203367
 20
-161.3303764787646
 10
88.74031980203367
 20
-161.5102104630947
 10
88.74031980203367
 20
-161.5102104630947
 10
88.65884329380752
 20
-161.5015977243816
 10
88.52741290104524
 20
-161.4974636097992
 10
88.47366941147534
 20
-161.4974636097992
 10
88.47366941147534
 20
-161.4974636097992
 10
88.207019020917
 20
-161.4974636097992
 10
88.207019020917
 20
-161.4974636097992
 10
88.16068248664038
 20
-161.4974636097992
 10
88.03304169891189
 20
-161.5015977243816
 10
87.94036863035866
 20
-161.5102104630947
 10
87.94036863035866
 20
-161.5102104630947
 10
87.94036863035866
 20
-161.3303764787646
 10
87.94036863035866
 20
-161.3303764787646
 10
88.02735729136123
 20
-161.3386447079292
 10
88.14965818108759
 20
-161.3431233320601
 10
88.207019020917
 20
-161.3431233320601
 10
88.207019020917
 20
-161.3431233320601
 10
88.24594859990032
 20
-161.3431233320601
 10
88.24594859990032
 20
-161.3431233320601
 10
88.24594859990032
 20
-161.3431233320601
 10
88.24594859990032
 20
-161.0954209666706
 10
88.24594859990032
 20
-161.0954209666706
 10
88.24594859990032
 20
-161.0954209666706
 10
88.18118080477763
 20
-161.0954209666706
 10
88.18118080477763
 20
-161.0954209666706
 10
88.12743731520773
 20
-161.0954209666706
 10
87.98119301185888
 20
-161.0998995908014
 10
87.87560083523597
 20
-161.108167819966
 10
87.87560083523597
 20
-161.108167819966
 10
87.87560083523597
 20
-160.9304008929271
 10
87.87560083523597
 20
-160.9304008929271
 10
87.97568085908247
 20
-160.9369465743491
 10
88.11451820713805
 20
-160.9410806889314
 10
88.18118080477763
 20
-160.9410806889314
 10
88.18118080477763
 20
-160.9410806889314
 10
88.24405379738343
 20
-160.9410806889314
 10
88.24405379738343
 20
-160.9410806889314
 10
88.24043644712393
 20
-160.7888074684834
 10
88.23854164460704
 20
-160.7550455327279
 10
88.23302949183064
 20
-160.6616834450776
 10
88.23302949183064
 20
-160.6616834450776
 10
88.41820337416281
 20
-160.6851100943773
 10
88.41820337416281
 20
-160.6851100943773
 10
88.44042424004267
 20
-160.6871771516685
 10
88.46075030340565
 20
-160.6913112662508
 10
88.46075030340565
 20
-160.7147379155505
 10
88.46075030340565
 20
-160.7464327940148
 10
88.42182072442233
 20
-160.7633137618925
 10
88.40149466105935
 20
-160.7719265006056
 10
88.40149466105935
 20
-160.7719265006056
 10
88.40149466105935
 20
-160.9410806889314
 10
88.40149466105935
 20
-160.9410806889314
 10
88.40149466105935
 20
-160.9410806889314
 10
88.48658851954502
 20
-160.9410806889314
 10
88.48658851954502
 20
-160.9410806889314
 10
88.55342337195887
 20
-160.9410806889314
 10
88.69226072001445
 20
-160.9369465743491
 10
88.79406329160358
 20
-160.9304008929271
 10
88.79406329160358
 20
-160.9304008929271
 10
88.79406329160358
 20
-161.108167819966
 10
88.79406329160358
 20
-161.108167819966
 10
88.69966767530772
 20
-161.1019666480926
 10
88.54773896440821
 20
-161.0954209666706
 10
88.48658851954502
 20
-161.0954209666706
 97
        0
 97
        0
 92
        1
 93
        1
 72
     4
 94
        3
 73
     0
 74
     1
 95
       17
 96
       13
 40
0.0
 40
0.0
 40
0.0
 40
0.0
 40
1.0
 40
1.0
 40
1.0
 40
2.0
 40
2.0
 40
2.0
 40
3.0
 40
3.0
 40
3.0
 40
4.0
 40
4.0
 40
4.0
 40
4.0
 10
88.27195907081396
 20
-161.8929605715059
 10
88.27195907081396
 20
-161.8929605715059
 10
88.09419214377506
 20
-161.8929605715059
 10
88.09419214377506
 20
-161.8929605715059
 10
88.11813555739755
 20
-161.9522162138522
 10
88.16636689419106
 20
-162.024218709494
 10
88.19031030781353
 20
-162.0538465306671
 10
88.2144259762103
 20
-162.0390326200805
 10
88.3145060000568
 20
-161.9756428631519
 10
88.39408770576607
 20
-161.8929605715059
 10
88.39408770576607
 20
-161.8929605715059
 10
88.27195907081396
 20
-161.8929605715059
 10
88.27195907081396
 20
-161.8929605715059
 97
        0
 97
        0
 75
     2
 76
     1
 98
        0
  0
SPLINE
  5
63
330
50
100
AcDbEntity
  8
_U+30EC_U+30A4_U+30E4_U+30FC 1
370
     0
100
AcDbSpline
210
0.0
220
0.0
230
1.0
 70
    11
 71
     3
 72
    77
 73
    73
 74
     0
 42
0.0000000001
 43
0.0000000001
 12
1.0
 22
0.0
 32
0.0
 13
1.0
 23
0.0
 33
0.0
 40
0.0
 40
0.0
 40
0.0
 40
0.0
 40
1.0
 40
1.0
 40
1.0
 40
2.0
 40
2.0
 40
2.0
 40
3.0
 40
3.0
 40
3.0
 40
4.0
 40
4.0
 40
4.0
 40
5.0
 40
5.0
 40
5.0
 40
6.0
 40
6.0
 40
6.0
 40
7.0
 40
7.0
 40
7.0
 40
8.0
 40
8.0
 40
8.0
 40
9.0
 40
9.0
 40
9.0
 40
10.0
 40
10.0
 40
10.0
 40
11.0
 40
11.0
 40
11.0
 40
12.0
 40
12.0
 40
12.0
 40
13.0
 40
13.0
 40
13.0
 40
14.0
 40
14.0
 40
14.0
 40
15.0
 40
15.0
 40
15.0
 40
16.0
 40
16.0
 40
16.0
 40
17.0
 40
17.0
 40
17.0
 40
18.0
 40
18.0
 40
18.0
 40
19.0
 40
19.0
 40
19.0
 40
20.0
 40
20.0
 40
20.0
 40
21.0
 40
21.0
 40
21.0
 40
22.0
 40
22.0
 40
22.0
 40
23.0
 40
23.0
 40
23.0
 40
24.0
 40
24.0
 40
24.0
 40
24.0
 10
90.45356578684842
 20
-162.5234130453067
 30
0.0
 10
90.41274140534821
 20
-162.5489067518975
 30
0.0
 10
90.30353187846579
 20
-162.5616536051929
 30
0.0
 10
90.23497447830931
 20
-162.5616536051929
 30
0.0
 10
90.22395017275652
 20
-162.5616536051929
 30
0.0
 10
90.20172930687666
 20
-162.5616536051929
 30
0.0
 10
90.17210148570351
 20
-162.5571749810621
 30
0.0
 10
90.17210148570351
 20
-162.5571749810621
 30
0.0
 10
90.08683537244357
 20
-162.3308322076812
 30
0.0
 10
90.08683537244357
 20
-162.3308322076812
 30
0.0
 10
90.1128458433572
 20
-162.3373778891032
 30
0.0
 10
90.16279972789333
 20
-162.3456461182678
 30
0.0
 10
90.26460229948246
 20
-162.3456461182678
 30
0.0
 10
90.33315969963894
 20
-162.3456461182678
 30
0.0
 10
90.33505450215583
 20
-162.3036159533477
 30
0.0
 10
90.33505450215583
 20
-162.2464273682926
 30
0.0
 10
90.33505450215583
 20
-162.2464273682926
 30
0.0
 10
90.33505450215583
 20
-161.8974391956368
 30
0.0
 10
90.33505450215583
 20
-161.8974391956368
 30
0.0
 10
90.33505450215583
 20
-161.8974391956368
 30
0.0
 10
89.93318411380143
 20
-161.8974391956368
 30
0.0
 10
89.93318411380143
 20
-161.8974391956368
 30
0.0
 10
89.93507891631832
 20
-162.0348985054982
 30
0.0
 10
89.9369737188352
 20
-162.2336805149971
 30
0.0
 10
89.94248587161161
 20
-162.3670057102763
 30
0.0
 10
89.9443806741285
 20
-162.3945664741583
 30
0.0
 10
89.9443806741285
 20
-162.439008205918
 30
0.0
 10
89.95540497968129
 20
-162.5003309055555
 30
0.0
 10
89.95540497968129
 20
-162.5003309055555
 30
0.0
 10
89.74439288120973
 20
-162.5003309055555
 30
0.0
 10
89.74439288120973
 20
-162.5003309055555
 30
0.0
 10
89.76661374708961
 20
-162.3752739394409
 30
0.0
 10
89.76661374708961
 20
-162.0348985054982
 30
0.0
 10
89.76661374708961
 20
-161.8974391956368
 30
0.0
 10
89.76661374708961
 20
-161.8974391956368
 30
0.0
 10
89.37955726932178
 20
-161.8974391956368
 30
0.0
 10
89.37955726932178
 20
-161.8974391956368
 30
0.0
 10
89.3592312059588
 20
-162.1044894343003
 30
0.0
 10
89.30169811135514
 20
-162.3732068821498
 30
0.0
 10
89.12961559186691
 20
-162.5571749810621
 30
0.0
 10
89.12961559186691
 20
-162.5571749810621
 30
0.0
 10
88.9647677728977
 20
-162.4345295817872
 30
0.0
 10
88.9647677728977
 20
-162.4345295817872
 30
0.0
 10
89.18697643169631
 20
-162.2147324898283
 30
0.0
 10
89.21470945035257
 20
-161.8826252850502
 30
0.0
 10
89.21470945035257
 20
-161.5505180802721
 30
0.0
 10
89.21470945035257
 20
-161.5505180802721
 30
0.0
 10
89.21470945035257
 20
-161.114713501388
 30
0.0
 10
89.21470945035257
 20
-161.114713501388
 30
0.0
 10
89.21470945035257
 20
-161.0785399987929
 30
0.0
 10
89.21281464783569
 20
-160.8459960535385
 30
0.0
 10
89.20557994731666
 20
-160.7443657367236
 30
0.0
 10
89.32770858226877
 20
-160.7550455327279
 30
0.0
 10
89.53872068074033
 20
-160.7550455327279
 30
0.0
 10
89.66481117550047
 20
-160.7550455327279
 30
0.0
 10
89.66481117550047
 20
-160.7550455327279
 30
0.0
 10
90.0665093090806
 20
-160.7550455327279
 30
0.0
 10
90.0665093090806
 20
-160.7550455327279
 30
0.0
 10
90.07960067192455
 20
-160.7550455327279
 30
0.0
 10
90.38500838669195
 20
-160.7550455327279
 30
0.0
 10
90.52401798952178
 20
-160.7443657367236
 30
0.0
 10
90.5221231870049
 20
-160.797075697648
 30
0.0
 10
90.51643877945423
 20
-160.9579616568091
 30
0.0
 10
90.51643877945423
 20
-161.0089490699908
 30
0.0
 10
90.51643877945423
 20
-161.0089490699908
 30
0.0
 10
90.51643877945423
 20
-161.6159748944918
 30
0.0
 10
90.51643877945423
 20
-161.6159748944918
 30
0.0
 10
90.51643877945423
 20
-161.6349229196607
 30
0.0
 10
90.5257405372644
 20
-162.2061197511152
 30
0.0
 10
90.5257405372644
 20
-162.3184298639343
 30
0.0
 10
90.5257405372644
 20
-162.3752739394409
 30
0.0
 10
90.5257405372644
 20
-162.4769042562558
 30
0.0
 10
90.45356578684842
 20
-162.5234130453067
 30
0.0
  0
POLYLINE
  5
64
330
50
100
AcDbEntity
  8
_U+30EC_U+30A4_U+30E4_U+30FC 1
370
     0
100
AcDb2dPolyline
 66
     1
 10
0.0
 20
0.0
 30
0.0
  0
VERTEX
  5
65
330
64
100
AcDbEntity
  8
_U+30EC_U+30A4_U+30E4_U+30FC 1
370
     0
100
AcDbVertex
100
AcDb2dVertex
 10
89.76661374708961
 20
-160.9369465743491
 30
0.0
  0
VERTEX
  5
66
330
64
100
AcDbEntity
  8
_U+30EC_U+30A4_U+30E4_U+30FC 1
370
     0
100
AcDbVertex
100
AcDb2dVertex
 10
89.38334687435555
 20
-160.9369465743491
 30
0.0
  0
VERTEX
  5
67
330
64
100
AcDbEntity
  8
_U+30EC_U+30A4_U+30E4_U+30FC 1
370
     0
100
AcDbVertex
100
AcDb2dVertex
 10
89.38334687435555
 20
-161.2414930152452
 30
0.0
  0
VERTEX
  5
68
330
64
100
AcDbEntity
  8
_U+30EC_U+30A4_U+30E4_U+30FC 1
370
     0
100
AcDbVertex
100
AcDb2dVertex
 10
89.76661374708961
 20
-161.2414930152452
 30
0.0
  0
VERTEX
  5
69
330
64
100
AcDbEntity
  8
_U+30EC_U+30A4_U+30E4_U+30FC 1
370
     0
100
AcDbVertex
100
AcDb2dVertex
 10
89.76661374708961
 20
-160.9369465743491
 30
0.0
  0
SEQEND
  5
6A
330
64
100
AcDbEntity
  8
_U+30EC_U+30A4_U+30E4_U+30FC 1
370
     0
  0
POLYLINE
  5
6B
330
50
100
AcDbEntity
  8
_U+30EC_U+30A4_U+30E4_U+30FC 1
370
     0
100
AcDb2dPolyline
 66
     1
 10
0.0
 20
0.0
 30
0.0
  0
VERTEX
  5
6C
330
6B
100
AcDbEntity
  8
_U+30EC_U+30A4_U+30E4_U+30FC 1
370
     0
100
AcDbVertex
100
AcDb2dVertex
 10
89.76661374708961
 20
-161.4085801462798
 30
0.0
  0
VERTEX
  5
6D
330
6B
100
AcDbEntity
  8
_U+30EC_U+30A4_U+30E4_U+30FC 1
370
     0
100
AcDbVertex
100
AcDb2dVertex
 10
89.38334687435555
 20
-161.4085801462798
 30
0.0
  0
VERTEX
  5
6E
330
6B
100
AcDbEntity
  8
_U+30EC_U+30A4_U+30E4_U+30FC 1
370
     0
100
AcDbVertex
100
AcDb2dVertex
 10
89.38334687435555
 20
-161.7176052113067
 30
0.0
  0
VERTEX
  5
6F
330
6B
100
AcDbEntity
  8
_U+30EC_U+30A4_U+30E4_U+30FC 1
370
     0
100
AcDbVertex
100
AcDb2dVertex
 10
89.76661374708961
 20
-161.7176052113067
 30
0.0
  0
VERTEX
  5
70
330
6B
100
AcDbEntity
  8
_U+30EC_U+30A4_U+30E4_U+30FC 1
370
     0
100
AcDbVertex
100
AcDb2dVertex
 10
89.76661374708961
 20
-161.4085801462798
 30
0.0
  0
SEQEND
  5
71
330
6B
100
AcDbEntity
  8
_U+30EC_U+30A4_U+30E4_U+30FC 1
370
     0
  0
POLYLINE
  5
72
330
50
100
AcDbEntity
  8
_U+30EC_U+30A4_U+30E4_U+30FC 1
370
     0
100
AcDb2dPolyline
 66
     1
 10
0.0
 20
0.0
 30
0.0
  0
VERTEX
  5
73
330
72
100
AcDbEntity
  8
_U+30EC_U+30A4_U+30E4_U+30FC 1
370
     0
100
AcDbVertex
100
AcDb2dVertex
 10
90.33505450215583
 20
-160.9369465743491
 30
0.0
  0
VERTEX
  5
74
330
72
100
AcDbEntity
  8
_U+30EC_U+30A4_U+30E4_U+30FC 1
370
     0
100
AcDbVertex
100
AcDb2dVertex
 10
89.93318411380143
 20
-160.9369465743491
 30
0.0
  0
VERTEX
  5
75
330
72
100
AcDbEntity
  8
_U+30EC_U+30A4_U+30E4_U+30FC 1
370
     0
100
AcDbVertex
100
AcDb2dVertex
 10
89.93318411380143
 20
-161.2414930152452
 30
0.0
  0
VERTEX
  5
76
330
72
100
AcDbEntity
  8
_U+30EC_U+30A4_U+30E4_U+30FC 1
370
     0
100
AcDbVertex
100
AcDb2dVertex
 10
90.33505450215583
 20
-161.2414930152452
 30
0.0
  0
VERTEX
  5
77
330
72
100
AcDbEntity
  8
_U+30EC_U+30A4_U+30E4_U+30FC 1
370
     0
100
AcDbVertex
100
AcDb2dVertex
 10
90.33505450215583
 20
-160.9369465743491
 30
0.0
  0
SEQEND
  5
78
330
72
100
AcDbEntity
  8
_U+30EC_U+30A4_U+30E4_U+30FC 1
370
     0
  0
POLYLINE
  5
79
330
50
100
AcDbEntity
  8
_U+30EC_U+30A4_U+30E4_U+30FC 1
370
     0
100
AcDb2dPolyline
 66
     1
 10
0.0
 20
0.0
 30
0.0
  0
VERTEX
  5
7A
330
79
100
AcDbEntity
  8
_U+30EC_U+30A4_U+30E4_U+30FC 1
370
     0
100
AcDbVertex
100
AcDb2dVertex
 10
90.33505450215583
 20
-161.4085801462798
 30
0.0
  0
VERTEX
  5
7B
330
79
100
AcDbEntity
  8
_U+30EC_U+30A4_U+30E4_U+30FC 1
370
     0
100
AcDbVertex
100
AcDb2dVertex
 10
89.93318411380143
 20
-161.4085801462798
 30
0.0
  0
VERTEX
  5
7C
330
79
100
AcDbEntity
  8
_U+30EC_U+30A4_U+30E4_U+30FC 1
370
     0
100
AcDbVertex
100
AcDb2dVertex
 10
89.93318411380143
 20
-161.7176052113067
 30
0.0
  0
VERTEX
  5
7D
330
79
100
AcDbEntity
  8
_U+30EC_U+30A4_U+30E4_U+30FC 1
370
     0
100
AcDbVertex
100
AcDb2dVertex
 10
90.33505450215583
 20
-161.7176052113067
 30
0.0
  0
VERTEX
  5
7E
330
79
100
AcDbEntity
  8
_U+30EC_U+30A4_U+30E4_U+30FC 1
370
     0
100
AcDbVertex
100
AcDb2dVertex
 10
90.33505450215583
 20
-161.4085801462798
 30
0.0
  0
SEQEND
  5
7F
330
79
100
AcDbEntity
  8
_U+30EC_U+30A4_U+30E4_U+30FC 1
370
     0
  0
HATCH
  5
80
330
50
100
AcDbEntity
  8
_U+30EC_U+30A4_U+30E4_U+30FC 1
 62
   179
420
  2234388
100
AcDbHatch
 10
0.0
 20
0.0
 30
0.0
210
0.0
220
0.0
230
1.0
  2
SOLID
 70
     1
 71
     0
 91
        5
 92
        1
 93
        1
 72
     4
 94
        3
 73
     0
 74
     1
 95
       77
 96
       73
 40
0.0
 40
0.0
 40
0.0
 40
0.0
 40
1.0
 40
1.0
 40
1.0
 40
2.0
 40
2.0
 40
2.0
 40
3.0
 40
3.0
 40
3.0
 40
4.0
 40
4.0
 40
4.0
 40
5.0
 40
5.0
 40
5.0
 40
6.0
 40
6.0
 40
6.0
 40
7.0
 40
7.0
 40
7.0
 40
8.0
 40
8.0
 40
8.0
 40
9.0
 40
9.0
 40
9.0
 40
10.0
 40
10.0
 40
10.0
 40
11.0
 40
11.0
 40
11.0
 40
12.0
 40
12.0
 40
12.0
 40
13.0
 40
13.0
 40
13.0
 40
14.0
 40
14.0
 40
14.0
 40
15.0
 40
15.0
 40
15.0
 40
16.0
 40
16.0
 40
16.0
 40
17.0
 40
17.0
 40
17.0
 40
18.0
 40
18.0
 40
18.0
 40
19.0
 40
19.0
 40
19.0
 40
20.0
 40
20.0
 40
20.0
 40
21.0
 40
21.0
 40
21.0
 40
22.0
 40
22.0
 40
22.0
 40
23.0
 40
23.0
 40
23.0
 40
24.0
 40
24.0
 40
24.0
 40
24.0
 10
90.45356578684842
 20
-162.5234130453067
 10
90.41274140534821
 20
-162.5489067518975
 10
90.30353187846579
 20
-162.5616536051929
 10
90.23497447830931
 20
-162.5616536051929
 10
90.22395017275652
 20
-162.5616536051929
 10
90.20172930687666
 20
-162.5616536051929
 10
90.17210148570351
 20
-162.5571749810621
 10
90.17210148570351
 20
-162.5571749810621
 10
90.08683537244357
 20
-162.3308322076812
 10
90.08683537244357
 20
-162.3308322076812
 10
90.1128458433572
 20
-162.3373778891032
 10
90.16279972789333
 20
-162.3456461182678
 10
90.26460229948246
 20
-162.3456461182678
 10
90.33315969963894
 20
-162.3456461182678
 10
90.33505450215583
 20
-162.3036159533477
 10
90.33505450215583
 20
-162.2464273682926
 10
90.33505450215583
 20
-162.2464273682926
 10
90.33505450215583
 20
-161.8974391956368
 10
90.33505450215583
 20
-161.8974391956368
 10
90.33505450215583
 20
-161.8974391956368
 10
89.93318411380143
 20
-161.8974391956368
 10
89.93318411380143
 20
-161.8974391956368
 10
89.93507891631832
 20
-162.0348985054982
 10
89.9369737188352
 20
-162.2336805149971
 10
89.94248587161161
 20
-162.3670057102763
 10
89.9443806741285
 20
-162.3945664741583
 10
89.9443806741285
 20
-162.439008205918
 10
89.95540497968129
 20
-162.5003309055555
 10
89.95540497968129
 20
-162.5003309055555
 10
89.74439288120973
 20
-162.5003309055555
 10
89.74439288120973
 20
-162.5003309055555
 10
89.76661374708961
 20
-162.3752739394409
 10
89.76661374708961
 20
-162.0348985054982
 10
89.76661374708961
 20
-161.8974391956368
 10
89.76661374708961
 20
-161.8974391956368
 10
89.37955726932178
 20
-161.8974391956368
 10
89.37955726932178
 20
-161.8974391956368
 10
89.3592312059588
 20
-162.1044894343003
 10
89.30169811135514
 20
-162.3732068821498
 10
89.12961559186691
 20
-162.5571749810621
 10
89.12961559186691
 20
-162.5571749810621
 10
88.9647677728977
 20
-162.4345295817872
 10
88.9647677728977
 20
-162.4345295817872
 10
89.18697643169631
 20
-162.2147324898283
 10
89.21470945035257
 20
-161.8826252850502
 10
89.21470945035257
 20
-161.5505180802721
 10
89.21470945035257
 20
-161.5505180802721
 10
89.21470945035257
 20
-161.114713501388
 10
89.21470945035257
 20
-161.114713501388
 10
89.21470945035257
 20
-161.0785399987929
 10
89.21281464783569
 20
-160.8459960535385
 10
89.20557994731666
 20
-160.7443657367236
 10
89.32770858226877
 20
-160.7550455327279
 10
89.53872068074033
 20
-160.7550455327279
 10
89.66481117550047
 20
-160.7550455327279
 10
89.66481117550047
 20
-160.7550455327279
 10
90.0665093090806
 20
-160.7550455327279
 10
90.0665093090806
 20
-160.7550455327279
 10
90.07960067192455
 20
-160.7550455327279
 10
90.38500838669195
 20
-160.7550455327279
 10
90.52401798952178
 20
-160.7443657367236
 10
90.5221231870049
 20
-160.797075697648
 10
90.51643877945423
 20
-160.9579616568091
 10
90.51643877945423
 20
-161.0089490699908
 10
90.51643877945423
 20
-161.0089490699908
 10
90.51643877945423
 20
-161.6159748944918
 10
90.51643877945423
 20
-161.6159748944918
 10
90.51643877945423
 20
-161.6349229196607
 10
90.5257405372644
 20
-162.2061197511152
 10
90.5257405372644
 20
-162.3184298639343
 10
90.5257405372644
 20
-162.3752739394409
 10
90.5257405372644
 20
-162.4769042562558
 10
90.45356578684842
 20
-162.5234130453067
 97
        0
 97
        0
 92
        1
 93
        4
 72
     1
 10
89.76661374708961
 20
-160.9369465743491
 11
89.38334687435555
 21
-160.9369465743491
 72
     1
 10
89.38334687435555
 20
-160.9369465743491
 11
89.38334687435555
 21
-161.2414930152452
 72
     1
 10
89.38334687435555
 20
-161.2414930152452
 11
89.76661374708961
 21
-161.2414930152452
 72
     1
 10
89.76661374708961
 20
-161.2414930152452
 11
89.76661374708961
 21
-160.9369465743491
 97
        0
 92
        1
 93
        4
 72
     1
 10
89.76661374708961
 20
-161.4085801462798
 11
89.38334687435555
 21
-161.4085801462798
 72
     1
 10
89.38334687435555
 20
-161.4085801462798
 11
89.38334687435555
 21
-161.7176052113067
 72
     1
 10
89.38334687435555
 20
-161.7176052113067
 11
89.76661374708961
 21
-161.7176052113067
 72
     1
 10
89.76661374708961
 20
-161.7176052113067
 11
89.76661374708961
 21
-161.4085801462798
 97
        0
 92
        1
 93
        4
 72
     1
 10
90.33505450215583
 20
-160.9369465743491
 11
89.93318411380143
 21
-160.9369465743491
 72
     1
 10
89.93318411380143
 20
-160.9369465743491
 11
89.93318411380143
 21
-161.2414930152452
 72
     1
 10
89.93318411380143
 20
-161.2414930152452
 11
90.33505450215583
 21
-161.2414930152452
 72
     1
 10
90.33505450215583
 20
-161.2414930152452
 11
90.33505450215583
 21
-160.9369465743491
 97
        0
 92
        1
 93
        4
 72
     1
 10
90.33505450215583
 20
-161.4085801462798
 11
89.93318411380143
 21
-161.4085801462798
 72
     1
 10
89.93318411380143
 20
-161.4085801462798
 11
89.93318411380143
 21
-161.7176052113067
 72
     1
 10
89.93318411380143
 20
-161.7176052113067
 11
90.33505450215583
 21
-161.7176052113067
 72
     1
 10
90.33505450215583
 20
-161.7176052113067
 11
90.33505450215583
 21
-161.4085801462798
 97
        0
 75
     2
 76
     1
 98
        0
  0
SPLINE
  5
81
330
50
100
AcDbEntity
  8
_U+30EC_U+30A4_U+30E4_U+30FC 1
370
     0
100
AcDbSpline
210
0.0
220
0.0
230
1.0
 70
    11
 71
     3
 72
    44
 73
    40
 74
     0
 42
0.0000000001
 43
0.0000000001
 12
1.0
 22
0.0
 32
0.0
 13
1.0
 23
0.0
 33
0.0
 40
0.0
 40
0.0
 40
0.0
 40
0.0
 40
1.0
 40
1.0
 40
1.0
 40
2.0
 40
2.0
 40
2.0
 40
3.0
 40
3.0
 40
3.0
 40
4.0
 40
4.0
 40
4.0
 40
5.0
 40
5.0
 40
5.0
 40
6.0
 40
6.0
 40
6.0
 40
7.0
 40
7.0
 40
7.0
 40
8.0
 40
8.0
 40
8.0
 40
9.0
 40
9.0
 40
9.0
 40
10.0
 40
10.0
 40
10.0
 40
11.0
 40
11.0
 40
11.0
 40
12.0
 40
12.0
 40
12.0
 40
13.0
 40
13.0
 40
13.0
 40
13.0
 10
92.09825437150668
 20
-161.2731878937095
 30
0.0
 10
92.00024140495134
 20
-161.6414686010827
 30
0.0
 10
91.9557996731916
 20
-161.7999429934042
 30
0.0
 10
91.78354489892912
 20
-162.0497124160848
 30
0.0
 10
91.62231443021942
 20
-162.280189304048
 30
0.0
 10
91.41491968200738
 20
-162.4662244602515
 30
0.0
 10
91.17066241210317
 20
-162.5595865479018
 30
0.0
 10
91.17066241210317
 20
-162.5595865479018
 30
0.0
 10
91.00202498810019
 20
-162.3797525635717
 30
0.0
 10
91.00202498810019
 20
-162.3797525635717
 30
0.0
 10
91.56305878787313
 20
-162.2274793431237
 30
0.0
 10
91.85210229908559
 20
-161.6710964222559
 30
0.0
 10
91.90756833639811
 20
-161.2308132192409
 30
0.0
 10
91.90756833639811
 20
-161.2308132192409
 30
0.0
 10
91.23715275496849
 20
-161.2308132192409
 30
0.0
 10
91.23715275496849
 20
-161.2308132192409
 30
0.0
 10
91.1558485015166
 20
-161.2308132192409
 30
0.0
 10
90.99461803280691
 20
-161.2352918433717
 30
0.0
 10
90.85767548726822
 20
-161.2542398685406
 30
0.0
 10
90.85767548726822
 20
-161.2542398685406
 30
0.0
 10
90.85767548726822
 20
-161.0340982670332
 30
0.0
 10
90.85767548726822
 20
-161.0340982670332
 30
0.0
 10
90.93363984271798
 20
-161.0554578590417
 30
0.0
 10
91.15395369899971
 20
-161.0554578590417
 30
0.0
 10
91.24094236000226
 20
-161.0554578590417
 30
0.0
 10
91.24094236000226
 20
-161.0554578590417
 30
0.0
 10
91.61869707995992
 20
-161.0554578590417
 30
0.0
 10
91.61869707995992
 20
-161.0554578590417
 30
0.0
 10
91.65573185642634
 20
-161.0554578590417
 30
0.0
 10
91.86123180212151
 20
-161.053046292202
 30
0.0
 10
91.89464922832842
 20
-161.0468451203286
 30
0.0
 10
91.93168400479486
 20
-161.0406439484551
 30
0.0
 10
91.93340655253749
 20
-161.0382323816154
 30
0.0
 10
91.98715004210739
 20
-160.9982692739866
 30
0.0
 10
91.98715004210739
 20
-160.9982692739866
 30
0.0
 10
92.1519978610766
 20
-161.1526095517257
 30
0.0
 10
92.1519978610766
 20
-161.1526095517257
 30
0.0
 10
92.12598739016295
 20
-161.1822373728989
 30
0.0
 10
92.11306828209327
 20
-161.2139322513632
 30
0.0
 10
92.09825437150668
 20
-161.2731878937095
 30
0.0
  0
SPLINE
  5
82
330
50
100
AcDbEntity
  8
_U+30EC_U+30A4_U+30E4_U+30FC 1
370
     0
100
AcDbSpline
210
0.0
220
0.0
230
1.0
 70
    11
 71
     3
 72
    17
 73
    13
 74
     0
 42
0.0000000001
 43
0.0000000001
 12
1.0
 22
0.0
 32
0.0
 13
1.0
 23
0.0
 33
0.0
 40
0.0
 40
0.0
 40
0.0
 40
0.0
 40
1.0
 40
1.0
 40
1.0
 40
2.0
 40
2.0
 40
2.0
 40
3.0
 40
3.0
 40
3.0
 40
4.0
 40
4.0
 40
4.0
 40
4.0
 10
92.28170570609625
 20
-161.0744058842106
 30
0.0
 10
92.17042912192268
 20
-161.0744058842106
 30
0.0
 10
92.08154565840323
 20
-160.9727755673957
 30
0.0
 10
92.08154565840323
 20
-160.8459960535385
 30
0.0
 10
92.08154565840323
 20
-160.7188720301328
 30
0.0
 10
92.17042912192268
 20
-160.6151746560268
 30
0.0
 10
92.28170570609625
 20
-160.6151746560268
 30
0.0
 10
92.39263778072129
 20
-160.6151746560268
 30
0.0
 10
92.48341604675763
 20
-160.7188720301328
 30
0.0
 10
92.48341604675763
 20
-160.8459960535385
 30
0.0
 10
92.48341604675763
 20
-160.9727755673957
 30
0.0
 10
92.39263778072129
 20
-161.0744058842106
 30
0.0
 10
92.28170570609625
 20
-161.0744058842106
 30
0.0
  0
SPLINE
  5
83
330
50
100
AcDbEntity
  8
_U+30EC_U+30A4_U+30E4_U+30FC 1
370
     0
100
AcDbSpline
210
0.0
220
0.0
230
1.0
 70
    11
 71
     3
 72
    17
 73
    13
 74
     0
 42
0.0000000001
 43
0.0000000001
 12
1.0
 22
0.0
 32
0.0
 13
1.0
 23
0.0
 33
0.0
 40
0.0
 40
0.0
 40
0.0
 40
0.0
 40
1.0
 40
1.0
 40
1.0
 40
2.0
 40
2.0
 40
2.0
 40
3.0
 40
3.0
 40
3.0
 40
4.0
 40
4.0
 40
4.0
 40
4.0
 10
92.27981090357936
 20
-160.7443657367236
 30
0.0
 10
92.23157956678585
 20
-160.7443657367236
 30
0.0
 10
92.1928222425768
 20
-160.7888074684834
 30
0.0
 10
92.1928222425768
 20
-160.8439289962474
 30
0.0
 10
92.1928222425768
 20
-160.900773071754
 30
0.0
 10
92.23157956678585
 20
-160.9496934276445
 30
0.0
 10
92.28342825383886
 20
-160.9496934276445
 30
0.0
 10
92.33527694089187
 20
-160.9496934276445
 30
0.0
 10
92.37058916961568
 20
-160.8987060144628
 30
0.0
 10
92.37058916961568
 20
-160.8459960535385
 30
0.0
 10
92.37058916961568
 20
-160.7888074684834
 30
0.0
 10
92.32976478811548
 20
-160.7443657367236
 30
0.0
 10
92.27981090357936
 20
-160.7443657367236
 30
0.0
  0
HATCH
  5
84
330
50
100
AcDbEntity
  8
_U+30EC_U+30A4_U+30E4_U+30FC 1
 62
   179
420
  2234388
100
AcDbHatch
 10
0.0
 20
0.0
 30
0.0
210
0.0
220
0.0
230
1.0
  2
SOLID
 70
     1
 71
     0
 91
        3
 92
        1
 93
        1
 72
     4
 94
        3
 73
     0
 74
     1
 95
       44
 96
       40
 40
0.0
 40
0.0
 40
0.0
 40
0.0
 40
1.0
 40
1.0
 40
1.0
 40
2.0
 40
2.0
 40
2.0
 40
3.0
 40
3.0
 40
3.0
 40
4.0
 40
4.0
 40
4.0
 40
5.0
 40
5.0
 40
5.0
 40
6.0
 40
6.0
 40
6.0
 40
7.0
 40
7.0
 40
7.0
 40
8.0
 40
8.0
 40
8.0
 40
9.0
 40
9.0
 40
9.0
 40
10.0
 40
10.0
 40
10.0
 40
11.0
 40
11.0
 40
11.0
 40
12.0
 40
12.0
 40
12.0
 40
13.0
 40
13.0
 40
13.0
 40
13.0
 10
92.09825437150668
 20
-161.2731878937095
 10
92.00024140495134
 20
-161.6414686010827
 10
91.9557996731916
 20
-161.7999429934042
 10
91.78354489892912
 20
-162.0497124160848
 10
91.62231443021942
 20
-162.280189304048
 10
91.41491968200738
 20
-162.4662244602515
 10
91.17066241210317
 20
-162.5595865479018
 10
91.17066241210317
 20
-162.5595865479018
 10
91.00202498810019
 20
-162.3797525635717
 10
91.00202498810019
 20
-162.3797525635717
 10
91.56305878787313
 20
-162.2274793431237
 10
91.85210229908559
 20
-161.6710964222559
 10
91.90756833639811
 20
-161.2308132192409
 10
91.90756833639811
 20
-161.2308132192409
 10
91.23715275496849
 20
-161.2308132192409
 10
91.23715275496849
 20
-161.2308132192409
 10
91.1558485015166
 20
-161.2308132192409
 10
90.99461803280691
 20
-161.2352918433717
 10
90.85767548726822
 20
-161.2542398685406
 10
90.85767548726822
 20
-161.2542398685406
 10
90.85767548726822
 20
-161.0340982670332
 10
90.85767548726822
 20
-161.0340982670332
 10
90.93363984271798
 20
-161.0554578590417
 10
91.15395369899971
 20
-161.0554578590417
 10
91.24094236000226
 20
-161.0554578590417
 10
91.24094236000226
 20
-161.0554578590417
 10
91.61869707995992
 20
-161.0554578590417
 10
91.61869707995992
 20
-161.0554578590417
 10
91.65573185642634
 20
-161.0554578590417
 10
91.86123180212151
 20
-161.053046292202
 10
91.89464922832842
 20
-161.0468451203286
 10
91.93168400479486
 20
-161.0406439484551
 10
91.93340655253749
 20
-161.0382323816154
 10
91.98715004210739
 20
-160.9982692739866
 10
91.98715004210739
 20
-160.9982692739866
 10
92.1519978610766
 20
-161.1526095517257
 10
92.1519978610766
 20
-161.1526095517257
 10
92.12598739016295
 20
-161.1822373728989
 10
92.11306828209327
 20
-161.2139322513632
 10
92.09825437150668
 20
-161.2731878937095
 97
        0
 97
        0
 92
        1
 93
        1
 72
     4
 94
        3
 73
     0
 74
     1
 95
       17
 96
       13
 40
0.0
 40
0.0
 40
0.0
 40
0.0
 40
1.0
 40
1.0
 40
1.0
 40
2.0
 40
2.0
 40
2.0
 40
3.0
 40
3.0
 40
3.0
 40
4.0
 40
4.0
 40
4.0
 40
4.0
 10
92.28170570609625
 20
-161.0744058842106
 10
92.17042912192268
 20
-161.0744058842106
 10
92.08154565840323
 20
-160.9727755673957
 10
92.08154565840323
 20
-160.8459960535385
 10
92.08154565840323
 20
-160.7188720301328
 10
92.17042912192268
 20
-160.6151746560268
 10
92.28170570609625
 20
-160.6151746560268
 10
92.39263778072129
 20
-160.6151746560268
 10
92.48341604675763
 20
-160.7188720301328
 10
92.48341604675763
 20
-160.8459960535385
 10
92.48341604675763
 20
-160.9727755673957
 10
92.39263778072129
 20
-161.0744058842106
 10
92.28170570609625
 20
-161.0744058842106
 97
        0
 97
        0
 92
        1
 93
        1
 72
     4
 94
        3
 73
     0
 74
     1
 95
       17
 96
       13
 40
0.0
 40
0.0
 40
0.0
 40
0.0
 40
1.0
 40
1.0
 40
1.0
 40
2.0
 40
2.0
 40
2.0
 40
3.0
 40
3.0
 40
3.0
 40
4.0
 40
4.0
 40
4.0
 40
4.0
 10
92.27981090357936
 20
-160.7443657367236
 10
92.23157956678585
 20
-160.7443657367236
 10
92.1928222425768
 20
-160.7888074684834
 10
92.1928222425768
 20
-160.8439289962474
 10
92.1928222425768
 20
-160.900773071754
 10
92.23157956678585
 20
-160.9496934276445
 10
92.28342825383886
 20
-160.9496934276445
 10
92.33527694089187
 20
-160.9496934276445
 10
92.37058916961568
 20
-160.8987060144628
 10
92.37058916961568
 20
-160.8459960535385
 10
92.37058916961568
 20
-160.7888074684834
 10
92.32976478811548
 20
-160.7443657367236
 10
92.27981090357936
 20
-160.7443657367236
 97
        0
 97
        0
 75
     2
 76
     1
 98
        0
  0
SPLINE
  5
85
330
50
100
AcDbEntity
  8
_U+30EC_U+30A4_U+30E4_U+30FC 1
370
     0
100
AcDbSpline
210
0.0
220
0.0
230
1.0
 70
    11
 71
     3
 72
    50
 73
    46
 74
     0
 42
0.0000000001
 43
0.0000000001
 12
1.0
 22
0.0
 32
0.0
 13
1.0
 23
0.0
 33
0.0
 40
0.0
 40
0.0
 40
0.0
 40
0.0
 40
1.0
 40
1.0
 40
1.0
 40
2.0
 40
2.0
 40
2.0
 40
3.0
 40
3.0
 40
3.0
 40
4.0
 40
4.0
 40
4.0
 40
5.0
 40
5.0
 40
5.0
 40
6.0
 40
6.0
 40
6.0
 40
7.0
 40
7.0
 40
7.0
 40
8.0
 40
8.0
 40
8.0
 40
9.0
 40
9.0
 40
9.0
 40
10.0
 40
10.0
 40
10.0
 40
11.0
 40
11.0
 40
11.0
 40
12.0
 40
12.0
 40
12.0
 40
13.0
 40
13.0
 40
13.0
 40
14.0
 40
14.0
 40
14.0
 40
15.0
 40
15.0
 40
15.0
 40
15.0
 10
93.85559757853264
 20
-161.5822129587364
 30
0.0
 10
93.78721243315043
 20
-161.7596353762268
 30
0.0
 10
93.66870114845783
 20
-161.9670301244388
 30
0.0
 10
93.54829506124835
 20
-162.10690100114
 30
0.0
 10
93.4001559553826
 20
-162.2781222467569
 30
0.0
 10
93.25752900229327
 20
-162.3670057102763
 30
0.0
 10
92.97795950366523
 20
-162.5085991347201
 30
0.0
 10
92.97795950366523
 20
-162.5085991347201
 30
0.0
 10
92.8298203977995
 20
-162.3204969212254
 30
0.0
 10
92.8298203977995
 20
-162.3204969212254
 30
0.0
 10
92.99277341425181
 20
-162.2970702719257
 30
0.0
 10
93.14263506786018
 20
-162.2102538656974
 30
0.0
 10
93.27596026313935
 20
-162.1044894343003
 30
0.0
 10
93.50574813200551
 20
-161.9225883926791
 30
0.0
 10
93.67231849871735
 20
-161.6094292130699
 30
0.0
 10
93.71486542796018
 20
-161.4275281714487
 30
0.0
 10
93.71486542796018
 20
-161.4275281714487
 30
0.0
 10
93.1278211572736
 20
-161.4275281714487
 30
0.0
 10
93.1278211572736
 20
-161.4275281714487
 30
0.0
 10
92.98898380921804
 20
-161.4275281714487
 30
0.0
 10
92.73352997898677
 20
-161.4361409101618
 30
0.0
 10
92.6002047837076
 20
-161.4530218780395
 30
0.0
 10
92.6002047837076
 20
-161.4530218780395
 30
0.0
 10
92.6002047837076
 20
-161.2246120473675
 30
0.0
 10
92.6002047837076
 20
-161.2246120473675
 30
0.0
 10
92.62983260488075
 20
-161.2308132192409
 30
0.0
 10
92.6520534707606
 20
-161.2373589006629
 30
0.0
 10
92.69821775026296
 20
-161.2414930152452
 30
0.0
 10
92.78710121378239
 20
-161.2476941871186
 30
0.0
 10
92.95935598804489
 20
-161.2501057539583
 30
0.0
 10
93.03342554097776
 20
-161.2501057539583
 30
0.0
 10
93.03342554097776
 20
-161.2501057539583
 30
0.0
 10
93.47612031083236
 20
-161.2501057539583
 30
0.0
 10
93.47612031083236
 20
-161.2501057539583
 30
0.0
 10
93.53537595317866
 20
-161.2501057539583
 30
0.0
 10
93.66301674090717
 20
-161.2456271298275
 30
0.0
 10
93.71676023047706
 20
-161.239425957954
 30
0.0
 10
93.77963322308287
 20
-161.2308132192409
 30
0.0
 10
93.80374889147963
 20
-161.2159993086543
 30
0.0
 10
93.83337671265276
 20
-161.1929171689032
 30
0.0
 10
93.83337671265276
 20
-161.1929171689032
 30
0.0
 10
93.977898468259
 20
-161.3600042999378
 30
0.0
 10
93.977898468259
 20
-161.3600042999378
 30
0.0
 10
93.91674802339581
 20
-161.4275281714487
 30
0.0
 10
93.87609589666987
 20
-161.5312255455547
 30
0.0
 10
93.85559757853264
 20
-161.5822129587364
 30
0.0
  0
SPLINE
  5
86
330
50
100
AcDbEntity
  8
_U+30EC_U+30A4_U+30E4_U+30FC 1
370
     0
100
AcDbSpline
210
0.0
220
0.0
230
1.0
 70
    11
 71
     3
 72
    29
 73
    25
 74
     0
 42
0.0000000001
 43
0.0000000001
 12
1.0
 22
0.0
 32
0.0
 13
1.0
 23
0.0
 33
0.0
 40
0.0
 40
0.0
 40
0.0
 40
0.0
 40
1.0
 40
1.0
 40
1.0
 40
2.0
 40
2.0
 40
2.0
 40
3.0
 40
3.0
 40
3.0
 40
4.0
 40
4.0
 40
4.0
 40
5.0
 40
5.0
 40
5.0
 40
6.0
 40
6.0
 40
6.0
 40
7.0
 40
7.0
 40
7.0
 40
8.0
 40
8.0
 40
8.0
 40
8.0
 10
93.42409936900509
 20
-160.955894599518
 30
0.0
 10
93.42409936900509
 20
-160.955894599518
 30
0.0
 10
93.12609860953098
 20
-160.955894599518
 30
0.0
 10
93.12609860953098
 20
-160.955894599518
 30
0.0
 10
93.02601858568447
 20
-160.955894599518
 30
0.0
 10
92.92421601409534
 20
-160.9600287141003
 30
0.0
 10
92.82430824502309
 20
-160.9748426246869
 30
0.0
 10
92.82430824502309
 20
-160.9748426246869
 30
0.0
 10
92.82430824502309
 20
-160.7653808191837
 30
0.0
 10
92.82430824502309
 20
-160.7653808191837
 30
0.0
 10
92.92800561912911
 20
-160.7801947297702
 30
0.0
 10
93.07976207525437
 20
-160.7846733539011
 30
0.0
 10
93.12609860953098
 20
-160.7846733539011
 30
0.0
 10
93.12609860953098
 20
-160.7846733539011
 30
0.0
 10
93.42409936900509
 20
-160.7846733539011
 30
0.0
 10
93.42409936900509
 20
-160.7846733539011
 30
0.0
 10
93.52607419536848
 20
-160.7846733539011
 30
0.0
 10
93.62787676695761
 20
-160.7801947297702
 30
0.0
 10
93.72967933854675
 20
-160.7653808191837
 30
0.0
 10
93.72967933854675
 20
-160.7653808191837
 30
0.0
 10
93.72967933854675
 20
-160.9748426246869
 30
0.0
 10
93.72967933854675
 20
-160.9748426246869
 30
0.0
 10
93.59824894578448
 20
-160.955894599518
 30
0.0
 10
93.43719073184904
 20
-160.955894599518
 30
0.0
 10
93.42409936900509
 20
-160.955894599518
 30
0.0
  0
HATCH
  5
87
330
50
100
AcDbEntity
  8
_U+30EC_U+30A4_U+30E4_U+30FC 1
 62
   179
420
  2234388
100
AcDbHatch
 10
0.0
 20
0.0
 30
0.0
210
0.0
220
0.0
230
1.0
  2
SOLID
 70
     1
 71
     0
 91
        2
 92
        1
 93
        1
 72
     4
 94
        3
 73
     0
 74
     1
 95
       50
 96
       46
 40
0.0
 40
0.0
 40
0.0
 40
0.0
 40
1.0
 40
1.0
 40
1.0
 40
2.0
 40
2.0
 40
2.0
 40
3.0
 40
3.0
 40
3.0
 40
4.0
 40
4.0
 40
4.0
 40
5.0
 40
5.0
 40
5.0
 40
6.0
 40
6.0
 40
6.0
 40
7.0
 40
7.0
 40
7.0
 40
8.0
 40
8.0
 40
8.0
 40
9.0
 40
9.0
 40
9.0
 40
10.0
 40
10.0
 40
10.0
 40
11.0
 40
11.0
 40
11.0
 40
12.0
 40
12.0
 40
12.0
 40
13.0
 40
13.0
 40
13.0
 40
14.0
 40
14.0
 40
14.0
 40
15.0
 40
15.0
 40
15.0
 40
15.0
 10
93.85559757853264
 20
-161.5822129587364
 10
93.78721243315043
 20
-161.7596353762268
 10
93.66870114845783
 20
-161.9670301244388
 10
93.54829506124835
 20
-162.10690100114
 10
93.4001559553826
 20
-162.2781222467569
 10
93.25752900229327
 20
-162.3670057102763
 10
92.97795950366523
 20
-162.5085991347201
 10
92.97795950366523
 20
-162.5085991347201
 10
92.8298203977995
 20
-162.3204969212254
 10
92.8298203977995
 20
-162.3204969212254
 10
92.99277341425181
 20
-162.2970702719257
 10
93.14263506786018
 20
-162.2102538656974
 10
93.27596026313935
 20
-162.1044894343003
 10
93.50574813200551
 20
-161.9225883926791
 10
93.67231849871735
 20
-161.6094292130699
 10
93.71486542796018
 20
-161.4275281714487
 10
93.71486542796018
 20
-161.4275281714487
 10
93.1278211572736
 20
-161.4275281714487
 10
93.1278211572736
 20
-161.4275281714487
 10
92.98898380921804
 20
-161.4275281714487
 10
92.73352997898677
 20
-161.4361409101618
 10
92.6002047837076
 20
-161.4530218780395
 10
92.6002047837076
 20
-161.4530218780395
 10
92.6002047837076
 20
-161.2246120473675
 10
92.6002047837076
 20
-161.2246120473675
 10
92.62983260488075
 20
-161.2308132192409
 10
92.6520534707606
 20
-161.2373589006629
 10
92.69821775026296
 20
-161.2414930152452
 10
92.78710121378239
 20
-161.2476941871186
 10
92.95935598804489
 20
-161.2501057539583
 10
93.03342554097776
 20
-161.2501057539583
 10
93.03342554097776
 20
-161.2501057539583
 10
93.47612031083236
 20
-161.2501057539583
 10
93.47612031083236
 20
-161.2501057539583
 10
93.53537595317866
 20
-161.2501057539583
 10
93.66301674090717
 20
-161.2456271298275
 10
93.71676023047706
 20
-161.239425957954
 10
93.77963322308287
 20
-161.2308132192409
 10
93.80374889147963
 20
-161.2159993086543
 10
93.83337671265276
 20
-161.1929171689032
 10
93.83337671265276
 20
-161.1929171689032
 10
93.977898468259
 20
-161.3600042999378
 10
93.977898468259
 20
-161.3600042999378
 10
93.91674802339581
 20
-161.4275281714487
 10
93.87609589666987
 20
-161.5312255455547
 10
93.85559757853264
 20
-161.5822129587364
 97
        0
 97
        0
 92
        1
 93
        1
 72
     4
 94
        3
 73
     0
 74
     1
 95
       29
 96
       25
 40
0.0
 40
0.0
 40
0.0
 40
0.0
 40
1.0
 40
1.0
 40
1.0
 40
2.0
 40
2.0
 40
2.0
 40
3.0
 40
3.0
 40
3.0
 40
4.0
 40
4.0
 40
4.0
 40
5.0
 40
5.0
 40
5.0
 40
6.0
 40
6.0
 40
6.0
 40
7.0
 40
7.0
 40
7.0
 40
8.0
 40
8.0
 40
8.0
 40
8.0
 10
93.42409936900509
 20
-160.955894599518
 10
93.42409936900509
 20
-160.955894599518
 10
93.12609860953098
 20
-160.955894599518
 10
93.12609860953098
 20
-160.955894599518
 10
93.02601858568447
 20
-160.955894599518
 10
92.92421601409534
 20
-160.9600287141003
 10
92.82430824502309
 20
-160.9748426246869
 10
92.82430824502309
 20
-160.9748426246869
 10
92.82430824502309
 20
-160.7653808191837
 10
92.82430824502309
 20
-160.7653808191837
 10
92.92800561912911
 20
-160.7801947297702
 10
93.07976207525437
 20
-160.7846733539011
 10
93.12609860953098
 20
-160.7846733539011
 10
93.12609860953098
 20
-160.7846733539011
 10
93.42409936900509
 20
-160.7846733539011
 10
93.42409936900509
 20
-160.7846733539011
 10
93.52607419536848
 20
-160.7846733539011
 10
93.62787676695761
 20
-160.7801947297702
 10
93.72967933854675
 20
-160.7653808191837
 10
93.72967933854675
 20
-160.7653808191837
 10
93.72967933854675
 20
-160.9748426246869
 10
93.72967933854675
 20
-160.9748426246869
 10
93.59824894578448
 20
-160.955894599518
 10
93.43719073184904
 20
-160.955894599518
 10
93.42409936900509
 20
-160.955894599518
 97
        0
 97
        0
 75
     2
 76
     1
 98
        0
  0
SPLINE
  5
88
330
50
100
AcDbEntity
  8
_U+30EC_U+30A4_U+30E4_U+30FC 1
370
     0
100
AcDbSpline
210
0.0
220
0.0
230
1.0
 70
    11
 71
     3
 72
    50
 73
    46
 74
     0
 42
0.0000000001
 43
0.0000000001
 12
1.0
 22
0.0
 32
0.0
 13
1.0
 23
0.0
 33
0.0
 40
0.0
 40
0.0
 40
0.0
 40
0.0
 40
1.0
 40
1.0
 40
1.0
 40
2.0
 40
2.0
 40
2.0
 40
3.0
 40
3.0
 40
3.0
 40
4.0
 40
4.0
 40
4.0
 40
5.0
 40
5.0
 40
5.0
 40
6.0
 40
6.0
 40
6.0
 40
7.0
 40
7.0
 40
7.0
 40
8.0
 40
8.0
 40
8.0
 40
9.0
 40
9.0
 40
9.0
 40
10.0
 40
10.0
 40
10.0
 40
11.0
 40
11.0
 40
11.0
 40
12.0
 40
12.0
 40
12.0
 40
13.0
 40
13.0
 40
13.0
 40
14.0
 40
14.0
 40
14.0
 40
15.0
 40
15.0
 40
15.0
 40
15.0
 10
95.35386960506779
 20
-160.9410806889314
 30
0.0
 10
95.17041827047824
 20
-161.1546766090169
 30
0.0
 10
95.10754527787242
 20
-161.2266791046586
 30
0.0
 10
94.98352184040343
 20
-161.3451903893512
 30
0.0
 10
94.98352184040343
 20
-161.3451903893512
 30
0.0
 10
94.98352184040343
 20
-161.9122531062233
 30
0.0
 10
94.98352184040343
 20
-161.9122531062233
 30
0.0
 10
94.98352184040343
 20
-162.0624592693802
 30
0.0
 10
94.98903399317983
 20
-162.0814072945491
 30
0.0
 10
94.99265134343935
 20
-162.259174221588
 30
0.0
 10
94.99454614595624
 20
-162.3900878500275
 30
0.0
 10
95.0002305535069
 20
-162.439008205918
 30
0.0
 10
95.00574270628329
 20
-162.4982638482643
 30
0.0
 10
95.00574270628329
 20
-162.4982638482643
 30
0.0
 10
94.80764971588142
 20
-162.4982638482643
 30
0.0
 10
94.80764971588142
 20
-162.4982638482643
 30
0.0
 10
94.81126706614094
 20
-162.4538221165046
 30
0.0
 10
94.81488441640045
 20
-162.4069688179052
 30
0.0
 10
94.81488441640045
 20
-162.3987005887406
 30
0.0
 10
94.81488441640045
 20
-162.3184298639343
 30
0.0
 10
94.81867402143422
 20
-161.9670301244388
 30
0.0
 10
94.81867402143422
 20
-161.8950276287971
 30
0.0
 10
94.81867402143422
 20
-161.8950276287971
 30
0.0
 10
94.81867402143422
 20
-161.4888508710861
 30
0.0
 10
94.81867402143422
 20
-161.4888508710861
 30
0.0
 10
94.65951061001569
 20
-161.6139078372007
 30
0.0
 10
94.48897838349582
 20
-161.7238063831802
 30
0.0
 10
94.31121145645692
 20
-161.8106227894085
 30
0.0
 10
94.31121145645692
 20
-161.8106227894085
 30
0.0
 10
94.13344452941803
 20
-161.6476697729561
 30
0.0
 10
94.13344452941803
 20
-161.6476697729561
 30
0.0
 10
94.24093150855782
 20
-161.6118407799096
 30
0.0
 10
94.46503496987333
 20
-161.5377712269767
 30
0.0
 10
94.76682533438121
 20
-161.2818006324226
 30
0.0
 10
94.95578882174716
 20
-161.1229817305526
 30
0.0
 10
95.12425399097589
 20
-160.934879517058
 30
0.0
 10
95.25757918625506
 20
-160.7147379155505
 30
0.0
 10
95.25757918625506
 20
-160.7147379155505
 30
0.0
 10
95.42604435548377
 20
-160.8587429068339
 30
0.0
 10
95.42604435548377
 20
-160.8587429068339
 30
0.0
 10
95.43706866103658
 20
-160.8690781932897
 30
0.0
 10
95.44464787110412
 20
-160.8838921038763
 30
0.0
 10
95.44464787110412
 20
-160.8966389571717
 30
0.0
 10
95.44464787110412
 20
-160.9369465743491
 30
0.0
 10
95.4112304448972
 20
-160.9369465743491
 30
0.0
 10
95.35386960506779
 20
-160.9410806889314
 30
0.0
  0
HATCH
  5
89
330
50
100
AcDbEntity
  8
_U+30EC_U+30A4_U+30E4_U+30FC 1
 62
   179
420
  2234388
100
AcDbHatch
 10
0.0
 20
0.0
 30
0.0
210
0.0
220
0.0
230
1.0
  2
SOLID
 70
     1
 71
     0
 91
        1
 92
        1
 93
        1
 72
     4
 94
        3
 73
     0
 74
     1
 95
       50
 96
       46
 40
0.0
 40
0.0
 40
0.0
 40
0.0
 40
1.0
 40
1.0
 40
1.0
 40
2.0
 40
2.0
 40
2.0
 40
3.0
 40
3.0
 40
3.0
 40
4.0
 40
4.0
 40
4.0
 40
5.0
 40
5.0
 40
5.0
 40
6.0
 40
6.0
 40
6.0
 40
7.0
 40
7.0
 40
7.0
 40
8.0
 40
8.0
 40
8.0
 40
9.0
 40
9.0
 40
9.0
 40
10.0
 40
10.0
 40
10.0
 40
11.0
 40
11.0
 40
11.0
 40
12.0
 40
12.0
 40
12.0
 40
13.0
 40
13.0
 40
13.0
 40
14.0
 40
14.0
 40
14.0
 40
15.0
 40
15.0
 40
15.0
 40
15.0
 10
95.35386960506779
 20
-160.9410806889314
 10
95.17041827047824
 20
-161.1546766090169
 10
95.10754527787242
 20
-161.2266791046586
 10
94.98352184040343
 20
-161.3451903893512
 10
94.98352184040343
 20
-161.3451903893512
 10
94.98352184040343
 20
-161.9122531062233
 10
94.98352184040343
 20
-161.9122531062233
 10
94.98352184040343
 20
-162.0624592693802
 10
94.98903399317983
 20
-162.0814072945491
 10
94.99265134343935
 20
-162.259174221588
 10
94.99454614595624
 20
-162.3900878500275
 10
95.0002305535069
 20
-162.439008205918
 10
95.00574270628329
 20
-162.4982638482643
 10
95.00574270628329
 20
-162.4982638482643
 10
94.80764971588142
 20
-162.4982638482643
 10
94.80764971588142
 20
-162.4982638482643
 10
94.81126706614094
 20
-162.4538221165046
 10
94.81488441640045
 20
-162.4069688179052
 10
94.81488441640045
 20
-162.3987005887406
 10
94.81488441640045
 20
-162.3184298639343
 10
94.81867402143422
 20
-161.9670301244388
 10
94.81867402143422
 20
-161.8950276287971
 10
94.81867402143422
 20
-161.8950276287971
 10
94.81867402143422
 20
-161.4888508710861
 10
94.81867402143422
 20
-161.4888508710861
 10
94.65951061001569
 20
-161.6139078372007
 10
94.48897838349582
 20
-161.7238063831802
 10
94.31121145645692
 20
-161.8106227894085
 10
94.31121145645692
 20
-161.8106227894085
 10
94.13344452941803
 20
-161.6476697729561
 10
94.13344452941803
 20
-161.6476697729561
 10
94.24093150855782
 20
-161.6118407799096
 10
94.46503496987333
 20
-161.5377712269767
 10
94.76682533438121
 20
-161.2818006324226
 10
94.95578882174716
 20
-161.1229817305526
 10
95.12425399097589
 20
-160.934879517058
 10
95.25757918625506
 20
-160.7147379155505
 10
95.25757918625506
 20
-160.7147379155505
 10
95.42604435548377
 20
-160.8587429068339
 10
95.42604435548377
 20
-160.8587429068339
 10
95.43706866103658
 20
-160.8690781932897
 10
95.44464787110412
 20
-160.8838921038763
 10
95.44464787110412
 20
-160.8966389571717
 10
95.44464787110412
 20
-160.9369465743491
 10
95.4112304448972
 20
-160.9369465743491
 10
95.35386960506779
 20
-160.9410806889314
 97
        0
 97
        0
 75
     2
 76
     1
 98
        0
  0
SPLINE
  5
8A
330
50
100
AcDbEntity
  8
_U+30EC_U+30A4_U+30E4_U+30FC 1
370
     0
100
AcDbSpline
210
0.0
220
0.0
230
1.0
 70
    11
 71
     3
 72
    50
 73
    46
 74
     0
 42
0.0000000001
 43
0.0000000001
 12
1.0
 22
0.0
 32
0.0
 13
1.0
 23
0.0
 33
0.0
 40
0.0
 40
0.0
 40
0.0
 40
0.0
 40
1.0
 40
1.0
 40
1.0
 40
2.0
 40
2.0
 40
2.0
 40
3.0
 40
3.0
 40
3.0
 40
4.0
 40
4.0
 40
4.0
 40
5.0
 40
5.0
 40
5.0
 40
6.0
 40
6.0
 40
6.0
 40
7.0
 40
7.0
 40
7.0
 40
8.0
 40
8.0
 40
8.0
 40
9.0
 40
9.0
 40
9.0
 40
10.0
 40
10.0
 40
10.0
 40
11.0
 40
11.0
 40
11.0
 40
12.0
 40
12.0
 40
12.0
 40
13.0
 40
13.0
 40
13.0
 40
14.0
 40
14.0
 40
14.0
 40
15.0
 40
15.0
 40
15.0
 40
15.0
 10
96.85196937682868
 20
-161.4678357886261
 30
0.0
 10
96.79822588725878
 20
-161.5398382842678
 30
0.0
 10
96.57050507568377
 20
-161.8571315784593
 30
0.0
 10
96.52055119114765
 20
-161.9205213353879
 30
0.0
 10
96.59462074408052
 20
-162.0180175376205
 30
0.0
 10
96.63906247584023
 20
-162.0814072945491
 30
0.0
 10
96.69642331566965
 20
-162.1723578153597
 30
0.0
 10
96.69642331566965
 20
-162.1723578153597
 30
0.0
 10
96.53536510173421
 20
-162.3098171252212
 30
0.0
 10
96.53536510173421
 20
-162.3098171252212
 30
0.0
 10
96.41685381704163
 20
-162.0982882624268
 30
0.0
 10
96.26681990865899
 20
-161.8740125463371
 30
0.0
 10
96.00929902113657
 20
-161.6752305368381
 30
0.0
 10
96.00929902113657
 20
-161.6752305368381
 30
0.0
 10
96.13900686615622
 20
-161.520890259099
 30
0.0
 10
96.13900686615622
 20
-161.520890259099
 30
0.0
 10
96.23529728496895
 20
-161.6011609839053
 30
0.0
 10
96.32607555100529
 20
-161.6900444474247
 30
0.0
 10
96.41116940949097
 20
-161.7851290828176
 30
0.0
 10
96.47042505183725
 20
-161.7089924725936
 30
0.0
 10
96.64819197887616
 20
-161.4657687313349
 30
0.0
 10
96.76480846105186
 20
-161.2373589006629
 30
0.0
 10
96.76480846105186
 20
-161.2373589006629
 30
0.0
 10
96.17604164262266
 20
-161.2373589006629
 30
0.0
 10
96.17604164262266
 20
-161.2373589006629
 30
0.0
 10
96.06683211574024
 20
-161.2373589006629
 30
0.0
 10
95.84634600468425
 20
-161.2456271298275
 30
0.0
 10
95.66306692486896
 20
-161.2563069258318
 30
0.0
 10
95.66306692486896
 20
-161.2563069258318
 30
0.0
 10
95.66306692486896
 20
-161.0361653243243
 30
0.0
 10
95.66306692486896
 20
-161.0361653243243
 30
0.0
 10
95.82429739357865
 20
-161.0554578590417
 30
0.0
 10
96.00378686836017
 20
-161.059591973624
 30
0.0
 10
96.16863468732937
 20
-161.059591973624
 30
0.0
 10
96.16863468732937
 20
-161.059591973624
 30
0.0
 10
96.60943465466708
 20
-161.059591973624
 30
0.0
 10
96.60943465466708
 20
-161.059591973624
 30
0.0
 10
96.90571286639857
 20
-161.059591973624
 30
0.0
 10
96.94447019060763
 20
-161.0447780630374
 30
0.0
 10
97.01664494102361
 20
-161.00447044586
 30
0.0
 10
97.01664494102361
 20
-161.00447044586
 30
0.0
 10
97.16306149914674
 20
-161.16328934773
 30
0.0
 10
97.16306149914674
 20
-161.16328934773
 30
0.0
 10
97.02973630386757
 20
-161.2352918433717
 30
0.0
 10
96.90381806388169
 20
-161.3979003502755
 30
0.0
 10
96.85196937682868
 20
-161.4678357886261
 30
0.0
  0
HATCH
  5
8B
330
50
100
AcDbEntity
  8
_U+30EC_U+30A4_U+30E4_U+30FC 1
 62
   179
420
  2234388
100
AcDbHatch
 10
0.0
 20
0.0
 30
0.0
210
0.0
220
0.0
230
1.0
  2
SOLID
 70
     1
 71
     0
 91
        1
 92
        1
 93
        1
 72
     4
 94
        3
 73
     0
 74
     1
 95
       50
 96
       46
 40
0.0
 40
0.0
 40
0.0
 40
0.0
 40
1.0
 40
1.0
 40
1.0
 40
2.0
 40
2.0
 40
2.0
 40
3.0
 40
3.0
 40
3.0
 40
4.0
 40
4.0
 40
4.0
 40
5.0
 40
5.0
 40
5.0
 40
6.0
 40
6.0
 40
6.0
 40
7.0
 40
7.0
 40
7.0
 40
8.0
 40
8.0
 40
8.0
 40
9.0
 40
9.0
 40
9.0
 40
10.0
 40
10.0
 40
10.0
 40
11.0
 40
11.0
 40
11.0
 40
12.0
 40
12.0
 40
12.0
 40
13.0
 40
13.0
 40
13.0
 40
14.0
 40
14.0
 40
14.0
 40
15.0
 40
15.0
 40
15.0
 40
15.0
 10
96.85196937682868
 20
-161.4678357886261
 10
96.79822588725878
 20
-161.5398382842678
 10
96.57050507568377
 20
-161.8571315784593
 10
96.52055119114765
 20
-161.9205213353879
 10
96.59462074408052
 20
-162.0180175376205
 10
96.63906247584023
 20
-162.0814072945491
 10
96.69642331566965
 20
-162.1723578153597
 10
96.69642331566965
 20
-162.1723578153597
 10
96.53536510173421
 20
-162.3098171252212
 10
96.53536510173421
 20
-162.3098171252212
 10
96.41685381704163
 20
-162.0982882624268
 10
96.26681990865899
 20
-161.8740125463371
 10
96.00929902113657
 20
-161.6752305368381
 10
96.00929902113657
 20
-161.6752305368381
 10
96.13900686615622
 20
-161.520890259099
 10
96.13900686615622
 20
-161.520890259099
 10
96.23529728496895
 20
-161.6011609839053
 10
96.32607555100529
 20
-161.6900444474247
 10
96.41116940949097
 20
-161.7851290828176
 10
96.47042505183725
 20
-161.7089924725936
 10
96.64819197887616
 20
-161.4657687313349
 10
96.76480846105186
 20
-161.2373589006629
 10
96.76480846105186
 20
-161.2373589006629
 10
96.17604164262266
 20
-161.2373589006629
 10
96.17604164262266
 20
-161.2373589006629
 10
96.06683211574024
 20
-161.2373589006629
 10
95.84634600468425
 20
-161.2456271298275
 10
95.66306692486896
 20
-161.2563069258318
 10
95.66306692486896
 20
-161.2563069258318
 10
95.66306692486896
 20
-161.0361653243243
 10
95.66306692486896
 20
-161.0361653243243
 10
95.82429739357865
 20
-161.0554578590417
 10
96.00378686836017
 20
-161.059591973624
 10
96.16863468732937
 20
-161.059591973624
 10
96.16863468732937
 20
-161.059591973624
 10
96.60943465466708
 20
-161.059591973624
 10
96.60943465466708
 20
-161.059591973624
 10
96.90571286639857
 20
-161.059591973624
 10
96.94447019060763
 20
-161.0447780630374
 10
97.01664494102361
 20
-161.00447044586
 10
97.01664494102361
 20
-161.00447044586
 10
97.16306149914674
 20
-161.16328934773
 10
97.16306149914674
 20
-161.16328934773
 10
97.02973630386757
 20
-161.2352918433717
 10
96.90381806388169
 20
-161.3979003502755
 10
96.85196937682868
 20
-161.4678357886261
 97
        0
 97
        0
 75
     2
 76
     1
 98
        0
  0
SPLINE
  5
8C
330
50
100
AcDbEntity
  8
_U+30EC_U+30A4_U+30E4_U+30FC 1
370
     0
100
AcDbSpline
210
0.0
220
0.0
230
1.0
 70
    11
 71
     3
 72
    29
 73
    25
 74
     0
 42
0.0000000001
 43
0.0000000001
 12
1.0
 22
0.0
 32
0.0
 13
1.0
 23
0.0
 33
0.0
 40
0.0
 40
0.0
 40
0.0
 40
0.0
 40
1.0
 40
1.0
 40
1.0
 40
2.0
 40
2.0
 40
2.0
 40
3.0
 40
3.0
 40
3.0
 40
4.0
 40
4.0
 40
4.0
 40
5.0
 40
5.0
 40
5.0
 40
6.0
 40
6.0
 40
6.0
 40
7.0
 40
7.0
 40
7.0
 40
8.0
 40
8.0
 40
8.0
 40
8.0
 10
98.27427704791407
 20
-161.7110595298847
 30
0.0
 10
98.27427704791407
 20
-161.7110595298847
 30
0.0
 10
97.85018579367981
 20
-161.7110595298847
 30
0.0
 10
97.85018579367981
 20
-161.7110595298847
 30
0.0
 10
97.82624238005734
 20
-161.7110595298847
 30
0.0
 10
97.54839542917193
 20
-161.7110595298847
 30
0.0
 10
97.36322154683975
 20
-161.7365532364756
 30
0.0
 10
97.36322154683975
 20
-161.7365532364756
 30
0.0
 10
97.36322154683975
 20
-161.5060763485124
 30
0.0
 10
97.36322154683975
 20
-161.5060763485124
 30
0.0
 10
97.50205889489533
 20
-161.5291584882636
 30
0.0
 10
97.66880151638142
 20
-161.5312255455547
 30
0.0
 10
97.85018579367981
 20
-161.5312255455547
 30
0.0
 10
97.85018579367981
 20
-161.5312255455547
 30
0.0
 10
98.27427704791407
 20
-161.5312255455547
 30
0.0
 10
98.27427704791407
 20
-161.5312255455547
 30
0.0
 10
98.43723006436639
 20
-161.5312255455547
 30
0.0
 10
98.60018308081871
 20
-161.5291584882636
 30
0.0
 10
98.76124129475414
 20
-161.5060763485124
 30
0.0
 10
98.76124129475414
 20
-161.5060763485124
 30
0.0
 10
98.76124129475414
 20
-161.7365532364756
 30
0.0
 10
98.76124129475414
 20
-161.7365532364756
 30
0.0
 10
98.60018308081871
 20
-161.7131265871759
 30
0.0
 10
98.38348657479649
 20
-161.7110595298847
 30
0.0
 10
98.27427704791407
 20
-161.7110595298847
 30
0.0
  0
HATCH
  5
8D
330
50
100
AcDbEntity
  8
_U+30EC_U+30A4_U+30E4_U+30FC 1
 62
   179
420
  2234388
100
AcDbHatch
 10
0.0
 20
0.0
 30
0.0
210
0.0
220
0.0
230
1.0
  2
SOLID
 70
     1
 71
     0
 91
        1
 92
        1
 93
        1
 72
     4
 94
        3
 73
     0
 74
     1
 95
       29
 96
       25
 40
0.0
 40
0.0
 40
0.0
 40
0.0
 40
1.0
 40
1.0
 40
1.0
 40
2.0
 40
2.0
 40
2.0
 40
3.0
 40
3.0
 40
3.0
 40
4.0
 40
4.0
 40
4.0
 40
5.0
 40
5.0
 40
5.0
 40
6.0
 40
6.0
 40
6.0
 40
7.0
 40
7.0
 40
7.0
 40
8.0
 40
8.0
 40
8.0
 40
8.0
 10
98.27427704791407
 20
-161.7110595298847
 10
98.27427704791407
 20
-161.7110595298847
 10
97.85018579367981
 20
-161.7110595298847
 10
97.85018579367981
 20
-161.7110595298847
 10
97.82624238005734
 20
-161.7110595298847
 10
97.54839542917193
 20
-161.7110595298847
 10
97.36322154683975
 20
-161.7365532364756
 10
97.36322154683975
 20
-161.7365532364756
 10
97.36322154683975
 20
-161.5060763485124
 10
97.36322154683975
 20
-161.5060763485124
 10
97.50205889489533
 20
-161.5291584882636
 10
97.66880151638142
 20
-161.5312255455547
 10
97.85018579367981
 20
-161.5312255455547
 10
97.85018579367981
 20
-161.5312255455547
 10
98.27427704791407
 20
-161.5312255455547
 10
98.27427704791407
 20
-161.5312255455547
 10
98.43723006436639
 20
-161.5312255455547
 10
98.60018308081871
 20
-161.5291584882636
 10
98.76124129475414
 20
-161.5060763485124
 10
98.76124129475414
 20
-161.5060763485124
 10
98.76124129475414
 20
-161.7365532364756
 10
98.76124129475414
 20
-161.7365532364756
 10
98.60018308081871
 20
-161.7131265871759
 10
98.38348657479649
 20
-161.7110595298847
 10
98.27427704791407
 20
-161.7110595298847
 97
        0
 97
        0
 75
     2
 76
     1
 98
        0
  0
ENDBLK
  5
53
330
50
100
AcDbEntity
  8
0
100
AcDbBlockEnd
  0
BLOCK
  5
E6
330
E4
100
AcDbEntity
  8
0
100
AcDbBlockBegin
  2
block 3
 70
     0
 10
0.0
 20
0.0
 30
0.0
  3
block 3
  1

  0
SPLINE
  5
E8
330
E4
100
AcDbEntity
  8
_U+30EC_U+30A4_U+30E4_U+30FC 1
370
     0
100
AcDbSpline
210
0.0
220
0.0
230
1.0
 70
    11
 71
     3
 72
    26
 73
    22
 74
     0
 42
0.0000000001
 43
0.0000000001
 12
1.0
 22
0.0
 32
0.0
 13
1.0
 23
0.0
 33
0.0
 40
0.0
 40
0.0
 40
0.0
 40
0.0
 40
1.0
 40
1.0
 40
1.0
 40
2.0
 40
2.0
 40
2.0
 40
3.0
 40
3.0
 40
3.0
 40
4.0
 40
4.0
 40
4.0
 40
5.0
 40
5.0
 40
5.0
 40
6.0
 40
6.0
 40
6.0
 40
7.0
 40
7.0
 40
7.0
 40
7.0
 10
123.1228895091498
 20
-139.0426757464894
 30
0.0
 10
123.1228895091498
 20
-139.0426757464894
 30
0.0
 10
122.0183918965787
 20
-139.0426757464894
 30
0.0
 10
122.0183918965787
 20
-139.0426757464894
 30
0.0
 10
122.0183918965787
 20
-139.0426757464894
 30
0.0
 10
122.0183918965787
 20
-139.3954535241789
 30
0.0
 10
122.0183918965787
 20
-139.3954535241789
 30
0.0
 10
122.0183918965787
 20
-139.3954535241789
 30
0.0
 10
121.8705973002615
 20
-139.3954535241789
 30
0.0
 10
121.8705973002615
 20
-139.3954535241789
 30
0.0
 10
121.855783389675
 20
-139.0404364344239
 30
0.0
 10
121.6928303732226
 20
-138.9906548046621
 30
0.0
 10
121.5784532031123
 20
-138.9589599261978
 30
0.0
 10
121.5784532031123
 20
-138.9589599261978
 30
0.0
 10
121.5784532031123
 20
-138.8030693554902
 30
0.0
 10
121.5784532031123
 20
-138.8030693554902
 30
0.0
 10
121.5784532031123
 20
-138.8030693554902
 30
0.0
 10
123.1228895091498
 20
-138.8030693554902
 30
0.0
 10
123.1228895091498
 20
-138.8030693554902
 30
0.0
 10
123.1228895091498
 20
-138.8030693554902
 30
0.0
 10
123.1228895091498
 20
-139.0426757464894
 30
0.0
 10
123.1228895091498
 20
-139.0426757464894
 30
0.0
  0
HATCH
  5
E9
330
E4
100
AcDbEntity
  8
_U+30EC_U+30A4_U+30E4_U+30FC 1
 62
   179
420
  2234388
100
AcDbHatch
 10
0.0
 20
0.0
 30
0.0
210
0.0
220
0.0
230
1.0
  2
SOLID
 70
     1
 71
     0
 91
        1
 92
        1
 93
        1
 72
     4
 94
        3
 73
     0
 74
     1
 95
       26
 96
       22
 40
0.0
 40
0.0
 40
0.0
 40
0.0
 40
1.0
 40
1.0
 40
1.0
 40
2.0
 40
2.0
 40
2.0
 40
3.0
 40
3.0
 40
3.0
 40
4.0
 40
4.0
 40
4.0
 40
5.0
 40
5.0
 40
5.0
 40
6.0
 40
6.0
 40
6.0
 40
7.0
 40
7.0
 40
7.0
 40
7.0
 10
123.1228895091498
 20
-139.0426757464894
 10
123.1228895091498
 20
-139.0426757464894
 10
122.0183918965787
 20
-139.0426757464894
 10
122.0183918965787
 20
-139.0426757464894
 10
122.0183918965787
 20
-139.0426757464894
 10
122.0183918965787
 20
-139.3954535241789
 10
122.0183918965787
 20
-139.3954535241789
 10
122.0183918965787
 20
-139.3954535241789
 10
121.8705973002615
 20
-139.3954535241789
 10
121.8705973002615
 20
-139.3954535241789
 10
121.855783389675
 20
-139.0404364344239
 10
121.6928303732226
 20
-138.9906548046621
 10
121.5784532031123
 20
-138.9589599261978
 10
121.5784532031123
 20
-138.9589599261978
 10
121.5784532031123
 20
-138.8030693554902
 10
121.5784532031123
 20
-138.8030693554902
 10
121.5784532031123
 20
-138.8030693554902
 10
123.1228895091498
 20
-138.8030693554902
 10
123.1228895091498
 20
-138.8030693554902
 10
123.1228895091498
 20
-138.8030693554902
 10
123.1228895091498
 20
-139.0426757464894
 10
123.1228895091498
 20
-139.0426757464894
 97
        0
 97
        0
 75
     2
 76
     1
 98
        0
  0
ENDBLK
  5
E7
330
E4
100
AcDbEntity
  8
0
100
AcDbBlockEnd
  0
BLOCK
  5
FC
330
FA
100
AcDbEntity
  8
0
100
AcDbBlockBegin
  2
block 4
 70
     0
 10
0.0
 20
0.0
 30
0.0
  3
block 4
  1

  0
SPLINE
  5
FE
330
FA
100
AcDbEntity
  8
_U+30EC_U+30A4_U+30E4_U+30FC 1
370
     0
100
AcDbSpline
210
0.0
220
0.0
230
1.0
 70
    11
 71
     3
 72
    29
 73
    25
 74
     0
 42
0.0000000001
 43
0.0000000001
 12
1.0
 22
0.0
 32
0.0
 13
1.0
 23
0.0
 33
0.0
 40
0.0
 40
0.0
 40
0.0
 40
0.0
 40
1.0
 40
1.0
 40
1.0
 40
2.0
 40
2.0
 40
2.0
 40
3.0
 40
3.0
 40
3.0
 40
4.0
 40
4.0
 40
4.0
 40
5.0
 40
5.0
 40
5.0
 40
6.0
 40
6.0
 40
6.0
 40
7.0
 40
7.0
 40
7.0
 40
8.0
 40
8.0
 40
8.0
 40
8.0
 10
110.9444769687917
 20
-146.8828517970466
 30
0.0
 10
111.1539387742949
 20
-146.9980902410283
 30
0.0
 10
111.1728867994637
 20
-147.1834363781347
 30
0.0
 10
111.1728867994637
 20
-147.3078043251522
 30
0.0
 10
111.1728867994637
 20
-147.4797145898662
 30
0.0
 10
111.1263780104129
 20
-147.6311265364429
 30
0.0
 10
110.9444769687917
 20
-147.732929108032
 30
0.0
 10
110.7494845643265
 20
-147.8436889278828
 30
0.0
 10
110.5128065044899
 20
-147.8640149912458
 30
0.0
 10
110.3498534880375
 20
-147.8640149912458
 30
0.0
 10
110.2058484967541
 20
-147.8640149912458
 30
0.0
 10
109.9543565263309
 20
-147.8459282399483
 30
0.0
 10
109.7552300072834
 20
-147.732929108032
 30
0.0
 10
109.5523138832022
 20
-147.6175184092762
 30
0.0
 10
109.529231743451
 20
-147.4457803993365
 30
0.0
 10
109.529231743451
 20
-147.3078043251522
 30
0.0
 10
109.529231743451
 20
-147.1383056272779
 30
0.0
 10
109.5733289656622
 20
-146.9844821138615
 30
0.0
 10
109.7552300072834
 20
-146.8828517970466
 30
0.0
 10
109.9481553544574
 20
-146.7765706013267
 30
0.0
 10
110.176220675581
 20
-146.7517659138329
 30
0.0
 10
110.3498534880375
 20
-146.7517659138329
 30
0.0
 10
110.521419243203
 20
-146.7517659138329
 30
0.0
 10
110.7518961311662
 20
-146.7743312892613
 30
0.0
 10
110.9444769687917
 20
-146.8828517970466
 30
0.0
  0
SPLINE
  5
FF
330
FA
100
AcDbEntity
  8
_U+30EC_U+30A4_U+30E4_U+30FC 1
370
     0
100
AcDbSpline
210
0.0
220
0.0
230
1.0
 70
    11
 71
     3
 72
    17
 73
    13
 74
     0
 42
0.0000000001
 43
0.0000000001
 12
1.0
 22
0.0
 32
0.0
 13
1.0
 23
0.0
 33
0.0
 40
0.0
 40
0.0
 40
0.0
 40
0.0
 40
1.0
 40
1.0
 40
1.0
 40
2.0
 40
2.0
 40
2.0
 40
3.0
 40
3.0
 40
3.0
 40
4.0
 40
4.0
 40
4.0
 40
4.0
 10
109.721468071528
 20
-147.3078043251522
 30
0.0
 10
109.721468071528
 20
-147.5746269704848
 30
0.0
 10
110.0053439395126
 20
-147.6244086002467
 30
0.0
 10
110.3498534880375
 20
-147.6244086002467
 30
0.0
 10
110.6695583490687
 20
-147.6244086002467
 30
0.0
 10
110.9782389045471
 20
-147.5859957855861
 30
0.0
 10
110.9782389045471
 20
-147.3078043251522
 30
0.0
 10
110.9782389045471
 20
-147.0433932466593
 30
0.0
 10
110.6967746034022
 20
-146.991372304832
 30
0.0
 10
110.3498534880375
 20
-146.991372304832
 30
0.0
 10
110.0304931365549
 20
-146.991372304832
 30
0.0
 10
109.721468071528
 20
-147.032024431558
 30
0.0
 10
109.721468071528
 20
-147.3078043251522
 30
0.0
  0
HATCH
  5
100
330
FA
100
AcDbEntity
  8
_U+30EC_U+30A4_U+30E4_U+30FC 1
 62
   179
420
  2234388
100
AcDbHatch
 10
0.0
 20
0.0
 30
0.0
210
0.0
220
0.0
230
1.0
  2
SOLID
 70
     1
 71
     0
 91
        2
 92
        1
 93
        1
 72
     4
 94
        3
 73
     0
 74
     1
 95
       29
 96
       25
 40
0.0
 40
0.0
 40
0.0
 40
0.0
 40
1.0
 40
1.0
 40
1.0
 40
2.0
 40
2.0
 40
2.0
 40
3.0
 40
3.0
 40
3.0
 40
4.0
 40
4.0
 40
4.0
 40
5.0
 40
5.0
 40
5.0
 40
6.0
 40
6.0
 40
6.0
 40
7.0
 40
7.0
 40
7.0
 40
8.0
 40
8.0
 40
8.0
 40
8.0
 10
110.9444769687917
 20
-146.8828517970466
 10
111.1539387742949
 20
-146.9980902410283
 10
111.1728867994637
 20
-147.1834363781347
 10
111.1728867994637
 20
-147.3078043251522
 10
111.1728867994637
 20
-147.4797145898662
 10
111.1263780104129
 20
-147.6311265364429
 10
110.9444769687917
 20
-147.732929108032
 10
110.7494845643265
 20
-147.8436889278828
 10
110.5128065044899
 20
-147.8640149912458
 10
110.3498534880375
 20
-147.8640149912458
 10
110.2058484967541
 20
-147.8640149912458
 10
109.9543565263309
 20
-147.8459282399483
 10
109.7552300072834
 20
-147.732929108032
 10
109.5523138832022
 20
-147.6175184092762
 10
109.529231743451
 20
-147.4457803993365
 10
109.529231743451
 20
-147.3078043251522
 10
109.529231743451
 20
-147.1383056272779
 10
109.5733289656622
 20
-146.9844821138615
 10
109.7552300072834
 20
-146.8828517970466
 10
109.9481553544574
 20
-146.7765706013267
 10
110.176220675581
 20
-146.7517659138329
 10
110.3498534880375
 20
-146.7517659138329
 10
110.521419243203
 20
-146.7517659138329
 10
110.7518961311662
 20
-146.7743312892613
 10
110.9444769687917
 20
-146.8828517970466
 97
        0
 97
        0
 92
        1
 93
        1
 72
     4
 94
        3
 73
     0
 74
     1
 95
       17
 96
       13
 40
0.0
 40
0.0
 40
0.0
 40
0.0
 40
1.0
 40
1.0
 40
1.0
 40
2.0
 40
2.0
 40
2.0
 40
3.0
 40
3.0
 40
3.0
 40
4.0
 40
4.0
 40
4.0
 40
4.0
 10
109.721468071528
 20
-147.3078043251522
 10
109.721468071528
 20
-147.5746269704848
 10
110.0053439395126
 20
-147.6244086002467
 10
110.3498534880375
 20
-147.6244086002467
 10
110.6695583490687
 20
-147.6244086002467
 10
110.9782389045471
 20
-147.5859957855861
 10
110.9782389045471
 20
-147.3078043251522
 10
110.9782389045471
 20
-147.0433932466593
 10
110.6967746034022
 20
-146.991372304832
 10
110.3498534880375
 20
-146.991372304832
 10
110.0304931365549
 20
-146.991372304832
 10
109.721468071528
 20
-147.032024431558
 10
109.721468071528
 20
-147.3078043251522
 97
        0
 97
        0
 75
     2
 76
     1
 98
        0
  0
POLYLINE
  5
101
330
FA
100
AcDbEntity
  8
_U+30EC_U+30A4_U+30E4_U+30FC 1
370
     0
100
AcDb2dPolyline
 66
     1
 10
0.0
 20
0.0
 30
0.0
  0
VERTEX
  5
102
330
101
100
AcDbEntity
  8
_U+30EC_U+30A4_U+30E4_U+30FC 1
370
     0
100
AcDbVertex
100
AcDb2dVertex
 10
111.1222438958306
 20
-146.5202554972241
 30
0.0
  0
VERTEX
  5
103
330
101
100
AcDbEntity
  8
_U+30EC_U+30A4_U+30E4_U+30FC 1
370
     0
100
AcDbVertex
100
AcDb2dVertex
 10
110.8704074158588
 20
-146.5202554972241
 30
0.0
  0
VERTEX
  5
104
330
101
100
AcDbEntity
  8
_U+30EC_U+30A4_U+30E4_U+30FC 1
370
     0
100
AcDbVertex
100
AcDb2dVertex
 10
110.8704074158588
 20
-146.2511935398261
 30
0.0
  0
VERTEX
  5
105
330
101
100
AcDbEntity
  8
_U+30EC_U+30A4_U+30E4_U+30FC 1
370
     0
100
AcDbVertex
100
AcDb2dVertex
 10
111.1222438958306
 20
-146.2511935398261
 30
0.0
  0
VERTEX
  5
106
330
101
100
AcDbEntity
  8
_U+30EC_U+30A4_U+30E4_U+30FC 1
370
     0
100
AcDbVertex
100
AcDb2dVertex
 10
111.1222438958306
 20
-146.5202554972241
 30
0.0
  0
SEQEND
  5
107
330
101
100
AcDbEntity
  8
_U+30EC_U+30A4_U+30E4_U+30FC 1
370
     0
  0
HATCH
  5
108
330
FA
100
AcDbEntity
  8
_U+30EC_U+30A4_U+30E4_U+30FC 1
 62
   179
420
  2234388
100
AcDbHatch
 10
0.0
 20
0.0
 30
0.0
210
0.0
220
0.0
230
1.0
  2
SOLID
 70
     1
 71
     0
 91
        1
 92
        1
 93
        4
 72
     1
 10
111.1222438958306
 20
-146.5202554972241
 11
110.8704074158588
 21
-146.5202554972241
 72
     1
 10
110.8704074158588
 20
-146.5202554972241
 11
110.8704074158588
 21
-146.2511935398261
 72
     1
 10
110.8704074158588
 20
-146.2511935398261
 11
111.1222438958306
 21
-146.2511935398261
 72
     1
 10
111.1222438958306
 20
-146.2511935398261
 11
111.1222438958306
 21
-146.5202554972241
 97
        0
 75
     2
 76
     1
 98
        0
  0
SPLINE
  5
109
330
FA
100
AcDbEntity
  8
_U+30EC_U+30A4_U+30E4_U+30FC 1
370
     0
100
AcDbSpline
210
0.0
220
0.0
230
1.0
 70
    11
 71
     3
 72
    62
 73
    58
 74
     0
 42
0.0000000001
 43
0.0000000001
 12
1.0
 22
0.0
 32
0.0
 13
1.0
 23
0.0
 33
0.0
 40
0.0
 40
0.0
 40
0.0
 40
0.0
 40
1.0
 40
1.0
 40
1.0
 40
2.0
 40
2.0
 40
2.0
 40
3.0
 40
3.0
 40
3.0
 40
4.0
 40
4.0
 40
4.0
 40
5.0
 40
5.0
 40
5.0
 40
6.0
 40
6.0
 40
6.0
 40
7.0
 40
7.0
 40
7.0
 40
8.0
 40
8.0
 40
8.0
 40
9.0
 40
9.0
 40
9.0
 40
10.0
 40
10.0
 40
10.0
 40
11.0
 40
11.0
 40
11.0
 40
12.0
 40
12.0
 40
12.0
 40
13.0
 40
13.0
 40
13.0
 40
14.0
 40
14.0
 40
14.0
 40
15.0
 40
15.0
 40
15.0
 40
16.0
 40
16.0
 40
16.0
 40
17.0
 40
17.0
 40
17.0
 40
18.0
 40
18.0
 40
18.0
 40
19.0
 40
19.0
 40
19.0
 40
19.0
 10
111.1728867994637
 20
-145.4732909792567
 30
0.0
 10
111.1728867994637
 20
-145.5749212960716
 30
0.0
 10
111.1518717170037
 20
-145.8078097508744
 30
0.0
 10
110.9654920512517
 20
-145.9413072009279
 30
0.0
 10
110.8535264479811
 20
-146.0203721423144
 30
0.0
 10
110.7539631884573
 20
-146.0248507664452
 30
0.0
 10
110.6695583490687
 20
-146.029329390576
 30
0.0
 10
110.6695583490687
 20
-146.029329390576
 30
0.0
 10
110.6695583490687
 20
-145.794373878482
 30
0.0
 10
110.6695583490687
 20
-145.794373878482
 30
0.0
 10
110.7432833924531
 20
-145.7919623116423
 30
0.0
 10
110.9782389045471
 20
-145.7807657513152
 30
0.0
 10
110.9782389045471
 20
-145.4777696033875
 30
0.0
 10
110.9782389045471
 20
-145.3308362809416
 30
0.0
 10
110.9086479757451
 20
-145.1680555192636
 30
0.0
 10
110.6798936355245
 20
-145.1680555192636
 30
0.0
 10
110.563449408123
 20
-145.1680555192636
 30
0.0
 10
110.514873561781
 20
-145.2087076459895
 30
0.0
 10
110.4831786833167
 20
-145.2426418365192
 30
0.0
 10
110.4091091303838
 20
-145.3217067779057
 30
0.0
 10
110.3967067866369
 20
-145.4460747249232
 30
0.0
 10
110.3967067866369
 20
-145.504985857721
 30
0.0
 10
110.3967067866369
 20
-145.525311921084
 30
0.0
 10
110.3987738439281
 20
-145.5637247357445
 30
0.0
 10
110.4029079585104
 20
-145.5930080473691
 30
0.0
 10
110.4029079585104
 20
-145.5930080473691
 30
0.0
 10
110.2079155540452
 20
-145.5930080473691
 30
0.0
 10
110.2079155540452
 20
-145.5930080473691
 30
0.0
 10
110.2144612354672
 20
-145.5523559206432
 30
0.0
 10
110.2168728023069
 20
-145.5072251697864
 30
0.0
 10
110.2168728023069
 20
-145.5003349788159
 30
0.0
 10
110.2168728023069
 20
-145.4302272856911
 30
0.0
 10
110.1955132102983
 20
-145.2178371490254
 30
0.0
 10
109.9584906409132
 20
-145.2178371490254
 30
0.0
 10
109.7807237138743
 20
-145.2178371490254
 30
0.0
 10
109.7256021861103
 20
-145.3578802805008
 30
0.0
 10
109.7256021861103
 20
-145.4755302913221
 30
0.0
 10
109.7256021861103
 20
-145.7582003758868
 30
0.0
 10
109.9584906409132
 20
-145.7671576241485
 30
0.0
 10
110.0304931365549
 20
-145.7716362482793
 30
0.0
 10
110.0304931365549
 20
-145.7716362482793
 30
0.0
 10
110.0304931365549
 20
-145.9886772638501
 30
0.0
 10
110.0304931365549
 20
-145.9886772638501
 30
0.0
 10
109.9054361704403
 20
-145.9797200155884
 30
0.0
 10
109.529231743451
 20
-145.9502644491895
 30
0.0
 10
109.529231743451
 20
-145.4619221641554
 30
0.0
 10
109.529231743451
 20
-145.2223157731562
 30
0.0
 10
109.6560112573082
 20
-144.9646226308595
 30
0.0
 10
109.9522894690397
 20
-144.9646226308595
 30
0.0
 10
110.1383246252432
 20
-144.9646226308595
 30
0.0
 10
110.2210069168892
 20
-145.0662529476744
 30
0.0
 10
110.2823296165266
 20
-145.1725341433944
 30
0.0
 10
110.3098903804086
 20
-145.1070773291746
 30
0.0
 10
110.390161105215
 20
-144.9126016890323
 30
0.0
 10
110.6674912917776
 20
-144.9126016890323
 30
0.0
 10
111.0057996684291
 20
-144.9126016890323
 30
0.0
 10
111.1728867994637
 20
-145.1770127675252
 30
0.0
 10
111.1728867994637
 20
-145.4732909792567
 30
0.0
  0
HATCH
  5
10A
330
FA
100
AcDbEntity
  8
_U+30EC_U+30A4_U+30E4_U+30FC 1
 62
   179
420
  2234388
100
AcDbHatch
 10
0.0
 20
0.0
 30
0.0
210
0.0
220
0.0
230
1.0
  2
SOLID
 70
     1
 71
     0
 91
        1
 92
        1
 93
        1
 72
     4
 94
        3
 73
     0
 74
     1
 95
       62
 96
       58
 40
0.0
 40
0.0
 40
0.0
 40
0.0
 40
1.0
 40
1.0
 40
1.0
 40
2.0
 40
2.0
 40
2.0
 40
3.0
 40
3.0
 40
3.0
 40
4.0
 40
4.0
 40
4.0
 40
5.0
 40
5.0
 40
5.0
 40
6.0
 40
6.0
 40
6.0
 40
7.0
 40
7.0
 40
7.0
 40
8.0
 40
8.0
 40
8.0
 40
9.0
 40
9.0
 40
9.0
 40
10.0
 40
10.0
 40
10.0
 40
11.0
 40
11.0
 40
11.0
 40
12.0
 40
12.0
 40
12.0
 40
13.0
 40
13.0
 40
13.0
 40
14.0
 40
14.0
 40
14.0
 40
15.0
 40
15.0
 40
15.0
 40
16.0
 40
16.0
 40
16.0
 40
17.0
 40
17.0
 40
17.0
 40
18.0
 40
18.0
 40
18.0
 40
19.0
 40
19.0
 40
19.0
 40
19.0
 10
111.1728867994637
 20
-145.4732909792567
 10
111.1728867994637
 20
-145.5749212960716
 10
111.1518717170037
 20
-145.8078097508744
 10
110.9654920512517
 20
-145.9413072009279
 10
110.8535264479811
 20
-146.0203721423144
 10
110.7539631884573
 20
-146.0248507664452
 10
110.6695583490687
 20
-146.029329390576
 10
110.6695583490687
 20
-146.029329390576
 10
110.6695583490687
 20
-145.794373878482
 10
110.6695583490687
 20
-145.794373878482
 10
110.7432833924531
 20
-145.7919623116423
 10
110.9782389045471
 20
-145.7807657513152
 10
110.9782389045471
 20
-145.4777696033875
 10
110.9782389045471
 20
-145.3308362809416
 10
110.9086479757451
 20
-145.1680555192636
 10
110.6798936355245
 20
-145.1680555192636
 10
110.563449408123
 20
-145.1680555192636
 10
110.514873561781
 20
-145.2087076459895
 10
110.4831786833167
 20
-145.2426418365192
 10
110.4091091303838
 20
-145.3217067779057
 10
110.3967067866369
 20
-145.4460747249232
 10
110.3967067866369
 20
-145.504985857721
 10
110.3967067866369
 20
-145.525311921084
 10
110.3987738439281
 20
-145.5637247357445
 10
110.4029079585104
 20
-145.5930080473691
 10
110.4029079585104
 20
-145.5930080473691
 10
110.2079155540452
 20
-145.5930080473691
 10
110.2079155540452
 20
-145.5930080473691
 10
110.2144612354672
 20
-145.5523559206432
 10
110.2168728023069
 20
-145.5072251697864
 10
110.2168728023069
 20
-145.5003349788159
 10
110.2168728023069
 20
-145.4302272856911
 10
110.1955132102983
 20
-145.2178371490254
 10
109.9584906409132
 20
-145.2178371490254
 10
109.7807237138743
 20
-145.2178371490254
 10
109.7256021861103
 20
-145.3578802805008
 10
109.7256021861103
 20
-145.4755302913221
 10
109.7256021861103
 20
-145.7582003758868
 10
109.9584906409132
 20
-145.7671576241485
 10
110.0304931365549
 20
-145.7716362482793
 10
110.0304931365549
 20
-145.7716362482793
 10
110.0304931365549
 20
-145.9886772638501
 10
110.0304931365549
 20
-145.9886772638501
 10
109.9054361704403
 20
-145.9797200155884
 10
109.529231743451
 20
-145.9502644491895
 10
109.529231743451
 20
-145.4619221641554
 10
109.529231743451
 20
-145.2223157731562
 10
109.6560112573082
 20
-144.9646226308595
 10
109.9522894690397
 20
-144.9646226308595
 10
110.1383246252432
 20
-144.9646226308595
 10
110.2210069168892
 20
-145.0662529476744
 10
110.2823296165266
 20
-145.1725341433944
 10
110.3098903804086
 20
-145.1070773291746
 10
110.390161105215
 20
-144.9126016890323
 10
110.6674912917776
 20
-144.9126016890323
 10
111.0057996684291
 20
-144.9126016890323
 10
111.1728867994637
 20
-145.1770127675252
 10
111.1728867994637
 20
-145.4732909792567
 97
        0
 97
        0
 75
     2
 76
     1
 98
        0
  0
ENDBLK
  5
FD
330
FA
100
AcDbEntity
  8
0
100
AcDbBlockEnd
  0
BLOCK
  5
119
330
117
100
AcDbEntity
  8
0
100
AcDbBlockBegin
  2
block 5
 70
     0
 10
0.0
 20
0.0
 30
0.0
  3
block 5
  1

  0
SPLINE
  5
11B
330
117
100
AcDbEntity
  8
_U+30EC_U+30A4_U+30E4_U+30FC 1
370
     0
100
AcDbSpline
210
0.0
220
0.0
230
1.0
 70
    11
 71
     3
 72
    26
 73
    22
 74
     0
 42
0.0000000001
 43
0.0000000001
 12
1.0
 22
0.0
 32
0.0
 13
1.0
 23
0.0
 33
0.0
 40
0.0
 40
0.0
 40
0.0
 40
0.0
 40
1.0
 40
1.0
 40
1.0
 40
2.0
 40
2.0
 40
2.0
 40
3.0
 40
3.0
 40
3.0
 40
4.0
 40
4.0
 40
4.0
 40
5.0
 40
5.0
 40
5.0
 40
6.0
 40
6.0
 40
6.0
 40
7.0
 40
7.0
 40
7.0
 40
7.0
 10
102.7482502998338
 20
-153.2316460120393
 30
0.0
 10
102.7482502998338
 20
-153.2316460120393
 30
0.0
 10
102.7482502998338
 20
-152.1274929090168
 30
0.0
 10
102.7482502998338
 20
-152.1274929090168
 30
0.0
 10
102.7482502998338
 20
-152.1274929090168
 30
0.0
 10
102.3954725221442
 20
-152.1274929090168
 30
0.0
 10
102.3954725221442
 20
-152.1274929090168
 30
0.0
 10
102.3954725221442
 20
-152.1274929090168
 30
0.0
 10
102.3954725221442
 20
-151.979353803151
 30
0.0
 10
102.3954725221442
 20
-151.979353803151
 30
0.0
 10
102.7504896118992
 20
-151.9645398925644
 30
0.0
 10
102.8002712416611
 20
-151.8015868761121
 30
0.0
 10
102.8319661201253
 20
-151.6875542155503
 30
0.0
 10
102.8319661201253
 20
-151.6875542155503
 30
0.0
 10
102.9878566908329
 20
-151.6875542155503
 30
0.0
 10
102.9878566908329
 20
-151.6875542155503
 30
0.0
 10
102.9878566908329
 20
-151.6875542155503
 30
0.0
 10
102.9878566908329
 20
-153.2316460120393
 30
0.0
 10
102.9878566908329
 20
-153.2316460120393
 30
0.0
 10
102.9878566908329
 20
-153.2316460120393
 30
0.0
 10
102.7482502998338
 20
-153.2316460120393
 30
0.0
 10
102.7482502998338
 20
-153.2316460120393
 30
0.0
  0
HATCH
  5
11C
330
117
100
AcDbEntity
  8
_U+30EC_U+30A4_U+30E4_U+30FC 1
 62
   179
420
  2234388
100
AcDbHatch
 10
0.0
 20
0.0
 30
0.0
210
0.0
220
0.0
230
1.0
  2
SOLID
 70
     1
 71
     0
 91
        1
 92
        1
 93
        1
 72
     4
 94
        3
 73
     0
 74
     1
 95
       26
 96
       22
 40
0.0
 40
0.0
 40
0.0
 40
0.0
 40
1.0
 40
1.0
 40
1.0
 40
2.0
 40
2.0
 40
2.0
 40
3.0
 40
3.0
 40
3.0
 40
4.0
 40
4.0
 40
4.0
 40
5.0
 40
5.0
 40
5.0
 40
6.0
 40
6.0
 40
6.0
 40
7.0
 40
7.0
 40
7.0
 40
7.0
 10
102.7482502998338
 20
-153.2316460120393
 10
102.7482502998338
 20
-153.2316460120393
 10
102.7482502998338
 20
-152.1274929090168
 10
102.7482502998338
 20
-152.1274929090168
 10
102.7482502998338
 20
-152.1274929090168
 10
102.3954725221442
 20
-152.1274929090168
 10
102.3954725221442
 20
-152.1274929090168
 10
102.3954725221442
 20
-152.1274929090168
 10
102.3954725221442
 20
-151.979353803151
 10
102.3954725221442
 20
-151.979353803151
 10
102.7504896118992
 20
-151.9645398925644
 10
102.8002712416611
 20
-151.8015868761121
 10
102.8319661201253
 20
-151.6875542155503
 10
102.8319661201253
 20
-151.6875542155503
 10
102.9878566908329
 20
-151.6875542155503
 10
102.9878566908329
 20
-151.6875542155503
 10
102.9878566908329
 20
-151.6875542155503
 10
102.9878566908329
 20
-153.2316460120393
 10
102.9878566908329
 20
-153.2316460120393
 10
102.9878566908329
 20
-153.2316460120393
 10
102.7482502998338
 20
-153.2316460120393
 10
102.7482502998338
 20
-153.2316460120393
 97
        0
 97
        0
 75
     2
 76
     1
 98
        0
  0
SPLINE
  5
11D
330
117
100
AcDbEntity
  8
_U+30EC_U+30A4_U+30E4_U+30FC 1
370
     0
100
AcDbSpline
210
0.0
220
0.0
230
1.0
 70
    11
 71
     3
 72
    29
 73
    25
 74
     0
 42
0.0000000001
 43
0.0000000001
 12
1.0
 22
0.0
 32
0.0
 13
1.0
 23
0.0
 33
0.0
 40
0.0
 40
0.0
 40
0.0
 40
0.0
 40
1.0
 40
1.0
 40
1.0
 40
2.0
 40
2.0
 40
2.0
 40
3.0
 40
3.0
 40
3.0
 40
4.0
 40
4.0
 40
4.0
 40
5.0
 40
5.0
 40
5.0
 40
6.0
 40
6.0
 40
6.0
 40
7.0
 40
7.0
 40
7.0
 40
8.0
 40
8.0
 40
8.0
 40
8.0
 10
104.4830281314313
 20
-153.0538790850004
 30
0.0
 10
104.3677896874497
 20
-153.2633408905036
 30
0.0
 10
104.1824435503433
 20
-153.282633425221
 30
0.0
 10
104.0580756033258
 20
-153.282633425221
 30
0.0
 10
103.8861653386118
 20
-153.282633425221
 30
0.0
 10
103.7347533920351
 20
-153.2361246361701
 30
0.0
 10
103.6329508204459
 20
-153.0538790850004
 30
0.0
 10
103.5221910005952
 20
-152.8592311900838
 30
0.0
 10
103.5018649372322
 20
-152.6225531302472
 30
0.0
 10
103.5018649372322
 20
-152.4596001137948
 30
0.0
 10
103.5018649372322
 20
-152.3155951225114
 30
0.0
 10
103.5199516885297
 20
-152.0641031520881
 30
0.0
 10
103.6329508204459
 20
-151.8649766330407
 30
0.0
 10
103.7483615192018
 20
-151.6620605089595
 30
0.0
 10
103.9200995291415
 20
-151.6386338596598
 30
0.0
 10
104.0580756033258
 20
-151.6386338596598
 30
0.0
 10
104.2275743012001
 20
-151.6386338596598
 30
0.0
 10
104.3813978146165
 20
-151.6830755914195
 30
0.0
 10
104.4830281314313
 20
-151.8649766330407
 30
0.0
 10
104.5893093271513
 20
-152.0575574706662
 30
0.0
 10
104.6141140146451
 20
-152.2859673013382
 30
0.0
 10
104.6141140146451
 20
-152.4596001137948
 30
0.0
 10
104.6141140146451
 20
-152.6308213594118
 30
0.0
 10
104.5915486392167
 20
-152.8616427569235
 30
0.0
 10
104.4830281314313
 20
-153.0538790850004
 30
0.0
  0
SPLINE
  5
11E
330
117
100
AcDbEntity
  8
_U+30EC_U+30A4_U+30E4_U+30FC 1
370
     0
100
AcDbSpline
210
0.0
220
0.0
230
1.0
 70
    11
 71
     3
 72
    17
 73
    13
 74
     0
 42
0.0000000001
 43
0.0000000001
 12
1.0
 22
0.0
 32
0.0
 13
1.0
 23
0.0
 33
0.0
 40
0.0
 40
0.0
 40
0.0
 40
0.0
 40
1.0
 40
1.0
 40
1.0
 40
2.0
 40
2.0
 40
2.0
 40
3.0
 40
3.0
 40
3.0
 40
4.0
 40
4.0
 40
4.0
 40
4.0
 10
104.0580756033258
 20
-151.8312146972852
 30
0.0
 10
103.7912529579932
 20
-151.8312146972852
 30
0.0
 10
103.7414713282313
 20
-152.1147460557213
 30
0.0
 10
103.7414713282313
 20
-152.4596001137948
 30
0.0
 10
103.7414713282313
 20
-152.7789604652775
 30
0.0
 10
103.7798841428918
 20
-153.0879855303044
 30
0.0
 10
104.0580756033258
 20
-153.0879855303044
 30
0.0
 10
104.3224866818187
 20
-153.0879855303044
 30
0.0
 10
104.374507623646
 20
-152.8065212291595
 30
0.0
 10
104.374507623646
 20
-152.4596001137948
 30
0.0
 10
104.374507623646
 20
-152.1402397623122
 30
0.0
 10
104.33385549692
 20
-151.8312146972852
 30
0.0
 10
104.0580756033258
 20
-151.8312146972852
 30
0.0
  0
HATCH
  5
11F
330
117
100
AcDbEntity
  8
_U+30EC_U+30A4_U+30E4_U+30FC 1
 62
   179
420
  2234388
100
AcDbHatch
 10
0.0
 20
0.0
 30
0.0
210
0.0
220
0.0
230
1.0
  2
SOLID
 70
     1
 71
     0
 91
        2
 92
        1
 93
        1
 72
     4
 94
        3
 73
     0
 74
     1
 95
       29
 96
       25
 40
0.0
 40
0.0
 40
0.0
 40
0.0
 40
1.0
 40
1.0
 40
1.0
 40
2.0
 40
2.0
 40
2.0
 40
3.0
 40
3.0
 40
3.0
 40
4.0
 40
4.0
 40
4.0
 40
5.0
 40
5.0
 40
5.0
 40
6.0
 40
6.0
 40
6.0
 40
7.0
 40
7.0
 40
7.0
 40
8.0
 40
8.0
 40
8.0
 40
8.0
 10
104.4830281314313
 20
-153.0538790850004
 10
104.3677896874497
 20
-153.2633408905036
 10
104.1824435503433
 20
-153.282633425221
 10
104.0580756033258
 20
-153.282633425221
 10
103.8861653386118
 20
-153.282633425221
 10
103.7347533920351
 20
-153.2361246361701
 10
103.6329508204459
 20
-153.0538790850004
 10
103.5221910005952
 20
-152.8592311900838
 10
103.5018649372322
 20
-152.6225531302472
 10
103.5018649372322
 20
-152.4596001137948
 10
103.5018649372322
 20
-152.3155951225114
 10
103.5199516885297
 20
-152.0641031520881
 10
103.6329508204459
 20
-151.8649766330407
 10
103.7483615192018
 20
-151.6620605089595
 10
103.9200995291415
 20
-151.6386338596598
 10
104.0580756033258
 20
-151.6386338596598
 10
104.2275743012001
 20
-151.6386338596598
 10
104.3813978146165
 20
-151.6830755914195
 10
104.4830281314313
 20
-151.8649766330407
 10
104.5893093271513
 20
-152.0575574706662
 10
104.6141140146451
 20
-152.2859673013382
 10
104.6141140146451
 20
-152.4596001137948
 10
104.6141140146451
 20
-152.6308213594118
 10
104.5915486392167
 20
-152.8616427569235
 10
104.4830281314313
 20
-153.0538790850004
 97
        0
 97
        0
 92
        1
 93
        1
 72
     4
 94
        3
 73
     0
 74
     1
 95
       17
 96
       13
 40
0.0
 40
0.0
 40
0.0
 40
0.0
 40
1.0
 40
1.0
 40
1.0
 40
2.0
 40
2.0
 40
2.0
 40
3.0
 40
3.0
 40
3.0
 40
4.0
 40
4.0
 40
4.0
 40
4.0
 10
104.0580756033258
 20
-151.8312146972852
 10
103.7912529579932
 20
-151.8312146972852
 10
103.7414713282313
 20
-152.1147460557213
 10
103.7414713282313
 20
-152.4596001137948
 10
103.7414713282313
 20
-152.7789604652775
 10
103.7798841428918
 20
-153.0879855303044
 10
104.0580756033258
 20
-153.0879855303044
 10
104.3224866818187
 20
-153.0879855303044
 10
104.374507623646
 20
-152.8065212291595
 10
104.374507623646
 20
-152.4596001137948
 10
104.374507623646
 20
-152.1402397623122
 10
104.33385549692
 20
-151.8312146972852
 10
104.0580756033258
 20
-151.8312146972852
 97
        0
 97
        0
 75
     2
 76
     1
 98
        0
  0
ENDBLK
  5
11A
330
117
100
AcDbEntity
  8
0
100
AcDbBlockEnd
  0
BLOCK
  5
12A
330
128
100
AcDbEntity
  8
0
100
AcDbBlockBegin
  2
block 6
 70
     0
 10
0.0
 20
0.0
 30
0.0
  3
block 6
  1

  0
SPLINE
  5
12C
330
128
100
AcDbEntity
  8
_U+30EC_U+30A4_U+30E4_U+30FC 1
370
     0
100
AcDbSpline
210
0.0
220
0.0
230
1.0
 70
    11
 71
     3
 72
    26
 73
    22
 74
     0
 42
0.0000000001
 43
0.0000000001
 12
1.0
 22
0.0
 32
0.0
 13
1.0
 23
0.0
 33
0.0
 40
0.0
 40
0.0
 40
0.0
 40
0.0
 40
1.0
 40
1.0
 40
1.0
 40
2.0
 40
2.0
 40
2.0
 40
3.0
 40
3.0
 40
3.0
 40
4.0
 40
4.0
 40
4.0
 40
5.0
 40
5.0
 40
5.0
 40
6.0
 40
6.0
 40
6.0
 40
7.0
 40
7.0
 40
7.0
 40
7.0
 10
91.74840492497957
 20
-153.2316460120393
 30
0.0
 10
91.74840492497957
 20
-153.2316460120393
 30
0.0
 10
91.74840492497957
 20
-152.1274929090168
 30
0.0
 10
91.74840492497957
 20
-152.1274929090168
 30
0.0
 10
91.74840492497957
 20
-152.1274929090168
 30
0.0
 10
91.39562714728999
 20
-152.1274929090168
 30
0.0
 10
91.39562714728999
 20
-152.1274929090168
 30
0.0
 10
91.39562714728999
 20
-152.1274929090168
 30
0.0
 10
91.39562714728999
 20
-151.979353803151
 30
0.0
 10
91.39562714728999
 20
-151.979353803151
 30
0.0
 10
91.75064423704498
 20
-151.9645398925644
 30
0.0
 10
91.80042586680685
 20
-151.8015868761121
 30
0.0
 10
91.83212074527114
 20
-151.6875542155503
 30
0.0
 10
91.83212074527114
 20
-151.6875542155503
 30
0.0
 10
91.9880113159787
 20
-151.6875542155503
 30
0.0
 10
91.9880113159787
 20
-151.6875542155503
 30
0.0
 10
91.9880113159787
 20
-151.6875542155503
 30
0.0
 10
91.9880113159787
 20
-153.2316460120393
 30
0.0
 10
91.9880113159787
 20
-153.2316460120393
 30
0.0
 10
91.9880113159787
 20
-153.2316460120393
 30
0.0
 10
91.74840492497957
 20
-153.2316460120393
 30
0.0
 10
91.74840492497957
 20
-153.2316460120393
 30
0.0
  0
HATCH
  5
12D
330
128
100
AcDbEntity
  8
_U+30EC_U+30A4_U+30E4_U+30FC 1
 62
   179
420
  2234388
100
AcDbHatch
 10
0.0
 20
0.0
 30
0.0
210
0.0
220
0.0
230
1.0
  2
SOLID
 70
     1
 71
     0
 91
        1
 92
        1
 93
        1
 72
     4
 94
        3
 73
     0
 74
     1
 95
       26
 96
       22
 40
0.0
 40
0.0
 40
0.0
 40
0.0
 40
1.0
 40
1.0
 40
1.0
 40
2.0
 40
2.0
 40
2.0
 40
3.0
 40
3.0
 40
3.0
 40
4.0
 40
4.0
 40
4.0
 40
5.0
 40
5.0
 40
5.0
 40
6.0
 40
6.0
 40
6.0
 40
7.0
 40
7.0
 40
7.0
 40
7.0
 10
91.74840492497957
 20
-153.2316460120393
 10
91.74840492497957
 20
-153.2316460120393
 10
91.74840492497957
 20
-152.1274929090168
 10
91.74840492497957
 20
-152.1274929090168
 10
91.74840492497957
 20
-152.1274929090168
 10
91.39562714728999
 20
-152.1274929090168
 10
91.39562714728999
 20
-152.1274929090168
 10
91.39562714728999
 20
-152.1274929090168
 10
91.39562714728999
 20
-151.979353803151
 10
91.39562714728999
 20
-151.979353803151
 10
91.75064423704498
 20
-151.9645398925644
 10
91.80042586680685
 20
-151.8015868761121
 10
91.83212074527114
 20
-151.6875542155503
 10
91.83212074527114
 20
-151.6875542155503
 10
91.9880113159787
 20
-151.6875542155503
 10
91.9880113159787
 20
-151.6875542155503
 10
91.9880113159787
 20
-151.6875542155503
 10
91.9880113159787
 20
-153.2316460120393
 10
91.9880113159787
 20
-153.2316460120393
 10
91.9880113159787
 20
-153.2316460120393
 10
91.74840492497957
 20
-153.2316460120393
 10
91.74840492497957
 20
-153.2316460120393
 97
        0
 97
        0
 75
     2
 76
     1
 98
        0
  0
SPLINE
  5
12E
330
128
100
AcDbEntity
  8
_U+30EC_U+30A4_U+30E4_U+30FC 1
370
     0
100
AcDbSpline
210
0.0
220
0.0
230
1.0
 70
    11
 71
     3
 72
    44
 73
    40
 74
     0
 42
0.0000000001
 43
0.0000000001
 12
1.0
 22
0.0
 32
0.0
 13
1.0
 23
0.0
 33
0.0
 40
0.0
 40
0.0
 40
0.0
 40
0.0
 40
1.0
 40
1.0
 40
1.0
 40
2.0
 40
2.0
 40
2.0
 40
3.0
 40
3.0
 40
3.0
 40
4.0
 40
4.0
 40
4.0
 40
5.0
 40
5.0
 40
5.0
 40
6.0
 40
6.0
 40
6.0
 40
7.0
 40
7.0
 40
7.0
 40
8.0
 40
8.0
 40
8.0
 40
9.0
 40
9.0
 40
9.0
 40
10.0
 40
10.0
 40
10.0
 40
11.0
 40
11.0
 40
11.0
 40
12.0
 40
12.0
 40
12.0
 40
13.0
 40
13.0
 40
13.0
 40
13.0
 10
93.15762123322102
 20
-152.6501138941291
 30
0.0
 10
92.92473277841813
 20
-152.8085882864506
 30
0.0
 10
92.82534177366867
 20
-152.8826578393835
 30
0.0
 10
92.7733208318414
 20
-153.026662830667
 30
0.0
 10
92.7733208318414
 20
-153.026662830667
 30
0.0
 10
93.60531139152923
 20
-153.026662830667
 30
0.0
 10
93.60531139152923
 20
-153.026662830667
 30
0.0
 10
93.60531139152923
 20
-153.026662830667
 30
0.0
 10
93.60531139152923
 20
-153.2316460120393
 30
0.0
 10
93.60531139152923
 20
-153.2316460120393
 30
0.0
 10
93.60531139152923
 20
-153.2316460120393
 30
0.0
 10
92.5064981865088
 20
-153.2316460120393
 30
0.0
 10
92.5064981865088
 20
-153.2316460120393
 30
0.0
 10
92.54043237703851
 20
-152.8740451006704
 30
0.0
 10
92.61054007016334
 20
-152.7958414331552
 30
0.0
 10
93.02205672587644
 20
-152.4974961641326
 30
0.0
 10
93.29559730740527
 20
-152.2987141546337
 30
0.0
 10
93.3657050005301
 20
-152.2311902831228
 30
0.0
 10
93.3657050005301
 20
-152.0937309732613
 30
0.0
 10
93.3657050005301
 20
-151.9752196885687
 30
0.0
 10
93.28870711643478
 20
-151.8439615505807
 30
0.0
 10
93.07855629183453
 20
-151.8439615505807
 30
0.0
 10
92.80053708617487
 20
-151.8439615505807
 30
0.0
 10
92.79140758313896
 20
-152.0744384385439
 30
0.0
 10
92.78692895900814
 20
-152.1908826659453
 30
0.0
 10
92.78692895900814
 20
-152.1908826659453
 30
0.0
 10
92.54732256800901
 20
-152.1908826659453
 30
0.0
 10
92.54732256800901
 20
-152.1908826659453
 30
0.0
 10
92.55627981627066
 20
-152.0641031520881
 30
0.0
 10
92.56764863137198
 20
-151.951793039269
 30
0.0
 10
92.6534315089547
 20
-151.8332817545764
 30
0.0
 10
92.77108151977599
 20
-151.6727403049638
 30
0.0
 10
92.97003578404916
 20
-151.6386338596598
 30
0.0
 10
93.09440373106668
 20
-151.6386338596598
 30
0.0
 10
93.39050968802391
 20
-151.6386338596598
 30
0.0
 10
93.61202932772547
 20
-151.8229464681206
 30
0.0
 10
93.61202932772547
 20
-152.0957980305525
 30
0.0
 10
93.61202932772547
 20
-152.3242078612245
 30
0.0
 10
93.48783363548222
 20
-152.4237711207482
 30
0.0
 10
93.15762123322102
 20
-152.6501138941291
 30
0.0
  0
HATCH
  5
12F
330
128
100
AcDbEntity
  8
_U+30EC_U+30A4_U+30E4_U+30FC 1
 62
   179
420
  2234388
100
AcDbHatch
 10
0.0
 20
0.0
 30
0.0
210
0.0
220
0.0
230
1.0
  2
SOLID
 70
     1
 71
     0
 91
        1
 92
        1
 93
        1
 72
     4
 94
        3
 73
     0
 74
     1
 95
       44
 96
       40
 40
0.0
 40
0.0
 40
0.0
 40
0.0
 40
1.0
 40
1.0
 40
1.0
 40
2.0
 40
2.0
 40
2.0
 40
3.0
 40
3.0
 40
3.0
 40
4.0
 40
4.0
 40
4.0
 40
5.0
 40
5.0
 40
5.0
 40
6.0
 40
6.0
 40
6.0
 40
7.0
 40
7.0
 40
7.0
 40
8.0
 40
8.0
 40
8.0
 40
9.0
 40
9.0
 40
9.0
 40
10.0
 40
10.0
 40
10.0
 40
11.0
 40
11.0
 40
11.0
 40
12.0
 40
12.0
 40
12.0
 40
13.0
 40
13.0
 40
13.0
 40
13.0
 10
93.15762123322102
 20
-152.6501138941291
 10
92.92473277841813
 20
-152.8085882864506
 10
92.82534177366867
 20
-152.8826578393835
 10
92.7733208318414
 20
-153.026662830667
 10
92.7733208318414
 20
-153.026662830667
 10
93.60531139152923
 20
-153.026662830667
 10
93.60531139152923
 20
-153.026662830667
 10
93.60531139152923
 20
-153.026662830667
 10
93.60531139152923
 20
-153.2316460120393
 10
93.60531139152923
 20
-153.2316460120393
 10
93.60531139152923
 20
-153.2316460120393
 10
92.5064981865088
 20
-153.2316460120393
 10
92.5064981865088
 20
-153.2316460120393
 10
92.54043237703851
 20
-152.8740451006704
 10
92.61054007016334
 20
-152.7958414331552
 10
93.02205672587644
 20
-152.4974961641326
 10
93.29559730740527
 20
-152.2987141546337
 10
93.3657050005301
 20
-152.2311902831228
 10
93.3657050005301
 20
-152.0937309732613
 10
93.3657050005301
 20
-151.9752196885687
 10
93.28870711643478
 20
-151.8439615505807
 10
93.07855629183453
 20
-151.8439615505807
 10
92.80053708617487
 20
-151.8439615505807
 10
92.79140758313896
 20
-152.0744384385439
 10
92.78692895900814
 20
-152.1908826659453
 10
92.78692895900814
 20
-152.1908826659453
 10
92.54732256800901
 20
-152.1908826659453
 10
92.54732256800901
 20
-152.1908826659453
 10
92.55627981627066
 20
-152.0641031520881
 10
92.56764863137198
 20
-151.951793039269
 10
92.6534315089547
 20
-151.8332817545764
 10
92.77108151977599
 20
-151.6727403049638
 10
92.97003578404916
 20
-151.6386338596598
 10
93.09440373106668
 20
-151.6386338596598
 10
93.39050968802391
 20
-151.6386338596598
 10
93.61202932772547
 20
-151.8229464681206
 10
93.61202932772547
 20
-152.0957980305525
 10
93.61202932772547
 20
-152.3242078612245
 10
93.48783363548222
 20
-152.4237711207482
 10
93.15762123322102
 20
-152.6501138941291
 97
        0
 97
        0
 75
     2
 76
     1
 98
        0
  0
ENDBLK
  5
12B
330
128
100
AcDbEntity
  8
0
100
AcDbBlockEnd
  0
BLOCK
  5
13E
330
13C
100
AcDbEntity
  8
0
100
AcDbBlockBegin
  2
block 7
 70
     0
 10
0.0
 20
0.0
 30
0.0
  3
block 7
  1

  0
SPLINE
  5
140
330
13C
100
AcDbEntity
  8
_U+30EC_U+30A4_U+30E4_U+30FC 1
370
     0
100
AcDbSpline
210
0.0
220
0.0
230
1.0
 70
    11
 71
     3
 72
    62
 73
    58
 74
     0
 42
0.0000000001
 43
0.0000000001
 12
1.0
 22
0.0
 32
0.0
 13
1.0
 23
0.0
 33
0.0
 40
0.0
 40
0.0
 40
0.0
 40
0.0
 40
1.0
 40
1.0
 40
1.0
 40
2.0
 40
2.0
 40
2.0
 40
3.0
 40
3.0
 40
3.0
 40
4.0
 40
4.0
 40
4.0
 40
5.0
 40
5.0
 40
5.0
 40
6.0
 40
6.0
 40
6.0
 40
7.0
 40
7.0
 40
7.0
 40
8.0
 40
8.0
 40
8.0
 40
9.0
 40
9.0
 40
9.0
 40
10.0
 40
10.0
 40
10.0
 40
11.0
 40
11.0
 40
11.0
 40
12.0
 40
12.0
 40
12.0
 40
13.0
 40
13.0
 40
13.0
 40
14.0
 40
14.0
 40
14.0
 40
15.0
 40
15.0
 40
15.0
 40
16.0
 40
16.0
 40
16.0
 40
17.0
 40
17.0
 40
17.0
 40
18.0
 40
18.0
 40
18.0
 40
19.0
 40
19.0
 40
19.0
 40
19.0
 10
102.7913139933994
 20
-136.7826931081654
 30
0.0
 10
102.6896836765845
 20
-136.7826931081654
 30
0.0
 10
102.4567952217816
 20
-136.7615057709312
 30
0.0
 10
102.3232977717282
 20
-136.5752983599534
 30
0.0
 10
102.2442328303417
 20
-136.4631605019085
 30
0.0
 10
102.2397542062109
 20
-136.3637694971591
 30
0.0
 10
102.2352755820801
 20
-136.2791924029962
 30
0.0
 10
102.2352755820801
 20
-136.2791924029962
 30
0.0
 10
102.4702310941741
 20
-136.2791924029962
 30
0.0
 10
102.4702310941741
 20
-136.2791924029962
 30
0.0
 10
102.4726426610138
 20
-136.353261955929
 30
0.0
 10
102.4838392213408
 20
-136.5880452132488
 30
0.0
 10
102.7868353692686
 20
-136.5880452132488
 30
0.0
 10
102.9337686917145
 20
-136.5880452132488
 30
0.0
 10
103.0965494533925
 20
-136.5182820296725
 30
0.0
 10
103.0965494533925
 20
-136.2896999442262
 30
0.0
 10
103.0965494533925
 20
-136.173427971599
 30
0.0
 10
103.0558973266666
 20
-136.1246798704827
 30
0.0
 10
103.0219631361369
 20
-136.0929849920184
 30
0.0
 10
102.9428981947504
 20
-136.0189154390856
 30
0.0
 10
102.8185302477329
 20
-136.0063408405644
 30
0.0
 10
102.7596191149351
 20
-136.0063408405644
 30
0.0
 10
102.7392930515721
 20
-136.0063408405644
 30
0.0
 10
102.7008802369116
 20
-136.0084078978555
 30
0.0
 10
102.671596925287
 20
-136.0125420124378
 30
0.0
 10
102.671596925287
 20
-136.0125420124378
 30
0.0
 10
102.671596925287
 20
-135.8178941175212
 30
0.0
 10
102.671596925287
 20
-135.8178941175212
 30
0.0
 10
102.7122490520129
 20
-135.8242675441689
 30
0.0
 10
102.7573798028697
 20
-135.8265068562343
 30
0.0
 10
102.7642699938402
 20
-135.8265068562343
 30
0.0
 10
102.834377686965
 20
-135.8265068562343
 30
0.0
 10
103.0467678236307
 20
-135.8053195190001
 30
0.0
 10
103.0467678236307
 20
-135.5682969496149
 30
0.0
 10
103.0467678236307
 20
-135.3907022773502
 30
0.0
 10
102.9067246921553
 20
-135.3355807495863
 30
0.0
 10
102.789074681334
 20
-135.3355807495863
 30
0.0
 10
102.5064045967692
 20
-135.3355807495863
 30
0.0
 10
102.4974473485076
 20
-135.5682969496149
 30
0.0
 10
102.4929687243768
 20
-135.6402994452566
 30
0.0
 10
102.4929687243768
 20
-135.6402994452566
 30
0.0
 10
102.275927708806
 20
-135.6402994452566
 30
0.0
 10
102.275927708806
 20
-135.6402994452566
 30
0.0
 10
102.2848849570677
 20
-135.5154147339163
 30
0.0
 10
102.3143405234666
 20
-135.1388657973785
 30
0.0
 10
102.8026828085007
 20
-135.1388657973785
 30
0.0
 10
103.0422891994998
 20
-135.1388657973785
 30
0.0
 10
103.2999823417965
 20
-135.2658175660099
 30
0.0
 10
103.2999823417965
 20
-135.5619235229672
 30
0.0
 10
103.2999823417965
 20
-135.7481309339449
 30
0.0
 10
103.1983520249817
 20
-135.8306409708167
 30
0.0
 10
103.0920708292617
 20
-135.8919636704541
 30
0.0
 10
103.1575276434815
 20
-135.9195244343361
 30
0.0
 10
103.3520032836238
 20
-135.9999674139167
 30
0.0
 10
103.3520032836238
 20
-136.277125345705
 30
0.0
 10
103.3520032836238
 20
-136.6156059771308
 30
0.0
 10
103.0875922051309
 20
-136.7826931081654
 30
0.0
 10
102.7913139933994
 20
-136.7826931081654
 30
0.0
  0
HATCH
  5
141
330
13C
100
AcDbEntity
  8
_U+30EC_U+30A4_U+30E4_U+30FC 1
 62
   179
420
  2234388
100
AcDbHatch
 10
0.0
 20
0.0
 30
0.0
210
0.0
220
0.0
230
1.0
  2
SOLID
 70
     1
 71
     0
 91
        1
 92
        1
 93
        1
 72
     4
 94
        3
 73
     0
 74
     1
 95
       62
 96
       58
 40
0.0
 40
0.0
 40
0.0
 40
0.0
 40
1.0
 40
1.0
 40
1.0
 40
2.0
 40
2.0
 40
2.0
 40
3.0
 40
3.0
 40
3.0
 40
4.0
 40
4.0
 40
4.0
 40
5.0
 40
5.0
 40
5.0
 40
6.0
 40
6.0
 40
6.0
 40
7.0
 40
7.0
 40
7.0
 40
8.0
 40
8.0
 40
8.0
 40
9.0
 40
9.0
 40
9.0
 40
10.0
 40
10.0
 40
10.0
 40
11.0
 40
11.0
 40
11.0
 40
12.0
 40
12.0
 40
12.0
 40
13.0
 40
13.0
 40
13.0
 40
14.0
 40
14.0
 40
14.0
 40
15.0
 40
15.0
 40
15.0
 40
16.0
 40
16.0
 40
16.0
 40
17.0
 40
17.0
 40
17.0
 40
18.0
 40
18.0
 40
18.0
 40
19.0
 40
19.0
 40
19.0
 40
19.0
 10
102.7913139933994
 20
-136.7826931081654
 10
102.6896836765845
 20
-136.7826931081654
 10
102.4567952217816
 20
-136.7615057709312
 10
102.3232977717282
 20
-136.5752983599534
 10
102.2442328303417
 20
-136.4631605019085
 10
102.2397542062109
 20
-136.3637694971591
 10
102.2352755820801
 20
-136.2791924029962
 10
102.2352755820801
 20
-136.2791924029962
 10
102.4702310941741
 20
-136.2791924029962
 10
102.4702310941741
 20
-136.2791924029962
 10
102.4726426610138
 20
-136.353261955929
 10
102.4838392213408
 20
-136.5880452132488
 10
102.7868353692686
 20
-136.5880452132488
 10
102.9337686917145
 20
-136.5880452132488
 10
103.0965494533925
 20
-136.5182820296725
 10
103.0965494533925
 20
-136.2896999442262
 10
103.0965494533925
 20
-136.173427971599
 10
103.0558973266666
 20
-136.1246798704827
 10
103.0219631361369
 20
-136.0929849920184
 10
102.9428981947504
 20
-136.0189154390856
 10
102.8185302477329
 20
-136.0063408405644
 10
102.7596191149351
 20
-136.0063408405644
 10
102.7392930515721
 20
-136.0063408405644
 10
102.7008802369116
 20
-136.0084078978555
 10
102.671596925287
 20
-136.0125420124378
 10
102.671596925287
 20
-136.0125420124378
 10
102.671596925287
 20
-135.8178941175212
 10
102.671596925287
 20
-135.8178941175212
 10
102.7122490520129
 20
-135.8242675441689
 10
102.7573798028697
 20
-135.8265068562343
 10
102.7642699938402
 20
-135.8265068562343
 10
102.834377686965
 20
-135.8265068562343
 10
103.0467678236307
 20
-135.8053195190001
 10
103.0467678236307
 20
-135.5682969496149
 10
103.0467678236307
 20
-135.3907022773502
 10
102.9067246921553
 20
-135.3355807495863
 10
102.789074681334
 20
-135.3355807495863
 10
102.5064045967692
 20
-135.3355807495863
 10
102.4974473485076
 20
-135.5682969496149
 10
102.4929687243768
 20
-135.6402994452566
 10
102.4929687243768
 20
-135.6402994452566
 10
102.275927708806
 20
-135.6402994452566
 10
102.275927708806
 20
-135.6402994452566
 10
102.2848849570677
 20
-135.5154147339163
 10
102.3143405234666
 20
-135.1388657973785
 10
102.8026828085007
 20
-135.1388657973785
 10
103.0422891994998
 20
-135.1388657973785
 10
103.2999823417965
 20
-135.2658175660099
 10
103.2999823417965
 20
-135.5619235229672
 10
103.2999823417965
 20
-135.7481309339449
 10
103.1983520249817
 20
-135.8306409708167
 10
103.0920708292617
 20
-135.8919636704541
 10
103.1575276434815
 20
-135.9195244343361
 10
103.3520032836238
 20
-135.9999674139167
 10
103.3520032836238
 20
-136.277125345705
 10
103.3520032836238
 20
-136.6156059771308
 10
103.0875922051309
 20
-136.7826931081654
 10
102.7913139933994
 20
-136.7826931081654
 97
        0
 97
        0
 75
     2
 76
     1
 98
        0
  0
POLYLINE
  5
142
330
13C
100
AcDbEntity
  8
_U+30EC_U+30A4_U+30E4_U+30FC 1
370
     0
100
AcDb2dPolyline
 66
     1
 10
0.0
 20
0.0
 30
0.0
  0
VERTEX
  5
143
330
142
100
AcDbEntity
  8
_U+30EC_U+30A4_U+30E4_U+30FC 1
370
     0
100
AcDbVertex
100
AcDb2dVertex
 10
104.4130926930808
 20
-136.3849568343934
 30
0.0
  0
VERTEX
  5
144
330
142
100
AcDbEntity
  8
_U+30EC_U+30A4_U+30E4_U+30FC 1
370
     0
100
AcDbVertex
100
AcDb2dVertex
 10
104.4130926930808
 20
-136.731877949758
 30
0.0
  0
VERTEX
  5
145
330
142
100
AcDbEntity
  8
_U+30EC_U+30A4_U+30E4_U+30FC 1
370
     0
100
AcDbVertex
100
AcDb2dVertex
 10
104.1803764930521
 20
-136.731877949758
 30
0.0
  0
VERTEX
  5
146
330
142
100
AcDbEntity
  8
_U+30EC_U+30A4_U+30E4_U+30FC 1
370
     0
100
AcDbVertex
100
AcDb2dVertex
 10
104.1803764930521
 20
-136.3849568343934
 30
0.0
  0
VERTEX
  5
147
330
142
100
AcDbEntity
  8
_U+30EC_U+30A4_U+30E4_U+30FC 1
370
     0
100
AcDbVertex
100
AcDb2dVertex
 10
103.4794718165781
 20
-136.3849568343934
 30
0.0
  0
VERTEX
  5
148
330
142
100
AcDbEntity
  8
_U+30EC_U+30A4_U+30E4_U+30FC 1
370
     0
100
AcDbVertex
100
AcDb2dVertex
 10
103.4794718165781
 20
-136.1606811183036
 30
0.0
  0
VERTEX
  5
149
330
142
100
AcDbEntity
  8
_U+30EC_U+30A4_U+30E4_U+30FC 1
370
     0
100
AcDbVertex
100
AcDb2dVertex
 10
104.2051811805459
 20
-135.1876138984948
 30
0.0
  0
VERTEX
  5
14A
330
142
100
AcDbEntity
  8
_U+30EC_U+30A4_U+30E4_U+30FC 1
370
     0
100
AcDbVertex
100
AcDb2dVertex
 10
104.4130926930808
 20
-135.1876138984948
 30
0.0
  0
VERTEX
  5
14B
330
142
100
AcDbEntity
  8
_U+30EC_U+30A4_U+30E4_U+30FC 1
370
     0
100
AcDbVertex
100
AcDb2dVertex
 10
104.4130926930808
 20
-136.1860025701202
 30
0.0
  0
VERTEX
  5
14C
330
142
100
AcDbEntity
  8
_U+30EC_U+30A4_U+30E4_U+30FC 1
370
     0
100
AcDbVertex
100
AcDb2dVertex
 10
104.6347845875566
 20
-136.1860025701202
 30
0.0
  0
VERTEX
  5
14D
330
142
100
AcDbEntity
  8
_U+30EC_U+30A4_U+30E4_U+30FC 1
370
     0
100
AcDbVertex
100
AcDb2dVertex
 10
104.6347845875566
 20
-136.3849568343934
 30
0.0
  0
VERTEX
  5
14E
330
142
100
AcDbEntity
  8
_U+30EC_U+30A4_U+30E4_U+30FC 1
370
     0
100
AcDbVertex
100
AcDb2dVertex
 10
104.4130926930808
 20
-136.3849568343934
 30
0.0
  0
SEQEND
  5
14F
330
142
100
AcDbEntity
  8
_U+30EC_U+30A4_U+30E4_U+30FC 1
370
     0
  0
POLYLINE
  5
150
330
13C
100
AcDbEntity
  8
_U+30EC_U+30A4_U+30E4_U+30FC 1
370
     0
100
AcDb2dPolyline
 66
     1
 10
0.0
 20
0.0
 30
0.0
  0
VERTEX
  5
151
330
150
100
AcDbEntity
  8
_U+30EC_U+30A4_U+30E4_U+30FC 1
370
     0
100
AcDbVertex
100
AcDb2dVertex
 10
104.1803764930521
 20
-135.5302286445029
 30
0.0
  0
VERTEX
  5
152
330
150
100
AcDbEntity
  8
_U+30EC_U+30A4_U+30E4_U+30FC 1
370
     0
100
AcDbVertex
100
AcDb2dVertex
 10
103.6918619532437
 20
-136.1860025701202
 30
0.0
  0
VERTEX
  5
153
330
150
100
AcDbEntity
  8
_U+30EC_U+30A4_U+30E4_U+30FC 1
370
     0
100
AcDbVertex
100
AcDb2dVertex
 10
104.1803764930521
 20
-136.1860025701202
 30
0.0
  0
VERTEX
  5
154
330
150
100
AcDbEntity
  8
_U+30EC_U+30A4_U+30E4_U+30FC 1
370
     0
100
AcDbVertex
100
AcDb2dVertex
 10
104.1803764930521
 20
-135.5302286445029
 30
0.0
  0
SEQEND
  5
155
330
150
100
AcDbEntity
  8
_U+30EC_U+30A4_U+30E4_U+30FC 1
370
     0
  0
HATCH
  5
156
330
13C
100
AcDbEntity
  8
_U+30EC_U+30A4_U+30E4_U+30FC 1
 62
   179
420
  2234388
100
AcDbHatch
 10
0.0
 20
0.0
 30
0.0
210
0.0
220
0.0
230
1.0
  2
SOLID
 70
     1
 71
     0
 91
        2
 92
        1
 93
       11
 72
     1
 10
104.4130926930808
 20
-136.3849568343934
 11
104.4130926930808
 21
-136.731877949758
 72
     1
 10
104.4130926930808
 20
-136.731877949758
 11
104.1803764930521
 21
-136.731877949758
 72
     1
 10
104.1803764930521
 20
-136.731877949758
 11
104.1803764930521
 21
-136.3849568343934
 72
     1
 10
104.1803764930521
 20
-136.3849568343934
 11
103.4794718165781
 21
-136.3849568343934
 72
     1
 10
103.4794718165781
 20
-136.3849568343934
 11
103.4794718165781
 21
-136.1606811183036
 72
     1
 10
103.4794718165781
 20
-136.1606811183036
 11
104.2051811805459
 21
-135.1876138984948
 72
     1
 10
104.2051811805459
 20
-135.1876138984948
 11
104.4130926930808
 21
-135.1876138984948
 72
     1
 10
104.4130926930808
 20
-135.1876138984948
 11
104.4130926930808
 21
-136.1860025701202
 72
     1
 10
104.4130926930808
 20
-136.1860025701202
 11
104.6347845875566
 21
-136.1860025701202
 72
     1
 10
104.6347845875566
 20
-136.1860025701202
 11
104.6347845875566
 21
-136.3849568343934
 72
     1
 10
104.6347845875566
 20
-136.3849568343934
 11
104.4130926930808
 21
-136.3849568343934
 97
        0
 92
        1
 93
        3
 72
     1
 10
104.1803764930521
 20
-135.5302286445029
 11
103.6918619532437
 21
-136.1860025701202
 72
     1
 10
103.6918619532437
 20
-136.1860025701202
 11
104.1803764930521
 21
-136.1860025701202
 72
     1
 10
104.1803764930521
 20
-136.1860025701202
 11
104.1803764930521
 21
-135.5302286445029
 97
        0
 75
     2
 76
     1
 98
        0
  0
ENDBLK
  5
13F
330
13C
100
AcDbEntity
  8
0
100
AcDbBlockEnd
  0
BLOCK
  5
161
330
15F
100
AcDbEntity
  8
0
100
AcDbBlockBegin
  2
block 8
 70
     0
 10
0.0
 20
0.0
 30
0.0
  3
block 8
  1

  0
SPLINE
  5
163
330
15F
100
AcDbEntity
  8
_U+30EC_U+30A4_U+30E4_U+30FC 1
370
     0
100
AcDbSpline
210
0.0
220
0.0
230
1.0
 70
    11
 71
     3
 72
    32
 73
    28
 74
     0
 42
0.0000000001
 43
0.0000000001
 12
1.0
 22
0.0
 32
0.0
 13
1.0
 23
0.0
 33
0.0
 40
0.0
 40
0.0
 40
0.0
 40
0.0
 40
1.0
 40
1.0
 40
1.0
 40
2.0
 40
2.0
 40
2.0
 40
3.0
 40
3.0
 40
3.0
 40
4.0
 40
4.0
 40
4.0
 40
5.0
 40
5.0
 40
5.0
 40
6.0
 40
6.0
 40
6.0
 40
7.0
 40
7.0
 40
7.0
 40
8.0
 40
8.0
 40
8.0
 40
9.0
 40
9.0
 40
9.0
 40
9.0
 10
123.1731879032345
 20
-147.053728533115
 30
0.0
 10
123.1731879032345
 20
-147.6054605750778
 30
0.0
 10
122.6192165492063
 20
-147.6144178233395
 30
0.0
 10
122.4056206291208
 20
-147.6144178233395
 30
0.0
 10
122.1747992316091
 20
-147.6144178233395
 30
0.0
 10
121.5274657899306
 20
-147.5940917599765
 30
0.0
 10
121.5274657899306
 20
-147.0130764063891
 30
0.0
 10
121.5274657899306
 20
-146.8275580145084
 30
0.0
 10
121.5974012282812
 20
-146.5653862480809
 30
0.0
 10
121.9295084330593
 20
-146.5247341213549
 30
0.0
 10
121.9295084330593
 20
-146.5247341213549
 30
0.0
 10
121.9295084330593
 20
-146.7529716972527
 30
0.0
 10
121.9295084330593
 20
-146.7529716972527
 30
0.0
 10
121.8723198480042
 20
-146.7643405123541
 30
0.0
 10
121.7241807421384
 20
-146.7982747028838
 30
0.0
 10
121.7241807421384
 20
-147.0153157184545
 30
0.0
 10
121.7241807421384
 20
-147.3272691146439
 30
0.0
 10
122.0521538323342
 20
-147.3701605534353
 30
0.0
 10
122.2574815232551
 20
-147.383768680602
 30
0.0
 10
122.1789333461914
 20
-147.2843776758525
 30
0.0
 10
122.1196777038451
 20
-147.2120306706623
 30
0.0
 10
122.1196777038451
 20
-147.0175550305199
 30
0.0
 10
122.1196777038451
 20
-146.825318702443
 30
0.0
 10
122.2278537020819
 20
-146.5019964911523
 30
0.0
 10
122.6336859502444
 20
-146.5019964911523
 30
0.0
 10
122.9533908112755
 20
-146.5019964911523
 30
0.0
 10
123.1731879032345
 20
-146.7145588825922
 30
0.0
 10
123.1731879032345
 20
-147.053728533115
 30
0.0
  0
SPLINE
  5
164
330
15F
100
AcDbEntity
  8
_U+30EC_U+30A4_U+30E4_U+30FC 1
370
     0
100
AcDbSpline
210
0.0
220
0.0
230
1.0
 70
    11
 71
     3
 72
    17
 73
    13
 74
     0
 42
0.0000000001
 43
0.0000000001
 12
1.0
 22
0.0
 32
0.0
 13
1.0
 23
0.0
 33
0.0
 40
0.0
 40
0.0
 40
0.0
 40
0.0
 40
1.0
 40
1.0
 40
1.0
 40
2.0
 40
2.0
 40
2.0
 40
3.0
 40
3.0
 40
3.0
 40
4.0
 40
4.0
 40
4.0
 40
4.0
 10
122.3146701083102
 20
-147.0356417818175
 30
0.0
 10
122.3146701083102
 20
-147.3160725543168
 30
0.0
 10
122.5261989711046
 20
-147.3567246810428
 30
0.0
 10
122.6422986889575
 20
-147.3567246810428
 30
0.0
 10
122.8179985587052
 20
-147.3567246810428
 30
0.0
 10
122.9809515751575
 20
-147.2549221094536
 30
0.0
 10
122.9809515751575
 20
-147.0582071572459
 30
0.0
 10
122.9809515751575
 20
-146.9293605860975
 30
0.0
 10
122.9216959328112
 20
-146.7417751369257
 30
0.0
 10
122.6357530075355
 20
-146.7417751369257
 30
0.0
 10
122.4118218009943
 20
-146.7417751369257
 30
0.0
 10
122.3146701083102
 20
-146.890947771437
 30
0.0
 10
122.3146701083102
 20
-147.0356417818175
 30
0.0
  0
HATCH
  5
165
330
15F
100
AcDbEntity
  8
_U+30EC_U+30A4_U+30E4_U+30FC 1
 62
   179
420
  2234388
100
AcDbHatch
 10
0.0
 20
0.0
 30
0.0
210
0.0
220
0.0
230
1.0
  2
SOLID
 70
     1
 71
     0
 91
        2
 92
        1
 93
        1
 72
     4
 94
        3
 73
     0
 74
     1
 95
       32
 96
       28
 40
0.0
 40
0.0
 40
0.0
 40
0.0
 40
1.0
 40
1.0
 40
1.0
 40
2.0
 40
2.0
 40
2.0
 40
3.0
 40
3.0
 40
3.0
 40
4.0
 40
4.0
 40
4.0
 40
5.0
 40
5.0
 40
5.0
 40
6.0
 40
6.0
 40
6.0
 40
7.0
 40
7.0
 40
7.0
 40
8.0
 40
8.0
 40
8.0
 40
9.0
 40
9.0
 40
9.0
 40
9.0
 10
123.1731879032345
 20
-147.053728533115
 10
123.1731879032345
 20
-147.6054605750778
 10
122.6192165492063
 20
-147.6144178233395
 10
122.4056206291208
 20
-147.6144178233395
 10
122.1747992316091
 20
-147.6144178233395
 10
121.5274657899306
 20
-147.5940917599765
 10
121.5274657899306
 20
-147.0130764063891
 10
121.5274657899306
 20
-146.8275580145084
 10
121.5974012282812
 20
-146.5653862480809
 10
121.9295084330593
 20
-146.5247341213549
 10
121.9295084330593
 20
-146.5247341213549
 10
121.9295084330593
 20
-146.7529716972527
 10
121.9295084330593
 20
-146.7529716972527
 10
121.8723198480042
 20
-146.7643405123541
 10
121.7241807421384
 20
-146.7982747028838
 10
121.7241807421384
 20
-147.0153157184545
 10
121.7241807421384
 20
-147.3272691146439
 10
122.0521538323342
 20
-147.3701605534353
 10
122.2574815232551
 20
-147.383768680602
 10
122.1789333461914
 20
-147.2843776758525
 10
122.1196777038451
 20
-147.2120306706623
 10
122.1196777038451
 20
-147.0175550305199
 10
122.1196777038451
 20
-146.825318702443
 10
122.2278537020819
 20
-146.5019964911523
 10
122.6336859502444
 20
-146.5019964911523
 10
122.9533908112755
 20
-146.5019964911523
 10
123.1731879032345
 20
-146.7145588825922
 10
123.1731879032345
 20
-147.053728533115
 97
        0
 97
        0
 92
        1
 93
        1
 72
     4
 94
        3
 73
     0
 74
     1
 95
       17
 96
       13
 40
0.0
 40
0.0
 40
0.0
 40
0.0
 40
1.0
 40
1.0
 40
1.0
 40
2.0
 40
2.0
 40
2.0
 40
3.0
 40
3.0
 40
3.0
 40
4.0
 40
4.0
 40
4.0
 40
4.0
 10
122.3146701083102
 20
-147.0356417818175
 10
122.3146701083102
 20
-147.3160725543168
 10
122.5261989711046
 20
-147.3567246810428
 10
122.6422986889575
 20
-147.3567246810428
 10
122.8179985587052
 20
-147.3567246810428
 10
122.9809515751575
 20
-147.2549221094536
 10
122.9809515751575
 20
-147.0582071572459
 10
122.9809515751575
 20
-146.9293605860975
 10
122.9216959328112
 20
-146.7417751369257
 10
122.6357530075355
 20
-146.7417751369257
 10
122.4118218009943
 20
-146.7417751369257
 10
122.3146701083102
 20
-146.890947771437
 10
122.3146701083102
 20
-147.0356417818175
 97
        0
 97
        0
 75
     2
 76
     1
 98
        0
  0
POLYLINE
  5
166
330
15F
100
AcDbEntity
  8
_U+30EC_U+30A4_U+30E4_U+30FC 1
370
     0
100
AcDb2dPolyline
 66
     1
 10
0.0
 20
0.0
 30
0.0
  0
VERTEX
  5
167
330
166
100
AcDbEntity
  8
_U+30EC_U+30A4_U+30E4_U+30FC 1
370
     0
100
AcDbVertex
100
AcDb2dVertex
 10
123.1225449996013
 20
-146.2706583293178
 30
0.0
  0
VERTEX
  5
168
330
166
100
AcDbEntity
  8
_U+30EC_U+30A4_U+30E4_U+30FC 1
370
     0
100
AcDbVertex
100
AcDb2dVertex
 10
122.8707085196295
 20
-146.2706583293178
 30
0.0
  0
VERTEX
  5
169
330
166
100
AcDbEntity
  8
_U+30EC_U+30A4_U+30E4_U+30FC 1
370
     0
100
AcDbVertex
100
AcDb2dVertex
 10
122.8707085196295
 20
-146.0015963719198
 30
0.0
  0
VERTEX
  5
16A
330
166
100
AcDbEntity
  8
_U+30EC_U+30A4_U+30E4_U+30FC 1
370
     0
100
AcDbVertex
100
AcDb2dVertex
 10
123.1225449996013
 20
-146.0015963719198
 30
0.0
  0
VERTEX
  5
16B
330
166
100
AcDbEntity
  8
_U+30EC_U+30A4_U+30E4_U+30FC 1
370
     0
100
AcDbVertex
100
AcDb2dVertex
 10
123.1225449996013
 20
-146.2706583293178
 30
0.0
  0
SEQEND
  5
16C
330
166
100
AcDbEntity
  8
_U+30EC_U+30A4_U+30E4_U+30FC 1
370
     0
  0
HATCH
  5
16D
330
15F
100
AcDbEntity
  8
_U+30EC_U+30A4_U+30E4_U+30FC 1
 62
   179
420
  2234388
100
AcDbHatch
 10
0.0
 20
0.0
 30
0.0
210
0.0
220
0.0
230
1.0
  2
SOLID
 70
     1
 71
     0
 91
        1
 92
        1
 93
        4
 72
     1
 10
123.1225449996013
 20
-146.2706583293178
 11
122.8707085196295
 21
-146.2706583293178
 72
     1
 10
122.8707085196295
 20
-146.2706583293178
 11
122.8707085196295
 21
-146.0015963719198
 72
     1
 10
122.8707085196295
 20
-146.0015963719198
 11
123.1225449996013
 21
-146.0015963719198
 72
     1
 10
123.1225449996013
 20
-146.0015963719198
 11
123.1225449996013
 21
-146.2706583293178
 97
        0
 75
     2
 76
     1
 98
        0
  0
SPLINE
  5
16E
330
15F
100
AcDbEntity
  8
_U+30EC_U+30A4_U+30E4_U+30FC 1
370
     0
100
AcDbSpline
210
0.0
220
0.0
230
1.0
 70
    11
 71
     3
 72
    53
 73
    49
 74
     0
 42
0.0000000001
 43
0.0000000001
 12
1.0
 22
0.0
 32
0.0
 13
1.0
 23
0.0
 33
0.0
 40
0.0
 40
0.0
 40
0.0
 40
0.0
 40
1.0
 40
1.0
 40
1.0
 40
2.0
 40
2.0
 40
2.0
 40
3.0
 40
3.0
 40
3.0
 40
4.0
 40
4.0
 40
4.0
 40
5.0
 40
5.0
 40
5.0
 40
6.0
 40
6.0
 40
6.0
 40
7.0
 40
7.0
 40
7.0
 40
8.0
 40
8.0
 40
8.0
 40
9.0
 40
9.0
 40
9.0
 40
10.0
 40
10.0
 40
10.0
 40
11.0
 40
11.0
 40
11.0
 40
12.0
 40
12.0
 40
12.0
 40
13.0
 40
13.0
 40
13.0
 40
14.0
 40
14.0
 40
14.0
 40
15.0
 40
15.0
 40
15.0
 40
16.0
 40
16.0
 40
16.0
 40
16.0
 10
123.1731879032345
 20
-145.2348903716774
 30
0.0
 10
123.1731879032345
 20
-145.318606191969
 30
0.0
 10
123.1563069353568
 20
-145.4271266997543
 30
0.0
 10
123.0929171784282
 20
-145.5356472075397
 30
0.0
 10
122.9830186324487
 20
-145.7209933446462
 30
0.0
 10
122.8517604944607
 20
-145.7437309748488
 30
0.0
 10
122.7439290057724
 20
-145.7640570382118
 30
0.0
 10
122.7439290057724
 20
-145.7640570382118
 30
0.0
 10
122.7439290057724
 20
-145.5266899592781
 30
0.0
 10
122.7439290057724
 20
-145.5266899592781
 30
0.0
 10
122.9427110152713
 20
-145.4677788264803
 30
0.0
 10
122.9723388364444
 20
-145.3322143191357
 30
0.0
 10
122.9723388364444
 20
-145.232651059612
 30
0.0
 10
122.9723388364444
 20
-145.0834784251007
 30
0.0
 10
122.8727755769207
 20
-144.9206976634226
 30
0.0
 10
122.6402316316663
 20
-144.9206976634226
 30
0.0
 10
122.3842610371123
 20
-144.9206976634226
 30
0.0
 10
122.3146701083102
 20
-145.1129339914995
 30
0.0
 10
122.3146701083102
 20
-145.2417805626479
 30
0.0
 10
122.3146701083102
 20
-145.2757147531776
 30
0.0
 10
122.3146701083102
 20
-145.4271266997543
 30
0.0
 10
122.4435166794586
 20
-145.522039080373
 30
0.0
 10
122.4435166794586
 20
-145.522039080373
 30
0.0
 10
122.4242241447412
 20
-145.7097967843191
 30
0.0
 10
122.4242241447412
 20
-145.7097967843191
 30
0.0
 10
122.4242241447412
 20
-145.7097967843191
 30
0.0
 10
121.5781086935638
 20
-145.5807779583965
 30
0.0
 10
121.5781086935638
 20
-145.5807779583965
 30
0.0
 10
121.5781086935638
 20
-145.5807779583965
 30
0.0
 10
121.5781086935638
 20
-144.7487873987087
 30
0.0
 10
121.5781086935638
 20
-144.7487873987087
 30
0.0
 10
121.5781086935638
 20
-144.7487873987087
 30
0.0
 10
121.7731010980289
 20
-144.7487873987087
 30
0.0
 10
121.7731010980289
 20
-144.7487873987087
 30
0.0
 10
121.7731010980289
 20
-144.7487873987087
 30
0.0
 10
121.7731010980289
 20
-145.4068006363914
 30
0.0
 10
121.7731010980289
 20
-145.4068006363914
 30
0.0
 10
121.7731010980289
 20
-145.4068006363914
 30
0.0
 10
122.1961588236176
 20
-145.4769083295162
 30
0.0
 10
122.1961588236176
 20
-145.4769083295162
 30
0.0
 10
122.1620523783137
 20
-145.4112792605222
 30
0.0
 10
122.1217447611362
 20
-145.3230848160998
 30
0.0
 10
122.1217447611362
 20
-145.1964775570169
 30
0.0
 10
122.1217447611362
 20
-144.9251762875534
 30
0.0
 10
122.3081244268883
 20
-144.6719617693876
 30
0.0
 10
122.6212836064975
 20
-144.6719617693876
 30
0.0
 10
122.938576900689
 20
-144.6719617693876
 30
0.0
 10
123.1731879032345
 20
-144.9117404151609
 30
0.0
 10
123.1731879032345
 20
-145.2348903716774
 30
0.0
  0
HATCH
  5
16F
330
15F
100
AcDbEntity
  8
_U+30EC_U+30A4_U+30E4_U+30FC 1
 62
   179
420
  2234388
100
AcDbHatch
 10
0.0
 20
0.0
 30
0.0
210
0.0
220
0.0
230
1.0
  2
SOLID
 70
     1
 71
     0
 91
        1
 92
        1
 93
        1
 72
     4
 94
        3
 73
     0
 74
     1
 95
       53
 96
       49
 40
0.0
 40
0.0
 40
0.0
 40
0.0
 40
1.0
 40
1.0
 40
1.0
 40
2.0
 40
2.0
 40
2.0
 40
3.0
 40
3.0
 40
3.0
 40
4.0
 40
4.0
 40
4.0
 40
5.0
 40
5.0
 40
5.0
 40
6.0
 40
6.0
 40
6.0
 40
7.0
 40
7.0
 40
7.0
 40
8.0
 40
8.0
 40
8.0
 40
9.0
 40
9.0
 40
9.0
 40
10.0
 40
10.0
 40
10.0
 40
11.0
 40
11.0
 40
11.0
 40
12.0
 40
12.0
 40
12.0
 40
13.0
 40
13.0
 40
13.0
 40
14.0
 40
14.0
 40
14.0
 40
15.0
 40
15.0
 40
15.0
 40
16.0
 40
16.0
 40
16.0
 40
16.0
 10
123.1731879032345
 20
-145.2348903716774
 10
123.1731879032345
 20
-145.318606191969
 10
123.1563069353568
 20
-145.4271266997543
 10
123.0929171784282
 20
-145.5356472075397
 10
122.9830186324487
 20
-145.7209933446462
 10
122.8517604944607
 20
-145.7437309748488
 10
122.7439290057724
 20
-145.7640570382118
 10
122.7439290057724
 20
-145.7640570382118
 10
122.7439290057724
 20
-145.5266899592781
 10
122.7439290057724
 20
-145.5266899592781
 10
122.9427110152713
 20
-145.4677788264803
 10
122.9723388364444
 20
-145.3322143191357
 10
122.9723388364444
 20
-145.232651059612
 10
122.9723388364444
 20
-145.0834784251007
 10
122.8727755769207
 20
-144.9206976634226
 10
122.6402316316663
 20
-144.9206976634226
 10
122.3842610371123
 20
-144.9206976634226
 10
122.3146701083102
 20
-145.1129339914995
 10
122.3146701083102
 20
-145.2417805626479
 10
122.3146701083102
 20
-145.2757147531776
 10
122.3146701083102
 20
-145.4271266997543
 10
122.4435166794586
 20
-145.522039080373
 10
122.4435166794586
 20
-145.522039080373
 10
122.4242241447412
 20
-145.7097967843191
 10
122.4242241447412
 20
-145.7097967843191
 10
122.4242241447412
 20
-145.7097967843191
 10
121.5781086935638
 20
-145.5807779583965
 10
121.5781086935638
 20
-145.5807779583965
 10
121.5781086935638
 20
-145.5807779583965
 10
121.5781086935638
 20
-144.7487873987087
 10
121.5781086935638
 20
-144.7487873987087
 10
121.5781086935638
 20
-144.7487873987087
 10
121.7731010980289
 20
-144.7487873987087
 10
121.7731010980289
 20
-144.7487873987087
 10
121.7731010980289
 20
-144.7487873987087
 10
121.7731010980289
 20
-145.4068006363914
 10
121.7731010980289
 20
-145.4068006363914
 10
121.7731010980289
 20
-145.4068006363914
 10
122.1961588236176
 20
-145.4769083295162
 10
122.1961588236176
 20
-145.4769083295162
 10
122.1620523783137
 20
-145.4112792605222
 10
122.1217447611362
 20
-145.3230848160998
 10
122.1217447611362
 20
-145.1964775570169
 10
122.1217447611362
 20
-144.9251762875534
 10
122.3081244268883
 20
-144.6719617693876
 10
122.6212836064975
 20
-144.6719617693876
 10
122.938576900689
 20
-144.6719617693876
 10
123.1731879032345
 20
-144.9117404151609
 10
123.1731879032345
 20
-145.2348903716774
 97
        0
 97
        0
 75
     2
 76
     1
 98
        0
  0
ENDBLK
  5
162
330
15F
100
AcDbEntity
  8
0
100
AcDbBlockEnd
  0
ENDSEC
  0
SECTION
  2
ENTITIES
  0
POLYLINE
  5
41
330
1F
100
AcDbEntity
  8
_U+30EC_U+30A4_U+30E4_U+30FC 1
  6
AI-Linetype-1
 62
   154
420
    23468
370
    25
100
AcDb2dPolyline
 66
     1
 10
0.0
 20
0.0
 30
0.0
  0
VERTEX
  5
42
330
41
100
AcDbEntity
  8
_U+30EC_U+30A4_U+30E4_U+30FC 1
  6
AI-Linetype-1
 62
   154
420
    23468
370
    25
100
AcDbVertex
100
AcDb2dVertex
 10
97.85050338841987
 20
-151.1800270550327
 30
0.0
  0
VERTEX
  5
43
330
41
100
AcDbEntity
  8
_U+30EC_U+30A4_U+30E4_U+30FC 1
  6
AI-Linetype-1
 62
   154
420
    23468
370
    25
100
AcDbVertex
100
AcDb2dVertex
 10
97.85050338841987
 20
-143.7812323316762
 30
0.0
  0
SEQEND
  5
45
330
41
100
AcDbEntity
  8
_U+30EC_U+30A4_U+30E4_U+30FC 1
  6
AI-Linetype-1
 62
   154
420
    23468
370
    25
  0
POLYLINE
  5
46
330
1F
100
AcDbEntity
  8
_U+30EC_U+30A4_U+30E4_U+30FC 1
  6
AI-Linetype-2
 62
   154
420
    23468
370
    25
100
AcDb2dPolyline
 66
     1
 10
0.0
 20
0.0
 30
0.0
  0
VERTEX
  5
47
330
46
100
AcDbEntity
  8
_U+30EC_U+30A4_U+30E4_U+30FC 1
  6
AI-Linetype-2
 62
   154
420
    23468
370
    25
100
AcDbVertex
100
AcDb2dVertex
 10
86.42448893611686
 20
-143.5098234029789
 30
0.0
  0
VERTEX
  5
48
330
46
100
AcDbEntity
  8
_U+30EC_U+30A4_U+30E4_U+30FC 1
  6
AI-Linetype-2
 62
   154
420
    23468
370
    25
100
AcDbVertex
100
AcDb2dVertex
 10
97.75853010488709
 20
-143.5098234029789
 30
0.0
  0
SEQEND
  5
4A
330
46
100
AcDbEntity
  8
_U+30EC_U+30A4_U+30E4_U+30FC 1
  6
AI-Linetype-2
 62
   154
420
    23468
370
    25
  0
POLYLINE
  5
4B
330
1F
100
AcDbEntity
  8
_U+30EC_U+30A4_U+30E4_U+30FC 1
  6
AI-Linetype-3
 62
   154
420
    23468
370
    25
100
AcDb2dPolyline
 66
     1
 10
0.0
 20
0.0
 30
0.0
  0
VERTEX
  5
4C
330
4B
100
AcDbEntity
  8
_U+30EC_U+30A4_U+30E4_U+30FC 1
  6
AI-Linetype-3
 62
   154
420
    23468
370
    25
100
AcDbVertex
100
AcDb2dVertex
 10
98.31729767778646
 20
-151.2806023113552
 30
0.0
  0
VERTEX
  5
4D
330
4B
100
AcDbEntity
  8
_U+30EC_U+30A4_U+30E4_U+30FC 1
  6
AI-Linetype-3
 62
   154
420
    23468
370
    25
100
AcDbVertex
100
AcDb2dVertex
 10
108.6272250009872
 20
-150.4152589210008
 30
0.0
  0
SEQEND
  5
4F
330
4B
100
AcDbEntity
  8
_U+30EC_U+30A4_U+30E4_U+30FC 1
  6
AI-Linetype-3
 62
   154
420
    23468
370
    25
  0
INSERT
  5
51
330
1F
100
AcDbEntity
  8
_U+30EC_U+30A4_U+30E4_U+30FC 1
100
AcDbBlockReference
  2
block 2
 10
0.0
 20
0.0
 30
0.0
  0
POLYLINE
  5
8E
330
1F
100
AcDbEntity
  8
_U+30EC_U+30A4_U+30E4_U+30FC 1
 62
   179
420
  2234388
370
     9
100
AcDb2dPolyline
 66
     1
 10
0.0
 20
0.0
 30
0.0
  0
VERTEX
  5
8F
330
8E
100
AcDbEntity
  8
_U+30EC_U+30A4_U+30E4_U+30FC 1
 62
   179
420
  2234388
370
     9
100
AcDbVertex
100
AcDb2dVertex
 10
90.87072378641894
 20
-143.8302172831071
 30
0.0
  0
VERTEX
  5
90
330
8E
100
AcDbEntity
  8
_U+30EC_U+30A4_U+30E4_U+30FC 1
 62
   179
420
  2234388
370
     9
100
AcDbVertex
100
AcDb2dVertex
 10
87.15315085457483
 20
-160.1867770324359
 30
0.0
  0
SEQEND
  5
91
330
8E
100
AcDbEntity
  8
_U+30EC_U+30A4_U+30E4_U+30FC 1
 62
   179
420
  2234388
370
     9
  0
POLYLINE
  5
92
330
1F
100
AcDbEntity
  8
_U+30EC_U+30A4_U+30E4_U+30FC 1
 62
   179
420
  2234388
370
    25
100
AcDb2dPolyline
 66
     1
 10
0.0
 20
0.0
 30
0.0
  0
VERTEX
  5
93
330
92
100
AcDbEntity
  8
_U+30EC_U+30A4_U+30E4_U+30FC 1
 62
   179
420
  2234388
370
    25
100
AcDbVertex
100
AcDb2dVertex
 10
86.42448893611686
 20
-142.0339444970978
 30
0.0
  0
VERTEX
  5
94
330
92
100
AcDbEntity
  8
_U+30EC_U+30A4_U+30E4_U+30FC 1
 62
   179
420
  2234388
370
    25
100
AcDbVertex
100
AcDb2dVertex
 10
99.4247020896729
 20
-142.0339444970978
 30
0.0
  0
SEQEND
  5
95
330
92
100
AcDbEntity
  8
_U+30EC_U+30A4_U+30E4_U+30FC 1
 62
   179
420
  2234388
370
    25
  0
POLYLINE
  5
96
330
1F
100
AcDbEntity
  8
_U+30EC_U+30A4_U+30E4_U+30FC 1
 62
   179
420
  2234388
370
    25
100
AcDb2dPolyline
 66
     1
 10
0.0
 20
0.0
 30
0.0
  0
VERTEX
  5
97
330
96
100
AcDbEntity
  8
_U+30EC_U+30A4_U+30E4_U+30FC 1
 62
   179
420
  2234388
370
    25
100
AcDbVertex
100
AcDb2dVertex
 10
101.4244239129713
 20
-143.0337542706109
 30
0.0
  0
VERTEX
  5
98
330
96
100
AcDbEntity
  8
_U+30EC_U+30A4_U+30E4_U+30FC 1
 62
   179
420
  2234388
370
    25
100
AcDbVertex
100
AcDb2dVertex
 10
120.4243300666686
 20
-143.0337542706109
 30
0.0
  0
SEQEND
  5
99
330
96
100
AcDbEntity
  8
_U+30EC_U+30A4_U+30E4_U+30FC 1
 62
   179
420
  2234388
370
    25
  0
POLYLINE
  5
9A
330
1F
100
AcDbEntity
  8
_U+30EC_U+30A4_U+30E4_U+30FC 1
 62
   179
420
  2234388
370
    25
100
AcDb2dPolyline
 66
     1
 10
0.0
 20
0.0
 30
0.0
  0
VERTEX
  5
9B
330
9A
100
AcDbEntity
  8
_U+30EC_U+30A4_U+30E4_U+30FC 1
 62
   179
420
  2234388
370
    25
100
AcDbVertex
100
AcDb2dVertex
 10
86.42448893611686
 20
-142.0339444970978
 30
0.0
  0
VERTEX
  5
9C
330
9A
100
AcDbEntity
  8
_U+30EC_U+30A4_U+30E4_U+30FC 1
 62
   179
420
  2234388
370
    25
100
AcDbVertex
100
AcDb2dVertex
 10
86.42448893611686
 20
-143.0337327387641
 30
0.0
  0
SEQEND
  5
9D
330
9A
100
AcDbEntity
  8
_U+30EC_U+30A4_U+30E4_U+30FC 1
 62
   179
420
  2234388
370
    25
  0
POLYLINE
  5
9E
330
1F
100
AcDbEntity
  8
_U+30EC_U+30A4_U+30E4_U+30FC 1
 62
   179
420
  2234388
370
    25
100
AcDb2dPolyline
 66
     1
 10
0.0
 20
0.0
 30
0.0
  0
VERTEX
  5
9F
330
9E
100
AcDbEntity
  8
_U+30EC_U+30A4_U+30E4_U+30FC 1
 62
   179
420
  2234388
370
    25
100
AcDbVertex
100
AcDb2dVertex
 10
98.42443476441571
 20
-143.0337542706109
 30
0.0
  0
VERTEX
  5
A0
330
9E
100
AcDbEntity
  8
_U+30EC_U+30A4_U+30E4_U+30FC 1
 62
   179
420
  2234388
370
    25
100
AcDbVertex
100
AcDb2dVertex
 10
98.42443476441571
 20
-150.5338132693869
 30
0.0
  0
SEQEND
  5
A1
330
9E
100
AcDbEntity
  8
_U+30EC_U+30A4_U+30E4_U+30FC 1
 62
   179
420
  2234388
370
    25
  0
POLYLINE
  5
A2
330
1F
100
AcDbEntity
  8
_U+30EC_U+30A4_U+30E4_U+30FC 1
 62
   179
420
  2234388
370
    25
100
AcDb2dPolyline
 66
     1
 10
0.0
 20
0.0
 30
0.0
  0
VERTEX
  5
A3
330
A2
100
AcDbEntity
  8
_U+30EC_U+30A4_U+30E4_U+30FC 1
 62
   179
420
  2234388
370
    25
100
AcDbVertex
100
AcDb2dVertex
 10
108.4245188124121
 20
-149.53389583664
 30
0.0
  0
VERTEX
  5
A4
330
A2
100
AcDbEntity
  8
_U+30EC_U+30A4_U+30E4_U+30FC 1
 62
   179
420
  2234388
370
    25
100
AcDbVertex
100
AcDb2dVertex
 10
108.4245188124121
 20
-149.8337698667842
 30
0.0
  0
SEQEND
  5
A5
330
A2
100
AcDbEntity
  8
_U+30EC_U+30A4_U+30E4_U+30FC 1
 62
   179
420
  2234388
370
    25
  0
POLYLINE
  5
A6
330
1F
100
AcDbEntity
  8
_U+30EC_U+30A4_U+30E4_U+30FC 1
 62
   179
420
  2234388
370
    25
100
AcDb2dPolyline
 66
     1
 10
0.0
 20
0.0
 30
0.0
  0
VERTEX
  5
A7
330
A6
100
AcDbEntity
  8
_U+30EC_U+30A4_U+30E4_U+30FC 1
 62
   179
420
  2234388
370
    25
100
AcDbVertex
100
AcDb2dVertex
 10
101.4244239129713
 20
-149.53389583664
 30
0.0
  0
VERTEX
  5
A8
330
A6
100
AcDbEntity
  8
_U+30EC_U+30A4_U+30E4_U+30FC 1
 62
   179
420
  2234388
370
    25
100
AcDbVertex
100
AcDb2dVertex
 10
108.4245887909141
 20
-149.53389583664
 30
0.0
  0
SEQEND
  5
A9
330
A6
100
AcDbEntity
  8
_U+30EC_U+30A4_U+30E4_U+30FC 1
 62
   179
420
  2234388
370
    25
  0
POLYLINE
  5
AA
330
1F
100
AcDbEntity
  8
_U+30EC_U+30A4_U+30E4_U+30FC 1
 62
   179
420
  2234388
370
    25
100
AcDb2dPolyline
 66
     1
 10
0.0
 20
0.0
 30
0.0
  0
VERTEX
  5
AB
330
AA
100
AcDbEntity
  8
_U+30EC_U+30A4_U+30E4_U+30FC 1
 62
   179
420
  2234388
370
    25
100
AcDbVertex
100
AcDb2dVertex
 10
100.42433422545
 20
-142.0339444970978
 30
0.0
  0
VERTEX
  5
AC
330
AA
100
AcDbEntity
  8
_U+30EC_U+30A4_U+30E4_U+30FC 1
 62
   179
420
  2234388
370
    25
100
AcDbVertex
100
AcDb2dVertex
 10
120.4243623644387
 20
-142.0339444970978
 30
0.0
  0
SEQEND
  5
AD
330
AA
100
AcDbEntity
  8
_U+30EC_U+30A4_U+30E4_U+30FC 1
 62
   179
420
  2234388
370
    25
  0
POLYLINE
  5
AE
330
1F
100
AcDbEntity
  8
_U+30EC_U+30A4_U+30E4_U+30FC 1
 62
   179
420
  2234388
370
    25
100
AcDb2dPolyline
 66
     1
 10
0.0
 20
0.0
 30
0.0
  0
VERTEX
  5
AF
330
AE
100
AcDbEntity
  8
_U+30EC_U+30A4_U+30E4_U+30FC 1
 62
   179
420
  2234388
370
    25
100
AcDbVertex
100
AcDb2dVertex
 10
99.42456213266883
 20
-142.0339444970978
 30
0.0
  0
VERTEX
  5
B0
330
AE
100
AcDbEntity
  8
_U+30EC_U+30A4_U+30E4_U+30FC 1
 62
   179
420
  2234388
370
    25
100
AcDbVertex
100
AcDb2dVertex
 10
99.42456213266883
 20
-149.5340034958739
 30
0.0
  0
SEQEND
  5
B1
330
AE
100
AcDbEntity
  8
_U+30EC_U+30A4_U+30E4_U+30FC 1
 62
   179
420
  2234388
370
    25
  0
POLYLINE
  5
B2
330
1F
100
AcDbEntity
  8
_U+30EC_U+30A4_U+30E4_U+30FC 1
 62
   179
420
  2234388
370
    25
100
AcDb2dPolyline
 66
     1
 10
0.0
 20
0.0
 30
0.0
  0
VERTEX
  5
B3
330
B2
100
AcDbEntity
  8
_U+30EC_U+30A4_U+30E4_U+30FC 1
 62
   179
420
  2234388
370
    25
100
AcDbVertex
100
AcDb2dVertex
 10
100.42433422545
 20
-142.0339444970978
 30
0.0
  0
VERTEX
  5
B4
330
B2
100
AcDbEntity
  8
_U+30EC_U+30A4_U+30E4_U+30FC 1
 62
   179
420
  2234388
370
    25
100
AcDbVertex
100
AcDb2dVertex
 10
100.42433422545
 20
-149.5340034958739
 30
0.0
  0
SEQEND
  5
B5
330
B2
100
AcDbEntity
  8
_U+30EC_U+30A4_U+30E4_U+30FC 1
 62
   179
420
  2234388
370
    25
  0
POLYLINE
  5
B6
330
1F
100
AcDbEntity
  8
_U+30EC_U+30A4_U+30E4_U+30FC 1
 62
   179
420
  2234388
370
    25
100
AcDb2dPolyline
 66
     1
 10
0.0
 20
0.0
 30
0.0
  0
VERTEX
  5
B7
330
B6
100
AcDbEntity
  8
_U+30EC_U+30A4_U+30E4_U+30FC 1
 62
   179
420
  2234388
370
    25
100
AcDbVertex
100
AcDb2dVertex
 10
101.4244239129713
 20
-143.0337542706109
 30
0.0
  0
VERTEX
  5
B8
330
B6
100
AcDbEntity
  8
_U+30EC_U+30A4_U+30E4_U+30FC 1
 62
   179
420
  2234388
370
    25
100
AcDbVertex
100
AcDb2dVertex
 10
101.4244239129713
 20
-149.5340465595675
 30
0.0
  0
SEQEND
  5
B9
330
B6
100
AcDbEntity
  8
_U+30EC_U+30A4_U+30E4_U+30FC 1
 62
   179
420
  2234388
370
    25
  0
POLYLINE
  5
BA
330
1F
100
AcDbEntity
  8
_U+30EC_U+30A4_U+30E4_U+30FC 1
 62
   179
420
  2234388
370
    25
100
AcDb2dPolyline
 66
     1
 10
0.0
 20
0.0
 30
0.0
  0
VERTEX
  5
BB
330
BA
100
AcDbEntity
  8
_U+30EC_U+30A4_U+30E4_U+30FC 1
 62
   179
420
  2234388
370
    25
100
AcDbVertex
100
AcDb2dVertex
 10
99.42456213266883
 20
-149.53389583664
 30
0.0
  0
VERTEX
  5
BC
330
BA
100
AcDbEntity
  8
_U+30EC_U+30A4_U+30E4_U+30FC 1
 62
   179
420
  2234388
370
    25
100
AcDbVertex
100
AcDb2dVertex
 10
100.42433422545
 20
-149.53389583664
 30
0.0
  0
SEQEND
  5
BD
330
BA
100
AcDbEntity
  8
_U+30EC_U+30A4_U+30E4_U+30FC 1
 62
   179
420
  2234388
370
    25
  0
POLYLINE
  5
BE
330
1F
100
AcDbEntity
  8
_U+30EC_U+30A4_U+30E4_U+30FC 1
 62
   179
420
  2234388
370
    25
100
AcDb2dPolyline
 66
     1
 10
0.0
 20
0.0
 30
0.0
  0
VERTEX
  5
BF
330
BE
100
AcDbEntity
  8
_U+30EC_U+30A4_U+30E4_U+30FC 1
 62
   179
420
  2234388
370
    25
100
AcDbVertex
100
AcDb2dVertex
 10
98.42443476441571
 20
-150.5336625464595
 30
0.0
  0
VERTEX
  5
C0
330
BE
100
AcDbEntity
  8
_U+30EC_U+30A4_U+30E4_U+30FC 1
 62
   179
420
  2234388
370
    25
100
AcDbVertex
100
AcDb2dVertex
 10
108.424626471646
 20
-149.8337698667842
 30
0.0
  0
SEQEND
  5
C1
330
BE
100
AcDbEntity
  8
_U+30EC_U+30A4_U+30E4_U+30FC 1
 62
   179
420
  2234388
370
    25
  0
POLYLINE
  5
C2
330
1F
100
AcDbEntity
  8
_U+30EC_U+30A4_U+30E4_U+30FC 1
 62
   179
420
  2234388
370
    25
100
AcDb2dPolyline
 66
     1
 10
0.0
 20
0.0
 30
0.0
  0
VERTEX
  5
C3
330
C2
100
AcDbEntity
  8
_U+30EC_U+30A4_U+30E4_U+30FC 1
 62
   179
420
  2234388
370
    25
100
AcDbVertex
100
AcDb2dVertex
 10
120.4244700236726
 20
-142.0339444970978
 30
0.0
  0
VERTEX
  5
C4
330
C2
100
AcDbEntity
  8
_U+30EC_U+30A4_U+30E4_U+30FC 1
 62
   179
420
  2234388
370
    25
100
AcDbVertex
100
AcDb2dVertex
 10
120.4244700236726
 20
-143.0337327387641
 30
0.0
  0
SEQEND
  5
C5
330
C2
100
AcDbEntity
  8
_U+30EC_U+30A4_U+30E4_U+30FC 1
 62
   179
420
  2234388
370
    25
  0
POLYLINE
  5
C6
330
1F
100
AcDbEntity
  8
_U+30EC_U+30A4_U+30E4_U+30FC 1
 62
   179
420
  2234388
370
    25
100
AcDb2dPolyline
 66
     1
 10
0.0
 20
0.0
 30
0.0
  0
VERTEX
  5
C7
330
C6
100
AcDbEntity
  8
_U+30EC_U+30A4_U+30E4_U+30FC 1
 62
   179
420
  2234388
370
    25
100
AcDbVertex
100
AcDb2dVertex
 10
86.42448893611686
 20
-143.0337542706109
 30
0.0
  0
VERTEX
  5
C8
330
C6
100
AcDbEntity
  8
_U+30EC_U+30A4_U+30E4_U+30FC 1
 62
   179
420
  2234388
370
    25
100
AcDbVertex
100
AcDb2dVertex
 10
98.42457472141979
 20
-143.0337542706109
 30
0.0
  0
SEQEND
  5
C9
330
C6
100
AcDbEntity
  8
_U+30EC_U+30A4_U+30E4_U+30FC 1
 62
   179
420
  2234388
370
    25
  0
SPLINE
  5
CA
330
1F
100
AcDbEntity
  8
_U+30EC_U+30A4_U+30E4_U+30FC 1
 62
   179
420
  2234388
370
     9
100
AcDbSpline
210
0.0
220
0.0
230
1.0
 70
    11
 71
     3
 72
    17
 73
    13
 74
     0
 42
0.0000000001
 43
0.0000000001
 12
1.0
 22
0.0
 32
0.0
 13
1.0
 23
0.0
 33
0.0
 40
0.0
 40
0.0
 40
0.0
 40
0.0
 40
1.0
 40
1.0
 40
1.0
 40
2.0
 40
2.0
 40
2.0
 40
3.0
 40
3.0
 40
3.0
 40
4.0
 40
4.0
 40
4.0
 40
4.0
 10
124.5244889265919
 20
-142.0339444970978
 30
0.0
 10
124.5244889265919
 20
-141.9782200776239
 30
0.0
 10
124.4796811534368
 20
-141.9334123044692
 30
0.0
 10
124.4246511360217
 20
-141.9334123044692
 30
0.0
 10
124.3696157356448
 20
-141.9334123044692
 30
0.0
 10
124.3248133454515
 20
-141.9782200776239
 30
0.0
 10
124.3248133454515
 20
-142.0339444970978
 30
0.0
 10
124.3248133454515
 20
-142.0889798974747
 30
0.0
 10
124.3696157356448
 20
-142.1337876706297
 30
0.0
 10
124.4246511360217
 20
-142.1337876706297
 30
0.0
 10
124.4796811534368
 20
-142.1337876706297
 30
0.0
 10
124.5244889265919
 20
-142.0889798974747
 30
0.0
 10
124.5244889265919
 20
-142.0339444970978
 30
0.0
  0
SPLINE
  5
CB
330
1F
100
AcDbEntity
  8
_U+30EC_U+30A4_U+30E4_U+30FC 1
 62
   179
420
  2234388
370
     9
100
AcDbSpline
210
0.0
220
0.0
230
1.0
 70
    11
 71
     3
 72
    17
 73
    13
 74
     0
 42
0.0000000001
 43
0.0000000001
 12
1.0
 22
0.0
 32
0.0
 13
1.0
 23
0.0
 33
0.0
 40
0.0
 40
0.0
 40
0.0
 40
0.0
 40
1.0
 40
1.0
 40
1.0
 40
2.0
 40
2.0
 40
2.0
 40
3.0
 40
3.0
 40
3.0
 40
4.0
 40
4.0
 40
4.0
 40
4.0
 10
124.5244889265919
 20
-143.0337542706109
 30
0.0
 10
124.5244889265919
 20
-142.9787404020812
 30
0.0
 10
124.4796811534368
 20
-142.9339326289258
 30
0.0
 10
124.4246511360217
 20
-142.9339326289258
 30
0.0
 10
124.3696157356448
 20
-142.9339326289258
 30
0.0
 10
124.3248133454515
 20
-142.9787404020812
 30
0.0
 10
124.3248133454515
 20
-143.0337542706109
 30
0.0
 10
124.3248133454515
 20
-143.0887896709878
 30
0.0
 10
124.3696157356448
 20
-143.1335974441431
 30
0.0
 10
124.4246511360217
 20
-143.1335974441431
 30
0.0
 10
124.4796811534368
 20
-143.1335974441431
 30
0.0
 10
124.5244889265919
 20
-143.0887896709878
 30
0.0
 10
124.5244889265919
 20
-143.0337542706109
 30
0.0
  0
SPLINE
  5
CC
330
1F
100
AcDbEntity
  8
_U+30EC_U+30A4_U+30E4_U+30FC 1
 62
   179
420
  2234388
370
     9
100
AcDbSpline
210
0.0
220
0.0
230
1.0
 70
    11
 71
     3
 72
    17
 73
    13
 74
     0
 42
0.0000000001
 43
0.0000000001
 12
1.0
 22
0.0
 32
0.0
 13
1.0
 23
0.0
 33
0.0
 40
0.0
 40
0.0
 40
0.0
 40
0.0
 40
1.0
 40
1.0
 40
1.0
 40
2.0
 40
2.0
 40
2.0
 40
3.0
 40
3.0
 40
3.0
 40
4.0
 40
4.0
 40
4.0
 40
4.0
 10
86.52439401370826
 20
-138.0333488966983
 30
0.0
 10
86.52439401370826
 20
-137.9783350281682
 30
0.0
 10
86.47958893203408
 20
-137.9335272550132
 30
0.0
 10
86.42455622313805
 20
-137.9335272550132
 30
0.0
 10
86.36917093025097
 20
-137.9335272550132
 30
0.0
 10
86.32436854005763
 20
-137.9783350281682
 30
0.0
 10
86.32436854005763
 20
-138.0333488966983
 30
0.0
 10
86.32436854005763
 20
-138.0883842970751
 30
0.0
 10
86.36917093025097
 20
-138.1331920702302
 30
0.0
 10
86.42455622313805
 20
-138.1331920702302
 30
0.0
 10
86.47958893203408
 20
-138.1331920702302
 30
0.0
 10
86.52439401370826
 20
-138.0883842970751
 30
0.0
 10
86.52439401370826
 20
-138.0333488966983
 30
0.0
  0
SPLINE
  5
CD
330
1F
100
AcDbEntity
  8
_U+30EC_U+30A4_U+30E4_U+30FC 1
 62
   179
420
  2234388
370
     9
100
AcDbSpline
210
0.0
220
0.0
230
1.0
 70
    11
 71
     3
 72
    17
 73
    13
 74
     0
 42
0.0000000001
 43
0.0000000001
 12
1.0
 22
0.0
 32
0.0
 13
1.0
 23
0.0
 33
0.0
 40
0.0
 40
0.0
 40
0.0
 40
0.0
 40
1.0
 40
1.0
 40
1.0
 40
2.0
 40
2.0
 40
2.0
 40
3.0
 40
3.0
 40
3.0
 40
4.0
 40
4.0
 40
4.0
 40
4.0
 10
108.5244265814843
 20
-154.5334614685281
 30
0.0
 10
108.5244265814843
 20
-154.478447599998
 30
0.0
 10
108.4796188083293
 20
-154.433639826843
 30
0.0
 10
108.4245887909141
 20
-154.433639826843
 30
0.0
 10
108.3695533905373
 20
-154.433639826843
 30
0.0
 10
108.324751000344
 20
-154.478447599998
 30
0.0
 10
108.324751000344
 20
-154.5334614685281
 30
0.0
 10
108.324751000344
 20
-154.588496868905
 30
0.0
 10
108.3695533905373
 20
-154.63330464206
 30
0.0
 10
108.4245887909141
 20
-154.63330464206
 30
0.0
 10
108.4796188083293
 20
-154.63330464206
 30
0.0
 10
108.5244265814843
 20
-154.588496868905
 30
0.0
 10
108.5244265814843
 20
-154.5334614685281
 30
0.0
  0
SPLINE
  5
CE
330
1F
100
AcDbEntity
  8
_U+30EC_U+30A4_U+30E4_U+30FC 1
 62
   179
420
  2234388
370
     9
100
AcDbSpline
210
0.0
220
0.0
230
1.0
 70
    11
 71
     3
 72
    17
 73
    13
 74
     0
 42
0.0000000001
 43
0.0000000001
 12
1.0
 22
0.0
 32
0.0
 13
1.0
 23
0.0
 33
0.0
 40
0.0
 40
0.0
 40
0.0
 40
0.0
 40
1.0
 40
1.0
 40
1.0
 40
2.0
 40
2.0
 40
2.0
 40
3.0
 40
3.0
 40
3.0
 40
4.0
 40
4.0
 40
4.0
 40
4.0
 10
98.52434253348795
 20
-154.5334614685281
 30
0.0
 10
98.52434253348795
 20
-154.478447599998
 30
0.0
 10
98.47953476033292
 20
-154.433639826843
 30
0.0
 10
98.42450474291775
 20
-154.433639826843
 30
0.0
 10
98.36911945003067
 20
-154.433639826843
 30
0.0
 10
98.32431705983733
 20
-154.478447599998
 30
0.0
 10
98.32431705983733
 20
-154.5334614685281
 30
0.0
 10
98.32431705983733
 20
-154.588496868905
 30
0.0
 10
98.36911945003067
 20
-154.63330464206
 30
0.0
 10
98.42450474291775
 20
-154.63330464206
 30
0.0
 10
98.47953476033292
 20
-154.63330464206
 30
0.0
 10
98.52434253348795
 20
-154.588496868905
 30
0.0
 10
98.52434253348795
 20
-154.5334614685281
 30
0.0
  0
SPLINE
  5
CF
330
1F
100
AcDbEntity
  8
_U+30EC_U+30A4_U+30E4_U+30FC 1
 62
   179
420
  2234388
370
     9
100
AcDbSpline
210
0.0
220
0.0
230
1.0
 70
    11
 71
     3
 72
    17
 73
    13
 74
     0
 42
0.0000000001
 43
0.0000000001
 12
1.0
 22
0.0
 32
0.0
 13
1.0
 23
0.0
 33
0.0
 40
0.0
 40
0.0
 40
0.0
 40
0.0
 40
1.0
 40
1.0
 40
1.0
 40
2.0
 40
2.0
 40
2.0
 40
3.0
 40
3.0
 40
3.0
 40
4.0
 40
4.0
 40
4.0
 40
4.0
 10
86.52439401370826
 20
-154.5334614685281
 30
0.0
 10
86.52439401370826
 20
-154.478447599998
 30
0.0
 10
86.47958893203408
 20
-154.433639826843
 30
0.0
 10
86.42455622313805
 20
-154.433639826843
 30
0.0
 10
86.36917093025097
 20
-154.433639826843
 30
0.0
 10
86.32436854005763
 20
-154.478447599998
 30
0.0
 10
86.32436854005763
 20
-154.5334614685281
 30
0.0
 10
86.32436854005763
 20
-154.588496868905
 30
0.0
 10
86.36917093025097
 20
-154.63330464206
 30
0.0
 10
86.42455622313805
 20
-154.63330464206
 30
0.0
 10
86.47958893203408
 20
-154.63330464206
 30
0.0
 10
86.52439401370826
 20
-154.588496868905
 30
0.0
 10
86.52439401370826
 20
-154.5334614685281
 30
0.0
  0
SPLINE
  5
D0
330
1F
100
AcDbEntity
  8
_U+30EC_U+30A4_U+30E4_U+30FC 1
 62
   179
420
  2234388
370
     9
100
AcDbSpline
210
0.0
220
0.0
230
1.0
 70
    11
 71
     3
 72
    17
 73
    13
 74
     0
 42
0.0000000001
 43
0.0000000001
 12
1.0
 22
0.0
 32
0.0
 13
1.0
 23
0.0
 33
0.0
 40
0.0
 40
0.0
 40
0.0
 40
0.0
 40
1.0
 40
1.0
 40
1.0
 40
2.0
 40
2.0
 40
2.0
 40
3.0
 40
3.0
 40
3.0
 40
4.0
 40
4.0
 40
4.0
 40
4.0
 10
112.5241878228211
 20
-149.53389583664
 30
0.0
 10
112.5241878228211
 20
-149.4781714171661
 30
0.0
 10
112.4793800496661
 20
-149.433363644011
 30
0.0
 10
112.4243500322509
 20
-149.433363644011
 30
0.0
 10
112.369314631874
 20
-149.433363644011
 30
0.0
 10
112.3245122416807
 20
-149.4781714171661
 30
0.0
 10
112.3245122416807
 20
-149.53389583664
 30
0.0
 10
112.3245122416807
 20
-149.5889312370168
 30
0.0
 10
112.369314631874
 20
-149.6337390101719
 30
0.0
 10
112.4243500322509
 20
-149.6337390101719
 30
0.0
 10
112.4793800496661
 20
-149.6337390101719
 30
0.0
 10
112.5241878228211
 20
-149.5889312370168
 30
0.0
 10
112.5241878228211
 20
-149.53389583664
 30
0.0
  0
SPLINE
  5
D1
330
1F
100
AcDbEntity
  8
_U+30EC_U+30A4_U+30E4_U+30FC 1
 62
   179
420
  2234388
370
     9
100
AcDbSpline
210
0.0
220
0.0
230
1.0
 70
    11
 71
     3
 72
    17
 73
    13
 74
     0
 42
0.0000000001
 43
0.0000000001
 12
1.0
 22
0.0
 32
0.0
 13
1.0
 23
0.0
 33
0.0
 40
0.0
 40
0.0
 40
0.0
 40
0.0
 40
1.0
 40
1.0
 40
1.0
 40
2.0
 40
2.0
 40
2.0
 40
3.0
 40
3.0
 40
3.0
 40
4.0
 40
4.0
 40
4.0
 40
4.0
 10
112.5241878228211
 20
-149.8336837393971
 30
0.0
 10
112.5241878228211
 20
-149.778669870867
 30
0.0
 10
112.4793800496661
 20
-149.7338620977119
 30
0.0
 10
112.4243500322509
 20
-149.7338620977119
 30
0.0
 10
112.369314631874
 20
-149.7338620977119
 30
0.0
 10
112.3245122416807
 20
-149.778669870867
 30
0.0
 10
112.3245122416807
 20
-149.8336837393971
 30
0.0
 10
112.3245122416807
 20
-149.8887191397739
 30
0.0
 10
112.369314631874
 20
-149.933526912929
 30
0.0
 10
112.4243500322509
 20
-149.933526912929
 30
0.0
 10
112.4793800496661
 20
-149.933526912929
 30
0.0
 10
112.5241878228211
 20
-149.8887191397739
 30
0.0
 10
112.5241878228211
 20
-149.8336837393971
 30
0.0
  0
SPLINE
  5
D2
330
1F
100
AcDbEntity
  8
_U+30EC_U+30A4_U+30E4_U+30FC 1
 62
   179
420
  2234388
370
     9
100
AcDbSpline
210
0.0
220
0.0
230
1.0
 70
    11
 71
     3
 72
    17
 73
    13
 74
     0
 42
0.0000000001
 43
0.0000000001
 12
1.0
 22
0.0
 32
0.0
 13
1.0
 23
0.0
 33
0.0
 40
0.0
 40
0.0
 40
0.0
 40
0.0
 40
1.0
 40
1.0
 40
1.0
 40
2.0
 40
2.0
 40
2.0
 40
3.0
 40
3.0
 40
3.0
 40
4.0
 40
4.0
 40
4.0
 40
4.0
 10
124.5244889265919
 20
-149.53389583664
 30
0.0
 10
124.5244889265919
 20
-149.4781714171661
 30
0.0
 10
124.4796811534368
 20
-149.433363644011
 30
0.0
 10
124.4246511360217
 20
-149.433363644011
 30
0.0
 10
124.3696157356448
 20
-149.433363644011
 30
0.0
 10
124.3248133454515
 20
-149.4781714171661
 30
0.0
 10
124.3248133454515
 20
-149.53389583664
 30
0.0
 10
124.3248133454515
 20
-149.5889312370168
 30
0.0
 10
124.3696157356448
 20
-149.6337390101719
 30
0.0
 10
124.4246511360217
 20
-149.6337390101719
 30
0.0
 10
124.4796811534368
 20
-149.6337390101719
 30
0.0
 10
124.5244889265919
 20
-149.5889312370168
 30
0.0
 10
124.5244889265919
 20
-149.53389583664
 30
0.0
  0
SPLINE
  5
D3
330
1F
100
AcDbEntity
  8
_U+30EC_U+30A4_U+30E4_U+30FC 1
 62
   179
420
  2234388
370
     9
100
AcDbSpline
210
0.0
220
0.0
230
1.0
 70
    11
 71
     3
 72
    17
 73
    13
 74
     0
 42
0.0000000001
 43
0.0000000001
 12
1.0
 22
0.0
 32
0.0
 13
1.0
 23
0.0
 33
0.0
 40
0.0
 40
0.0
 40
0.0
 40
0.0
 40
1.0
 40
1.0
 40
1.0
 40
2.0
 40
2.0
 40
2.0
 40
3.0
 40
3.0
 40
3.0
 40
4.0
 40
4.0
 40
4.0
 40
4.0
 10
120.5243777927449
 20
-138.0333488966983
 30
0.0
 10
120.5243777927449
 20
-137.9783350281682
 30
0.0
 10
120.4799252950618
 20
-137.9335272550132
 30
0.0
 10
120.4245400021747
 20
-137.9335272550132
 30
0.0
 10
120.3695046017978
 20
-137.9335272550132
 30
0.0
 10
120.3247022116045
 20
-137.9783350281682
 30
0.0
 10
120.3247022116045
 20
-138.0333488966983
 30
0.0
 10
120.3247022116045
 20
-138.0883842970751
 30
0.0
 10
120.3695046017978
 20
-138.1331920702302
 30
0.0
 10
120.4245400021747
 20
-138.1331920702302
 30
0.0
 10
120.4799252950618
 20
-138.1331920702302
 30
0.0
 10
120.5243777927449
 20
-138.0883842970751
 30
0.0
 10
120.5243777927449
 20
-138.0333488966983
 30
0.0
  0
POLYLINE
  5
D4
330
1F
100
AcDbEntity
  8
_U+30EC_U+30A4_U+30E4_U+30FC 1
 62
   179
420
  2234388
370
     9
100
AcDb2dPolyline
 66
     1
 10
0.0
 20
0.0
 30
0.0
  0
VERTEX
  5
D5
330
D4
100
AcDbEntity
  8
_U+30EC_U+30A4_U+30E4_U+30FC 1
 62
   179
420
  2234388
370
     9
100
AcDbVertex
100
AcDb2dVertex
 10
124.4245811575196
 20
-142.0339444970978
 30
0.0
  0
VERTEX
  5
D6
330
D4
100
AcDbEntity
  8
_U+30EC_U+30A4_U+30E4_U+30FC 1
 62
   179
420
  2234388
370
     9
100
AcDbVertex
100
AcDb2dVertex
 10
124.4245811575196
 20
-138.2634597432662
 30
0.0
  0
SEQEND
  5
D7
330
D4
100
AcDbEntity
  8
_U+30EC_U+30A4_U+30E4_U+30FC 1
 62
   179
420
  2234388
370
     9
  0
POLYLINE
  5
D8
330
1F
100
AcDbEntity
  8
_U+30EC_U+30A4_U+30E4_U+30FC 1
 62
   179
420
  2234388
370
     9
100
AcDb2dPolyline
 66
     1
 10
0.0
 20
0.0
 30
0.0
  0
VERTEX
  5
D9
330
D8
100
AcDbEntity
  8
_U+30EC_U+30A4_U+30E4_U+30FC 1
 62
   179
420
  2234388
370
     9
100
AcDbVertex
100
AcDb2dVertex
 10
124.4245811575196
 20
-142.0339444970978
 30
0.0
  0
VERTEX
  5
DA
330
D8
100
AcDbEntity
  8
_U+30EC_U+30A4_U+30E4_U+30FC 1
 62
   179
420
  2234388
370
     9
100
AcDbVertex
100
AcDb2dVertex
 10
124.4245811575196
 20
-143.0337327387641
 30
0.0
  0
SEQEND
  5
DB
330
D8
100
AcDbEntity
  8
_U+30EC_U+30A4_U+30E4_U+30FC 1
 62
   179
420
  2234388
370
     9
  0
POLYLINE
  5
DC
330
1F
100
AcDbEntity
  8
_U+30EC_U+30A4_U+30E4_U+30FC 1
 62
   179
420
  2234388
370
     9
100
AcDb2dPolyline
 66
     1
 10
0.0
 20
0.0
 30
0.0
  0
VERTEX
  5
DD
330
DC
100
AcDbEntity
  8
_U+30EC_U+30A4_U+30E4_U+30FC 1
 62
   179
420
  2234388
370
     9
100
AcDbVertex
100
AcDb2dVertex
 10
122.9645389249473
 20
-142.0339444970978
 30
0.0
  0
VERTEX
  5
DE
330
DC
100
AcDbEntity
  8
_U+30EC_U+30A4_U+30E4_U+30FC 1
 62
   179
420
  2234388
370
     9
100
AcDbVertex
100
AcDb2dVertex
 10
125.424810802045
 20
-142.0339444970978
 30
0.0
  0
SEQEND
  5
DF
330
DC
100
AcDbEntity
  8
_U+30EC_U+30A4_U+30E4_U+30FC 1
 62
   179
420
  2234388
370
     9
  0
POLYLINE
  5
E0
330
1F
100
AcDbEntity
  8
_U+30EC_U+30A4_U+30E4_U+30FC 1
 62
   179
420
  2234388
370
     9
100
AcDb2dPolyline
 66
     1
 10
0.0
 20
0.0
 30
0.0
  0
VERTEX
  5
E1
330
E0
100
AcDbEntity
  8
_U+30EC_U+30A4_U+30E4_U+30FC 1
 62
   179
420
  2234388
370
     9
100
AcDbVertex
100
AcDb2dVertex
 10
122.9645389249473
 20
-143.0337542706109
 30
0.0
  0
VERTEX
  5
E2
330
E0
100
AcDbEntity
  8
_U+30EC_U+30A4_U+30E4_U+30FC 1
 62
   179
420
  2234388
370
     9
100
AcDbVertex
100
AcDb2dVertex
 10
125.424810802045
 20
-143.0337542706109
 30
0.0
  0
SEQEND
  5
E3
330
E0
100
AcDbEntity
  8
_U+30EC_U+30A4_U+30E4_U+30FC 1
 62
   179
420
  2234388
370
     9
  0
INSERT
  5
E5
330
1F
100
AcDbEntity
  8
_U+30EC_U+30A4_U+30E4_U+30FC 1
100
AcDbBlockReference
  2
block 3
 10
0.0
 20
0.0
 30
0.0
  0
POLYLINE
  5
EA
330
1F
100
AcDbEntity
  8
_U+30EC_U+30A4_U+30E4_U+30FC 1
 62
   179
420
  2234388
370
     9
100
AcDb2dPolyline
 66
     1
 10
0.0
 20
0.0
 30
0.0
  0
VERTEX
  5
EB
330
EA
100
AcDbEntity
  8
_U+30EC_U+30A4_U+30E4_U+30FC 1
 62
   179
420
  2234388
370
     9
100
AcDbVertex
100
AcDb2dVertex
 10
112.4242800537489
 20
-149.53389583664
 30
0.0
  0
VERTEX
  5
EC
330
EA
100
AcDbEntity
  8
_U+30EC_U+30A4_U+30E4_U+30FC 1
 62
   179
420
  2234388
370
     9
100
AcDbVertex
100
AcDb2dVertex
 10
112.4242800537489
 20
-144.2760987662856
 30
0.0
  0
SEQEND
  5
ED
330
EA
100
AcDbEntity
  8
_U+30EC_U+30A4_U+30E4_U+30FC 1
 62
   179
420
  2234388
370
     9
  0
POLYLINE
  5
EE
330
1F
100
AcDbEntity
  8
_U+30EC_U+30A4_U+30E4_U+30FC 1
 62
   179
420
  2234388
370
     9
100
AcDb2dPolyline
 66
     1
 10
0.0
 20
0.0
 30
0.0
  0
VERTEX
  5
EF
330
EE
100
AcDbEntity
  8
_U+30EC_U+30A4_U+30E4_U+30FC 1
 62
   179
420
  2234388
370
     9
100
AcDbVertex
100
AcDb2dVertex
 10
112.4242800537489
 20
-149.53389583664
 30
0.0
  0
VERTEX
  5
F0
330
EE
100
AcDbEntity
  8
_U+30EC_U+30A4_U+30E4_U+30FC 1
 62
   179
420
  2234388
370
     9
100
AcDbVertex
100
AcDb2dVertex
 10
112.4242800537489
 20
-150.8335365766037
 30
0.0
  0
SEQEND
  5
F1
330
EE
100
AcDbEntity
  8
_U+30EC_U+30A4_U+30E4_U+30FC 1
 62
   179
420
  2234388
370
     9
  0
POLYLINE
  5
F2
330
1F
100
AcDbEntity
  8
_U+30EC_U+30A4_U+30E4_U+30FC 1
 62
   179
420
  2234388
370
     9
100
AcDb2dPolyline
 66
     1
 10
0.0
 20
0.0
 30
0.0
  0
VERTEX
  5
F3
330
F2
100
AcDbEntity
  8
_U+30EC_U+30A4_U+30E4_U+30FC 1
 62
   179
420
  2234388
370
     9
100
AcDbVertex
100
AcDb2dVertex
 10
110.9642378211766
 20
-149.53389583664
 30
0.0
  0
VERTEX
  5
F4
330
F2
100
AcDbEntity
  8
_U+30EC_U+30A4_U+30E4_U+30FC 1
 62
   179
420
  2234388
370
     9
100
AcDbVertex
100
AcDb2dVertex
 10
113.4245096982742
 20
-149.53389583664
 30
0.0
  0
SEQEND
  5
F5
330
F2
100
AcDbEntity
  8
_U+30EC_U+30A4_U+30E4_U+30FC 1
 62
   179
420
  2234388
370
     9
  0
POLYLINE
  5
F6
330
1F
100
AcDbEntity
  8
_U+30EC_U+30A4_U+30E4_U+30FC 1
 62
   179
420
  2234388
370
     9
100
AcDb2dPolyline
 66
     1
 10
0.0
 20
0.0
 30
0.0
  0
VERTEX
  5
F7
330
F6
100
AcDbEntity
  8
_U+30EC_U+30A4_U+30E4_U+30FC 1
 62
   179
420
  2234388
370
     9
100
AcDbVertex
100
AcDb2dVertex
 10
110.9642378211766
 20
-149.8336837393971
 30
0.0
  0
VERTEX
  5
F8
330
F6
100
AcDbEntity
  8
_U+30EC_U+30A4_U+30E4_U+30FC 1
 62
   179
420
  2234388
370
     9
100
AcDbVertex
100
AcDb2dVertex
 10
113.4245096982742
 20
-149.8336837393971
 30
0.0
  0
SEQEND
  5
F9
330
F6
100
AcDbEntity
  8
_U+30EC_U+30A4_U+30E4_U+30FC 1
 62
   179
420
  2234388
370
     9
  0
INSERT
  5
FB
330
1F
100
AcDbEntity
  8
_U+30EC_U+30A4_U+30E4_U+30FC 1
100
AcDbBlockReference
  2
block 4
 10
0.0
 20
0.0
 30
0.0
  0
POLYLINE
  5
10B
330
1F
100
AcDbEntity
  8
_U+30EC_U+30A4_U+30E4_U+30FC 1
 62
   179
420
  2234388
370
     9
100
AcDb2dPolyline
 66
     1
 10
0.0
 20
0.0
 30
0.0
  0
VERTEX
  5
10C
330
10B
100
AcDbEntity
  8
_U+30EC_U+30A4_U+30E4_U+30FC 1
 62
   179
420
  2234388
370
     9
100
AcDbVertex
100
AcDb2dVertex
 10
98.42443476441571
 20
-154.5334614685281
 30
0.0
  0
VERTEX
  5
10D
330
10B
100
AcDbEntity
  8
_U+30EC_U+30A4_U+30E4_U+30FC 1
 62
   179
420
  2234388
370
     9
100
AcDbVertex
100
AcDb2dVertex
 10
108.424626471646
 20
-154.5334614685281
 30
0.0
  0
SEQEND
  5
10E
330
10B
100
AcDbEntity
  8
_U+30EC_U+30A4_U+30E4_U+30FC 1
 62
   179
420
  2234388
370
     9
  0
POLYLINE
  5
10F
330
1F
100
AcDbEntity
  8
_U+30EC_U+30A4_U+30E4_U+30FC 1
 62
   179
420
  2234388
370
     9
100
AcDb2dPolyline
 66
     1
 10
0.0
 20
0.0
 30
0.0
  0
VERTEX
  5
110
330
10F
100
AcDbEntity
  8
_U+30EC_U+30A4_U+30E4_U+30FC 1
 62
   179
420
  2234388
370
     9
100
AcDbVertex
100
AcDb2dVertex
 10
98.42443476441571
 20
-153.073451533726
 30
0.0
  0
VERTEX
  5
111
330
10F
100
AcDbEntity
  8
_U+30EC_U+30A4_U+30E4_U+30FC 1
 62
   179
420
  2234388
370
     9
100
AcDbVertex
100
AcDb2dVertex
 10
98.42443476441571
 20
-155.5340894522189
 30
0.0
  0
SEQEND
  5
112
330
10F
100
AcDbEntity
  8
_U+30EC_U+30A4_U+30E4_U+30FC 1
 62
   179
420
  2234388
370
     9
  0
POLYLINE
  5
113
330
1F
100
AcDbEntity
  8
_U+30EC_U+30A4_U+30E4_U+30FC 1
 62
   179
420
  2234388
370
     9
100
AcDb2dPolyline
 66
     1
 10
0.0
 20
0.0
 30
0.0
  0
VERTEX
  5
114
330
113
100
AcDbEntity
  8
_U+30EC_U+30A4_U+30E4_U+30FC 1
 62
   179
420
  2234388
370
     9
100
AcDbVertex
100
AcDb2dVertex
 10
108.4245188124121
 20
-152.3733650674297
 30
0.0
  0
VERTEX
  5
115
330
113
100
AcDbEntity
  8
_U+30EC_U+30A4_U+30E4_U+30FC 1
 62
   179
420
  2234388
370
     9
100
AcDbVertex
100
AcDb2dVertex
 10
108.4245188124121
 20
-155.5339171974447
 30
0.0
  0
SEQEND
  5
116
330
113
100
AcDbEntity
  8
_U+30EC_U+30A4_U+30E4_U+30FC 1
 62
   179
420
  2234388
370
     9
  0
INSERT
  5
118
330
1F
100
AcDbEntity
  8
_U+30EC_U+30A4_U+30E4_U+30FC 1
100
AcDbBlockReference
  2
block 5
 10
0.0
 20
0.0
 30
0.0
  0
POLYLINE
  5
120
330
1F
100
AcDbEntity
  8
_U+30EC_U+30A4_U+30E4_U+30FC 1
 62
   179
420
  2234388
370
     9
100
AcDb2dPolyline
 66
     1
 10
0.0
 20
0.0
 30
0.0
  0
VERTEX
  5
121
330
120
100
AcDbEntity
  8
_U+30EC_U+30A4_U+30E4_U+30FC 1
 62
   179
420
  2234388
370
     9
100
AcDbVertex
100
AcDb2dVertex
 10
86.42448893611686
 20
-154.5334614685281
 30
0.0
  0
VERTEX
  5
122
330
120
100
AcDbEntity
  8
_U+30EC_U+30A4_U+30E4_U+30FC 1
 62
   179
420
  2234388
370
     9
100
AcDbVertex
100
AcDb2dVertex
 10
98.42457472141979
 20
-154.5334614685281
 30
0.0
  0
SEQEND
  5
123
330
120
100
AcDbEntity
  8
_U+30EC_U+30A4_U+30E4_U+30FC 1
 62
   179
420
  2234388
370
     9
  0
POLYLINE
  5
124
330
1F
100
AcDbEntity
  8
_U+30EC_U+30A4_U+30E4_U+30FC 1
 62
   179
420
  2234388
370
     9
100
AcDb2dPolyline
 66
     1
 10
0.0
 20
0.0
 30
0.0
  0
VERTEX
  5
125
330
124
100
AcDbEntity
  8
_U+30EC_U+30A4_U+30E4_U+30FC 1
 62
   179
420
  2234388
370
     9
100
AcDbVertex
100
AcDb2dVertex
 10
86.42448893611686
 20
-145.5734355986435
 30
0.0
  0
VERTEX
  5
126
330
124
100
AcDbEntity
  8
_U+30EC_U+30A4_U+30E4_U+30FC 1
 62
   179
420
  2234388
370
     9
100
AcDbVertex
100
AcDb2dVertex
 10
86.42448893611686
 20
-155.5337664745172
 30
0.0
  0
SEQEND
  5
127
330
124
100
AcDbEntity
  8
_U+30EC_U+30A4_U+30E4_U+30FC 1
 62
   179
420
  2234388
370
     9
  0
INSERT
  5
129
330
1F
100
AcDbEntity
  8
_U+30EC_U+30A4_U+30E4_U+30FC 1
100
AcDbBlockReference
  2
block 6
 10
0.0
 20
0.0
 30
0.0
  0
POLYLINE
  5
130
330
1F
100
AcDbEntity
  8
_U+30EC_U+30A4_U+30E4_U+30FC 1
 62
   179
420
  2234388
370
     9
100
AcDb2dPolyline
 66
     1
 10
0.0
 20
0.0
 30
0.0
  0
VERTEX
  5
131
330
130
100
AcDbEntity
  8
_U+30EC_U+30A4_U+30E4_U+30FC 1
 62
   179
420
  2234388
370
     9
100
AcDbVertex
100
AcDb2dVertex
 10
86.42448893611686
 20
-138.0333488966983
 30
0.0
  0
VERTEX
  5
132
330
130
100
AcDbEntity
  8
_U+30EC_U+30A4_U+30E4_U+30FC 1
 62
   179
420
  2234388
370
     9
100
AcDbVertex
100
AcDb2dVertex
 10
120.4245023214428
 20
-138.0333488966983
 30
0.0
  0
SEQEND
  5
133
330
130
100
AcDbEntity
  8
_U+30EC_U+30A4_U+30E4_U+30FC 1
 62
   179
420
  2234388
370
     9
  0
POLYLINE
  5
134
330
1F
100
AcDbEntity
  8
_U+30EC_U+30A4_U+30E4_U+30FC 1
 62
   179
420
  2234388
370
     9
100
AcDb2dPolyline
 66
     1
 10
0.0
 20
0.0
 30
0.0
  0
VERTEX
  5
135
330
134
100
AcDbEntity
  8
_U+30EC_U+30A4_U+30E4_U+30FC 1
 62
   179
420
  2234388
370
     9
100
AcDbVertex
100
AcDb2dVertex
 10
86.42448893611686
 20
-139.4933803633471
 30
0.0
  0
VERTEX
  5
136
330
134
100
AcDbEntity
  8
_U+30EC_U+30A4_U+30E4_U+30FC 1
 62
   179
420
  2234388
370
     9
100
AcDbVertex
100
AcDb2dVertex
 10
86.42448893611686
 20
-137.0334745276448
 30
0.0
  0
SEQEND
  5
137
330
134
100
AcDbEntity
  8
_U+30EC_U+30A4_U+30E4_U+30FC 1
 62
   179
420
  2234388
370
     9
  0
POLYLINE
  5
138
330
1F
100
AcDbEntity
  8
_U+30EC_U+30A4_U+30E4_U+30FC 1
 62
   179
420
  2234388
370
     9
100
AcDb2dPolyline
 66
     1
 10
0.0
 20
0.0
 30
0.0
  0
VERTEX
  5
139
330
138
100
AcDbEntity
  8
_U+30EC_U+30A4_U+30E4_U+30FC 1
 62
   179
420
  2234388
370
     9
100
AcDbVertex
100
AcDb2dVertex
 10
120.4244700236726
 20
-139.4933803633471
 30
0.0
  0
VERTEX
  5
13A
330
138
100
AcDbEntity
  8
_U+30EC_U+30A4_U+30E4_U+30FC 1
 62
   179
420
  2234388
370
     9
100
AcDbVertex
100
AcDb2dVertex
 10
120.4244700236726
 20
-137.0334745276448
 30
0.0
  0
SEQEND
  5
13B
330
138
100
AcDbEntity
  8
_U+30EC_U+30A4_U+30E4_U+30FC 1
 62
   179
420
  2234388
370
     9
  0
INSERT
  5
13D
330
1F
100
AcDbEntity
  8
_U+30EC_U+30A4_U+30E4_U+30FC 1
100
AcDbBlockReference
  2
block 7
 10
0.0
 20
0.0
 30
0.0
  0
POLYLINE
  5
157
330
1F
100
AcDbEntity
  8
_U+30EC_U+30A4_U+30E4_U+30FC 1
 62
   179
420
  2234388
370
     9
100
AcDb2dPolyline
 66
     1
 10
0.0
 20
0.0
 30
0.0
  0
VERTEX
  5
158
330
157
100
AcDbEntity
  8
_U+30EC_U+30A4_U+30E4_U+30FC 1
 62
   179
420
  2234388
370
     9
100
AcDbVertex
100
AcDb2dVertex
 10
124.4245811575196
 20
-149.53389583664
 30
0.0
  0
VERTEX
  5
159
330
157
100
AcDbEntity
  8
_U+30EC_U+30A4_U+30E4_U+30FC 1
 62
   179
420
  2234388
370
     9
100
AcDbVertex
100
AcDb2dVertex
 10
124.4245811575196
 20
-143.0336250795302
 30
0.0
  0
SEQEND
  5
15A
330
157
100
AcDbEntity
  8
_U+30EC_U+30A4_U+30E4_U+30FC 1
 62
   179
420
  2234388
370
     9
  0
POLYLINE
  5
15B
330
1F
100
AcDbEntity
  8
_U+30EC_U+30A4_U+30E4_U+30FC 1
 62
   179
420
  2234388
370
     9
100
AcDb2dPolyline
 66
     1
 10
0.0
 20
0.0
 30
0.0
  0
VERTEX
  5
15C
330
15B
100
AcDbEntity
  8
_U+30EC_U+30A4_U+30E4_U+30FC 1
 62
   179
420
  2234388
370
     9
100
AcDbVertex
100
AcDb2dVertex
 10
110.9642378211766
 20
-149.53389583664
 30
0.0
  0
VERTEX
  5
15D
330
15B
100
AcDbEntity
  8
_U+30EC_U+30A4_U+30E4_U+30FC 1
 62
   179
420
  2234388
370
     9
100
AcDbVertex
100
AcDb2dVertex
 10
125.4245954835771
 20
-149.53389583664
 30
0.0
  0
SEQEND
  5
15E
330
15B
100
AcDbEntity
  8
_U+30EC_U+30A4_U+30E4_U+30FC 1
 62
   179
420
  2234388
370
     9
  0
INSERT
  5
160
330
1F
100
AcDbEntity
  8
_U+30EC_U+30A4_U+30E4_U+30FC 1
100
AcDbBlockReference
  2
block 8
 10
0.0
 20
0.0
 30
0.0
  0
ENDSEC
  0
SECTION
  2
OBJECTS
  0
DICTIONARY
  5
C
330
0
100
AcDbDictionary
281
     1
  3
ACAD_GROUP
350
D
  3
ACAD_LAYOUT
350
1A
  3
ACAD_MATERIAL
350
3B
  3
ACAD_MLEADERSTYLE
350
171
  3
ACAD_MLINESTYLE
350
17
  3
ACAD_PLOTSETTINGS
350
19
  3
ACAD_PLOTSTYLENAME
350
E
  3
ACAD_TABLESTYLE
350
170
  3
ACAD_VISUALSTYLE
350
2A
  0
SUN
  5
3F
330
29
100
AcDbSun
 90
        1
290
     0
 63
     7
421
 16777215
 40
1.0
291
     1
 91
  2455826
 92
 54000000
292
     0
 70
     2
 71
   256
280
     1
  0
DICTIONARY
  5
D
102
{ACAD_REACTORS
330
C
102
}
330
C
100
AcDbDictionary
281
     1
  0
DICTIONARY
  5
1A
102
{ACAD_REACTORS
330
C
102
}
330
C
100
AcDbDictionary
281
     1
  3
Layout1
350
1E
  3
Layout2
350
26
  3
Model
350
22
  0
DICTIONARY
  5
3B
102
{ACAD_REACTORS
330
C
102
}
330
C
100
AcDbDictionary
281
     1
  3
ByBlock
350
3D
  3
ByLayer
350
3C
  3
Global
350
3E
  0
DICTIONARY
  5
171
102
{ACAD_REACTORS
330
C
102
}
330
C
100
AcDbDictionary
281
     1
  0
DICTIONARY
  5
17
102
{ACAD_REACTORS
330
C
102
}
330
C
100
AcDbDictionary
281
     1
  3
Standard
350
18
  0
DICTIONARY
  5
19
102
{ACAD_REACTORS
330
C
102
}
330
C
100
AcDbDictionary
281
     1
  0
ACDBDICTIONARYWDFLT
  5
E
102
{ACAD_REACTORS
330
C
102
}
330
C
100
AcDbDictionary
281
     1
  3
Normal
350
F
100
AcDbDictionaryWithDefault
340
F
  0
DICTIONARY
  5
170
102
{ACAD_REACTORS
330
C
102
}
330
C
100
AcDbDictionary
281
     1
  0
DICTIONARY
  5
2A
102
{ACAD_REACTORS
330
C
102
}
330
C
100
AcDbDictionary
281
     1
  3
2dWireframe
350
2F
  3
3D Hidden
350
31
  3
3dWireframe
350
30
  3
Basic
350
32
  3
Brighten
350
36
  3
ColorChange
350
3A
  3
Conceptual
350
34
  3
Dim
350
35
  3
Facepattern
350
39
  3
Flat
350
2B
  3
FlatWithEdges
350
2C
  3
Gouraud
350
2D
  3
GouraudWithEdges
350
2E
  3
Linepattern
350
38
  3
Realistic
350
33
  3
Thicken
350
37
  0
LAYOUT
  5
1E
102
{ACAD_REACTORS
330
1A
102
}
330
1A
100
AcDbPlotSettings
  1

  2
none_device
  4

  6

 40
0.0
 41
0.0
 42
0.0
 43
0.0
 44
0.0
 45
0.0
 46
0.0
 47
0.0
 48
0.0
 49
0.0
140
0.0
141
0.0
142
1.0
143
1.0
 70
   688
 72
     0
 73
     0
 74
     5
  7

 75
    16
 76
     0
 77
     2
 78
   300
147
1.0
148
0.0
149
0.0
100
AcDbLayout
  1
Layout1
 70
     1
 71
     1
 10
0.0
 20
0.0
 11
12.0
 21
9.0
 12
0.0
 22
0.0
 32
0.0
 14
1.000000000000000E+20
 24
1.000000000000000E+20
 34
1.000000000000000E+20
 15
-1.000000000000000E+20
 25
-1.000000000000000E+20
 35
-1.000000000000000E+20
146
0.0
 13
0.0
 23
0.0
 33
0.0
 16
1.0
 26
0.0
 36
0.0
 17
0.0
 27
1.0
 37
0.0
 76
     0
330
1B
  0
LAYOUT
  5
26
102
{ACAD_REACTORS
330
1A
102
}
330
1A
100
AcDbPlotSettings
  1

  2
none_device
  4

  6

 40
0.0
 41
0.0
 42
0.0
 43
0.0
 44
0.0
 45
0.0
 46
0.0
 47
0.0
 48
0.0
 49
0.0
140
0.0
141
0.0
142
1.0
143
1.0
 70
   688
 72
     0
 73
     0
 74
     5
  7

 75
    16
 76
     0
 77
     2
 78
   300
147
1.0
148
0.0
149
0.0
100
AcDbLayout
  1
Layout2
 70
     1
 71
     2
 10
0.0
 20
0.0
 11
0.0
 21
0.0
 12
0.0
 22
0.0
 32
0.0
 14
0.0
 24
0.0
 34
0.0
 15
0.0
 25
0.0
 35
0.0
146
0.0
 13
0.0
 23
0.0
 33
0.0
 16
1.0
 26
0.0
 36
0.0
 17
0.0
 27
1.0
 37
0.0
 76
     0
330
23
  0
LAYOUT
  5
22
102
{ACAD_REACTORS
330
1A
102
}
330
1A
100
AcDbPlotSettings
  1

  2
none_device
  4

  6

 40
0.0
 41
0.0
 42
0.0
 43
0.0
 44
0.0
 45
0.0
 46
0.0
 47
0.0
 48
0.0
 49
0.0
140
0.0
141
0.0
142
1.0
143
1.0
 70
  1712
 72
     0
 73
     0
 74
     0
  7

 75
     0
 76
     0
 77
     2
 78
   300
147
1.0
148
0.0
149
0.0
100
AcDbLayout
  1
Model
 70
     1
 71
     0
 10
0.0
 20
0.0
 11
12.0
 21
9.0
 12
0.0
 22
0.0
 32
0.0
 14
1.000000000000000E+20
 24
1.000000000000000E+20
 34
1.000000000000000E+20
 15
-1.000000000000000E+20
 25
-1.000000000000000E+20
 35
-1.000000000000000E+20
146
0.0
 13
0.0
 23
0.0
 33
0.0
 16
1.0
 26
0.0
 36
0.0
 17
0.0
 27
1.0
 37
0.0
 76
     0
330
1F
331
29
  0
MATERIAL
  5
3D
102
{ACAD_REACTORS
330
3B
102
}
330
3B
100
AcDbMaterial
  1
ByBlock
 72
     1
 94
      127
  0
MATERIAL
  5
3C
102
{ACAD_REACTORS
330
3B
102
}
330
3B
100
AcDbMaterial
  1
ByLayer
 72
     1
 94
      127
  0
MATERIAL
  5
3E
102
{ACAD_REACTORS
330
3B
102
}
330
3B
100
AcDbMaterial
  1
Global
 72
     1
 94
      127
  0
MLINESTYLE
  5
18
102
{ACAD_REACTORS
330
17
102
}
330
17
100
AcDbMlineStyle
  2
Standard
 70
     0
  3

 62
   256
 51
90.0
 52
90.0
 71
     2
 49
0.5
 62
   256
  6
BYLAYER
 49
-0.5
 62
   256
  6
BYLAYER
  0
ACDBPLACEHOLDER
  5
F
102
{ACAD_REACTORS
330
E
102
}
330
E
  0
VISUALSTYLE
  5
2F
102
{ACAD_REACTORS
330
2A
102
}
330
2A
100
AcDbVisualStyle
  2
2dWireframe
 70
     4
177
     2
291
     0
 71
     0
176
     1
 72
     2
176
     1
 73
     0
176
     1
 90
        0
176
     1
 40
-0.6
176
     1
 41
-30.0
176
     1
 62
     5
 63
     7
421
 16777215
176
     1
 74
     1
176
     1
 91
        4
176
     1
 64
     7
176
     1
 65
   257
176
     1
 75
     1
176
     1
175
     1
176
     1
 42
1.0
176
     1
 92
        0
176
     1
 66
   257
176
     1
 43
1.0
176
     1
 76
     1
176
     1
 77
     6
176
     1
 78
     2
176
     1
 67
     7
176
     1
 79
     5
176
     1
170
     0
176
     1
171
     0
176
     1
290
     0
176
     1
 93
        1
176
     1
 44
0.0
176
     1
173
     0
176
     1
  0
VISUALSTYLE
  5
31
102
{ACAD_REACTORS
330
2A
102
}
330
2A
100
AcDbVisualStyle
  2
3D Hidden
 70
     6
177
     2
291
     0
 71
     1
176
     1
 72
     2
176
     1
 73
     2
176
     1
 90
        0
176
     1
 40
-0.6
176
     1
 41
-30.0
176
     1
 62
     5
 63
     7
421
 16777215
176
     1
 74
     2
176
     1
 91
        2
176
     1
 64
     7
176
     1
 65
   257
176
     1
 75
     2
176
     1
175
     1
176
     1
 42
40.0
176
     1
 92
        0
176
     1
 66
   257
176
     1
 43
1.0
176
     1
 76
     1
176
     1
 77
     6
176
     1
 78
     2
176
     1
 67
     7
176
     1
 79
     3
176
     1
170
     0
176
     1
171
     0
176
     1
290
     0
176
     1
 93
        1
176
     1
 44
0.0
176
     1
173
     0
176
     1
  0
VISUALSTYLE
  5
30
102
{ACAD_REACTORS
330
2A
102
}
330
2A
100
AcDbVisualStyle
  2
3dWireframe
 70
     5
177
     2
291
     0
 71
     0
176
     1
 72
     2
176
     1
 73
     0
176
     1
 90
        0
176
     1
 40
-0.6
176
     1
 41
-30.0
176
     1
 62
     5
 63
     7
421
 16777215
176
     1
 74
     1
176
     1
 91
        4
176
     1
 64
     7
176
     1
 65
   257
176
     1
 75
     1
176
     1
175
     1
176
     1
 42
1.0
176
     1
 92
        0
176
     1
 66
   257
176
     1
 43
1.0
176
     1
 76
     1
176
     1
 77
     6
176
     1
 78
     2
176
     1
 67
     7
176
     1
 79
     5
176
     1
170
     0
176
     1
171
     0
176
     1
290
     0
176
     1
 93
        1
176
     1
 44
0.0
176
     1
173
     0
176
     1
  0
VISUALSTYLE
  5
32
102
{ACAD_REACTORS
330
2A
102
}
330
2A
100
AcDbVisualStyle
  2
Basic
 70
     7
177
     2
291
     1
 71
     1
176
     1
 72
     0
176
     1
 73
     1
176
     1
 90
        0
176
     1
 40
-0.6
176
     1
 41
-30.0
176
     1
 62
     5
 63
     7
421
 16777215
176
     1
 74
     0
176
     1
 91
        4
176
     1
 64
     7
176
     1
 65
   257
176
     1
 75
     1
176
     1
175
     1
176
     1
 42
1.0
176
     1
 92
        8
176
     1
 66
     7
176
     1
 43
1.0
176
     1
 76
     1
176
     1
 77
     6
176
     1
 78
     2
176
     1
 67
     7
176
     1
 79
     5
176
     1
170
     0
176
     1
171
     0
176
     1
290
     0
176
     1
 93
        1
176
     1
 44
0.0
176
     1
173
     0
176
     1
  0
VISUALSTYLE
  5
36
102
{ACAD_REACTORS
330
2A
102
}
330
2A
100
AcDbVisualStyle
  2
Brighten
 70
    12
177
     2
291
     1
 71
     2
176
     1
 72
     2
176
     1
 73
     0
176
     1
 90
        0
176
     1
 40
-0.6
176
     1
 41
-30.0
176
     1
 62
     5
 63
     7
421
 16777215
176
     1
 74
     1
176
     1
 91
        4
176
     1
 64
     7
176
     1
 65
   257
176
     1
 75
     1
176
     1
175
     1
176
     1
 42
1.0
176
     1
 92
        8
176
     1
 66
     7
176
     1
 43
1.0
176
     1
 76
     1
176
     1
 77
     6
176
     1
 78
     2
176
     1
 67
     7
176
     1
 79
     5
176
     1
170
     0
176
     1
171
     0
176
     1
290
     0
176
     1
 93
        1
176
     1
 44
50.0
176
     1
173
     0
176
     1
  0
VISUALSTYLE
  5
3A
102
{ACAD_REACTORS
330
2A
102
}
330
2A
100
AcDbVisualStyle
  2
ColorChange
 70
    16
177
     2
291
     1
 71
     2
176
     1
 72
     2
176
     1
 73
     3
176
     1
 90
        0
176
     1
 40
-0.6
176
     1
 41
-30.0
176
     1
 62
     5
 63
     8
421
  8421504
176
     1
 74
     1
176
     1
 91
        4
176
     1
 64
     7
176
     1
 65
   257
176
     1
 75
     1
176
     1
175
     1
176
     1
 42
1.0
176
     1
 92
        8
176
     1
 66
     8
424
  8421504
176
     1
 43
1.0
176
     1
 76
     1
176
     1
 77
     6
176
     1
 78
     2
176
     1
 67
     7
176
     1
 79
     5
176
     1
170
     0
176
     1
171
     0
176
     1
290
     0
176
     1
 93
        1
176
     1
 44
0.0
176
     1
173
     0
176
     1
  0
VISUALSTYLE
  5
34
102
{ACAD_REACTORS
330
2A
102
}
330
2A
100
AcDbVisualStyle
  2
Conceptual
 70
     9
177
     2
291
     0
 71
     3
176
     1
 72
     2
176
     1
 73
     0
176
     1
 90
        0
176
     1
 40
-0.6
176
     1
 41
-30.0
176
     1
 62
     5
 63
     7
421
 16777215
176
     1
 74
     2
176
     1
 91
        2
176
     1
 64
     7
176
     1
 65
   257
176
     1
 75
     1
176
     1
175
     1
176
     1
 42
40.0
176
     1
 92
        8
176
     1
 66
     7
176
     1
 43
1.0
176
     1
 76
     1
176
     1
 77
     6
176
     1
 78
     2
176
     1
 67
     7
176
     1
 79
     3
176
     1
170
     0
176
     1
171
     0
176
     1
290
     0
176
     1
 93
        1
176
     1
 44
0.0
176
     1
173
     0
176
     1
  0
VISUALSTYLE
  5
35
102
{ACAD_REACTORS
330
2A
102
}
330
2A
100
AcDbVisualStyle
  2
Dim
 70
    11
177
     2
291
     1
 71
     2
176
     1
 72
     2
176
     1
 73
     0
176
     1
 90
        0
176
     1
 40
-0.6
176
     1
 41
-30.0
176
     1
 62
     5
 63
     7
421
 16777215
176
     1
 74
     1
176
     1
 91
        4
176
     1
 64
     7
176
     1
 65
   257
176
     1
 75
     1
176
     1
175
     1
176
     1
 42
1.0
176
     1
 92
        8
176
     1
 66
     7
176
     1
 43
1.0
176
     1
 76
     1
176
     1
 77
     6
176
     1
 78
     2
176
     1
 67
     7
176
     1
 79
     5
176
     1
170
     0
176
     1
171
     0
176
     1
290
     0
176
     1
 93
        1
176
     1
 44
-50.0
176
     1
173
     0
176
     1
  0
VISUALSTYLE
  5
39
102
{ACAD_REACTORS
330
2A
102
}
330
2A
100
AcDbVisualStyle
  2
Facepattern
 70
    15
177
     2
291
     1
 71
     2
176
     1
 72
     2
176
     1
 73
     0
176
     1
 90
        0
176
     1
 40
-0.6
176
     1
 41
-30.0
176
     1
 62
     5
 63
     7
421
 16777215
176
     1
 74
     1
176
     1
 91
        4
176
     1
 64
     7
176
     1
 65
   257
176
     1
 75
     1
176
     1
175
     1
176
     1
 42
1.0
176
     1
 92
        8
176
     1
 66
     7
176
     1
 43
1.0
176
     1
 76
     1
176
     1
 77
     6
176
     1
 78
     2
176
     1
 67
     7
176
     1
 79
     5
176
     1
170
     0
176
     1
171
     0
176
     1
290
     0
176
     1
 93
        1
176
     1
 44
0.0
176
     1
173
     0
176
     1
  0
VISUALSTYLE
  5
2B
102
{ACAD_REACTORS
330
2A
102
}
330
2A
100
AcDbVisualStyle
  2
Flat
 70
     0
177
     2
291
     1
 71
     2
176
     1
 72
     1
176
     1
 73
     1
176
     1
 90
        2
176
     1
 40
-0.6
176
     1
 41
30.0
176
     1
 62
     5
 63
     7
421
 16777215
176
     1
 74
     0
176
     1
 91
        4
176
     1
 64
     7
176
     1
 65
   257
176
     1
 75
     1
176
     1
175
     1
176
     1
 42
1.0
176
     1
 92
        8
176
     1
 66
     7
176
     1
 43
1.0
176
     1
 76
     1
176
     1
 77
     6
176
     1
 78
     2
176
     1
 67
     7
176
     1
 79
     5
176
     1
170
     0
176
     1
171
     0
176
     1
290
     0
176
     1
 93
       13
176
     1
 44
0.0
176
     1
173
     0
176
     1
  0
VISUALSTYLE
  5
2C
102
{ACAD_REACTORS
330
2A
102
}
330
2A
100
AcDbVisualStyle
  2
FlatWithEdges
 70
     1
177
     2
291
     1
 71
     2
176
     1
 72
     1
176
     1
 73
     1
176
     1
 90
        2
176
     1
 40
-0.6
176
     1
 41
30.0
176
     1
 62
     5
 63
     7
421
 16777215
176
     1
 74
     1
176
     1
 91
        4
176
     1
 64
     7
176
     1
 65
   257
176
     1
 75
     1
176
     1
175
     1
176
     1
 42
1.0
176
     1
 92
        0
176
     1
 66
   257
176
     1
 43
1.0
176
     1
 76
     1
176
     1
 77
     6
176
     1
 78
     2
176
     1
 67
     7
176
     1
 79
     5
176
     1
170
     0
176
     1
171
     0
176
     1
290
     0
176
     1
 93
       13
176
     1
 44
0.0
176
     1
173
     0
176
     1
  0
VISUALSTYLE
  5
2D
102
{ACAD_REACTORS
330
2A
102
}
330
2A
100
AcDbVisualStyle
  2
Gouraud
 70
     2
177
     2
291
     1
 71
     2
176
     1
 72
     2
176
     1
 73
     1
176
     1
 90
        2
176
     1
 40
-0.6
176
     1
 41
30.0
176
     1
 62
     5
 63
     7
421
 16777215
176
     1
 74
     0
176
     1
 91
        4
176
     1
 64
     7
176
     1
 65
   257
176
     1
 75
     1
176
     1
175
     1
176
     1
 42
1.0
176
     1
 92
        0
176
     1
 66
     7
176
     1
 43
1.0
176
     1
 76
     1
176
     1
 77
     6
176
     1
 78
     2
176
     1
 67
     7
176
     1
 79
     5
176
     1
170
     0
176
     1
171
     0
176
     1
290
     0
176
     1
 93
       13
176
     1
 44
0.0
176
     1
173
     0
176
     1
  0
VISUALSTYLE
  5
2E
102
{ACAD_REACTORS
330
2A
102
}
330
2A
100
AcDbVisualStyle
  2
GouraudWithEdges
 70
     3
177
     2
291
     1
 71
     2
176
     1
 72
     2
176
     1
 73
     1
176
     1
 90
        2
176
     1
 40
-0.6
176
     1
 41
30.0
176
     1
 62
     5
 63
     7
421
 16777215
176
     1
 74
     1
176
     1
 91
        4
176
     1
 64
     7
176
     1
 65
   257
176
     1
 75
     1
176
     1
175
     1
176
     1
 42
1.0
176
     1
 92
        0
176
     1
 66
   257
176
     1
 43
1.0
176
     1
 76
     1
176
     1
 77
     6
176
     1
 78
     2
176
     1
 67
     7
176
     1
 79
     5
176
     1
170
     0
176
     1
171
     0
176
     1
290
     0
176
     1
 93
       13
176
     1
 44
0.0
176
     1
173
     0
176
     1
  0
VISUALSTYLE
  5
38
102
{ACAD_REACTORS
330
2A
102
}
330
2A
100
AcDbVisualStyle
  2
Linepattern
 70
    14
177
     2
291
     1
 71
     2
176
     1
 72
     2
176
     1
 73
     0
176
     1
 90
        0
176
     1
 40
-0.6
176
     1
 41
-30.0
176
     1
 62
     5
 63
     7
421
 16777215
176
     1
 74
     1
176
     1
 91
        4
176
     1
 64
     7
176
     1
 65
   257
176
     1
 75
     7
176
     1
175
     7
176
     1
 42
1.0
176
     1
 92
        8
176
     1
 66
     7
176
     1
 43
1.0
176
     1
 76
     1
176
     1
 77
     6
176
     1
 78
     2
176
     1
 67
     7
176
     1
 79
     5
176
     1
170
     0
176
     1
171
     0
176
     1
290
     0
176
     1
 93
        1
176
     1
 44
0.0
176
     1
173
     0
176
     1
  0
VISUALSTYLE
  5
33
102
{ACAD_REACTORS
330
2A
102
}
330
2A
100
AcDbVisualStyle
  2
Realistic
 70
     8
177
     2
291
     0
 71
     2
176
     1
 72
     2
176
     1
 73
     0
176
     1
 90
        0
176
     1
 40
-0.6
176
     1
 41
-30.0
176
     1
 62
     5
 63
     7
421
 16777215
176
     1
 74
     1
176
     1
 91
        0
176
     1
 64
     7
176
     1
 65
   257
176
     1
 75
     1
176
     1
175
     1
176
     1
 42
1.0
176
     1
 92
        8
176
     1
 66
     8
424
  7895160
176
     1
 43
1.0
176
     1
 76
     1
176
     1
 77
     6
176
     1
 78
     2
176
     1
 67
     7
176
     1
 79
     5
176
     1
170
     0
176
     1
171
     0
176
     1
290
     0
176
     1
 93
       13
176
     1
 44
0.0
176
     1
173
     0
176
     1
  0
VISUALSTYLE
  5
37
102
{ACAD_REACTORS
330
2A
102
}
330
2A
100
AcDbVisualStyle
  2
Thicken
 70
    13
177
     2
291
     1
 71
     2
176
     1
 72
     2
176
     1
 73
     0
176
     1
 90
        0
176
     1
 40
-0.6
176
     1
 41
-30.0
176
     1
 62
     5
 63
     7
421
 16777215
176
     1
 74
     1
176
     1
 91
        4
176
     1
 64
     7
176
     1
 65
   257
176
     1
 75
     1
176
     1
175
     1
176
     1
 42
1.0
176
     1
 92
       12
176
     1
 66
     7
176
     1
 43
1.0
176
     1
 76
     1
176
     1
 77
     6
176
     1
 78
     2
176
     1
 67
     7
176
     1
 79
     5
176
     1
170
     0
176
     1
171
     0
176
     1
290
     0
176
     1
 93
        1
176
     1
 44
0.0
176
     1
173
     0
176
     1
  0
ENDSEC
  0
EOF
