  0
SECTION
  2
HEADER
  9
$ACADVER
  1
AC1024
  9
$ACADMAINTVER
 70
     6
  9
$DWGCODEPAGE
  3
UNDEFINED
  9
$INSBASE
 10
0.0
 20
0.0
 30
0.0
  9
$EXTMIN
 10
1.000000000000000E+20
 20
1.000000000000000E+20
 30
1.000000000000000E+20
  9
$EXTMAX
 10
-1.000000000000000E+20
 20
-1.000000000000000E+20
 30
-1.000000000000000E+20
  9
$LIMMIN
 10
0.0
 20
0.0
  9
$LIMMAX
 10
12.0
 20
9.0
  9
$ORTHOMODE
 70
     0
  9
$REGENMODE
 70
     1
  9
$FILLMODE
 70
     1
  9
$QTEXTMODE
 70
     0
  9
$MIRRTEXT
 70
     1
  9
$LTSCALE
 40
1.0
  9
$ATTMODE
 70
     1
  9
$TEXTSIZE
 40
0.2
  9
$TRACEWID
 40
0.05
  9
$TEXTSTYLE
  7
Standard
  9
$CLAYER
  8
0
  9
$CELTYPE
  6
ByLayer
  9
$CECOLOR
 62
   256
  9
$CELTSCALE
 40
1.0
  9
$DISPSILH
 70
     0
  9
$DIMSCALE
 40
1.0
  9
$DIMASZ
 40
0.18
  9
$DIMEXO
 40
0.0625
  9
$DIMDLI
 40
0.38
  9
$DIMRND
 40
0.0
  9
$DIMDLE
 40
0.0
  9
$DIMEXE
 40
0.18
  9
$DIMTP
 40
0.0
  9
$DIMTM
 40
0.0
  9
$DIMTXT
 40
0.18
  9
$DIMCEN
 40
0.09
  9
$DIMTSZ
 40
0.0
  9
$DIMTOL
 70
     0
  9
$DIMLIM
 70
     0
  9
$DIMTIH
 70
     1
  9
$DIMTOH
 70
     1
  9
$DIMSE1
 70
     0
  9
$DIMSE2
 70
     0
  9
$DIMTAD
 70
     0
  9
$DIMZIN
 70
     0
  9
$DIMBLK
  1

  9
$DIMASO
 70
     1
  9
$DIMSHO
 70
     1
  9
$DIMPOST
  1

  9
$DIMAPOST
  1

  9
$DIMALT
 70
     0
  9
$DIMALTD
 70
     2
  9
$DIMALTF
 40
25.4
  9
$DIMLFAC
 40
1.0
  9
$DIMTOFL
 70
     0
  9
$DIMTVP
 40
0.0
  9
$DIMTIX
 70
     0
  9
$DIMSOXD
 70
     0
  9
$DIMSAH
 70
     0
  9
$DIMBLK1
  1

  9
$DIMBLK2
  1

  9
$DIMSTYLE
  2
Standard
  9
$DIMCLRD
 70
     0
  9
$DIMCLRE
 70
     0
  9
$DIMCLRT
 70
     0
  9
$DIMTFAC
 40
1.0
  9
$DIMGAP
 40
0.09
  9
$DIMJUST
 70
     0
  9
$DIMSD1
 70
     0
  9
$DIMSD2
 70
     0
  9
$DIMTOLJ
 70
     1
  9
$DIMTZIN
 70
     0
  9
$DIMALTZ
 70
     0
  9
$DIMALTTZ
 70
     0
  9
$DIMUPT
 70
     0
  9
$DIMDEC
 70
     4
  9
$DIMTDEC
 70
     4
  9
$DIMALTU
 70
     2
  9
$DIMALTTD
 70
     2
  9
$DIMTXSTY
  7
Standard
  9
$DIMAUNIT
 70
     0
  9
$DIMADEC
 70
     0
  9
$DIMALTRND
 40
0.0
  9
$DIMAZIN
 70
     0
  9
$DIMDSEP
 70
    46
  9
$DIMATFIT
 70
     3
  9
$DIMFRAC
 70
     0
  9
$DIMLDRBLK
  1

  9
$DIMLUNIT
 70
     2
  9
$DIMLWD
 70
    -2
  9
$DIMLWE
 70
    -2
  9
$DIMTMOVE
 70
     0
  9
$DIMFXL
 40
1.0
  9
$DIMFXLON
 70
     0
  9
$DIMJOGANG
 40
0.7853981633974483
  9
$DIMTFILL
 70
     0
  9
$DIMTFILLCLR
 70
     0
  9
$DIMARCSYM
 70
     0
  9
$DIMLTYPE
  6

  9
$DIMLTEX1
  6

  9
$DIMLTEX2
  6

  9
$DIMTXTDIRECTION
 70
     0
  9
$LUNITS
 70
     2
  9
$LUPREC
 70
     4
  9
$SKETCHINC
 40
0.1
  9
$FILLETRAD
 40
0.5
  9
$AUNITS
 70
     0
  9
$AUPREC
 70
     0
  9
$MENU
  1
.
  9
$ELEVATION
 40
0.0
  9
$PELEVATION
 40
0.0
  9
$THICKNESS
 40
0.0
  9
$LIMCHECK
 70
     0
  9
$CHAMFERA
 40
0.5
  9
$CHAMFERB
 40
0.5
  9
$CHAMFERC
 40
1.0
  9
$CHAMFERD
 40
0.0
  9
$SKPOLY
 70
     0
  9
$TDCREATE
 40
2457917.59273147
  9
$TDUCREATE
 40
2457917.217731481
  9
$TDUPDATE
 40
2457917.59273147
  9
$TDUUPDATE
 40
2457917.217731481
  9
$TDINDWG
 40
0.0000000116
  9
$TDUSRTIMER
 40
0.0000000116
  9
$USRTIMER
 70
     1
  9
$ANGBASE
 50
0.0
  9
$ANGDIR
 70
     0
  9
$PDMODE
 70
     0
  9
$PDSIZE
 40
0.0
  9
$PLINEWID
 40
0.0
  9
$SPLFRAME
 70
     0
  9
$SPLINETYPE
 70
     6
  9
$SPLINESEGS
 70
     8
  9
$HANDSEED
  5
129
  9
$SURFTAB1
 70
     6
  9
$SURFTAB2
 70
     6
  9
$SURFTYPE
 70
     6
  9
$SURFU
 70
     6
  9
$SURFV
 70
     6
  9
$UCSBASE
  2

  9
$UCSNAME
  2

  9
$UCSORG
 10
0.0
 20
0.0
 30
0.0
  9
$UCSXDIR
 10
1.0
 20
0.0
 30
0.0
  9
$UCSYDIR
 10
0.0
 20
1.0
 30
0.0
  9
$UCSORTHOREF
  2

  9
$UCSORTHOVIEW
 70
     0
  9
$UCSORGTOP
 10
0.0
 20
0.0
 30
0.0
  9
$UCSORGBOTTOM
 10
0.0
 20
0.0
 30
0.0
  9
$UCSORGLEFT
 10
0.0
 20
0.0
 30
0.0
  9
$UCSORGRIGHT
 10
0.0
 20
0.0
 30
0.0
  9
$UCSORGFRONT
 10
0.0
 20
0.0
 30
0.0
  9
$UCSORGBACK
 10
0.0
 20
0.0
 30
0.0
  9
$PUCSBASE
  2

  9
$PUCSNAME
  2

  9
$PUCSORG
 10
0.0
 20
0.0
 30
0.0
  9
$PUCSXDIR
 10
1.0
 20
0.0
 30
0.0
  9
$PUCSYDIR
 10
0.0
 20
1.0
 30
0.0
  9
$PUCSORTHOREF
  2

  9
$PUCSORTHOVIEW
 70
     0
  9
$PUCSORGTOP
 10
0.0
 20
0.0
 30
0.0
  9
$PUCSORGBOTTOM
 10
0.0
 20
0.0
 30
0.0
  9
$PUCSORGLEFT
 10
0.0
 20
0.0
 30
0.0
  9
$PUCSORGRIGHT
 10
0.0
 20
0.0
 30
0.0
  9
$PUCSORGFRONT
 10
0.0
 20
0.0
 30
0.0
  9
$PUCSORGBACK
 10
0.0
 20
0.0
 30
0.0
  9
$USERI1
 70
     0
  9
$USERI2
 70
     0
  9
$USERI3
 70
     0
  9
$USERI4
 70
     0
  9
$USERI5
 70
     0
  9
$USERR1
 40
0.0
  9
$USERR2
 40
0.0
  9
$USERR3
 40
0.0
  9
$USERR4
 40
0.0
  9
$USERR5
 40
0.0
  9
$WORLDVIEW
 70
     1
  9
$SHADEDGE
 70
     3
  9
$SHADEDIF
 70
    70
  9
$TILEMODE
 70
     1
  9
$MAXACTVP
 70
    64
  9
$PINSBASE
 10
0.0
 20
0.0
 30
0.0
  9
$PLIMCHECK
 70
     0
  9
$PEXTMIN
 10
1.000000000000000E+20
 20
1.000000000000000E+20
 30
1.000000000000000E+20
  9
$PEXTMAX
 10
-1.000000000000000E+20
 20
-1.000000000000000E+20
 30
-1.000000000000000E+20
  9
$PLIMMIN
 10
0.0
 20
0.0
  9
$PLIMMAX
 10
12.0
 20
9.0
  9
$UNITMODE
 70
     0
  9
$VISRETAIN
 70
     1
  9
$PLINEGEN
 70
     0
  9
$PSLTSCALE
 70
     1
  9
$TREEDEPTH
 70
  3020
  9
$CMLSTYLE
  2
Standard
  9
$CMLJUST
 70
     0
  9
$CMLSCALE
 40
1.0
  9
$PROXYGRAPHICS
 70
     1
  9
$MEASUREMENT
 70
     0
  9
$CELWEIGHT
370
    -1
  9
$ENDCAPS
280
     0
  9
$JOINSTYLE
280
     0
  9
$LWDISPLAY
290
     1
  9
$INSUNITS
 70
     1
  9
$HYPERLINKBASE
  1

  9
$STYLESHEET
  1

  9
$XEDIT
290
     1
  9
$CEPSNTYPE
380
     0
  9
$PSTYLEMODE
290
     1
  9
$FINGERPRINTGUID
  2
{6BBD28C0-0F7A-864C-9967-59242862CD66}
  9
$VERSIONGUID
  2
{FAEB1C32-E019-11D5-929B-00C0DF256EC4}
  9
$EXTNAMES
290
     1
  9
$PSVPSCALE
 40
0.0
  9
$OLESTARTUP
290
     0
  9
$SORTENTS
280
   127
  9
$INDEXCTL
280
     0
  9
$HIDETEXT
280
     1
  9
$XCLIPFRAME
280
     2
  9
$HALOGAP
280
     0
  9
$OBSCOLOR
 70
   257
  9
$OBSLTYPE
280
     0
  9
$INTERSECTIONDISPLAY
280
     0
  9
$INTERSECTIONCOLOR
 70
   257
  9
$DIMASSOC
280
     2
  9
$PROJECTNAME
  1

  9
$CAMERADISPLAY
290
     0
  9
$LENSLENGTH
 40
50.0
  9
$CAMERAHEIGHT
 40
0.0
  9
$STEPSPERSEC
 40
2.0
  9
$STEPSIZE
 40
6.0
  9
$3DDWFPREC
 40
2.0
  9
$PSOLWIDTH
 40
0.25
  9
$PSOLHEIGHT
 40
4.0
  9
$LOFTANG1
 40
1.570796326794897
  9
$LOFTANG2
 40
1.570796326794897
  9
$LOFTMAG1
 40
0.0
  9
$LOFTMAG2
 40
0.0
  9
$LOFTPARAM
 70
     7
  9
$LOFTNORMALS
280
     1
  9
$LATITUDE
 40
37.795
  9
$LONGITUDE
 40
-122.394
  9
$NORTHDIRECTION
 40
0.0
  9
$TIMEZONE
 70
 -8000
  9
$LIGHTGLYPHDISPLAY
280
     1
  9
$TILEMODELIGHTSYNCH
280
     1
  9
$CMATERIAL
347
3C
  9
$SOLIDHIST
280
     1
  9
$SHOWHIST
280
     1
  9
$DWFFRAME
280
     2
  9
$DGNFRAME
280
     2
  9
$REALWORLDSCALE
290
     1
  9
$INTERFERECOLOR
 62
   256
  9
$CSHADOW
280
     0
  9
$SHADOWPLANELOCATION
 40
0.0
  0
ENDSEC
  0
SECTION
  2
CLASSES
  0
CLASS
  1
ACDBDICTIONARYWDFLT
  2
AcDbDictionaryWithDefault
  3
ObjectDBX Classes
 90
        0
 91
        4
280
     0
281
     0
  0
CLASS
  1
VISUALSTYLE
  2
AcDbVisualStyle
  3
ObjectDBX Classes
 90
     4095
 91
        4
280
     0
281
     0
  0
CLASS
  1
MATERIAL
  2
AcDbMaterial
  3
ObjectDBX Classes
 90
     1153
 91
        4
280
     0
281
     0
  0
CLASS
  1
SUN
  2
AcDbSun
  3
SCENEOE
 90
     1024
 91
        4
280
     0
281
     0
  0
ENDSEC
  0
SECTION
  2
TABLES
  0
TABLE
  2
VPORT
  5
8
330
0
100
AcDbSymbolTable
 70
     1
  0
VPORT
  5
29
330
8
100
AcDbSymbolTableRecord
100
AcDbViewportTableRecord
  2
*Active
 70
     0
 10
0.0
 20
0.0
 11
1.0
 21
1.0
 12
0.0
 22
0.0
 13
0.0
 23
0.0
 14
0.5
 24
0.5
 15
0.5
 25
0.5
 16
0.0
 26
0.0
 36
1.0
 17
63.499999984125
 27
-89.00059456108309
 37
0.0
 40
178.0011891221662
 41
0.7134783795241226
 42
50.0
 43
0.0
 44
0.0
 50
0.0
 51
0.0
 71
     0
 72
   100
 73
     1
 74
     3
 75
     0
 76
     0
 77
     0
 78
     0
281
     0
 65
     1
110
0.0
120
0.0
130
0.0
111
1.0
121
0.0
131
0.0
112
0.0
122
1.0
132
0.0
 79
     0
146
0.0
 60
     3
 61
     5
292
     1
282
     1
141
0.0
142
0.0
 63
   250
361
3F
  0
ENDTAB
  0
TABLE
  2
LTYPE
  5
5
330
0
100
AcDbSymbolTable
 70
     4
  0
LTYPE
  5
14
330
5
100
AcDbSymbolTableRecord
100
AcDbLinetypeTableRecord
  2
ByBlock
 70
     0
  3

 72
    65
 73
     0
 40
0.0
  0
LTYPE
  5
15
330
5
100
AcDbSymbolTableRecord
100
AcDbLinetypeTableRecord
  2
ByLayer
 70
     0
  3

 72
    65
 73
     0
 40
0.0
  0
LTYPE
  5
16
330
5
100
AcDbSymbolTableRecord
100
AcDbLinetypeTableRecord
  2
Continuous
 70
     0
  3
Solid line
 72
    65
 73
     0
 40
0.0
  0
LTYPE
  5
6C
330
5
100
AcDbSymbolTableRecord
100
AcDbLinetypeTableRecord
  2
AI-Linetype-1
 70
     0
  3
Adobe Illustrator Linetype No. 1
 72
    65
 73
     2
 40
1.411111110758333
 49
0.7055555553791667
 74
     0
 49
-0.7055555553791667
 74
     0
  0
LTYPE
  5
71
330
5
100
AcDbSymbolTableRecord
100
AcDbLinetypeTableRecord
  2
AI-Linetype-2
 70
     0
  3
Adobe Illustrator Linetype No. 2
 72
    65
 73
     2
 40
1.411111110758333
 49
0.7055555553791667
 74
     0
 49
-0.7055555553791667
 74
     0
  0
LTYPE
  5
76
330
5
100
AcDbSymbolTableRecord
100
AcDbLinetypeTableRecord
  2
AI-Linetype-3
 70
     0
  3
Adobe Illustrator Linetype No. 3
 72
    65
 73
     2
 40
1.411111110758333
 49
0.7055555553791667
 74
     0
 49
-0.7055555553791667
 74
     0
  0
ENDTAB
  0
TABLE
  2
LAYER
  5
2
330
0
100
AcDbSymbolTable
 70
     2
  0
LAYER
  5
10
330
2
100
AcDbSymbolTableRecord
100
AcDbLayerTableRecord
  2
0
 70
     0
 62
     7
  6
Continuous
370
    -3
390
F
347
3E
  0
LAYER
  5
40
330
2
100
AcDbSymbolTableRecord
100
AcDbLayerTableRecord
  2
_U+30EC_U+30A4_U+30E4_U+30FC 1
 70
     0
 62
     7
  6
Continuous
370
    -3
390
F
347
3E
  0
ENDTAB
  0
TABLE
  2
STYLE
  5
3
330
0
100
AcDbSymbolTable
 70
     1
  0
STYLE
  5
11
330
3
100
AcDbSymbolTableRecord
100
AcDbTextStyleTableRecord
  2
Standard
 70
     0
 40
0.0
 41
1.0
 50
0.0
 71
     0
 42
0.2
  3
txt
  4

  0
ENDTAB
  0
TABLE
  2
VIEW
  5
6
330
0
100
AcDbSymbolTable
 70
     0
  0
ENDTAB
  0
TABLE
  2
UCS
  5
7
330
0
100
AcDbSymbolTable
 70
     0
  0
ENDTAB
  0
TABLE
  2
APPID
  5
9
330
0
100
AcDbSymbolTable
 70
     1
  0
APPID
  5
12
330
9
100
AcDbSymbolTableRecord
100
AcDbRegAppTableRecord
  2
ACAD
 70
     0
  0
ENDTAB
  0
TABLE
  2
DIMSTYLE
  5
A
330
0
100
AcDbSymbolTable
 70
     1
100
AcDbDimStyleTable
  0
DIMSTYLE
105
27
330
A
100
AcDbSymbolTableRecord
100
AcDbDimStyleTableRecord
  2
Standard
 70
     0
178
     0
340
11
  0
ENDTAB
  0
TABLE
  2
BLOCK_RECORD
  5
1
330
0
100
AcDbSymbolTable
 70
     8
  0
BLOCK_RECORD
  5
1F
330
1
100
AcDbSymbolTableRecord
100
AcDbBlockTableRecord
  2
*Model_Space
340
22
 70
     0
280
     1
281
     0
  0
BLOCK_RECORD
  5
1B
330
1
100
AcDbSymbolTableRecord
100
AcDbBlockTableRecord
  2
*Paper_Space
340
1E
 70
     0
280
     1
281
     0
  0
BLOCK_RECORD
  5
23
330
1
100
AcDbSymbolTableRecord
100
AcDbBlockTableRecord
  2
*Paper_Space0
340
26
 70
     0
280
     1
281
     0
  0
BLOCK_RECORD
  5
50
330
1
100
AcDbSymbolTableRecord
100
AcDbBlockTableRecord
  2
block 2
340
0
102
{BLKREFS
331
51
102
}
 70
     0
280
     1
281
     0
  0
BLOCK_RECORD
  5
61
330
1
100
AcDbSymbolTableRecord
100
AcDbBlockTableRecord
  2
block 3
340
0
102
{BLKREFS
331
62
102
}
 70
     0
280
     1
281
     0
  0
BLOCK_RECORD
  5
A6
330
1
100
AcDbSymbolTableRecord
100
AcDbBlockTableRecord
  2
block 4
340
0
102
{BLKREFS
331
A7
102
}
 70
     0
280
     1
281
     0
  0
BLOCK_RECORD
  5
B8
330
1
100
AcDbSymbolTableRecord
100
AcDbBlockTableRecord
  2
block 5
340
0
102
{BLKREFS
331
B9
102
}
 70
     0
280
     1
281
     0
  0
BLOCK_RECORD
  5
BE
330
1
100
AcDbSymbolTableRecord
100
AcDbBlockTableRecord
  2
block 6
340
0
102
{BLKREFS
331
BF
102
}
 70
     0
280
     1
281
     0
  0
BLOCK_RECORD
  5
DD
330
1
100
AcDbSymbolTableRecord
100
AcDbBlockTableRecord
  2
block 7
340
0
102
{BLKREFS
331
DE
102
}
 70
     0
280
     1
281
     0
  0
BLOCK_RECORD
  5
E9
330
1
100
AcDbSymbolTableRecord
100
AcDbBlockTableRecord
  2
block 8
340
0
102
{BLKREFS
331
EA
102
}
 70
     0
280
     1
281
     0
  0
ENDTAB
  0
ENDSEC
  0
SECTION
  2
BLOCKS
  0
BLOCK
  5
20
330
1F
100
AcDbEntity
  8
0
100
AcDbBlockBegin
  2
*Model_Space
 70
     0
 10
0.0
 20
0.0
 30
0.0
  3
*Model_Space
  1

  0
ENDBLK
  5
21
330
1F
100
AcDbEntity
  8
0
100
AcDbBlockEnd
  0
BLOCK
  5
1C
330
1B
100
AcDbEntity
 67
     1
  8
0
100
AcDbBlockBegin
  2
*Paper_Space
 70
     0
 10
0.0
 20
0.0
 30
0.0
  3
*Paper_Space
  1

  0
ENDBLK
  5
1D
330
1B
100
AcDbEntity
 67
     1
  8
0
100
AcDbBlockEnd
  0
BLOCK
  5
24
330
23
100
AcDbEntity
  8
0
100
AcDbBlockBegin
  2
*Paper_Space0
 70
     0
 10
0.0
 20
0.0
 30
0.0
  3
*Paper_Space0
  1

  0
ENDBLK
  5
25
330
23
100
AcDbEntity
  8
0
100
AcDbBlockEnd
  0
BLOCK
  5
52
330
50
100
AcDbEntity
  8
0
100
AcDbBlockBegin
  2
block 2
 70
     0
 10
0.0
 20
0.0
 30
0.0
  3
block 2
  1

  0
SPLINE
  5
54
330
50
100
AcDbEntity
  8
_U+30EC_U+30A4_U+30E4_U+30FC 1
370
     0
100
AcDbSpline
210
0.0
220
0.0
230
1.0
 70
    11
 71
     3
 72
    26
 73
    22
 74
     0
 42
0.0000000001
 43
0.0000000001
 12
1.0
 22
0.0
 32
0.0
 13
1.0
 23
0.0
 33
0.0
 40
0.0
 40
0.0
 40
0.0
 40
0.0
 40
1.0
 40
1.0
 40
1.0
 40
2.0
 40
2.0
 40
2.0
 40
3.0
 40
3.0
 40
3.0
 40
4.0
 40
4.0
 40
4.0
 40
5.0
 40
5.0
 40
5.0
 40
6.0
 40
6.0
 40
6.0
 40
7.0
 40
7.0
 40
7.0
 40
7.0
 10
58.72027450788938
 20
-101.5838080258193
 30
0.0
 10
58.72027450788938
 20
-101.5838080258193
 30
0.0
 10
58.72027450788938
 20
-100.4796549227968
 30
0.0
 10
58.72027450788938
 20
-100.4796549227968
 30
0.0
 10
58.72027450788938
 20
-100.4796549227968
 30
0.0
 10
58.39023436040245
 20
-100.4796549227968
 30
0.0
 10
58.39023436040245
 20
-100.4796549227968
 30
0.0
 10
58.39023436040245
 20
-100.4796549227968
 30
0.0
 10
58.39023436040245
 20
-100.331515816931
 30
0.0
 10
58.39023436040245
 20
-100.331515816931
 30
0.0
 10
58.72234156518053
 20
-100.3167019063444
 30
0.0
 10
58.7688503542314
 20
-100.1537488898921
 30
0.0
 10
58.79847817540455
 20
-100.0393717197818
 30
0.0
 10
58.79847817540455
 20
-100.0393717197818
 30
0.0
 10
58.94455022397914
 20
-100.0393717197818
 30
0.0
 10
58.94455022397914
 20
-100.0393717197818
 30
0.0
 10
58.94455022397914
 20
-100.0393717197818
 30
0.0
 10
58.94455022397914
 20
-101.5838080258193
 30
0.0
 10
58.94455022397914
 20
-101.5838080258193
 30
0.0
 10
58.94455022397914
 20
-101.5838080258193
 30
0.0
 10
58.72027450788938
 20
-101.5838080258193
 30
0.0
 10
58.72027450788938
 20
-101.5838080258193
 30
0.0
  0
HATCH
  5
55
330
50
100
AcDbEntity
  8
_U+30EC_U+30A4_U+30E4_U+30FC 1
 62
   179
420
  2234388
100
AcDbHatch
 10
0.0
 20
0.0
 30
0.0
210
0.0
220
0.0
230
1.0
  2
SOLID
 70
     1
 71
     0
 91
        1
 92
        1
 93
        1
 72
     4
 94
        3
 73
     0
 74
     1
 95
       26
 96
       22
 40
0.0
 40
0.0
 40
0.0
 40
0.0
 40
1.0
 40
1.0
 40
1.0
 40
2.0
 40
2.0
 40
2.0
 40
3.0
 40
3.0
 40
3.0
 40
4.0
 40
4.0
 40
4.0
 40
5.0
 40
5.0
 40
5.0
 40
6.0
 40
6.0
 40
6.0
 40
7.0
 40
7.0
 40
7.0
 40
7.0
 10
58.72027450788938
 20
-101.5838080258193
 10
58.72027450788938
 20
-101.5838080258193
 10
58.72027450788938
 20
-100.4796549227968
 10
58.72027450788938
 20
-100.4796549227968
 10
58.72027450788938
 20
-100.4796549227968
 10
58.39023436040245
 20
-100.4796549227968
 10
58.39023436040245
 20
-100.4796549227968
 10
58.39023436040245
 20
-100.4796549227968
 10
58.39023436040245
 20
-100.331515816931
 10
58.39023436040245
 20
-100.331515816931
 10
58.72234156518053
 20
-100.3167019063444
 10
58.7688503542314
 20
-100.1537488898921
 10
58.79847817540455
 20
-100.0393717197818
 10
58.79847817540455
 20
-100.0393717197818
 10
58.94455022397914
 20
-100.0393717197818
 10
58.94455022397914
 20
-100.0393717197818
 10
58.94455022397914
 20
-100.0393717197818
 10
58.94455022397914
 20
-101.5838080258193
 10
58.94455022397914
 20
-101.5838080258193
 10
58.94455022397914
 20
-101.5838080258193
 10
58.72027450788938
 20
-101.5838080258193
 10
58.72027450788938
 20
-101.5838080258193
 97
        0
 97
        0
 75
     2
 76
     1
 98
        0
  0
SPLINE
  5
56
330
50
100
AcDbEntity
  8
_U+30EC_U+30A4_U+30E4_U+30FC 1
370
     0
100
AcDbSpline
210
0.0
220
0.0
230
1.0
 70
    11
 71
     3
 72
    29
 73
    25
 74
     0
 42
0.0000000001
 43
0.0000000001
 12
1.0
 22
0.0
 32
0.0
 13
1.0
 23
0.0
 33
0.0
 40
0.0
 40
0.0
 40
0.0
 40
0.0
 40
1.0
 40
1.0
 40
1.0
 40
2.0
 40
2.0
 40
2.0
 40
3.0
 40
3.0
 40
3.0
 40
4.0
 40
4.0
 40
4.0
 40
5.0
 40
5.0
 40
5.0
 40
6.0
 40
6.0
 40
6.0
 40
7.0
 40
7.0
 40
7.0
 40
8.0
 40
8.0
 40
8.0
 40
8.0
 10
60.3436035005391
 20
-101.4060410987804
 30
0.0
 10
60.23542750230226
 20
-101.6155029042836
 30
0.0
 10
60.06213919939419
 20
-101.6344509294525
 30
0.0
 10
59.94569497199274
 20
-101.6344509294525
 30
0.0
 10
59.78480901283158
 20
-101.6344509294525
 30
0.0
 10
59.64321558838781
 20
-101.5879421404016
 30
0.0
 10
59.54813095299492
 20
-101.4060410987804
 30
0.0
 10
59.4444335788889
 20
-101.2113932038638
 30
0.0
 10
59.4251410441715
 20
-100.9747151440272
 30
0.0
 10
59.4251410441715
 20
-100.8117621275748
 30
0.0
 10
59.4251410441715
 20
-100.6677571362914
 30
0.0
 10
59.44236652159775
 20
-100.4159206563196
 30
0.0
 10
59.54813095299492
 20
-100.2171386468207
 30
0.0
 10
59.65596244168324
 20
-100.0142225227395
 30
0.0
 10
59.8168484008444
 20
-99.99079587343981
 30
0.0
 10
59.94569497199274
 20
-99.99079587343981
 30
0.0
 10
60.10451387386276
 20
-99.99079587343981
 30
0.0
 10
60.24817435559768
 20
-100.0352376051995
 30
0.0
 10
60.3436035005391
 20
-100.2171386468207
 30
0.0
 10
60.4428222505143
 20
-100.4097194844462
 30
0.0
 10
60.466248899814
 20
-100.6381293151182
 30
0.0
 10
60.466248899814
 20
-100.8117621275748
 30
0.0
 10
60.466248899814
 20
-100.9829833731918
 30
0.0
 10
60.44488930780545
 20
-101.213460261155
 30
0.0
 10
60.3436035005391
 20
-101.4060410987804
 30
0.0
  0
SPLINE
  5
57
330
50
100
AcDbEntity
  8
_U+30EC_U+30A4_U+30E4_U+30FC 1
370
     0
100
AcDbSpline
210
0.0
220
0.0
230
1.0
 70
    11
 71
     3
 72
    17
 73
    13
 74
     0
 42
0.0000000001
 43
0.0000000001
 12
1.0
 22
0.0
 32
0.0
 13
1.0
 23
0.0
 33
0.0
 40
0.0
 40
0.0
 40
0.0
 40
0.0
 40
1.0
 40
1.0
 40
1.0
 40
2.0
 40
2.0
 40
2.0
 40
3.0
 40
3.0
 40
3.0
 40
4.0
 40
4.0
 40
4.0
 40
4.0
 10
59.94569497199274
 20
-100.1833767110653
 30
0.0
 10
59.69592554931213
 20
-100.1833767110653
 30
0.0
 10
59.64941676026126
 20
-100.4669080695013
 30
0.0
 10
59.64941676026126
 20
-100.8117621275748
 30
0.0
 10
59.64941676026126
 20
-101.1311224790575
 30
0.0
 10
59.68559026285638
 20
-101.4398030345359
 30
0.0
 10
59.94569497199274
 20
-101.4398030345359
 30
0.0
 10
60.19339733738221
 20
-101.4398030345359
 30
0.0
 10
60.24197318372423
 20
-101.1586832429395
 30
0.0
 10
60.24197318372423
 20
-100.8117621275748
 30
0.0
 10
60.24197318372423
 20
-100.4920572665437
 30
0.0
 10
60.20373262383796
 20
-100.1833767110653
 30
0.0
 10
59.94569497199274
 20
-100.1833767110653
 30
0.0
  0
HATCH
  5
58
330
50
100
AcDbEntity
  8
_U+30EC_U+30A4_U+30E4_U+30FC 1
 62
   179
420
  2234388
100
AcDbHatch
 10
0.0
 20
0.0
 30
0.0
210
0.0
220
0.0
230
1.0
  2
SOLID
 70
     1
 71
     0
 91
        2
 92
        1
 93
        1
 72
     4
 94
        3
 73
     0
 74
     1
 95
       29
 96
       25
 40
0.0
 40
0.0
 40
0.0
 40
0.0
 40
1.0
 40
1.0
 40
1.0
 40
2.0
 40
2.0
 40
2.0
 40
3.0
 40
3.0
 40
3.0
 40
4.0
 40
4.0
 40
4.0
 40
5.0
 40
5.0
 40
5.0
 40
6.0
 40
6.0
 40
6.0
 40
7.0
 40
7.0
 40
7.0
 40
8.0
 40
8.0
 40
8.0
 40
8.0
 10
60.3436035005391
 20
-101.4060410987804
 10
60.23542750230226
 20
-101.6155029042836
 10
60.06213919939419
 20
-101.6344509294525
 10
59.94569497199274
 20
-101.6344509294525
 10
59.78480901283158
 20
-101.6344509294525
 10
59.64321558838781
 20
-101.5879421404016
 10
59.54813095299492
 20
-101.4060410987804
 10
59.4444335788889
 20
-101.2113932038638
 10
59.4251410441715
 20
-100.9747151440272
 10
59.4251410441715
 20
-100.8117621275748
 10
59.4251410441715
 20
-100.6677571362914
 10
59.44236652159775
 20
-100.4159206563196
 10
59.54813095299492
 20
-100.2171386468207
 10
59.65596244168324
 20
-100.0142225227395
 10
59.8168484008444
 20
-99.99079587343981
 10
59.94569497199274
 20
-99.99079587343981
 10
60.10451387386276
 20
-99.99079587343981
 10
60.24817435559768
 20
-100.0352376051995
 10
60.3436035005391
 20
-100.2171386468207
 10
60.4428222505143
 20
-100.4097194844462
 10
60.466248899814
 20
-100.6381293151182
 10
60.466248899814
 20
-100.8117621275748
 10
60.466248899814
 20
-100.9829833731918
 10
60.44488930780545
 20
-101.213460261155
 10
60.3436035005391
 20
-101.4060410987804
 97
        0
 97
        0
 92
        1
 93
        1
 72
     4
 94
        3
 73
     0
 74
     1
 95
       17
 96
       13
 40
0.0
 40
0.0
 40
0.0
 40
0.0
 40
1.0
 40
1.0
 40
1.0
 40
2.0
 40
2.0
 40
2.0
 40
3.0
 40
3.0
 40
3.0
 40
4.0
 40
4.0
 40
4.0
 40
4.0
 10
59.94569497199274
 20
-100.1833767110653
 10
59.69592554931213
 20
-100.1833767110653
 10
59.64941676026126
 20
-100.4669080695013
 10
59.64941676026126
 20
-100.8117621275748
 10
59.64941676026126
 20
-101.1311224790575
 10
59.68559026285638
 20
-101.4398030345359
 10
59.94569497199274
 20
-101.4398030345359
 10
60.19339733738221
 20
-101.4398030345359
 10
60.24197318372423
 20
-101.1586832429395
 10
60.24197318372423
 20
-100.8117621275748
 10
60.24197318372423
 20
-100.4920572665437
 10
60.20373262383796
 20
-100.1833767110653
 10
59.94569497199274
 20
-100.1833767110653
 97
        0
 97
        0
 75
     2
 76
     1
 98
        0
  0
ENDBLK
  5
53
330
50
100
AcDbEntity
  8
0
100
AcDbBlockEnd
  0
BLOCK
  5
63
330
61
100
AcDbEntity
  8
0
100
AcDbBlockBegin
  2
block 3
 70
     0
 10
0.0
 20
0.0
 30
0.0
  3
block 3
  1

  0
SPLINE
  5
65
330
61
100
AcDbEntity
  8
_U+30EC_U+30A4_U+30E4_U+30FC 1
370
     0
100
AcDbSpline
210
0.0
220
0.0
230
1.0
 70
    11
 71
     3
 72
    26
 73
    22
 74
     0
 42
0.0000000001
 43
0.0000000001
 12
1.0
 22
0.0
 32
0.0
 13
1.0
 23
0.0
 33
0.0
 40
0.0
 40
0.0
 40
0.0
 40
0.0
 40
1.0
 40
1.0
 40
1.0
 40
2.0
 40
2.0
 40
2.0
 40
3.0
 40
3.0
 40
3.0
 40
4.0
 40
4.0
 40
4.0
 40
5.0
 40
5.0
 40
5.0
 40
6.0
 40
6.0
 40
6.0
 40
7.0
 40
7.0
 40
7.0
 40
7.0
 10
47.72042913303518
 20
-101.5838080258193
 30
0.0
 10
47.72042913303518
 20
-101.5838080258193
 30
0.0
 10
47.72042913303518
 20
-100.4796549227968
 30
0.0
 10
47.72042913303518
 20
-100.4796549227968
 30
0.0
 10
47.72042913303518
 20
-100.4796549227968
 30
0.0
 10
47.39038898554823
 20
-100.4796549227968
 30
0.0
 10
47.39038898554823
 20
-100.4796549227968
 30
0.0
 10
47.39038898554823
 20
-100.4796549227968
 30
0.0
 10
47.39038898554823
 20
-100.331515816931
 30
0.0
 10
47.39038898554823
 20
-100.331515816931
 30
0.0
 10
47.72249619032632
 20
-100.3167019063444
 30
0.0
 10
47.76900497937719
 20
-100.1537488898921
 30
0.0
 10
47.79863280055034
 20
-100.0393717197818
 30
0.0
 10
47.79863280055034
 20
-100.0393717197818
 30
0.0
 10
47.94470484912494
 20
-100.0393717197818
 30
0.0
 10
47.94470484912494
 20
-100.0393717197818
 30
0.0
 10
47.94470484912494
 20
-100.0393717197818
 30
0.0
 10
47.94470484912494
 20
-101.5838080258193
 30
0.0
 10
47.94470484912494
 20
-101.5838080258193
 30
0.0
 10
47.94470484912494
 20
-101.5838080258193
 30
0.0
 10
47.72042913303518
 20
-101.5838080258193
 30
0.0
 10
47.72042913303518
 20
-101.5838080258193
 30
0.0
  0
HATCH
  5
66
330
61
100
AcDbEntity
  8
_U+30EC_U+30A4_U+30E4_U+30FC 1
 62
   179
420
  2234388
100
AcDbHatch
 10
0.0
 20
0.0
 30
0.0
210
0.0
220
0.0
230
1.0
  2
SOLID
 70
     1
 71
     0
 91
        1
 92
        1
 93
        1
 72
     4
 94
        3
 73
     0
 74
     1
 95
       26
 96
       22
 40
0.0
 40
0.0
 40
0.0
 40
0.0
 40
1.0
 40
1.0
 40
1.0
 40
2.0
 40
2.0
 40
2.0
 40
3.0
 40
3.0
 40
3.0
 40
4.0
 40
4.0
 40
4.0
 40
5.0
 40
5.0
 40
5.0
 40
6.0
 40
6.0
 40
6.0
 40
7.0
 40
7.0
 40
7.0
 40
7.0
 10
47.72042913303518
 20
-101.5838080258193
 10
47.72042913303518
 20
-101.5838080258193
 10
47.72042913303518
 20
-100.4796549227968
 10
47.72042913303518
 20
-100.4796549227968
 10
47.72042913303518
 20
-100.4796549227968
 10
47.39038898554823
 20
-100.4796549227968
 10
47.39038898554823
 20
-100.4796549227968
 10
47.39038898554823
 20
-100.4796549227968
 10
47.39038898554823
 20
-100.331515816931
 10
47.39038898554823
 20
-100.331515816931
 10
47.72249619032632
 20
-100.3167019063444
 10
47.76900497937719
 20
-100.1537488898921
 10
47.79863280055034
 20
-100.0393717197818
 10
47.79863280055034
 20
-100.0393717197818
 10
47.94470484912494
 20
-100.0393717197818
 10
47.94470484912494
 20
-100.0393717197818
 10
47.94470484912494
 20
-100.0393717197818
 10
47.94470484912494
 20
-101.5838080258193
 10
47.94470484912494
 20
-101.5838080258193
 10
47.94470484912494
 20
-101.5838080258193
 10
47.72042913303518
 20
-101.5838080258193
 10
47.72042913303518
 20
-101.5838080258193
 97
        0
 97
        0
 75
     2
 76
     1
 98
        0
  0
SPLINE
  5
67
330
61
100
AcDbEntity
  8
_U+30EC_U+30A4_U+30E4_U+30FC 1
370
     0
100
AcDbSpline
210
0.0
220
0.0
230
1.0
 70
    11
 71
     3
 72
    44
 73
    40
 74
     0
 42
0.0000000001
 43
0.0000000001
 12
1.0
 22
0.0
 32
0.0
 13
1.0
 23
0.0
 33
0.0
 40
0.0
 40
0.0
 40
0.0
 40
0.0
 40
1.0
 40
1.0
 40
1.0
 40
2.0
 40
2.0
 40
2.0
 40
3.0
 40
3.0
 40
3.0
 40
4.0
 40
4.0
 40
4.0
 40
5.0
 40
5.0
 40
5.0
 40
6.0
 40
6.0
 40
6.0
 40
7.0
 40
7.0
 40
7.0
 40
8.0
 40
8.0
 40
8.0
 40
9.0
 40
9.0
 40
9.0
 40
10.0
 40
10.0
 40
10.0
 40
11.0
 40
11.0
 40
11.0
 40
12.0
 40
12.0
 40
12.0
 40
13.0
 40
13.0
 40
13.0
 40
13.0
 10
49.03903943001455
 20
-101.0019313983606
 30
0.0
 10
48.8211371405725
 20
-101.1607503002306
 30
0.0
 10
48.72794730769649
 20
-101.2348198531635
 30
0.0
 10
48.67937146135446
 20
-101.3784803348984
 30
0.0
 10
48.67937146135446
 20
-101.3784803348984
 30
0.0
 10
49.45779078624667
 20
-101.3784803348984
 30
0.0
 10
49.45779078624667
 20
-101.3784803348984
 30
0.0
 10
49.45779078624667
 20
-101.3784803348984
 30
0.0
 10
49.45779078624667
 20
-101.5838080258193
 30
0.0
 10
49.45779078624667
 20
-101.5838080258193
 30
0.0
 10
49.45779078624667
 20
-101.5838080258193
 30
0.0
 10
48.42977429344811
 20
-101.5838080258193
 30
0.0
 10
48.42977429344811
 20
-101.5838080258193
 30
0.0
 10
48.46146917191241
 20
-101.2262071144504
 30
0.0
 10
48.52692598613216
 20
-101.1480034469352
 30
0.0
 10
48.91208766138309
 20
-100.8496581779126
 30
0.0
 10
49.16805825593715
 20
-100.6508761684137
 30
0.0
 10
49.2335150701569
 20
-100.5830077873542
 30
0.0
 10
49.2335150701569
 20
-100.4455484774928
 30
0.0
 10
49.2335150701569
 20
-100.3270371928002
 30
0.0
 10
49.16168482928944
 20
-100.1961235643607
 30
0.0
 10
48.96496987708168
 20
-100.1961235643607
 30
0.0
 10
48.70469291317105
 20
-100.1961235643607
 30
0.0
 10
48.69625242923219
 20
-100.4266004523239
 30
0.0
 10
48.69194605987563
 20
-100.5430446797254
 30
0.0
 10
48.69194605987563
 20
-100.5430446797254
 30
0.0
 10
48.46784259856013
 20
-100.5430446797254
 30
0.0
 10
48.46784259856013
 20
-100.5430446797254
 30
0.0
 10
48.47628308249899
 20
-100.4159206563196
 30
0.0
 10
48.486790623729
 20
-100.303955053049
 30
0.0
 10
48.56723360330958
 20
-100.1854437683564
 30
0.0
 10
48.67713214928905
 20
-100.0245578091953
 30
0.0
 10
48.86333956026681
 20
-99.99079587343981
 30
0.0
 10
48.97978378766825
 20
-99.99079587343981
 30
0.0
 10
49.2569417194566
 20
-99.99079587343981
 30
0.0
 10
49.46416421289437
 20
-100.1747639723522
 30
0.0
 10
49.46416421289437
 20
-100.4476155347839
 30
0.0
 10
49.46416421289437
 20
-100.6763698750045
 30
0.0
 10
49.34789224026719
 20
-100.7755886249797
 30
0.0
 10
49.03903943001455
 20
-101.0019313983606
 30
0.0
  0
HATCH
  5
68
330
61
100
AcDbEntity
  8
_U+30EC_U+30A4_U+30E4_U+30FC 1
 62
   179
420
  2234388
100
AcDbHatch
 10
0.0
 20
0.0
 30
0.0
210
0.0
220
0.0
230
1.0
  2
SOLID
 70
     1
 71
     0
 91
        1
 92
        1
 93
        1
 72
     4
 94
        3
 73
     0
 74
     1
 95
       44
 96
       40
 40
0.0
 40
0.0
 40
0.0
 40
0.0
 40
1.0
 40
1.0
 40
1.0
 40
2.0
 40
2.0
 40
2.0
 40
3.0
 40
3.0
 40
3.0
 40
4.0
 40
4.0
 40
4.0
 40
5.0
 40
5.0
 40
5.0
 40
6.0
 40
6.0
 40
6.0
 40
7.0
 40
7.0
 40
7.0
 40
8.0
 40
8.0
 40
8.0
 40
9.0
 40
9.0
 40
9.0
 40
10.0
 40
10.0
 40
10.0
 40
11.0
 40
11.0
 40
11.0
 40
12.0
 40
12.0
 40
12.0
 40
13.0
 40
13.0
 40
13.0
 40
13.0
 10
49.03903943001455
 20
-101.0019313983606
 10
48.8211371405725
 20
-101.1607503002306
 10
48.72794730769649
 20
-101.2348198531635
 10
48.67937146135446
 20
-101.3784803348984
 10
48.67937146135446
 20
-101.3784803348984
 10
49.45779078624667
 20
-101.3784803348984
 10
49.45779078624667
 20
-101.3784803348984
 10
49.45779078624667
 20
-101.3784803348984
 10
49.45779078624667
 20
-101.5838080258193
 10
49.45779078624667
 20
-101.5838080258193
 10
49.45779078624667
 20
-101.5838080258193
 10
48.42977429344811
 20
-101.5838080258193
 10
48.42977429344811
 20
-101.5838080258193
 10
48.46146917191241
 20
-101.2262071144504
 10
48.52692598613216
 20
-101.1480034469352
 10
48.91208766138309
 20
-100.8496581779126
 10
49.16805825593715
 20
-100.6508761684137
 10
49.2335150701569
 20
-100.5830077873542
 10
49.2335150701569
 20
-100.4455484774928
 10
49.2335150701569
 20
-100.3270371928002
 10
49.16168482928944
 20
-100.1961235643607
 10
48.96496987708168
 20
-100.1961235643607
 10
48.70469291317105
 20
-100.1961235643607
 10
48.69625242923219
 20
-100.4266004523239
 10
48.69194605987563
 20
-100.5430446797254
 10
48.69194605987563
 20
-100.5430446797254
 10
48.46784259856013
 20
-100.5430446797254
 10
48.46784259856013
 20
-100.5430446797254
 10
48.47628308249899
 20
-100.4159206563196
 10
48.486790623729
 20
-100.303955053049
 10
48.56723360330958
 20
-100.1854437683564
 10
48.67713214928905
 20
-100.0245578091953
 10
48.86333956026681
 20
-99.99079587343981
 10
48.97978378766825
 20
-99.99079587343981
 10
49.2569417194566
 20
-99.99079587343981
 10
49.46416421289437
 20
-100.1747639723522
 10
49.46416421289437
 20
-100.4476155347839
 10
49.46416421289437
 20
-100.6763698750045
 10
49.34789224026719
 20
-100.7755886249797
 10
49.03903943001455
 20
-101.0019313983606
 97
        0
 97
        0
 75
     2
 76
     1
 98
        0
  0
ENDBLK
  5
64
330
61
100
AcDbEntity
  8
0
100
AcDbBlockEnd
  0
BLOCK
  5
A8
330
A6
100
AcDbEntity
  8
0
100
AcDbBlockBegin
  2
block 4
 70
     0
 10
0.0
 20
0.0
 30
0.0
  3
block 4
  1

  0
SPLINE
  5
AA
330
A6
100
AcDbEntity
  8
_U+30EC_U+30A4_U+30E4_U+30FC 1
370
     0
100
AcDbSpline
210
0.0
220
0.0
230
1.0
 70
    11
 71
     3
 72
    26
 73
    22
 74
     0
 42
0.0000000001
 43
0.0000000001
 12
1.0
 22
0.0
 32
0.0
 13
1.0
 23
0.0
 33
0.0
 40
0.0
 40
0.0
 40
0.0
 40
0.0
 40
1.0
 40
1.0
 40
1.0
 40
2.0
 40
2.0
 40
2.0
 40
3.0
 40
3.0
 40
3.0
 40
4.0
 40
4.0
 40
4.0
 40
5.0
 40
5.0
 40
5.0
 40
6.0
 40
6.0
 40
6.0
 40
7.0
 40
7.0
 40
7.0
 40
7.0
 10
82.11247285273578
 20
-91.53067489031179
 30
0.0
 10
82.11247285273578
 20
-91.53067489031179
 30
0.0
 10
81.0083197497132
 20
-91.53067489031179
 30
0.0
 10
81.0083197497132
 20
-91.53067489031179
 30
0.0
 10
81.0083197497132
 20
-91.53067489031179
 30
0.0
 10
81.0083197497132
 20
-91.86071503779871
 30
0.0
 10
81.0083197497132
 20
-91.86071503779871
 30
0.0
 10
81.0083197497132
 20
-91.86071503779871
 30
0.0
 10
80.86018064384746
 20
-91.86071503779871
 30
0.0
 10
80.86018064384746
 20
-91.86071503779871
 30
0.0
 10
80.84536673326089
 20
-91.52860783302063
 30
0.0
 10
80.68241371680857
 20
-91.48209904396975
 30
0.0
 10
80.56803654669827
 20
-91.4524712227966
 30
0.0
 10
80.56803654669827
 20
-91.4524712227966
 30
0.0
 10
80.56803654669827
 20
-91.30639917422202
 30
0.0
 10
80.56803654669827
 20
-91.30639917422202
 30
0.0
 10
80.56803654669827
 20
-91.30639917422202
 30
0.0
 10
82.11247285273578
 20
-91.30639917422202
 30
0.0
 10
82.11247285273578
 20
-91.30639917422202
 30
0.0
 10
82.11247285273578
 20
-91.30639917422202
 30
0.0
 10
82.11247285273578
 20
-91.53067489031179
 30
0.0
 10
82.11247285273578
 20
-91.53067489031179
 30
0.0
  0
HATCH
  5
AB
330
A6
100
AcDbEntity
  8
_U+30EC_U+30A4_U+30E4_U+30FC 1
 62
   179
420
  2234388
100
AcDbHatch
 10
0.0
 20
0.0
 30
0.0
210
0.0
220
0.0
230
1.0
  2
SOLID
 70
     1
 71
     0
 91
        1
 92
        1
 93
        1
 72
     4
 94
        3
 73
     0
 74
     1
 95
       26
 96
       22
 40
0.0
 40
0.0
 40
0.0
 40
0.0
 40
1.0
 40
1.0
 40
1.0
 40
2.0
 40
2.0
 40
2.0
 40
3.0
 40
3.0
 40
3.0
 40
4.0
 40
4.0
 40
4.0
 40
5.0
 40
5.0
 40
5.0
 40
6.0
 40
6.0
 40
6.0
 40
7.0
 40
7.0
 40
7.0
 40
7.0
 10
82.11247285273578
 20
-91.53067489031179
 10
82.11247285273578
 20
-91.53067489031179
 10
81.0083197497132
 20
-91.53067489031179
 10
81.0083197497132
 20
-91.53067489031179
 10
81.0083197497132
 20
-91.53067489031179
 10
81.0083197497132
 20
-91.86071503779871
 10
81.0083197497132
 20
-91.86071503779871
 10
81.0083197497132
 20
-91.86071503779871
 10
80.86018064384746
 20
-91.86071503779871
 10
80.86018064384746
 20
-91.86071503779871
 10
80.84536673326089
 20
-91.52860783302063
 10
80.68241371680857
 20
-91.48209904396975
 10
80.56803654669827
 20
-91.4524712227966
 10
80.56803654669827
 20
-91.4524712227966
 10
80.56803654669827
 20
-91.30639917422202
 10
80.56803654669827
 20
-91.30639917422202
 10
80.56803654669827
 20
-91.30639917422202
 10
82.11247285273578
 20
-91.30639917422202
 10
82.11247285273578
 20
-91.30639917422202
 10
82.11247285273578
 20
-91.30639917422202
 10
82.11247285273578
 20
-91.53067489031179
 10
82.11247285273578
 20
-91.53067489031179
 97
        0
 97
        0
 75
     2
 76
     1
 98
        0
  0
SPLINE
  5
AC
330
A6
100
AcDbEntity
  8
_U+30EC_U+30A4_U+30E4_U+30FC 1
370
     0
100
AcDbSpline
210
0.0
220
0.0
230
1.0
 70
    11
 71
     3
 72
    53
 73
    49
 74
     0
 42
0.0000000001
 43
0.0000000001
 12
1.0
 22
0.0
 32
0.0
 13
1.0
 23
0.0
 33
0.0
 40
0.0
 40
0.0
 40
0.0
 40
0.0
 40
1.0
 40
1.0
 40
1.0
 40
2.0
 40
2.0
 40
2.0
 40
3.0
 40
3.0
 40
3.0
 40
4.0
 40
4.0
 40
4.0
 40
5.0
 40
5.0
 40
5.0
 40
6.0
 40
6.0
 40
6.0
 40
7.0
 40
7.0
 40
7.0
 40
8.0
 40
8.0
 40
8.0
 40
9.0
 40
9.0
 40
9.0
 40
10.0
 40
10.0
 40
10.0
 40
11.0
 40
11.0
 40
11.0
 40
12.0
 40
12.0
 40
12.0
 40
13.0
 40
13.0
 40
13.0
 40
14.0
 40
14.0
 40
14.0
 40
15.0
 40
15.0
 40
15.0
 40
16.0
 40
16.0
 40
16.0
 40
16.0
 10
82.16311575636895
 20
-90.32420245137729
 30
0.0
 10
82.16311575636895
 20
-90.40240611889246
 30
0.0
 10
82.14623478849123
 20
-90.50403643570733
 30
0.0
 10
82.08284503156263
 20
-90.6056667525222
 30
0.0
 10
81.97294648558315
 20
-90.77895505543026
 30
0.0
 10
81.84168834759514
 20
-90.80031464743881
 30
0.0
 10
81.73385685890682
 20
-90.81926267260769
 30
0.0
 10
81.73385685890682
 20
-90.81926267260769
 30
0.0
 10
81.73385685890682
 20
-90.59705401380907
 30
0.0
 10
81.73385685890682
 20
-90.59705401380907
 30
0.0
 10
81.93263886840573
 20
-90.5422769955936
 30
0.0
 10
81.96226668957888
 20
-90.41515297218788
 30
0.0
 10
81.96226668957888
 20
-90.32213539408613
 30
0.0
 10
81.96226668957888
 20
-90.18260902693352
 30
0.0
 10
81.86270343005516
 20
-90.03033580648548
 30
0.0
 10
81.6301594848008
 20
-90.03033580648548
 30
0.0
 10
81.37418889024673
 20
-90.03033580648548
 30
0.0
 10
81.30425345189616
 20
-90.21016979081551
 30
0.0
 10
81.30425345189616
 20
-90.33074813279926
 30
0.0
 10
81.30425345189616
 20
-90.36244301126357
 30
0.0
 10
81.30425345189616
 20
-90.50403643570733
 30
0.0
 10
81.43344453259303
 20
-90.59291989922677
 30
0.0
 10
81.43344453259303
 20
-90.59291989922677
 30
0.0
 10
81.41449650742416
 20
-90.76861976897452
 30
0.0
 10
81.41449650742416
 20
-90.76861976897452
 30
0.0
 10
81.41449650742416
 20
-90.76861976897452
 30
0.0
 10
80.56803654669827
 20
-90.64804142699077
 30
0.0
 10
80.56803654669827
 20
-90.64804142699077
 30
0.0
 10
80.56803654669827
 20
-90.64804142699077
 30
0.0
 10
80.56803654669827
 20
-89.8694498473243
 30
0.0
 10
80.56803654669827
 20
-89.8694498473243
 30
0.0
 10
80.56803654669827
 20
-89.8694498473243
 30
0.0
 10
80.7626844416149
 20
-89.8694498473243
 30
0.0
 10
80.7626844416149
 20
-89.8694498473243
 30
0.0
 10
80.7626844416149
 20
-89.8694498473243
 30
0.0
 10
80.7626844416149
 20
-90.48508841053845
 30
0.0
 10
80.7626844416149
 20
-90.48508841053845
 30
0.0
 10
80.7626844416149
 20
-90.48508841053845
 30
0.0
 10
81.18574216720357
 20
-90.5505452247582
 30
0.0
 10
81.18574216720357
 20
-90.5505452247582
 30
0.0
 10
81.15198023144812
 20
-90.48922252512075
 30
0.0
 10
81.1116726142707
 20
-90.40688474302328
 30
0.0
 10
81.1116726142707
 20
-90.28837345833068
 30
0.0
 10
81.1116726142707
 20
-90.03446992106778
 30
0.0
 10
81.29805228002272
 20
-89.79744735168259
 30
0.0
 10
81.61121145963192
 20
-89.79744735168259
 30
0.0
 10
81.92850475382343
 20
-89.79744735168259
 30
0.0
 10
82.16311575636895
 20
-90.02172306777236
 30
0.0
 10
82.16311575636895
 20
-90.32420245137729
 30
0.0
  0
HATCH
  5
AD
330
A6
100
AcDbEntity
  8
_U+30EC_U+30A4_U+30E4_U+30FC 1
 62
   179
420
  2234388
100
AcDbHatch
 10
0.0
 20
0.0
 30
0.0
210
0.0
220
0.0
230
1.0
  2
SOLID
 70
     1
 71
     0
 91
        1
 92
        1
 93
        1
 72
     4
 94
        3
 73
     0
 74
     1
 95
       53
 96
       49
 40
0.0
 40
0.0
 40
0.0
 40
0.0
 40
1.0
 40
1.0
 40
1.0
 40
2.0
 40
2.0
 40
2.0
 40
3.0
 40
3.0
 40
3.0
 40
4.0
 40
4.0
 40
4.0
 40
5.0
 40
5.0
 40
5.0
 40
6.0
 40
6.0
 40
6.0
 40
7.0
 40
7.0
 40
7.0
 40
8.0
 40
8.0
 40
8.0
 40
9.0
 40
9.0
 40
9.0
 40
10.0
 40
10.0
 40
10.0
 40
11.0
 40
11.0
 40
11.0
 40
12.0
 40
12.0
 40
12.0
 40
13.0
 40
13.0
 40
13.0
 40
14.0
 40
14.0
 40
14.0
 40
15.0
 40
15.0
 40
15.0
 40
16.0
 40
16.0
 40
16.0
 40
16.0
 10
82.16311575636895
 20
-90.32420245137729
 10
82.16311575636895
 20
-90.40240611889246
 10
82.14623478849123
 20
-90.50403643570733
 10
82.08284503156263
 20
-90.6056667525222
 10
81.97294648558315
 20
-90.77895505543026
 10
81.84168834759514
 20
-90.80031464743881
 10
81.73385685890682
 20
-90.81926267260769
 10
81.73385685890682
 20
-90.81926267260769
 10
81.73385685890682
 20
-90.59705401380907
 10
81.73385685890682
 20
-90.59705401380907
 10
81.93263886840573
 20
-90.5422769955936
 10
81.96226668957888
 20
-90.41515297218788
 10
81.96226668957888
 20
-90.32213539408613
 10
81.96226668957888
 20
-90.18260902693352
 10
81.86270343005516
 20
-90.03033580648548
 10
81.6301594848008
 20
-90.03033580648548
 10
81.37418889024673
 20
-90.03033580648548
 10
81.30425345189616
 20
-90.21016979081551
 10
81.30425345189616
 20
-90.33074813279926
 10
81.30425345189616
 20
-90.36244301126357
 10
81.30425345189616
 20
-90.50403643570733
 10
81.43344453259303
 20
-90.59291989922677
 10
81.43344453259303
 20
-90.59291989922677
 10
81.41449650742416
 20
-90.76861976897452
 10
81.41449650742416
 20
-90.76861976897452
 10
81.41449650742416
 20
-90.76861976897452
 10
80.56803654669827
 20
-90.64804142699077
 10
80.56803654669827
 20
-90.64804142699077
 10
80.56803654669827
 20
-90.64804142699077
 10
80.56803654669827
 20
-89.8694498473243
 10
80.56803654669827
 20
-89.8694498473243
 10
80.56803654669827
 20
-89.8694498473243
 10
80.7626844416149
 20
-89.8694498473243
 10
80.7626844416149
 20
-89.8694498473243
 10
80.7626844416149
 20
-89.8694498473243
 10
80.7626844416149
 20
-90.48508841053845
 10
80.7626844416149
 20
-90.48508841053845
 10
80.7626844416149
 20
-90.48508841053845
 10
81.18574216720357
 20
-90.5505452247582
 10
81.18574216720357
 20
-90.5505452247582
 10
81.15198023144812
 20
-90.48922252512075
 10
81.1116726142707
 20
-90.40688474302328
 10
81.1116726142707
 20
-90.28837345833068
 10
81.1116726142707
 20
-90.03446992106778
 10
81.29805228002272
 20
-89.79744735168259
 10
81.61121145963192
 20
-89.79744735168259
 10
81.92850475382343
 20
-89.79744735168259
 10
82.16311575636895
 20
-90.02172306777236
 10
82.16311575636895
 20
-90.32420245137729
 97
        0
 97
        0
 75
     2
 76
     1
 98
        0
  0
POLYLINE
  5
AE
330
A6
100
AcDbEntity
  8
_U+30EC_U+30A4_U+30E4_U+30FC 1
370
     0
100
AcDb2dPolyline
 66
     1
 10
0.0
 20
0.0
 30
0.0
  0
VERTEX
  5
AF
330
AE
100
AcDbEntity
  8
_U+30EC_U+30A4_U+30E4_U+30FC 1
370
     0
100
AcDbVertex
100
AcDb2dVertex
 10
82.11247285273578
 20
-89.56834850191348
 30
0.0
  0
VERTEX
  5
B0
330
AE
100
AcDbEntity
  8
_U+30EC_U+30A4_U+30E4_U+30FC 1
370
     0
100
AcDbVertex
100
AcDb2dVertex
 10
81.860636372764
 20
-89.56834850191348
 30
0.0
  0
VERTEX
  5
B1
330
AE
100
AcDbEntity
  8
_U+30EC_U+30A4_U+30E4_U+30FC 1
370
     0
100
AcDbVertex
100
AcDb2dVertex
 10
81.860636372764
 20
-89.3165120219417
 30
0.0
  0
VERTEX
  5
B2
330
AE
100
AcDbEntity
  8
_U+30EC_U+30A4_U+30E4_U+30FC 1
370
     0
100
AcDbVertex
100
AcDb2dVertex
 10
82.11247285273578
 20
-89.3165120219417
 30
0.0
  0
VERTEX
  5
B3
330
AE
100
AcDbEntity
  8
_U+30EC_U+30A4_U+30E4_U+30FC 1
370
     0
100
AcDbVertex
100
AcDb2dVertex
 10
82.11247285273578
 20
-89.56834850191348
 30
0.0
  0
SEQEND
  5
B4
330
AE
100
AcDbEntity
  8
_U+30EC_U+30A4_U+30E4_U+30FC 1
370
     0
  0
HATCH
  5
B5
330
A6
100
AcDbEntity
  8
_U+30EC_U+30A4_U+30E4_U+30FC 1
 62
   179
420
  2234388
100
AcDbHatch
 10
0.0
 20
0.0
 30
0.0
210
0.0
220
0.0
230
1.0
  2
SOLID
 70
     1
 71
     0
 91
        1
 92
        1
 93
        4
 72
     1
 10
82.11247285273578
 20
-89.56834850191348
 11
81.860636372764
 21
-89.56834850191348
 72
     1
 10
81.860636372764
 20
-89.56834850191348
 11
81.860636372764
 21
-89.3165120219417
 72
     1
 10
81.860636372764
 20
-89.3165120219417
 11
82.11247285273578
 21
-89.3165120219417
 72
     1
 10
82.11247285273578
 20
-89.3165120219417
 11
82.11247285273578
 21
-89.56834850191348
 97
        0
 75
     2
 76
     1
 98
        0
  0
SPLINE
  5
B6
330
A6
100
AcDbEntity
  8
_U+30EC_U+30A4_U+30E4_U+30FC 1
370
     0
100
AcDbSpline
210
0.0
220
0.0
230
1.0
 70
    11
 71
     3
 72
    53
 73
    49
 74
     0
 42
0.0000000001
 43
0.0000000001
 12
1.0
 22
0.0
 32
0.0
 13
1.0
 23
0.0
 33
0.0
 40
0.0
 40
0.0
 40
0.0
 40
0.0
 40
1.0
 40
1.0
 40
1.0
 40
2.0
 40
2.0
 40
2.0
 40
3.0
 40
3.0
 40
3.0
 40
4.0
 40
4.0
 40
4.0
 40
5.0
 40
5.0
 40
5.0
 40
6.0
 40
6.0
 40
6.0
 40
7.0
 40
7.0
 40
7.0
 40
8.0
 40
8.0
 40
8.0
 40
9.0
 40
9.0
 40
9.0
 40
10.0
 40
10.0
 40
10.0
 40
11.0
 40
11.0
 40
11.0
 40
12.0
 40
12.0
 40
12.0
 40
13.0
 40
13.0
 40
13.0
 40
14.0
 40
14.0
 40
14.0
 40
15.0
 40
15.0
 40
15.0
 40
16.0
 40
16.0
 40
16.0
 40
16.0
 10
82.16311575636895
 20
-88.5992431419127
 30
0.0
 10
82.16311575636895
 20
-88.67744680942786
 30
0.0
 10
82.14623478849123
 20
-88.77907712624274
 30
0.0
 10
82.08284503156263
 20
-88.8807074430576
 30
0.0
 10
81.97294648558315
 20
-89.05399574596566
 30
0.0
 10
81.84168834759514
 20
-89.07535533797422
 30
0.0
 10
81.73385685890682
 20
-89.0943033631431
 30
0.0
 10
81.73385685890682
 20
-89.0943033631431
 30
0.0
 10
81.73385685890682
 20
-88.87209470434448
 30
0.0
 10
81.73385685890682
 20
-88.87209470434448
 30
0.0
 10
81.93263886840573
 20
-88.817317686129
 30
0.0
 10
81.96226668957888
 20
-88.69019366272329
 30
0.0
 10
81.96226668957888
 20
-88.59717608462154
 30
0.0
 10
81.96226668957888
 20
-88.45764971746893
 30
0.0
 10
81.86270343005516
 20
-88.30537649702089
 30
0.0
 10
81.6301594848008
 20
-88.30537649702089
 30
0.0
 10
81.37418889024673
 20
-88.30537649702089
 30
0.0
 10
81.30425345189616
 20
-88.48521048135092
 30
0.0
 10
81.30425345189616
 20
-88.60578882333466
 30
0.0
 10
81.30425345189616
 20
-88.63748370179897
 30
0.0
 10
81.30425345189616
 20
-88.77907712624274
 30
0.0
 10
81.43344453259303
 20
-88.86796058976218
 30
0.0
 10
81.43344453259303
 20
-88.86796058976218
 30
0.0
 10
81.41449650742416
 20
-89.04366045950992
 30
0.0
 10
81.41449650742416
 20
-89.04366045950992
 30
0.0
 10
81.41449650742416
 20
-89.04366045950992
 30
0.0
 10
80.56803654669827
 20
-88.92308211752618
 30
0.0
 10
80.56803654669827
 20
-88.92308211752618
 30
0.0
 10
80.56803654669827
 20
-88.92308211752618
 30
0.0
 10
80.56803654669827
 20
-88.14449053785971
 30
0.0
 10
80.56803654669827
 20
-88.14449053785971
 30
0.0
 10
80.56803654669827
 20
-88.14449053785971
 30
0.0
 10
80.7626844416149
 20
-88.14449053785971
 30
0.0
 10
80.7626844416149
 20
-88.14449053785971
 30
0.0
 10
80.7626844416149
 20
-88.14449053785971
 30
0.0
 10
80.7626844416149
 20
-88.76012910107386
 30
0.0
 10
80.7626844416149
 20
-88.76012910107386
 30
0.0
 10
80.7626844416149
 20
-88.76012910107386
 30
0.0
 10
81.18574216720357
 20
-88.8255859152936
 30
0.0
 10
81.18574216720357
 20
-88.8255859152936
 30
0.0
 10
81.15198023144812
 20
-88.76426321565616
 30
0.0
 10
81.1116726142707
 20
-88.68192543355869
 30
0.0
 10
81.1116726142707
 20
-88.5634141488661
 30
0.0
 10
81.1116726142707
 20
-88.30951061160319
 30
0.0
 10
81.29805228002272
 20
-88.072488042218
 30
0.0
 10
81.61121145963192
 20
-88.072488042218
 30
0.0
 10
81.92850475382343
 20
-88.072488042218
 30
0.0
 10
82.16311575636895
 20
-88.29676375830776
 30
0.0
 10
82.16311575636895
 20
-88.5992431419127
 30
0.0
  0
HATCH
  5
B7
330
A6
100
AcDbEntity
  8
_U+30EC_U+30A4_U+30E4_U+30FC 1
 62
   179
420
  2234388
100
AcDbHatch
 10
0.0
 20
0.0
 30
0.0
210
0.0
220
0.0
230
1.0
  2
SOLID
 70
     1
 71
     0
 91
        1
 92
        1
 93
        1
 72
     4
 94
        3
 73
     0
 74
     1
 95
       53
 96
       49
 40
0.0
 40
0.0
 40
0.0
 40
0.0
 40
1.0
 40
1.0
 40
1.0
 40
2.0
 40
2.0
 40
2.0
 40
3.0
 40
3.0
 40
3.0
 40
4.0
 40
4.0
 40
4.0
 40
5.0
 40
5.0
 40
5.0
 40
6.0
 40
6.0
 40
6.0
 40
7.0
 40
7.0
 40
7.0
 40
8.0
 40
8.0
 40
8.0
 40
9.0
 40
9.0
 40
9.0
 40
10.0
 40
10.0
 40
10.0
 40
11.0
 40
11.0
 40
11.0
 40
12.0
 40
12.0
 40
12.0
 40
13.0
 40
13.0
 40
13.0
 40
14.0
 40
14.0
 40
14.0
 40
15.0
 40
15.0
 40
15.0
 40
16.0
 40
16.0
 40
16.0
 40
16.0
 10
82.16311575636895
 20
-88.5992431419127
 10
82.16311575636895
 20
-88.67744680942786
 10
82.14623478849123
 20
-88.77907712624274
 10
82.08284503156263
 20
-88.8807074430576
 10
81.97294648558315
 20
-89.05399574596566
 10
81.84168834759514
 20
-89.07535533797422
 10
81.73385685890682
 20
-89.0943033631431
 10
81.73385685890682
 20
-89.0943033631431
 10
81.73385685890682
 20
-88.87209470434448
 10
81.73385685890682
 20
-88.87209470434448
 10
81.93263886840573
 20
-88.817317686129
 10
81.96226668957888
 20
-88.69019366272329
 10
81.96226668957888
 20
-88.59717608462154
 10
81.96226668957888
 20
-88.45764971746893
 10
81.86270343005516
 20
-88.30537649702089
 10
81.6301594848008
 20
-88.30537649702089
 10
81.37418889024673
 20
-88.30537649702089
 10
81.30425345189616
 20
-88.48521048135092
 10
81.30425345189616
 20
-88.60578882333466
 10
81.30425345189616
 20
-88.63748370179897
 10
81.30425345189616
 20
-88.77907712624274
 10
81.43344453259303
 20
-88.86796058976218
 10
81.43344453259303
 20
-88.86796058976218
 10
81.41449650742416
 20
-89.04366045950992
 10
81.41449650742416
 20
-89.04366045950992
 10
81.41449650742416
 20
-89.04366045950992
 10
80.56803654669827
 20
-88.92308211752618
 10
80.56803654669827
 20
-88.92308211752618
 10
80.56803654669827
 20
-88.92308211752618
 10
80.56803654669827
 20
-88.14449053785971
 10
80.56803654669827
 20
-88.14449053785971
 10
80.56803654669827
 20
-88.14449053785971
 10
80.7626844416149
 20
-88.14449053785971
 10
80.7626844416149
 20
-88.14449053785971
 10
80.7626844416149
 20
-88.14449053785971
 10
80.7626844416149
 20
-88.76012910107386
 10
80.7626844416149
 20
-88.76012910107386
 10
80.7626844416149
 20
-88.76012910107386
 10
81.18574216720357
 20
-88.8255859152936
 10
81.18574216720357
 20
-88.8255859152936
 10
81.15198023144812
 20
-88.76426321565616
 10
81.1116726142707
 20
-88.68192543355869
 10
81.1116726142707
 20
-88.5634141488661
 10
81.1116726142707
 20
-88.30951061160319
 10
81.29805228002272
 20
-88.072488042218
 10
81.61121145963192
 20
-88.072488042218
 10
81.92850475382343
 20
-88.072488042218
 10
82.16311575636895
 20
-88.29676375830776
 10
82.16311575636895
 20
-88.5992431419127
 97
        0
 97
        0
 75
     2
 76
     1
 98
        0
  0
ENDBLK
  5
A9
330
A6
100
AcDbEntity
  8
0
100
AcDbBlockEnd
  0
BLOCK
  5
BA
330
B8
100
AcDbEntity
  8
0
100
AcDbBlockBegin
  2
block 5
 70
     0
 10
0.0
 20
0.0
 30
0.0
  3
block 5
  1

  0
SPLINE
  5
BC
330
B8
100
AcDbEntity
  8
_U+30EC_U+30A4_U+30E4_U+30FC 1
370
     0
100
AcDbSpline
210
0.0
220
0.0
230
1.0
 70
    11
 71
     3
 72
    26
 73
    22
 74
     0
 42
0.0000000001
 43
0.0000000001
 12
1.0
 22
0.0
 32
0.0
 13
1.0
 23
0.0
 33
0.0
 40
0.0
 40
0.0
 40
0.0
 40
0.0
 40
1.0
 40
1.0
 40
1.0
 40
2.0
 40
2.0
 40
2.0
 40
3.0
 40
3.0
 40
3.0
 40
4.0
 40
4.0
 40
4.0
 40
5.0
 40
5.0
 40
5.0
 40
6.0
 40
6.0
 40
6.0
 40
7.0
 40
7.0
 40
7.0
 40
7.0
 10
82.11247285273578
 20
-77.94735241106872
 30
0.0
 10
82.11247285273578
 20
-77.94735241106872
 30
0.0
 10
81.0083197497132
 20
-77.94735241106872
 30
0.0
 10
81.0083197497132
 20
-77.94735241106872
 30
0.0
 10
81.0083197497132
 20
-77.94735241106872
 30
0.0
 10
81.0083197497132
 20
-78.27739255855566
 30
0.0
 10
81.0083197497132
 20
-78.27739255855566
 30
0.0
 10
81.0083197497132
 20
-78.27739255855566
 30
0.0
 10
80.86018064384746
 20
-78.27739255855566
 30
0.0
 10
80.86018064384746
 20
-78.27739255855566
 30
0.0
 10
80.84536673326089
 20
-77.94528535377758
 30
0.0
 10
80.68241371680857
 20
-77.8987765647267
 30
0.0
 10
80.56803654669827
 20
-77.86914874355355
 30
0.0
 10
80.56803654669827
 20
-77.86914874355355
 30
0.0
 10
80.56803654669827
 20
-77.72307669497896
 30
0.0
 10
80.56803654669827
 20
-77.72307669497896
 30
0.0
 10
80.56803654669827
 20
-77.72307669497896
 30
0.0
 10
82.11247285273578
 20
-77.72307669497896
 30
0.0
 10
82.11247285273578
 20
-77.72307669497896
 30
0.0
 10
82.11247285273578
 20
-77.72307669497896
 30
0.0
 10
82.11247285273578
 20
-77.94735241106872
 30
0.0
 10
82.11247285273578
 20
-77.94735241106872
 30
0.0
  0
HATCH
  5
BD
330
B8
100
AcDbEntity
  8
_U+30EC_U+30A4_U+30E4_U+30FC 1
 62
   179
420
  2234388
100
AcDbHatch
 10
0.0
 20
0.0
 30
0.0
210
0.0
220
0.0
230
1.0
  2
SOLID
 70
     1
 71
     0
 91
        1
 92
        1
 93
        1
 72
     4
 94
        3
 73
     0
 74
     1
 95
       26
 96
       22
 40
0.0
 40
0.0
 40
0.0
 40
0.0
 40
1.0
 40
1.0
 40
1.0
 40
2.0
 40
2.0
 40
2.0
 40
3.0
 40
3.0
 40
3.0
 40
4.0
 40
4.0
 40
4.0
 40
5.0
 40
5.0
 40
5.0
 40
6.0
 40
6.0
 40
6.0
 40
7.0
 40
7.0
 40
7.0
 40
7.0
 10
82.11247285273578
 20
-77.94735241106872
 10
82.11247285273578
 20
-77.94735241106872
 10
81.0083197497132
 20
-77.94735241106872
 10
81.0083197497132
 20
-77.94735241106872
 10
81.0083197497132
 20
-77.94735241106872
 10
81.0083197497132
 20
-78.27739255855566
 10
81.0083197497132
 20
-78.27739255855566
 10
81.0083197497132
 20
-78.27739255855566
 10
80.86018064384746
 20
-78.27739255855566
 10
80.86018064384746
 20
-78.27739255855566
 10
80.84536673326089
 20
-77.94528535377758
 10
80.68241371680857
 20
-77.8987765647267
 10
80.56803654669827
 20
-77.86914874355355
 10
80.56803654669827
 20
-77.86914874355355
 10
80.56803654669827
 20
-77.72307669497896
 10
80.56803654669827
 20
-77.72307669497896
 10
80.56803654669827
 20
-77.72307669497896
 10
82.11247285273578
 20
-77.72307669497896
 10
82.11247285273578
 20
-77.72307669497896
 10
82.11247285273578
 20
-77.72307669497896
 10
82.11247285273578
 20
-77.94735241106872
 10
82.11247285273578
 20
-77.94735241106872
 97
        0
 97
        0
 75
     2
 76
     1
 98
        0
  0
ENDBLK
  5
BB
330
B8
100
AcDbEntity
  8
0
100
AcDbBlockEnd
  0
BLOCK
  5
C0
330
BE
100
AcDbEntity
  8
0
100
AcDbBlockBegin
  2
block 6
 70
     0
 10
0.0
 20
0.0
 30
0.0
  3
block 6
  1

  0
SPLINE
  5
C2
330
BE
100
AcDbEntity
  8
_U+30EC_U+30A4_U+30E4_U+30FC 1
370
     0
100
AcDbSpline
210
0.0
220
0.0
230
1.0
 70
    11
 71
     3
 72
    29
 73
    25
 74
     0
 42
0.0000000001
 43
0.0000000001
 12
1.0
 22
0.0
 32
0.0
 13
1.0
 23
0.0
 33
0.0
 40
0.0
 40
0.0
 40
0.0
 40
0.0
 40
1.0
 40
1.0
 40
1.0
 40
2.0
 40
2.0
 40
2.0
 40
3.0
 40
3.0
 40
3.0
 40
4.0
 40
4.0
 40
4.0
 40
5.0
 40
5.0
 40
5.0
 40
6.0
 40
6.0
 40
6.0
 40
7.0
 40
7.0
 40
7.0
 40
8.0
 40
8.0
 40
8.0
 40
8.0
 10
68.6076985505564
 20
-95.50907115667829
 30
0.0
 10
68.8171603560596
 20
-95.61724715491513
 30
0.0
 10
68.83610838122847
 20
-95.79053545782321
 30
0.0
 10
68.83610838122847
 20
-95.90697968522466
 30
0.0
 10
68.83610838122847
 20
-96.06786564438582
 30
0.0
 10
68.78959959217761
 20
-96.20945906882959
 30
0.0
 10
68.6076985505564
 20
-96.30454370422248
 30
0.0
 10
68.4130506556398
 20
-96.4082410783285
 30
0.0
 10
68.17637259580313
 20
-96.4275336130459
 30
0.0
 10
68.01341957935081
 20
-96.4275336130459
 30
0.0
 10
67.86941458806737
 20
-96.4275336130459
 30
0.0
 10
67.61757810809561
 20
-96.41030813561964
 30
0.0
 10
67.41879609859669
 20
-96.30454370422248
 30
0.0
 10
67.21587997451547
 20
-96.19671221553416
 30
0.0
 10
67.19245332521578
 20
-96.03582625637299
 30
0.0
 10
67.19245332521578
 20
-95.90697968522466
 30
0.0
 10
67.19245332521578
 20
-95.74816078335463
 30
0.0
 10
67.2368950569755
 20
-95.60450030161971
 30
0.0
 10
67.41879609859669
 20
-95.50907115667829
 30
0.0
 10
67.61137693622216
 20
-95.4098524067031
 30
0.0
 10
67.83978676689422
 20
-95.3864257574034
 30
0.0
 10
68.01341957935081
 20
-95.3864257574034
 30
0.0
 10
68.18464082496773
 20
-95.3864257574034
 30
0.0
 10
68.41511771293095
 20
-95.40778534941195
 30
0.0
 10
68.6076985505564
 20
-95.50907115667829
 30
0.0
  0
SPLINE
  5
C3
330
BE
100
AcDbEntity
  8
_U+30EC_U+30A4_U+30E4_U+30FC 1
370
     0
100
AcDbSpline
210
0.0
220
0.0
230
1.0
 70
    11
 71
     3
 72
    17
 73
    13
 74
     0
 42
0.0000000001
 43
0.0000000001
 12
1.0
 22
0.0
 32
0.0
 13
1.0
 23
0.0
 33
0.0
 40
0.0
 40
0.0
 40
0.0
 40
0.0
 40
1.0
 40
1.0
 40
1.0
 40
2.0
 40
2.0
 40
2.0
 40
3.0
 40
3.0
 40
3.0
 40
4.0
 40
4.0
 40
4.0
 40
4.0
 10
67.38503416284125
 20
-95.90697968522466
 30
0.0
 10
67.38503416284125
 20
-96.15674910790526
 30
0.0
 10
67.6685655212773
 20
-96.20325789695613
 30
0.0
 10
68.01341957935081
 20
-96.20325789695613
 30
0.0
 10
68.33277993083348
 20
-96.20325789695613
 30
0.0
 10
68.64146048631186
 20
-96.16708439436101
 30
0.0
 10
68.64146048631186
 20
-95.90697968522466
 30
0.0
 10
68.64146048631186
 20
-95.65927731983518
 30
0.0
 10
68.36034069471548
 20
-95.61070147349317
 30
0.0
 10
68.01341957935081
 20
-95.61070147349317
 30
0.0
 10
67.69371471831963
 20
-95.61070147349317
 30
0.0
 10
67.38503416284125
 20
-95.64894203337944
 30
0.0
 10
67.38503416284125
 20
-95.90697968522466
 30
0.0
  0
HATCH
  5
C4
330
BE
100
AcDbEntity
  8
_U+30EC_U+30A4_U+30E4_U+30FC 1
 62
   179
420
  2234388
100
AcDbHatch
 10
0.0
 20
0.0
 30
0.0
210
0.0
220
0.0
230
1.0
  2
SOLID
 70
     1
 71
     0
 91
        2
 92
        1
 93
        1
 72
     4
 94
        3
 73
     0
 74
     1
 95
       29
 96
       25
 40
0.0
 40
0.0
 40
0.0
 40
0.0
 40
1.0
 40
1.0
 40
1.0
 40
2.0
 40
2.0
 40
2.0
 40
3.0
 40
3.0
 40
3.0
 40
4.0
 40
4.0
 40
4.0
 40
5.0
 40
5.0
 40
5.0
 40
6.0
 40
6.0
 40
6.0
 40
7.0
 40
7.0
 40
7.0
 40
8.0
 40
8.0
 40
8.0
 40
8.0
 10
68.6076985505564
 20
-95.50907115667829
 10
68.8171603560596
 20
-95.61724715491513
 10
68.83610838122847
 20
-95.79053545782321
 10
68.83610838122847
 20
-95.90697968522466
 10
68.83610838122847
 20
-96.06786564438582
 10
68.78959959217761
 20
-96.20945906882959
 10
68.6076985505564
 20
-96.30454370422248
 10
68.4130506556398
 20
-96.4082410783285
 10
68.17637259580313
 20
-96.4275336130459
 10
68.01341957935081
 20
-96.4275336130459
 10
67.86941458806737
 20
-96.4275336130459
 10
67.61757810809561
 20
-96.41030813561964
 10
67.41879609859669
 20
-96.30454370422248
 10
67.21587997451547
 20
-96.19671221553416
 10
67.19245332521578
 20
-96.03582625637299
 10
67.19245332521578
 20
-95.90697968522466
 10
67.19245332521578
 20
-95.74816078335463
 10
67.2368950569755
 20
-95.60450030161971
 10
67.41879609859669
 20
-95.50907115667829
 10
67.61137693622216
 20
-95.4098524067031
 10
67.83978676689422
 20
-95.3864257574034
 10
68.01341957935081
 20
-95.3864257574034
 10
68.18464082496773
 20
-95.3864257574034
 10
68.41511771293095
 20
-95.40778534941195
 10
68.6076985505564
 20
-95.50907115667829
 97
        0
 97
        0
 92
        1
 93
        1
 72
     4
 94
        3
 73
     0
 74
     1
 95
       17
 96
       13
 40
0.0
 40
0.0
 40
0.0
 40
0.0
 40
1.0
 40
1.0
 40
1.0
 40
2.0
 40
2.0
 40
2.0
 40
3.0
 40
3.0
 40
3.0
 40
4.0
 40
4.0
 40
4.0
 40
4.0
 10
67.38503416284125
 20
-95.90697968522466
 10
67.38503416284125
 20
-96.15674910790526
 10
67.6685655212773
 20
-96.20325789695613
 10
68.01341957935081
 20
-96.20325789695613
 10
68.33277993083348
 20
-96.20325789695613
 10
68.64146048631186
 20
-96.16708439436101
 10
68.64146048631186
 20
-95.90697968522466
 10
68.64146048631186
 20
-95.65927731983518
 10
68.36034069471548
 20
-95.61070147349317
 10
68.01341957935081
 20
-95.61070147349317
 10
67.69371471831963
 20
-95.61070147349317
 10
67.38503416284125
 20
-95.64894203337944
 10
67.38503416284125
 20
-95.90697968522466
 97
        0
 97
        0
 75
     2
 76
     1
 98
        0
  0
POLYLINE
  5
C5
330
BE
100
AcDbEntity
  8
_U+30EC_U+30A4_U+30E4_U+30FC 1
370
     0
100
AcDb2dPolyline
 66
     1
 10
0.0
 20
0.0
 30
0.0
  0
VERTEX
  5
C6
330
C5
100
AcDbEntity
  8
_U+30EC_U+30A4_U+30E4_U+30FC 1
370
     0
100
AcDbVertex
100
AcDb2dVertex
 10
68.78546547759531
 20
-95.17007376092971
 30
0.0
  0
VERTEX
  5
C7
330
C5
100
AcDbEntity
  8
_U+30EC_U+30A4_U+30E4_U+30FC 1
370
     0
100
AcDbVertex
100
AcDb2dVertex
 10
68.53362899762354
 20
-95.17007376092971
 30
0.0
  0
VERTEX
  5
C8
330
C5
100
AcDbEntity
  8
_U+30EC_U+30A4_U+30E4_U+30FC 1
370
     0
100
AcDbVertex
100
AcDb2dVertex
 10
68.53362899762354
 20
-94.91823728095794
 30
0.0
  0
VERTEX
  5
C9
330
C5
100
AcDbEntity
  8
_U+30EC_U+30A4_U+30E4_U+30FC 1
370
     0
100
AcDbVertex
100
AcDb2dVertex
 10
68.78546547759531
 20
-94.91823728095794
 30
0.0
  0
VERTEX
  5
CA
330
C5
100
AcDbEntity
  8
_U+30EC_U+30A4_U+30E4_U+30FC 1
370
     0
100
AcDbVertex
100
AcDb2dVertex
 10
68.78546547759531
 20
-95.17007376092971
 30
0.0
  0
SEQEND
  5
CB
330
C5
100
AcDbEntity
  8
_U+30EC_U+30A4_U+30E4_U+30FC 1
370
     0
  0
HATCH
  5
CC
330
BE
100
AcDbEntity
  8
_U+30EC_U+30A4_U+30E4_U+30FC 1
 62
   179
420
  2234388
100
AcDbHatch
 10
0.0
 20
0.0
 30
0.0
210
0.0
220
0.0
230
1.0
  2
SOLID
 70
     1
 71
     0
 91
        1
 92
        1
 93
        4
 72
     1
 10
68.78546547759531
 20
-95.17007376092971
 11
68.53362899762354
 21
-95.17007376092971
 72
     1
 10
68.53362899762354
 20
-95.17007376092971
 11
68.53362899762354
 21
-94.91823728095794
 72
     1
 10
68.53362899762354
 20
-94.91823728095794
 11
68.78546547759531
 21
-94.91823728095794
 72
     1
 10
68.78546547759531
 20
-94.91823728095794
 11
68.78546547759531
 21
-95.17007376092971
 97
        0
 75
     2
 76
     1
 98
        0
  0
SPLINE
  5
CD
330
BE
100
AcDbEntity
  8
_U+30EC_U+30A4_U+30E4_U+30FC 1
370
     0
100
AcDbSpline
210
0.0
220
0.0
230
1.0
 70
    11
 71
     3
 72
    53
 73
    49
 74
     0
 42
0.0000000001
 43
0.0000000001
 12
1.0
 22
0.0
 32
0.0
 13
1.0
 23
0.0
 33
0.0
 40
0.0
 40
0.0
 40
0.0
 40
0.0
 40
1.0
 40
1.0
 40
1.0
 40
2.0
 40
2.0
 40
2.0
 40
3.0
 40
3.0
 40
3.0
 40
4.0
 40
4.0
 40
4.0
 40
5.0
 40
5.0
 40
5.0
 40
6.0
 40
6.0
 40
6.0
 40
7.0
 40
7.0
 40
7.0
 40
8.0
 40
8.0
 40
8.0
 40
9.0
 40
9.0
 40
9.0
 40
10.0
 40
10.0
 40
10.0
 40
11.0
 40
11.0
 40
11.0
 40
12.0
 40
12.0
 40
12.0
 40
13.0
 40
13.0
 40
13.0
 40
14.0
 40
14.0
 40
14.0
 40
15.0
 40
15.0
 40
15.0
 40
16.0
 40
16.0
 40
16.0
 40
16.0
 10
68.83610838122847
 20
-94.20096840092893
 30
0.0
 10
68.83610838122847
 20
-94.2791720684441
 30
0.0
 10
68.81922741335075
 20
-94.38080238525897
 30
0.0
 10
68.75583765642216
 20
-94.48243270207384
 30
0.0
 10
68.64593911044268
 20
-94.65572100498191
 30
0.0
 10
68.51468097245467
 20
-94.67708059699045
 30
0.0
 10
68.40684948376635
 20
-94.69602862215933
 30
0.0
 10
68.40684948376635
 20
-94.69602862215933
 30
0.0
 10
68.40684948376635
 20
-94.47381996336071
 30
0.0
 10
68.40684948376635
 20
-94.47381996336071
 30
0.0
 10
68.60563149326526
 20
-94.41904294514525
 30
0.0
 10
68.63525931443841
 20
-94.29191892173952
 30
0.0
 10
68.63525931443841
 20
-94.19890134363779
 30
0.0
 10
68.63525931443841
 20
-94.05937497648516
 30
0.0
 10
68.5356960549147
 20
-93.90710175603712
 30
0.0
 10
68.30315210966033
 20
-93.90710175603712
 30
0.0
 10
68.04718151510626
 20
-93.90710175603712
 30
0.0
 10
67.97724607675569
 20
-94.08693574036715
 30
0.0
 10
67.97724607675569
 20
-94.2075140823509
 30
0.0
 10
67.97724607675569
 20
-94.2392089608152
 30
0.0
 10
67.97724607675569
 20
-94.38080238525897
 30
0.0
 10
68.10643715745256
 20
-94.46968584877841
 30
0.0
 10
68.10643715745256
 20
-94.46968584877841
 30
0.0
 10
68.0874891322837
 20
-94.64538571852616
 30
0.0
 10
68.0874891322837
 20
-94.64538571852616
 30
0.0
 10
68.0874891322837
 20
-94.64538571852616
 30
0.0
 10
67.2410291715578
 20
-94.52480737654241
 30
0.0
 10
67.2410291715578
 20
-94.52480737654241
 30
0.0
 10
67.2410291715578
 20
-94.52480737654241
 30
0.0
 10
67.2410291715578
 20
-93.74621579687594
 30
0.0
 10
67.2410291715578
 20
-93.74621579687594
 30
0.0
 10
67.2410291715578
 20
-93.74621579687594
 30
0.0
 10
67.43567706647441
 20
-93.74621579687594
 30
0.0
 10
67.43567706647441
 20
-93.74621579687594
 30
0.0
 10
67.43567706647441
 20
-93.74621579687594
 30
0.0
 10
67.43567706647441
 20
-94.36185436009009
 30
0.0
 10
67.43567706647441
 20
-94.36185436009009
 30
0.0
 10
67.43567706647441
 20
-94.36185436009009
 30
0.0
 10
67.8587347920631
 20
-94.42731117430985
 30
0.0
 10
67.8587347920631
 20
-94.42731117430985
 30
0.0
 10
67.82497285630765
 20
-94.36598847467239
 30
0.0
 10
67.78466523913022
 20
-94.28365069257492
 30
0.0
 10
67.78466523913022
 20
-94.16513940788234
 30
0.0
 10
67.78466523913022
 20
-93.91123587061942
 30
0.0
 10
67.97104490488225
 20
-93.67421330123423
 30
0.0
 10
68.28420408449145
 20
-93.67421330123423
 30
0.0
 10
68.60149737868296
 20
-93.67421330123423
 30
0.0
 10
68.83610838122847
 20
-93.898489017324
 30
0.0
 10
68.83610838122847
 20
-94.20096840092893
 30
0.0
  0
HATCH
  5
CE
330
BE
100
AcDbEntity
  8
_U+30EC_U+30A4_U+30E4_U+30FC 1
 62
   179
420
  2234388
100
AcDbHatch
 10
0.0
 20
0.0
 30
0.0
210
0.0
220
0.0
230
1.0
  2
SOLID
 70
     1
 71
     0
 91
        1
 92
        1
 93
        1
 72
     4
 94
        3
 73
     0
 74
     1
 95
       53
 96
       49
 40
0.0
 40
0.0
 40
0.0
 40
0.0
 40
1.0
 40
1.0
 40
1.0
 40
2.0
 40
2.0
 40
2.0
 40
3.0
 40
3.0
 40
3.0
 40
4.0
 40
4.0
 40
4.0
 40
5.0
 40
5.0
 40
5.0
 40
6.0
 40
6.0
 40
6.0
 40
7.0
 40
7.0
 40
7.0
 40
8.0
 40
8.0
 40
8.0
 40
9.0
 40
9.0
 40
9.0
 40
10.0
 40
10.0
 40
10.0
 40
11.0
 40
11.0
 40
11.0
 40
12.0
 40
12.0
 40
12.0
 40
13.0
 40
13.0
 40
13.0
 40
14.0
 40
14.0
 40
14.0
 40
15.0
 40
15.0
 40
15.0
 40
16.0
 40
16.0
 40
16.0
 40
16.0
 10
68.83610838122847
 20
-94.20096840092893
 10
68.83610838122847
 20
-94.2791720684441
 10
68.81922741335075
 20
-94.38080238525897
 10
68.75583765642216
 20
-94.48243270207384
 10
68.64593911044268
 20
-94.65572100498191
 10
68.51468097245467
 20
-94.67708059699045
 10
68.40684948376635
 20
-94.69602862215933
 10
68.40684948376635
 20
-94.69602862215933
 10
68.40684948376635
 20
-94.47381996336071
 10
68.40684948376635
 20
-94.47381996336071
 10
68.60563149326526
 20
-94.41904294514525
 10
68.63525931443841
 20
-94.29191892173952
 10
68.63525931443841
 20
-94.19890134363779
 10
68.63525931443841
 20
-94.05937497648516
 10
68.5356960549147
 20
-93.90710175603712
 10
68.30315210966033
 20
-93.90710175603712
 10
68.04718151510626
 20
-93.90710175603712
 10
67.97724607675569
 20
-94.08693574036715
 10
67.97724607675569
 20
-94.2075140823509
 10
67.97724607675569
 20
-94.2392089608152
 10
67.97724607675569
 20
-94.38080238525897
 10
68.10643715745256
 20
-94.46968584877841
 10
68.10643715745256
 20
-94.46968584877841
 10
68.0874891322837
 20
-94.64538571852616
 10
68.0874891322837
 20
-94.64538571852616
 10
68.0874891322837
 20
-94.64538571852616
 10
67.2410291715578
 20
-94.52480737654241
 10
67.2410291715578
 20
-94.52480737654241
 10
67.2410291715578
 20
-94.52480737654241
 10
67.2410291715578
 20
-93.74621579687594
 10
67.2410291715578
 20
-93.74621579687594
 10
67.2410291715578
 20
-93.74621579687594
 10
67.43567706647441
 20
-93.74621579687594
 10
67.43567706647441
 20
-93.74621579687594
 10
67.43567706647441
 20
-93.74621579687594
 10
67.43567706647441
 20
-94.36185436009009
 10
67.43567706647441
 20
-94.36185436009009
 10
67.43567706647441
 20
-94.36185436009009
 10
67.8587347920631
 20
-94.42731117430985
 10
67.8587347920631
 20
-94.42731117430985
 10
67.82497285630765
 20
-94.36598847467239
 10
67.78466523913022
 20
-94.28365069257492
 10
67.78466523913022
 20
-94.16513940788234
 10
67.78466523913022
 20
-93.91123587061942
 10
67.97104490488225
 20
-93.67421330123423
 10
68.28420408449145
 20
-93.67421330123423
 10
68.60149737868296
 20
-93.67421330123423
 10
68.83610838122847
 20
-93.898489017324
 10
68.83610838122847
 20
-94.20096840092893
 97
        0
 97
        0
 75
     2
 76
     1
 98
        0
  0
ENDBLK
  5
C1
330
BE
100
AcDbEntity
  8
0
100
AcDbBlockEnd
  0
BLOCK
  5
DF
330
DD
100
AcDbEntity
  8
0
100
AcDbBlockBegin
  2
block 7
 70
     0
 10
0.0
 20
0.0
 30
0.0
  3
block 7
  1

  0
SPLINE
  5
E1
330
DD
100
AcDbEntity
  8
_U+30EC_U+30A4_U+30E4_U+30FC 1
370
     0
100
AcDbSpline
210
0.0
220
0.0
230
1.0
 70
    11
 71
     3
 72
    62
 73
    58
 74
     0
 42
0.0000000001
 43
0.0000000001
 12
1.0
 22
0.0
 32
0.0
 13
1.0
 23
0.0
 33
0.0
 40
0.0
 40
0.0
 40
0.0
 40
0.0
 40
1.0
 40
1.0
 40
1.0
 40
2.0
 40
2.0
 40
2.0
 40
3.0
 40
3.0
 40
3.0
 40
4.0
 40
4.0
 40
4.0
 40
5.0
 40
5.0
 40
5.0
 40
6.0
 40
6.0
 40
6.0
 40
7.0
 40
7.0
 40
7.0
 40
8.0
 40
8.0
 40
8.0
 40
9.0
 40
9.0
 40
9.0
 40
10.0
 40
10.0
 40
10.0
 40
11.0
 40
11.0
 40
11.0
 40
12.0
 40
12.0
 40
12.0
 40
13.0
 40
13.0
 40
13.0
 40
14.0
 40
14.0
 40
14.0
 40
15.0
 40
15.0
 40
15.0
 40
16.0
 40
16.0
 40
16.0
 40
17.0
 40
17.0
 40
17.0
 40
18.0
 40
18.0
 40
18.0
 40
19.0
 40
19.0
 40
19.0
 40
19.0
 10
60.31914332259383
 20
-76.0925130018102
 30
0.0
 10
60.2237141776524
 20
-76.0925130018102
 30
0.0
 10
60.00598414298462
 20
-76.07149791935018
 30
0.0
 10
59.88092717687005
 20
-75.88546276314669
 30
0.0
 10
59.80685762393718
 20
-75.77315265032755
 30
0.0
 10
59.80272350935488
 20
-75.67393390035235
 30
0.0
 10
59.79858939477258
 20
-75.5891845514152
 30
0.0
 10
59.79858939477258
 20
-75.5891845514152
 30
0.0
 10
60.01873099628004
 20
-75.5891845514152
 30
0.0
 10
60.01873099628004
 20
-75.5891845514152
 30
0.0
 10
60.02079805357119
 20
-75.66325410434808
 30
0.0
 10
60.03113334002694
 20
-75.89786510689359
 30
0.0
 10
60.31466469846301
 20
-75.89786510689359
 30
0.0
 10
60.45212400832447
 20
-75.89786510689359
 30
0.0
 10
60.60474173832104
 20
-75.82827417809155
 30
0.0
 10
60.60474173832104
 20
-75.59986434741948
 30
0.0
 10
60.60474173832104
 20
-75.48342012001804
 30
0.0
 10
60.56650117843477
 20
-75.43484427367602
 30
0.0
 10
60.53480629997047
 20
-75.40314939521171
 30
0.0
 10
60.46073674703759
 20
-75.32907984227884
 30
0.0
 10
60.34429251963615
 20
-75.31633298898342
 30
0.0
 10
60.28951550142068
 20
-75.31633298898342
 30
0.0
 10
60.27022296670328
 20
-75.31633298898342
 30
0.0
 10
60.23439397365668
 20
-75.31840004627458
 30
0.0
 10
60.20683320977469
 20
-75.32253416085688
 30
0.0
 10
60.20683320977469
 20
-75.32253416085688
 30
0.0
 10
60.20683320977469
 20
-75.12788626594025
 30
0.0
 10
60.20683320977469
 20
-75.12788626594025
 30
0.0
 10
60.24507376966096
 20
-75.13443194736223
 30
0.0
 10
60.287103934581
 20
-75.13649900465337
 30
0.0
 10
60.29364961600298
 20
-75.13649900465337
 30
0.0
 10
60.35910643022272
 20
-75.13649900465337
 30
0.0
 10
60.55788843972164
 20
-75.11513941264484
 30
0.0
 10
60.55788843972164
 20
-74.87846135280816
 30
0.0
 10
60.55788843972164
 20
-74.70069442576927
 30
0.0
 10
60.42697481128215
 20
-74.64557289800528
 30
0.0
 10
60.31673175575416
 20
-74.64557289800528
 30
0.0
 10
60.05249293203549
 20
-74.64557289800528
 30
0.0
 10
60.04388019332237
 20
-74.87846135280816
 30
0.0
 10
60.03974607874007
 20
-74.95011933890136
 30
0.0
 10
60.03974607874007
 20
-74.95011933890136
 30
0.0
 10
59.83648544511033
 20
-74.95011933890136
 30
0.0
 10
59.83648544511033
 20
-74.95011933890136
 30
0.0
 10
59.84509818382345
 20
-74.82540688233532
 30
0.0
 10
59.87265894770545
 20
-74.44885794579751
 30
0.0
 10
60.32947860904958
 20
-74.44885794579751
 30
0.0
 10
60.55375432513934
 20
-74.44885794579751
 30
0.0
 10
60.79491100910683
 20
-74.57598196920323
 30
0.0
 10
60.79491100910683
 20
-74.87191567138619
 30
0.0
 10
60.79491100910683
 20
-75.0582953371382
 30
0.0
 10
60.69982637371393
 20
-75.14063311923567
 30
0.0
 10
60.60026311419021
 20
-75.20195581887313
 30
0.0
 10
60.66158581382766
 20
-75.22951658275512
 30
0.0
 10
60.84348685544885
 20
-75.30978730756145
 30
0.0
 10
60.84348685544885
 20
-75.58711749412406
 30
0.0
 10
60.84348685544885
 20
-75.9254258707756
 30
0.0
 10
60.59612899960791
 20
-76.0925130018102
 30
0.0
 10
60.31914332259383
 20
-76.0925130018102
 30
0.0
  0
HATCH
  5
E2
330
DD
100
AcDbEntity
  8
_U+30EC_U+30A4_U+30E4_U+30FC 1
 62
   179
420
  2234388
100
AcDbHatch
 10
0.0
 20
0.0
 30
0.0
210
0.0
220
0.0
230
1.0
  2
SOLID
 70
     1
 71
     0
 91
        1
 92
        1
 93
        1
 72
     4
 94
        3
 73
     0
 74
     1
 95
       62
 96
       58
 40
0.0
 40
0.0
 40
0.0
 40
0.0
 40
1.0
 40
1.0
 40
1.0
 40
2.0
 40
2.0
 40
2.0
 40
3.0
 40
3.0
 40
3.0
 40
4.0
 40
4.0
 40
4.0
 40
5.0
 40
5.0
 40
5.0
 40
6.0
 40
6.0
 40
6.0
 40
7.0
 40
7.0
 40
7.0
 40
8.0
 40
8.0
 40
8.0
 40
9.0
 40
9.0
 40
9.0
 40
10.0
 40
10.0
 40
10.0
 40
11.0
 40
11.0
 40
11.0
 40
12.0
 40
12.0
 40
12.0
 40
13.0
 40
13.0
 40
13.0
 40
14.0
 40
14.0
 40
14.0
 40
15.0
 40
15.0
 40
15.0
 40
16.0
 40
16.0
 40
16.0
 40
17.0
 40
17.0
 40
17.0
 40
18.0
 40
18.0
 40
18.0
 40
19.0
 40
19.0
 40
19.0
 40
19.0
 10
60.31914332259383
 20
-76.0925130018102
 10
60.2237141776524
 20
-76.0925130018102
 10
60.00598414298462
 20
-76.07149791935018
 10
59.88092717687005
 20
-75.88546276314669
 10
59.80685762393718
 20
-75.77315265032755
 10
59.80272350935488
 20
-75.67393390035235
 10
59.79858939477258
 20
-75.5891845514152
 10
59.79858939477258
 20
-75.5891845514152
 10
60.01873099628004
 20
-75.5891845514152
 10
60.01873099628004
 20
-75.5891845514152
 10
60.02079805357119
 20
-75.66325410434808
 10
60.03113334002694
 20
-75.89786510689359
 10
60.31466469846301
 20
-75.89786510689359
 10
60.45212400832447
 20
-75.89786510689359
 10
60.60474173832104
 20
-75.82827417809155
 10
60.60474173832104
 20
-75.59986434741948
 10
60.60474173832104
 20
-75.48342012001804
 10
60.56650117843477
 20
-75.43484427367602
 10
60.53480629997047
 20
-75.40314939521171
 10
60.46073674703759
 20
-75.32907984227884
 10
60.34429251963615
 20
-75.31633298898342
 10
60.28951550142068
 20
-75.31633298898342
 10
60.27022296670328
 20
-75.31633298898342
 10
60.23439397365668
 20
-75.31840004627458
 10
60.20683320977469
 20
-75.32253416085688
 10
60.20683320977469
 20
-75.32253416085688
 10
60.20683320977469
 20
-75.12788626594025
 10
60.20683320977469
 20
-75.12788626594025
 10
60.24507376966096
 20
-75.13443194736223
 10
60.287103934581
 20
-75.13649900465337
 10
60.29364961600298
 20
-75.13649900465337
 10
60.35910643022272
 20
-75.13649900465337
 10
60.55788843972164
 20
-75.11513941264484
 10
60.55788843972164
 20
-74.87846135280816
 10
60.55788843972164
 20
-74.70069442576927
 10
60.42697481128215
 20
-74.64557289800528
 10
60.31673175575416
 20
-74.64557289800528
 10
60.05249293203549
 20
-74.64557289800528
 10
60.04388019332237
 20
-74.87846135280816
 10
60.03974607874007
 20
-74.95011933890136
 10
60.03974607874007
 20
-74.95011933890136
 10
59.83648544511033
 20
-74.95011933890136
 10
59.83648544511033
 20
-74.95011933890136
 10
59.84509818382345
 20
-74.82540688233532
 10
59.87265894770545
 20
-74.44885794579751
 10
60.32947860904958
 20
-74.44885794579751
 10
60.55375432513934
 20
-74.44885794579751
 10
60.79491100910683
 20
-74.57598196920323
 10
60.79491100910683
 20
-74.87191567138619
 10
60.79491100910683
 20
-75.0582953371382
 10
60.69982637371393
 20
-75.14063311923567
 10
60.60026311419021
 20
-75.20195581887313
 10
60.66158581382766
 20
-75.22951658275512
 10
60.84348685544885
 20
-75.30978730756145
 10
60.84348685544885
 20
-75.58711749412406
 10
60.84348685544885
 20
-75.9254258707756
 10
60.59612899960791
 20
-76.0925130018102
 10
60.31914332259383
 20
-76.0925130018102
 97
        0
 97
        0
 75
     2
 76
     1
 98
        0
  0
SPLINE
  5
E3
330
DD
100
AcDbEntity
  8
_U+30EC_U+30A4_U+30E4_U+30FC 1
370
     0
100
AcDbSpline
210
0.0
220
0.0
230
1.0
 70
    11
 71
     3
 72
    26
 73
    22
 74
     0
 42
0.0000000001
 43
0.0000000001
 12
1.0
 22
0.0
 32
0.0
 13
1.0
 23
0.0
 33
0.0
 40
0.0
 40
0.0
 40
0.0
 40
0.0
 40
1.0
 40
1.0
 40
1.0
 40
2.0
 40
2.0
 40
2.0
 40
3.0
 40
3.0
 40
3.0
 40
4.0
 40
4.0
 40
4.0
 40
5.0
 40
5.0
 40
5.0
 40
6.0
 40
6.0
 40
6.0
 40
7.0
 40
7.0
 40
7.0
 40
7.0
 10
61.41537270600033
 20
-76.04187009817704
 30
0.0
 10
61.41537270600033
 20
-76.04187009817704
 30
0.0
 10
61.17835013661514
 20
-76.04187009817704
 30
0.0
 10
61.17835013661514
 20
-76.04187009817704
 30
0.0
 10
61.20384384320599
 20
-75.73284503315013
 30
0.0
 10
61.39642468083145
 20
-75.21470267216856
 30
0.0
 10
61.80260143854241
 20
-74.70896265493387
 30
0.0
 10
61.80260143854241
 20
-74.70896265493387
 30
0.0
 10
60.96475421652965
 20
-74.70896265493387
 30
0.0
 10
60.96475421652965
 20
-74.70896265493387
 30
0.0
 10
60.96475421652965
 20
-74.70896265493387
 30
0.0
 10
60.96475421652965
 20
-74.49743379213953
 30
0.0
 10
60.96475421652965
 20
-74.49743379213953
 30
0.0
 10
60.96475421652965
 20
-74.49743379213953
 30
0.0
 10
62.0396240079276
 20
-74.49743379213953
 30
0.0
 10
62.0396240079276
 20
-74.49743379213953
 30
0.0
 10
62.0396240079276
 20
-74.49743379213953
 30
0.0
 10
62.0396240079276
 20
-74.70896265493387
 30
0.0
 10
62.0396240079276
 20
-74.70896265493387
 30
0.0
 10
61.71578503231411
 20
-74.9990396947919
 30
0.0
 10
61.44913464175578
 20
-75.59125160870636
 30
0.0
 10
61.41537270600033
 20
-76.04187009817704
 30
0.0
  0
HATCH
  5
E4
330
DD
100
AcDbEntity
  8
_U+30EC_U+30A4_U+30E4_U+30FC 1
 62
   179
420
  2234388
100
AcDbHatch
 10
0.0
 20
0.0
 30
0.0
210
0.0
220
0.0
230
1.0
  2
SOLID
 70
     1
 71
     0
 91
        1
 92
        1
 93
        1
 72
     4
 94
        3
 73
     0
 74
     1
 95
       26
 96
       22
 40
0.0
 40
0.0
 40
0.0
 40
0.0
 40
1.0
 40
1.0
 40
1.0
 40
2.0
 40
2.0
 40
2.0
 40
3.0
 40
3.0
 40
3.0
 40
4.0
 40
4.0
 40
4.0
 40
5.0
 40
5.0
 40
5.0
 40
6.0
 40
6.0
 40
6.0
 40
7.0
 40
7.0
 40
7.0
 40
7.0
 10
61.41537270600033
 20
-76.04187009817704
 10
61.41537270600033
 20
-76.04187009817704
 10
61.17835013661514
 20
-76.04187009817704
 10
61.17835013661514
 20
-76.04187009817704
 10
61.20384384320599
 20
-75.73284503315013
 10
61.39642468083145
 20
-75.21470267216856
 10
61.80260143854241
 20
-74.70896265493387
 10
61.80260143854241
 20
-74.70896265493387
 10
60.96475421652965
 20
-74.70896265493387
 10
60.96475421652965
 20
-74.70896265493387
 10
60.96475421652965
 20
-74.70896265493387
 10
60.96475421652965
 20
-74.49743379213953
 10
60.96475421652965
 20
-74.49743379213953
 10
60.96475421652965
 20
-74.49743379213953
 10
62.0396240079276
 20
-74.49743379213953
 10
62.0396240079276
 20
-74.49743379213953
 10
62.0396240079276
 20
-74.49743379213953
 10
62.0396240079276
 20
-74.70896265493387
 10
62.0396240079276
 20
-74.70896265493387
 10
61.71578503231411
 20
-74.9990396947919
 10
61.44913464175578
 20
-75.59125160870636
 10
61.41537270600033
 20
-76.04187009817704
 97
        0
 97
        0
 75
     2
 76
     1
 98
        0
  0
ENDBLK
  5
E0
330
DD
100
AcDbEntity
  8
0
100
AcDbBlockEnd
  0
BLOCK
  5
EB
330
E9
100
AcDbEntity
  8
0
100
AcDbBlockBegin
  2
block 8
 70
     0
 10
0.0
 20
0.0
 30
0.0
  3
block 8
  1

  0
SPLINE
  5
ED
330
E9
100
AcDbEntity
  8
_U+30EC_U+30A4_U+30E4_U+30FC 1
370
     0
100
AcDbSpline
210
0.0
220
0.0
230
1.0
 70
    11
 71
     3
 72
    17
 73
    13
 74
     0
 42
0.0000000001
 43
0.0000000001
 12
1.0
 22
0.0
 32
0.0
 13
1.0
 23
0.0
 33
0.0
 40
0.0
 40
0.0
 40
0.0
 40
0.0
 40
1.0
 40
1.0
 40
1.0
 40
2.0
 40
2.0
 40
2.0
 40
3.0
 40
3.0
 40
3.0
 40
4.0
 40
4.0
 40
4.0
 40
4.0
 10
43.74117159279735
 20
-88.506914582908
 30
0.0
 10
43.63540716140018
 20
-88.40115015151083
 30
0.0
 10
43.55479192704533
 20
-88.36308184639881
 30
0.0
 10
43.46177434894359
 20
-88.33138696793452
 30
0.0
 10
43.46177434894359
 20
-88.33138696793452
 30
0.0
 10
43.57201740447158
 20
-88.16636689419106
 30
0.0
 10
43.57201740447158
 20
-88.16636689419106
 30
0.0
 10
43.66916909715562
 20
-88.20874156865962
 30
0.0
 10
43.78974743913937
 20
-88.2869452361748
 30
0.0
 10
43.84280190961222
 20
-88.34189450916453
 30
0.0
 10
43.84280190961222
 20
-88.34189450916453
 30
0.0
 10
43.74117159279735
 20
-88.506914582908
 30
0.0
 10
43.74117159279735
 20
-88.506914582908
 30
0.0
  0
SPLINE
  5
EE
330
E9
100
AcDbEntity
  8
_U+30EC_U+30A4_U+30E4_U+30FC 1
370
     0
100
AcDbSpline
210
0.0
220
0.0
230
1.0
 70
    11
 71
     3
 72
   182
 73
   178
 74
     0
 42
0.0000000001
 43
0.0000000001
 12
1.0
 22
0.0
 32
0.0
 13
1.0
 23
0.0
 33
0.0
 40
0.0
 40
0.0
 40
0.0
 40
0.0
 40
1.0
 40
1.0
 40
1.0
 40
2.0
 40
2.0
 40
2.0
 40
3.0
 40
3.0
 40
3.0
 40
4.0
 40
4.0
 40
4.0
 40
5.0
 40
5.0
 40
5.0
 40
6.0
 40
6.0
 40
6.0
 40
7.0
 40
7.0
 40
7.0
 40
8.0
 40
8.0
 40
8.0
 40
9.0
 40
9.0
 40
9.0
 40
10.0
 40
10.0
 40
10.0
 40
11.0
 40
11.0
 40
11.0
 40
12.0
 40
12.0
 40
12.0
 40
13.0
 40
13.0
 40
13.0
 40
14.0
 40
14.0
 40
14.0
 40
15.0
 40
15.0
 40
15.0
 40
16.0
 40
16.0
 40
16.0
 40
17.0
 40
17.0
 40
17.0
 40
18.0
 40
18.0
 40
18.0
 40
19.0
 40
19.0
 40
19.0
 40
20.0
 40
20.0
 40
20.0
 40
21.0
 40
21.0
 40
21.0
 40
22.0
 40
22.0
 40
22.0
 40
23.0
 40
23.0
 40
23.0
 40
24.0
 40
24.0
 40
24.0
 40
25.0
 40
25.0
 40
25.0
 40
26.0
 40
26.0
 40
26.0
 40
27.0
 40
27.0
 40
27.0
 40
28.0
 40
28.0
 40
28.0
 40
29.0
 40
29.0
 40
29.0
 40
30.0
 40
30.0
 40
30.0
 40
31.0
 40
31.0
 40
31.0
 40
32.0
 40
32.0
 40
32.0
 40
33.0
 40
33.0
 40
33.0
 40
34.0
 40
34.0
 40
34.0
 40
35.0
 40
35.0
 40
35.0
 40
36.0
 40
36.0
 40
36.0
 40
37.0
 40
37.0
 40
37.0
 40
38.0
 40
38.0
 40
38.0
 40
39.0
 40
39.0
 40
39.0
 40
40.0
 40
40.0
 40
40.0
 40
41.0
 40
41.0
 40
41.0
 40
42.0
 40
42.0
 40
42.0
 40
43.0
 40
43.0
 40
43.0
 40
44.0
 40
44.0
 40
44.0
 40
45.0
 40
45.0
 40
45.0
 40
46.0
 40
46.0
 40
46.0
 40
47.0
 40
47.0
 40
47.0
 40
48.0
 40
48.0
 40
48.0
 40
49.0
 40
49.0
 40
49.0
 40
50.0
 40
50.0
 40
50.0
 40
51.0
 40
51.0
 40
51.0
 40
52.0
 40
52.0
 40
52.0
 40
53.0
 40
53.0
 40
53.0
 40
54.0
 40
54.0
 40
54.0
 40
55.0
 40
55.0
 40
55.0
 40
56.0
 40
56.0
 40
56.0
 40
57.0
 40
57.0
 40
57.0
 40
58.0
 40
58.0
 40
58.0
 40
59.0
 40
59.0
 40
59.0
 40
59.0
 10
44.78606905347362
 20
-89.68548174841197
 30
0.0
 10
44.78606905347362
 20
-89.68548174841197
 30
0.0
 10
44.14941540779945
 20
-89.68548174841197
 30
0.0
 10
44.14941540779945
 20
-89.68548174841197
 30
0.0
 10
43.93581948771396
 20
-89.68548174841197
 30
0.0
 10
43.7198120007888
 20
-89.68961586299427
 30
0.0
 10
43.50621608070331
 20
-89.70236271628968
 30
0.0
 10
43.50621608070331
 20
-89.70236271628968
 30
0.0
 10
43.50621608070331
 20
-89.49496796807765
 30
0.0
 10
43.50621608070331
 20
-89.49496796807765
 30
0.0
 10
43.72842473950192
 20
-89.50771482137307
 30
0.0
 10
44.05191920556688
 20
-89.51184893595537
 30
0.0
 10
44.14941540779945
 20
-89.51184893595537
 30
0.0
 10
44.14941540779945
 20
-89.51184893595537
 30
0.0
 10
44.36955700930692
 20
-89.51184893595537
 30
0.0
 10
44.36955700930692
 20
-89.51184893595537
 30
0.0
 10
44.36955700930692
 20
-89.51184893595537
 30
0.0
 10
44.36955700930692
 20
-89.3702555115116
 30
0.0
 10
44.36955700930692
 20
-89.3702555115116
 30
0.0
 10
44.36955700930692
 20
-89.3702555115116
 30
0.0
 10
44.20867105014575
 20
-89.3702555115116
 30
0.0
 10
44.20867105014575
 20
-89.3702555115116
 30
0.0
 10
44.04365097640228
 20
-89.3702555115116
 30
0.0
 10
43.87863090265882
 20
-89.3743896260939
 30
0.0
 10
43.71361082891535
 20
-89.38920353668048
 30
0.0
 10
43.71361082891535
 20
-89.38920353668048
 30
0.0
 10
43.71361082891535
 20
-89.17974173117729
 30
0.0
 10
43.71361082891535
 20
-89.17974173117729
 30
0.0
 10
43.88483207453227
 20
-89.19455564176387
 30
0.0
 10
44.13253443992173
 20
-89.19868975634617
 30
0.0
 10
44.20867105014575
 20
-89.19868975634617
 30
0.0
 10
44.20867105014575
 20
-89.19868975634617
 30
0.0
 10
44.36955700930692
 20
-89.19868975634617
 30
0.0
 10
44.36955700930692
 20
-89.19868975634617
 30
0.0
 10
44.36507838517609
 20
-89.1268595154787
 30
0.0
 10
44.36507838517609
 20
-89.12048608883099
 30
0.0
 10
44.35887721330264
 20
-89.06760387313241
 30
0.0
 10
44.35887721330264
 20
-89.06760387313241
 30
0.0
 10
44.49840358045526
 20
-89.08241778371898
 30
0.0
 10
44.49840358045526
 20
-89.08241778371898
 30
0.0
 10
44.49840358045526
 20
-89.08241778371898
 30
0.0
 10
44.39918483048007
 20
-88.9110242833278
 30
0.0
 10
44.39918483048007
 20
-88.9110242833278
 30
0.0
 10
44.44569361953094
 20
-88.91739770997552
 30
0.0
 10
44.51976317246381
 20
-88.92583819391437
 30
0.0
 10
44.53664414034154
 20
-88.92583819391437
 30
0.0
 10
44.5872870439747
 20
-88.92583819391437
 30
0.0
 10
44.60416801185243
 20
-88.90465085668009
 30
0.0
 10
44.60416801185243
 20
-88.8476345263992
 30
0.0
 10
44.60416801185243
 20
-88.8476345263992
 30
0.0
 10
44.60416801185243
 20
-88.71000296176348
 30
0.0
 10
44.60416801185243
 20
-88.71000296176348
 30
0.0
 10
44.60416801185243
 20
-88.71000296176348
 30
0.0
 10
44.49840358045526
 20
-88.71000296176348
 30
0.0
 10
44.49840358045526
 20
-88.71000296176348
 30
0.0
 10
44.36507838517609
 20
-88.71000296176348
 30
0.0
 10
44.20867105014575
 20
-88.71000296176348
 30
0.0
 10
44.08602565087086
 20
-88.7227498150589
 30
0.0
 10
44.08602565087086
 20
-88.7227498150589
 30
0.0
 10
44.08602565087086
 20
-88.53240828949885
 30
0.0
 10
44.08602565087086
 20
-88.53240828949885
 30
0.0
 10
44.25311278190547
 20
-88.54928925737657
 30
0.0
 10
44.48358966986869
 20
-88.55135631466771
 30
0.0
 10
44.49840358045526
 20
-88.55135631466771
 30
0.0
 10
44.49840358045526
 20
-88.55135631466771
 30
0.0
 10
44.60416801185243
 20
-88.55135631466771
 30
0.0
 10
44.60416801185243
 20
-88.55135631466771
 30
0.0
 10
44.60416801185243
 20
-88.55135631466771
 30
0.0
 10
44.60416801185243
 20
-88.42027043145396
 30
0.0
 10
44.60416801185243
 20
-88.42027043145396
 30
0.0
 10
44.60416801185243
 20
-88.42027043145396
 30
0.0
 10
44.56627196151469
 20
-88.42027043145396
 30
0.0
 10
44.56627196151469
 20
-88.42027043145396
 30
0.0
 10
44.52183022975496
 20
-88.42027043145396
 30
0.0
 10
44.39677326364039
 20
-88.42440454603626
 30
0.0
 10
44.30788980012095
 20
-88.43284502997513
 30
0.0
 10
44.30788980012095
 20
-88.43284502997513
 30
0.0
 10
44.30788980012095
 20
-88.3525743051688
 30
0.0
 10
44.30788980012095
 20
-88.3525743051688
 30
0.0
 10
44.25517983919662
 20
-88.39064261028082
 30
0.0
 10
44.22968613260578
 20
-88.40545652086739
 30
0.0
 10
44.1873114581372
 20
-88.42871091539283
 30
0.0
 10
44.1873114581372
 20
-88.42871091539283
 30
0.0
 10
43.99920924464256
 20
-88.29969208947021
 30
0.0
 10
43.99920924464256
 20
-88.29969208947021
 30
0.0
 10
44.07741291215773
 20
-88.2657578989405
 30
0.0
 10
44.2341647567366
 20
-88.2023681420119
 30
0.0
 10
44.39057209176694
 20
-88.05853540550274
 30
0.0
 10
44.47290987386442
 20
-87.9801594832133
 30
0.0
 10
44.55145805092811
 20
-87.89558238905042
 30
0.0
 10
44.60416801185243
 20
-87.79412432700981
 30
0.0
 10
44.60416801185243
 20
-87.79412432700981
 30
0.0
 10
44.81569687464678
 20
-87.85544702664725
 30
0.0
 10
44.81569687464678
 20
-87.85544702664725
 30
0.0
 10
44.83498940936417
 20
-87.8616481985207
 30
0.0
 10
44.84532469581992
 20
-87.87026093723382
 30
0.0
 10
44.84532469581992
 20
-87.88283553575499
 30
0.0
 10
44.84532469581992
 20
-87.89988875840697
 30
0.0
 10
44.83257784252449
 20
-87.90608993028043
 30
0.0
 10
44.80742864548218
 20
-87.91883678357586
 30
0.0
 10
44.88769937028849
 20
-88.01616073103416
 30
0.0
 10
45.05065238674081
 20
-88.11348467849247
 30
0.0
 10
45.08441432249626
 20
-88.13243270366134
 30
0.0
 10
45.23462048565315
 20
-88.22131616718079
 30
0.0
 10
45.34899765576345
 20
-88.24887693106278
 30
0.0
 10
45.42720132327862
 20
-88.26782495623166
 30
0.0
 10
45.42720132327862
 20
-88.26782495623166
 30
0.0
 10
45.30869003858602
 20
-88.43715139933168
 30
0.0
 10
45.30869003858602
 20
-88.43715139933168
 30
0.0
 10
45.22394068964888
 20
-88.40752357815855
 30
0.0
 10
45.1732977860157
 20
-88.38857555298966
 30
0.0
 10
45.05478650132311
 20
-88.32294648399565
 30
0.0
 10
45.05478650132311
 20
-88.32294648399565
 30
0.0
 10
45.05478650132311
 20
-88.43284502997513
 30
0.0
 10
45.05478650132311
 20
-88.43284502997513
 30
0.0
 10
44.97244871922564
 20
-88.42440454603626
 30
0.0
 10
44.84532469581992
 20
-88.42027043145396
 30
0.0
 10
44.7926147348956
 20
-88.42027043145396
 30
0.0
 10
44.7926147348956
 20
-88.42027043145396
 30
0.0
 10
44.7926147348956
 20
-88.55135631466771
 30
0.0
 10
44.7926147348956
 20
-88.55135631466771
 30
0.0
 10
44.7926147348956
 20
-88.55135631466771
 30
0.0
 10
44.91319307687935
 20
-88.55135631466771
 30
0.0
 10
44.91319307687935
 20
-88.55135631466771
 30
0.0
 10
44.9152601341705
 20
-88.55135631466771
 30
0.0
 10
45.14780407942486
 20
-88.54928925737657
 30
0.0
 10
45.32557100646375
 20
-88.53240828949885
 30
0.0
 10
45.32557100646375
 20
-88.53240828949885
 30
0.0
 10
45.32557100646375
 20
-88.7227498150589
 30
0.0
 10
45.32557100646375
 20
-88.7227498150589
 30
0.0
 10
45.1967244353154
 20
-88.71000296176348
 30
0.0
 10
45.03997259073654
 20
-88.71000296176348
 30
0.0
 10
44.91319307687935
 20
-88.71000296176348
 30
0.0
 10
44.91319307687935
 20
-88.71000296176348
 30
0.0
 10
44.7926147348956
 20
-88.71000296176348
 30
0.0
 10
44.7926147348956
 20
-88.71000296176348
 30
0.0
 10
44.7926147348956
 20
-88.71000296176348
 30
0.0
 10
44.7926147348956
 20
-88.93634573514439
 30
0.0
 10
44.7926147348956
 20
-88.93634573514439
 30
0.0
 10
44.7926147348956
 20
-89.05485701983699
 30
0.0
 10
44.76712102830475
 20
-89.09085826765785
 30
0.0
 10
44.60623506914358
 20
-89.10567217824442
 30
0.0
 10
44.61071369327441
 20
-89.12462020341329
 30
0.0
 10
44.60416801185243
 20
-89.13529999941757
 30
0.0
 10
44.56627196151469
 20
-89.158554393943
 30
0.0
 10
44.56420490422354
 20
-89.17750241911187
 30
0.0
 10
44.56420490422354
 20
-89.18387584575959
 30
0.0
 10
44.56179333738386
 20
-89.19868975634617
 30
0.0
 10
44.56179333738386
 20
-89.19868975634617
 30
0.0
 10
44.69925264724533
 20
-89.19868975634617
 30
0.0
 10
44.69925264724533
 20
-89.19868975634617
 30
0.0
 10
44.86427272098879
 20
-89.19868975634617
 30
0.0
 10
45.03170436157194
 20
-89.19455564176387
 30
0.0
 10
45.19879149260655
 20
-89.17974173117729
 30
0.0
 10
45.19879149260655
 20
-89.17974173117729
 30
0.0
 10
45.19879149260655
 20
-89.38713647938933
 30
0.0
 10
45.19879149260655
 20
-89.38713647938933
 30
0.0
 10
44.98278400568139
 20
-89.3702555115116
 30
0.0
 10
44.71854518196272
 20
-89.3702555115116
 30
0.0
 10
44.69925264724533
 20
-89.3702555115116
 30
0.0
 10
44.69925264724533
 20
-89.3702555115116
 30
0.0
 10
44.55972628009271
 20
-89.3702555115116
 30
0.0
 10
44.55972628009271
 20
-89.3702555115116
 30
0.0
 10
44.55972628009271
 20
-89.3702555115116
 30
0.0
 10
44.55972628009271
 20
-89.51184893595537
 30
0.0
 10
44.55972628009271
 20
-89.51184893595537
 30
0.0
 10
44.55972628009271
 20
-89.51184893595537
 30
0.0
 10
44.78606905347362
 20
-89.51184893595537
 30
0.0
 10
44.78606905347362
 20
-89.51184893595537
 30
0.0
 10
45.00207654039879
 20
-89.51184893595537
 30
0.0
 10
45.21980657506658
 20
-89.50771482137307
 30
0.0
 10
45.43546955244322
 20
-89.49496796807765
 30
0.0
 10
45.43546955244322
 20
-89.49496796807765
 30
0.0
 10
45.43546955244322
 20
-89.70236271628968
 30
0.0
 10
45.43546955244322
 20
-89.70236271628968
 30
0.0
 10
45.15434976084683
 20
-89.68548174841197
 30
0.0
 10
44.80949570277333
 20
-89.68548174841197
 30
0.0
 10
44.78606905347362
 20
-89.68548174841197
 30
0.0
  0
SPLINE
  5
EF
330
E9
100
AcDbEntity
  8
_U+30EC_U+30A4_U+30E4_U+30FC 1
370
     0
100
AcDbSpline
210
0.0
220
0.0
230
1.0
 70
    11
 71
     3
 72
    23
 73
    19
 74
     0
 42
0.0000000001
 43
0.0000000001
 12
1.0
 22
0.0
 32
0.0
 13
1.0
 23
0.0
 33
0.0
 40
0.0
 40
0.0
 40
0.0
 40
0.0
 40
1.0
 40
1.0
 40
1.0
 40
2.0
 40
2.0
 40
2.0
 40
3.0
 40
3.0
 40
3.0
 40
4.0
 40
4.0
 40
4.0
 40
5.0
 40
5.0
 40
5.0
 40
6.0
 40
6.0
 40
6.0
 40
6.0
 10
43.66710203986447
 20
-89.05692407712813
 30
0.0
 10
43.66710203986447
 20
-89.07811141436243
 30
0.0
 10
43.66916909715562
 20
-89.11617971947443
 30
0.0
 10
43.64367539056478
 20
-89.11617971947443
 30
0.0
 10
43.63334010410903
 20
-89.11617971947443
 30
0.0
 10
43.62472736539591
 20
-89.10980629282672
 30
0.0
 10
43.61404756939163
 20
-89.092925324949
 30
0.0
 10
43.61404756939163
 20
-89.092925324949
 30
0.0
 10
43.51035019528561
 20
-88.9110242833278
 30
0.0
 10
43.51035019528561
 20
-88.9110242833278
 30
0.0
 10
43.72635768221078
 20
-88.78200545740519
 30
0.0
 10
43.92307263441854
 20
-88.50484752561685
 30
0.0
 10
43.96958142346941
 20
-88.43284502997513
 30
0.0
 10
43.96958142346941
 20
-88.43284502997513
 30
0.0
 10
44.04158391911113
 20
-88.61267901430517
 30
0.0
 10
44.04158391911113
 20
-88.61267901430517
 30
0.0
 10
43.90825872383196
 20
-88.80939396651293
 30
0.0
 10
43.73255885408422
 20
-88.99353432019954
 30
0.0
 10
43.66710203986447
 20
-89.05692407712813
 30
0.0
  0
SPLINE
  5
F0
330
E9
100
AcDbEntity
  8
_U+30EC_U+30A4_U+30E4_U+30FC 1
370
     0
100
AcDbSpline
210
0.0
220
0.0
230
1.0
 70
    11
 71
     3
 72
    17
 73
    13
 74
     0
 42
0.0000000001
 43
0.0000000001
 12
1.0
 22
0.0
 32
0.0
 13
1.0
 23
0.0
 33
0.0
 40
0.0
 40
0.0
 40
0.0
 40
0.0
 40
1.0
 40
1.0
 40
1.0
 40
2.0
 40
2.0
 40
2.0
 40
3.0
 40
3.0
 40
3.0
 40
4.0
 40
4.0
 40
4.0
 40
4.0
 10
43.92100557712739
 20
-88.16206052483449
 30
0.0
 10
43.85968287748994
 20
-88.08592391461046
 30
0.0
 10
43.73049179679307
 20
-88.00978730438645
 30
0.0
 10
43.62679442268706
 20
-87.9801594832133
 30
0.0
 10
43.62679442268706
 20
-87.9801594832133
 30
0.0
 10
43.72222356762848
 20
-87.81513940946984
 30
0.0
 10
43.72222356762848
 20
-87.81513940946984
 30
0.0
 10
43.82350937489482
 20
-87.85114065729068
 30
0.0
 10
43.92927380629199
 20
-87.90832924234584
 30
0.0
 10
44.01815726981143
 20
-87.98859996715215
 30
0.0
 10
44.01815726981143
 20
-87.98859996715215
 30
0.0
 10
43.92100557712739
 20
-88.16206052483449
 30
0.0
 10
43.92100557712739
 20
-88.16206052483449
 30
0.0
  0
SPLINE
  5
F1
330
E9
100
AcDbEntity
  8
_U+30EC_U+30A4_U+30E4_U+30FC 1
370
     0
100
AcDbSpline
210
0.0
220
0.0
230
1.0
 70
    11
 71
     3
 72
    23
 73
    19
 74
     0
 42
0.0000000001
 43
0.0000000001
 12
1.0
 22
0.0
 32
0.0
 13
1.0
 23
0.0
 33
0.0
 40
0.0
 40
0.0
 40
0.0
 40
0.0
 40
1.0
 40
1.0
 40
1.0
 40
2.0
 40
2.0
 40
2.0
 40
3.0
 40
3.0
 40
3.0
 40
4.0
 40
4.0
 40
4.0
 40
5.0
 40
5.0
 40
5.0
 40
6.0
 40
6.0
 40
6.0
 40
6.0
 10
44.37369112388922
 20
-88.86658255156809
 30
0.0
 10
44.35233153188067
 20
-88.88983694609351
 30
0.0
 10
44.25517983919662
 20
-89.0019748041384
 30
0.0
 10
44.115653472044
 20
-89.08241778371898
 30
0.0
 10
44.115653472044
 20
-89.08241778371898
 30
0.0
 10
43.94856634100939
 20
-88.96183944173524
 30
0.0
 10
43.94856634100939
 20
-88.96183944173524
 30
0.0
 10
44.09877250416628
 20
-88.88570283151121
 30
0.0
 10
44.19799125414148
 20
-88.79044594134406
 30
0.0
 10
44.2465671004835
 20
-88.73756372564547
 30
0.0
 10
44.2465671004835
 20
-88.73756372564547
 30
0.0
 10
44.42019991294009
 20
-88.82007376251721
 30
0.0
 10
44.42019991294009
 20
-88.82007376251721
 30
0.0
 10
44.42846814210469
 20
-88.82420787709951
 30
0.0
 10
44.43708088081782
 20
-88.83058130374722
 30
0.0
 10
44.43708088081782
 20
-88.84126109975149
 30
0.0
 10
44.43708088081782
 20
-88.86658255156809
 30
0.0
 10
44.40125188777122
 20
-88.86658255156809
 30
0.0
 10
44.37369112388922
 20
-88.86658255156809
 30
0.0
  0
SPLINE
  5
F2
330
E9
100
AcDbEntity
  8
_U+30EC_U+30A4_U+30E4_U+30FC 1
370
     0
100
AcDbSpline
210
0.0
220
0.0
230
1.0
 70
    11
 71
     3
 72
    20
 73
    16
 74
     0
 42
0.0000000001
 43
0.0000000001
 12
1.0
 22
0.0
 32
0.0
 13
1.0
 23
0.0
 33
0.0
 40
0.0
 40
0.0
 40
0.0
 40
0.0
 40
1.0
 40
1.0
 40
1.0
 40
2.0
 40
2.0
 40
2.0
 40
3.0
 40
3.0
 40
3.0
 40
4.0
 40
4.0
 40
4.0
 40
5.0
 40
5.0
 40
5.0
 40
5.0
 10
44.67203639291186
 20
-88.02460121497302
 30
0.0
 10
44.63379583302558
 20
-88.0733493160893
 30
0.0
 10
44.57247313338814
 20
-88.15155298360447
 30
0.0
 10
44.43294676623552
 20
-88.2616237843582
 30
0.0
 10
44.51321749104184
 20
-88.2657578989405
 30
0.0
 10
44.54284531221499
 20
-88.2657578989405
 30
0.0
 10
44.56627196151469
 20
-88.2657578989405
 30
0.0
 10
44.56627196151469
 20
-88.2657578989405
 30
0.0
 10
44.79468179218675
 20
-88.2657578989405
 30
0.0
 10
44.79468179218675
 20
-88.2657578989405
 30
0.0
 10
44.82637667065104
 20
-88.2657578989405
 30
0.0
 10
44.87495251699307
 20
-88.26369084164936
 30
0.0
 10
44.94902206992594
 20
-88.2616237843582
 30
0.0
 10
44.83705646665532
 20
-88.18755423142534
 30
0.0
 10
44.78813611076477
 20
-88.14104544237446
 30
0.0
 10
44.67203639291186
 20
-88.02460121497302
 30
0.0
  0
SPLINE
  5
F3
330
E9
100
AcDbEntity
  8
_U+30EC_U+30A4_U+30E4_U+30FC 1
370
     0
100
AcDbSpline
210
0.0
220
0.0
230
1.0
 70
    11
 71
     3
 72
    17
 73
    13
 74
     0
 42
0.0000000001
 43
0.0000000001
 12
1.0
 22
0.0
 32
0.0
 13
1.0
 23
0.0
 33
0.0
 40
0.0
 40
0.0
 40
0.0
 40
0.0
 40
1.0
 40
1.0
 40
1.0
 40
2.0
 40
2.0
 40
2.0
 40
3.0
 40
3.0
 40
3.0
 40
4.0
 40
4.0
 40
4.0
 40
4.0
 10
45.232553428362
 20
-89.08017847165357
 30
0.0
 10
45.09716117579168
 20
-88.96821286838295
 30
0.0
 10
44.99139674439451
 20
-88.90465085668009
 30
0.0
 10
44.87288545970192
 20
-88.84126109975149
 30
0.0
 10
44.87288545970192
 20
-88.84126109975149
 30
0.0
 10
44.99966497355911
 20
-88.72912324170662
 30
0.0
 10
44.99966497355911
 20
-88.72912324170662
 30
0.0
 10
45.13092311154713
 20
-88.77563203075748
 30
0.0
 10
45.2408216575266
 20
-88.83282061581264
 30
0.0
 10
45.36587862364117
 20
-88.93427867785324
 30
0.0
 10
45.36587862364117
 20
-88.93427867785324
 30
0.0
 10
45.232553428362
 20
-89.08017847165357
 30
0.0
 10
45.232553428362
 20
-89.08017847165357
 30
0.0
  0
HATCH
  5
F4
330
E9
100
AcDbEntity
  8
_U+30EC_U+30A4_U+30E4_U+30FC 1
 62
   179
420
  2234388
100
AcDbHatch
 10
0.0
 20
0.0
 30
0.0
210
0.0
220
0.0
230
1.0
  2
SOLID
 70
     1
 71
     0
 91
        7
 92
        1
 93
        1
 72
     4
 94
        3
 73
     0
 74
     1
 95
       17
 96
       13
 40
0.0
 40
0.0
 40
0.0
 40
0.0
 40
1.0
 40
1.0
 40
1.0
 40
2.0
 40
2.0
 40
2.0
 40
3.0
 40
3.0
 40
3.0
 40
4.0
 40
4.0
 40
4.0
 40
4.0
 10
43.74117159279735
 20
-88.506914582908
 10
43.63540716140018
 20
-88.40115015151083
 10
43.55479192704533
 20
-88.36308184639881
 10
43.46177434894359
 20
-88.33138696793452
 10
43.46177434894359
 20
-88.33138696793452
 10
43.57201740447158
 20
-88.16636689419106
 10
43.57201740447158
 20
-88.16636689419106
 10
43.66916909715562
 20
-88.20874156865962
 10
43.78974743913937
 20
-88.2869452361748
 10
43.84280190961222
 20
-88.34189450916453
 10
43.84280190961222
 20
-88.34189450916453
 10
43.74117159279735
 20
-88.506914582908
 10
43.74117159279735
 20
-88.506914582908
 97
        0
 97
        0
 92
        1
 93
        1
 72
     4
 94
        3
 73
     0
 74
     1
 95
      182
 96
      178
 40
0.0
 40
0.0
 40
0.0
 40
0.0
 40
1.0
 40
1.0
 40
1.0
 40
2.0
 40
2.0
 40
2.0
 40
3.0
 40
3.0
 40
3.0
 40
4.0
 40
4.0
 40
4.0
 40
5.0
 40
5.0
 40
5.0
 40
6.0
 40
6.0
 40
6.0
 40
7.0
 40
7.0
 40
7.0
 40
8.0
 40
8.0
 40
8.0
 40
9.0
 40
9.0
 40
9.0
 40
10.0
 40
10.0
 40
10.0
 40
11.0
 40
11.0
 40
11.0
 40
12.0
 40
12.0
 40
12.0
 40
13.0
 40
13.0
 40
13.0
 40
14.0
 40
14.0
 40
14.0
 40
15.0
 40
15.0
 40
15.0
 40
16.0
 40
16.0
 40
16.0
 40
17.0
 40
17.0
 40
17.0
 40
18.0
 40
18.0
 40
18.0
 40
19.0
 40
19.0
 40
19.0
 40
20.0
 40
20.0
 40
20.0
 40
21.0
 40
21.0
 40
21.0
 40
22.0
 40
22.0
 40
22.0
 40
23.0
 40
23.0
 40
23.0
 40
24.0
 40
24.0
 40
24.0
 40
25.0
 40
25.0
 40
25.0
 40
26.0
 40
26.0
 40
26.0
 40
27.0
 40
27.0
 40
27.0
 40
28.0
 40
28.0
 40
28.0
 40
29.0
 40
29.0
 40
29.0
 40
30.0
 40
30.0
 40
30.0
 40
31.0
 40
31.0
 40
31.0
 40
32.0
 40
32.0
 40
32.0
 40
33.0
 40
33.0
 40
33.0
 40
34.0
 40
34.0
 40
34.0
 40
35.0
 40
35.0
 40
35.0
 40
36.0
 40
36.0
 40
36.0
 40
37.0
 40
37.0
 40
37.0
 40
38.0
 40
38.0
 40
38.0
 40
39.0
 40
39.0
 40
39.0
 40
40.0
 40
40.0
 40
40.0
 40
41.0
 40
41.0
 40
41.0
 40
42.0
 40
42.0
 40
42.0
 40
43.0
 40
43.0
 40
43.0
 40
44.0
 40
44.0
 40
44.0
 40
45.0
 40
45.0
 40
45.0
 40
46.0
 40
46.0
 40
46.0
 40
47.0
 40
47.0
 40
47.0
 40
48.0
 40
48.0
 40
48.0
 40
49.0
 40
49.0
 40
49.0
 40
50.0
 40
50.0
 40
50.0
 40
51.0
 40
51.0
 40
51.0
 40
52.0
 40
52.0
 40
52.0
 40
53.0
 40
53.0
 40
53.0
 40
54.0
 40
54.0
 40
54.0
 40
55.0
 40
55.0
 40
55.0
 40
56.0
 40
56.0
 40
56.0
 40
57.0
 40
57.0
 40
57.0
 40
58.0
 40
58.0
 40
58.0
 40
59.0
 40
59.0
 40
59.0
 40
59.0
 10
44.78606905347362
 20
-89.68548174841197
 10
44.78606905347362
 20
-89.68548174841197
 10
44.14941540779945
 20
-89.68548174841197
 10
44.14941540779945
 20
-89.68548174841197
 10
43.93581948771396
 20
-89.68548174841197
 10
43.7198120007888
 20
-89.68961586299427
 10
43.50621608070331
 20
-89.70236271628968
 10
43.50621608070331
 20
-89.70236271628968
 10
43.50621608070331
 20
-89.49496796807765
 10
43.50621608070331
 20
-89.49496796807765
 10
43.72842473950192
 20
-89.50771482137307
 10
44.05191920556688
 20
-89.51184893595537
 10
44.14941540779945
 20
-89.51184893595537
 10
44.14941540779945
 20
-89.51184893595537
 10
44.36955700930692
 20
-89.51184893595537
 10
44.36955700930692
 20
-89.51184893595537
 10
44.36955700930692
 20
-89.51184893595537
 10
44.36955700930692
 20
-89.3702555115116
 10
44.36955700930692
 20
-89.3702555115116
 10
44.36955700930692
 20
-89.3702555115116
 10
44.20867105014575
 20
-89.3702555115116
 10
44.20867105014575
 20
-89.3702555115116
 10
44.04365097640228
 20
-89.3702555115116
 10
43.87863090265882
 20
-89.3743896260939
 10
43.71361082891535
 20
-89.38920353668048
 10
43.71361082891535
 20
-89.38920353668048
 10
43.71361082891535
 20
-89.17974173117729
 10
43.71361082891535
 20
-89.17974173117729
 10
43.88483207453227
 20
-89.19455564176387
 10
44.13253443992173
 20
-89.19868975634617
 10
44.20867105014575
 20
-89.19868975634617
 10
44.20867105014575
 20
-89.19868975634617
 10
44.36955700930692
 20
-89.19868975634617
 10
44.36955700930692
 20
-89.19868975634617
 10
44.36507838517609
 20
-89.1268595154787
 10
44.36507838517609
 20
-89.12048608883099
 10
44.35887721330264
 20
-89.06760387313241
 10
44.35887721330264
 20
-89.06760387313241
 10
44.49840358045526
 20
-89.08241778371898
 10
44.49840358045526
 20
-89.08241778371898
 10
44.49840358045526
 20
-89.08241778371898
 10
44.39918483048007
 20
-88.9110242833278
 10
44.39918483048007
 20
-88.9110242833278
 10
44.44569361953094
 20
-88.91739770997552
 10
44.51976317246381
 20
-88.92583819391437
 10
44.53664414034154
 20
-88.92583819391437
 10
44.5872870439747
 20
-88.92583819391437
 10
44.60416801185243
 20
-88.90465085668009
 10
44.60416801185243
 20
-88.8476345263992
 10
44.60416801185243
 20
-88.8476345263992
 10
44.60416801185243
 20
-88.71000296176348
 10
44.60416801185243
 20
-88.71000296176348
 10
44.60416801185243
 20
-88.71000296176348
 10
44.49840358045526
 20
-88.71000296176348
 10
44.49840358045526
 20
-88.71000296176348
 10
44.36507838517609
 20
-88.71000296176348
 10
44.20867105014575
 20
-88.71000296176348
 10
44.08602565087086
 20
-88.7227498150589
 10
44.08602565087086
 20
-88.7227498150589
 10
44.08602565087086
 20
-88.53240828949885
 10
44.08602565087086
 20
-88.53240828949885
 10
44.25311278190547
 20
-88.54928925737657
 10
44.48358966986869
 20
-88.55135631466771
 10
44.49840358045526
 20
-88.55135631466771
 10
44.49840358045526
 20
-88.55135631466771
 10
44.60416801185243
 20
-88.55135631466771
 10
44.60416801185243
 20
-88.55135631466771
 10
44.60416801185243
 20
-88.55135631466771
 10
44.60416801185243
 20
-88.42027043145396
 10
44.60416801185243
 20
-88.42027043145396
 10
44.60416801185243
 20
-88.42027043145396
 10
44.56627196151469
 20
-88.42027043145396
 10
44.56627196151469
 20
-88.42027043145396
 10
44.52183022975496
 20
-88.42027043145396
 10
44.39677326364039
 20
-88.42440454603626
 10
44.30788980012095
 20
-88.43284502997513
 10
44.30788980012095
 20
-88.43284502997513
 10
44.30788980012095
 20
-88.3525743051688
 10
44.30788980012095
 20
-88.3525743051688
 10
44.25517983919662
 20
-88.39064261028082
 10
44.22968613260578
 20
-88.40545652086739
 10
44.1873114581372
 20
-88.42871091539283
 10
44.1873114581372
 20
-88.42871091539283
 10
43.99920924464256
 20
-88.29969208947021
 10
43.99920924464256
 20
-88.29969208947021
 10
44.07741291215773
 20
-88.2657578989405
 10
44.2341647567366
 20
-88.2023681420119
 10
44.39057209176694
 20
-88.05853540550274
 10
44.47290987386442
 20
-87.9801594832133
 10
44.55145805092811
 20
-87.89558238905042
 10
44.60416801185243
 20
-87.79412432700981
 10
44.60416801185243
 20
-87.79412432700981
 10
44.81569687464678
 20
-87.85544702664725
 10
44.81569687464678
 20
-87.85544702664725
 10
44.83498940936417
 20
-87.8616481985207
 10
44.84532469581992
 20
-87.87026093723382
 10
44.84532469581992
 20
-87.88283553575499
 10
44.84532469581992
 20
-87.89988875840697
 10
44.83257784252449
 20
-87.90608993028043
 10
44.80742864548218
 20
-87.91883678357586
 10
44.88769937028849
 20
-88.01616073103416
 10
45.05065238674081
 20
-88.11348467849247
 10
45.08441432249626
 20
-88.13243270366134
 10
45.23462048565315
 20
-88.22131616718079
 10
45.34899765576345
 20
-88.24887693106278
 10
45.42720132327862
 20
-88.26782495623166
 10
45.42720132327862
 20
-88.26782495623166
 10
45.30869003858602
 20
-88.43715139933168
 10
45.30869003858602
 20
-88.43715139933168
 10
45.22394068964888
 20
-88.40752357815855
 10
45.1732977860157
 20
-88.38857555298966
 10
45.05478650132311
 20
-88.32294648399565
 10
45.05478650132311
 20
-88.32294648399565
 10
45.05478650132311
 20
-88.43284502997513
 10
45.05478650132311
 20
-88.43284502997513
 10
44.97244871922564
 20
-88.42440454603626
 10
44.84532469581992
 20
-88.42027043145396
 10
44.7926147348956
 20
-88.42027043145396
 10
44.7926147348956
 20
-88.42027043145396
 10
44.7926147348956
 20
-88.55135631466771
 10
44.7926147348956
 20
-88.55135631466771
 10
44.7926147348956
 20
-88.55135631466771
 10
44.91319307687935
 20
-88.55135631466771
 10
44.91319307687935
 20
-88.55135631466771
 10
44.9152601341705
 20
-88.55135631466771
 10
45.14780407942486
 20
-88.54928925737657
 10
45.32557100646375
 20
-88.53240828949885
 10
45.32557100646375
 20
-88.53240828949885
 10
45.32557100646375
 20
-88.7227498150589
 10
45.32557100646375
 20
-88.7227498150589
 10
45.1967244353154
 20
-88.71000296176348
 10
45.03997259073654
 20
-88.71000296176348
 10
44.91319307687935
 20
-88.71000296176348
 10
44.91319307687935
 20
-88.71000296176348
 10
44.7926147348956
 20
-88.71000296176348
 10
44.7926147348956
 20
-88.71000296176348
 10
44.7926147348956
 20
-88.71000296176348
 10
44.7926147348956
 20
-88.93634573514439
 10
44.7926147348956
 20
-88.93634573514439
 10
44.7926147348956
 20
-89.05485701983699
 10
44.76712102830475
 20
-89.09085826765785
 10
44.60623506914358
 20
-89.10567217824442
 10
44.61071369327441
 20
-89.12462020341329
 10
44.60416801185243
 20
-89.13529999941757
 10
44.56627196151469
 20
-89.158554393943
 10
44.56420490422354
 20
-89.17750241911187
 10
44.56420490422354
 20
-89.18387584575959
 10
44.56179333738386
 20
-89.19868975634617
 10
44.56179333738386
 20
-89.19868975634617
 10
44.69925264724533
 20
-89.19868975634617
 10
44.69925264724533
 20
-89.19868975634617
 10
44.86427272098879
 20
-89.19868975634617
 10
45.03170436157194
 20
-89.19455564176387
 10
45.19879149260655
 20
-89.17974173117729
 10
45.19879149260655
 20
-89.17974173117729
 10
45.19879149260655
 20
-89.38713647938933
 10
45.19879149260655
 20
-89.38713647938933
 10
44.98278400568139
 20
-89.3702555115116
 10
44.71854518196272
 20
-89.3702555115116
 10
44.69925264724533
 20
-89.3702555115116
 10
44.69925264724533
 20
-89.3702555115116
 10
44.55972628009271
 20
-89.3702555115116
 10
44.55972628009271
 20
-89.3702555115116
 10
44.55972628009271
 20
-89.3702555115116
 10
44.55972628009271
 20
-89.51184893595537
 10
44.55972628009271
 20
-89.51184893595537
 10
44.55972628009271
 20
-89.51184893595537
 10
44.78606905347362
 20
-89.51184893595537
 10
44.78606905347362
 20
-89.51184893595537
 10
45.00207654039879
 20
-89.51184893595537
 10
45.21980657506658
 20
-89.50771482137307
 10
45.43546955244322
 20
-89.49496796807765
 10
45.43546955244322
 20
-89.49496796807765
 10
45.43546955244322
 20
-89.70236271628968
 10
45.43546955244322
 20
-89.70236271628968
 10
45.15434976084683
 20
-89.68548174841197
 10
44.80949570277333
 20
-89.68548174841197
 10
44.78606905347362
 20
-89.68548174841197
 97
        0
 97
        0
 92
        1
 93
        1
 72
     4
 94
        3
 73
     0
 74
     1
 95
       23
 96
       19
 40
0.0
 40
0.0
 40
0.0
 40
0.0
 40
1.0
 40
1.0
 40
1.0
 40
2.0
 40
2.0
 40
2.0
 40
3.0
 40
3.0
 40
3.0
 40
4.0
 40
4.0
 40
4.0
 40
5.0
 40
5.0
 40
5.0
 40
6.0
 40
6.0
 40
6.0
 40
6.0
 10
43.66710203986447
 20
-89.05692407712813
 10
43.66710203986447
 20
-89.07811141436243
 10
43.66916909715562
 20
-89.11617971947443
 10
43.64367539056478
 20
-89.11617971947443
 10
43.63334010410903
 20
-89.11617971947443
 10
43.62472736539591
 20
-89.10980629282672
 10
43.61404756939163
 20
-89.092925324949
 10
43.61404756939163
 20
-89.092925324949
 10
43.51035019528561
 20
-88.9110242833278
 10
43.51035019528561
 20
-88.9110242833278
 10
43.72635768221078
 20
-88.78200545740519
 10
43.92307263441854
 20
-88.50484752561685
 10
43.96958142346941
 20
-88.43284502997513
 10
43.96958142346941
 20
-88.43284502997513
 10
44.04158391911113
 20
-88.61267901430517
 10
44.04158391911113
 20
-88.61267901430517
 10
43.90825872383196
 20
-88.80939396651293
 10
43.73255885408422
 20
-88.99353432019954
 10
43.66710203986447
 20
-89.05692407712813
 97
        0
 97
        0
 92
        1
 93
        1
 72
     4
 94
        3
 73
     0
 74
     1
 95
       17
 96
       13
 40
0.0
 40
0.0
 40
0.0
 40
0.0
 40
1.0
 40
1.0
 40
1.0
 40
2.0
 40
2.0
 40
2.0
 40
3.0
 40
3.0
 40
3.0
 40
4.0
 40
4.0
 40
4.0
 40
4.0
 10
43.92100557712739
 20
-88.16206052483449
 10
43.85968287748994
 20
-88.08592391461046
 10
43.73049179679307
 20
-88.00978730438645
 10
43.62679442268706
 20
-87.9801594832133
 10
43.62679442268706
 20
-87.9801594832133
 10
43.72222356762848
 20
-87.81513940946984
 10
43.72222356762848
 20
-87.81513940946984
 10
43.82350937489482
 20
-87.85114065729068
 10
43.92927380629199
 20
-87.90832924234584
 10
44.01815726981143
 20
-87.98859996715215
 10
44.01815726981143
 20
-87.98859996715215
 10
43.92100557712739
 20
-88.16206052483449
 10
43.92100557712739
 20
-88.16206052483449
 97
        0
 97
        0
 92
        1
 93
        1
 72
     4
 94
        3
 73
     0
 74
     1
 95
       23
 96
       19
 40
0.0
 40
0.0
 40
0.0
 40
0.0
 40
1.0
 40
1.0
 40
1.0
 40
2.0
 40
2.0
 40
2.0
 40
3.0
 40
3.0
 40
3.0
 40
4.0
 40
4.0
 40
4.0
 40
5.0
 40
5.0
 40
5.0
 40
6.0
 40
6.0
 40
6.0
 40
6.0
 10
44.37369112388922
 20
-88.86658255156809
 10
44.35233153188067
 20
-88.88983694609351
 10
44.25517983919662
 20
-89.0019748041384
 10
44.115653472044
 20
-89.08241778371898
 10
44.115653472044
 20
-89.08241778371898
 10
43.94856634100939
 20
-88.96183944173524
 10
43.94856634100939
 20
-88.96183944173524
 10
44.09877250416628
 20
-88.88570283151121
 10
44.19799125414148
 20
-88.79044594134406
 10
44.2465671004835
 20
-88.73756372564547
 10
44.2465671004835
 20
-88.73756372564547
 10
44.42019991294009
 20
-88.82007376251721
 10
44.42019991294009
 20
-88.82007376251721
 10
44.42846814210469
 20
-88.82420787709951
 10
44.43708088081782
 20
-88.83058130374722
 10
44.43708088081782
 20
-88.84126109975149
 10
44.43708088081782
 20
-88.86658255156809
 10
44.40125188777122
 20
-88.86658255156809
 10
44.37369112388922
 20
-88.86658255156809
 97
        0
 97
        0
 92
        1
 93
        1
 72
     4
 94
        3
 73
     0
 74
     1
 95
       20
 96
       16
 40
0.0
 40
0.0
 40
0.0
 40
0.0
 40
1.0
 40
1.0
 40
1.0
 40
2.0
 40
2.0
 40
2.0
 40
3.0
 40
3.0
 40
3.0
 40
4.0
 40
4.0
 40
4.0
 40
5.0
 40
5.0
 40
5.0
 40
5.0
 10
44.67203639291186
 20
-88.02460121497302
 10
44.63379583302558
 20
-88.0733493160893
 10
44.57247313338814
 20
-88.15155298360447
 10
44.43294676623552
 20
-88.2616237843582
 10
44.51321749104184
 20
-88.2657578989405
 10
44.54284531221499
 20
-88.2657578989405
 10
44.56627196151469
 20
-88.2657578989405
 10
44.56627196151469
 20
-88.2657578989405
 10
44.79468179218675
 20
-88.2657578989405
 10
44.79468179218675
 20
-88.2657578989405
 10
44.82637667065104
 20
-88.2657578989405
 10
44.87495251699307
 20
-88.26369084164936
 10
44.94902206992594
 20
-88.2616237843582
 10
44.83705646665532
 20
-88.18755423142534
 10
44.78813611076477
 20
-88.14104544237446
 10
44.67203639291186
 20
-88.02460121497302
 97
        0
 97
        0
 92
        1
 93
        1
 72
     4
 94
        3
 73
     0
 74
     1
 95
       17
 96
       13
 40
0.0
 40
0.0
 40
0.0
 40
0.0
 40
1.0
 40
1.0
 40
1.0
 40
2.0
 40
2.0
 40
2.0
 40
3.0
 40
3.0
 40
3.0
 40
4.0
 40
4.0
 40
4.0
 40
4.0
 10
45.232553428362
 20
-89.08017847165357
 10
45.09716117579168
 20
-88.96821286838295
 10
44.99139674439451
 20
-88.90465085668009
 10
44.87288545970192
 20
-88.84126109975149
 10
44.87288545970192
 20
-88.84126109975149
 10
44.99966497355911
 20
-88.72912324170662
 10
44.99966497355911
 20
-88.72912324170662
 10
45.13092311154713
 20
-88.77563203075748
 10
45.2408216575266
 20
-88.83282061581264
 10
45.36587862364117
 20
-88.93427867785324
 10
45.36587862364117
 20
-88.93427867785324
 10
45.232553428362
 20
-89.08017847165357
 10
45.232553428362
 20
-89.08017847165357
 97
        0
 97
        0
 75
     2
 76
     1
 98
        0
  0
SPLINE
  5
F5
330
E9
100
AcDbEntity
  8
_U+30EC_U+30A4_U+30E4_U+30FC 1
370
     0
100
AcDbSpline
210
0.0
220
0.0
230
1.0
 70
    11
 71
     3
 72
   113
 73
   109
 74
     0
 42
0.0000000001
 43
0.0000000001
 12
1.0
 22
0.0
 32
0.0
 13
1.0
 23
0.0
 33
0.0
 40
0.0
 40
0.0
 40
0.0
 40
0.0
 40
1.0
 40
1.0
 40
1.0
 40
2.0
 40
2.0
 40
2.0
 40
3.0
 40
3.0
 40
3.0
 40
4.0
 40
4.0
 40
4.0
 40
5.0
 40
5.0
 40
5.0
 40
6.0
 40
6.0
 40
6.0
 40
7.0
 40
7.0
 40
7.0
 40
8.0
 40
8.0
 40
8.0
 40
9.0
 40
9.0
 40
9.0
 40
10.0
 40
10.0
 40
10.0
 40
11.0
 40
11.0
 40
11.0
 40
12.0
 40
12.0
 40
12.0
 40
13.0
 40
13.0
 40
13.0
 40
14.0
 40
14.0
 40
14.0
 40
15.0
 40
15.0
 40
15.0
 40
16.0
 40
16.0
 40
16.0
 40
17.0
 40
17.0
 40
17.0
 40
18.0
 40
18.0
 40
18.0
 40
19.0
 40
19.0
 40
19.0
 40
20.0
 40
20.0
 40
20.0
 40
21.0
 40
21.0
 40
21.0
 40
22.0
 40
22.0
 40
22.0
 40
23.0
 40
23.0
 40
23.0
 40
24.0
 40
24.0
 40
24.0
 40
25.0
 40
25.0
 40
25.0
 40
26.0
 40
26.0
 40
26.0
 40
27.0
 40
27.0
 40
27.0
 40
28.0
 40
28.0
 40
28.0
 40
29.0
 40
29.0
 40
29.0
 40
30.0
 40
30.0
 40
30.0
 40
31.0
 40
31.0
 40
31.0
 40
32.0
 40
32.0
 40
32.0
 40
33.0
 40
33.0
 40
33.0
 40
34.0
 40
34.0
 40
34.0
 40
35.0
 40
35.0
 40
35.0
 40
36.0
 40
36.0
 40
36.0
 40
36.0
 10
47.11219752511431
 20
-89.05692407712813
 30
0.0
 10
47.11219752511431
 20
-89.05692407712813
 30
0.0
 10
47.21176078463803
 20
-89.15648733665185
 30
0.0
 10
47.21176078463803
 20
-89.15648733665185
 30
0.0
 10
47.22244058064231
 20
-89.16699487788186
 30
0.0
 10
47.23277586709806
 20
-89.17974173117729
 30
0.0
 10
47.23277586709806
 20
-89.19455564176387
 30
0.0
 10
47.23277586709806
 20
-89.19662269905501
 30
0.0
 10
47.23277586709806
 20
-89.22625052022816
 30
0.0
 10
47.19487981676031
 20
-89.22625052022816
 30
0.0
 10
47.18626707804719
 20
-89.22625052022816
 30
0.0
 10
47.14595946086976
 20
-89.22194415087161
 30
0.0
 10
47.13975828899631
 20
-89.22194415087161
 30
0.0
 10
47.09945067181889
 20
-89.25381128411016
 30
0.0
 10
47.05294188276802
 20
-89.2875732198656
 30
0.0
 10
46.95372313279282
 20
-89.34476180492076
 30
0.0
 10
47.09945067181889
 20
-89.45259329360908
 30
0.0
 10
47.25826957368891
 20
-89.50978187866423
 30
0.0
 10
47.5311211361207
 20
-89.5480224385505
 30
0.0
 10
47.5311211361207
 20
-89.5480224385505
 30
0.0
 10
47.3809149729638
 20
-89.72337779874971
 30
0.0
 10
47.3809149729638
 20
-89.72337779874971
 30
0.0
 10
47.11874320653629
 20
-89.651375303108
 30
0.0
 10
46.96199136195742
 20
-89.56283634913707
 30
0.0
 10
46.8858547517334
 20
-89.50978187866423
 30
0.0
 10
46.73564858857651
 20
-89.40815156184935
 30
0.0
 10
46.59198810684159
 20
-89.24519854539703
 30
0.0
 10
46.51585149661756
 20
-89.08017847165357
 30
0.0
 10
46.44798311555815
 20
-89.14580754064758
 30
0.0
 10
46.37391356262528
 20
-89.19868975634617
 30
0.0
 10
46.2957098951101
 20
-89.24743785746244
 30
0.0
 10
46.2957098951101
 20
-89.24743785746244
 30
0.0
 10
46.2957098951101
 20
-89.49910208265995
 30
0.0
 10
46.2957098951101
 20
-89.49910208265995
 30
0.0
 10
46.45866291156242
 20
-89.47395288561762
 30
0.0
 10
46.64469806776591
 20
-89.4295111538579
 30
0.0
 10
46.70808782469451
 20
-89.41469724327133
 30
0.0
 10
46.70808782469451
 20
-89.41469724327133
 30
0.0
 10
46.67846000352136
 20
-89.5838514315971
 30
0.0
 10
46.67846000352136
 20
-89.5838514315971
 30
0.0
 10
46.67639294623021
 20
-89.5838514315971
 30
0.0
 10
46.65744492106133
 20
-89.59005260347055
 30
0.0
 10
46.65537786377018
 20
-89.59005260347055
 30
0.0
 10
46.45659585427127
 20
-89.62829316335682
 30
0.0
 10
46.13930256007976
 20
-89.69374997757657
 30
0.0
 10
45.94224309832347
 20
-89.72992348017169
 30
0.0
 10
45.93190781186772
 20
-89.74680444804942
 30
0.0
 10
45.90848116256802
 20
-89.77849932651371
 30
0.0
 10
45.88539902281685
 20
-89.77849932651371
 30
0.0
 10
45.85783825893485
 20
-89.77849932651371
 30
0.0
 10
45.85370414435255
 20
-89.75955130134484
 30
0.0
 10
45.85129257751287
 20
-89.74025876662743
 30
0.0
 10
45.85129257751287
 20
-89.74025876662743
 30
0.0
 10
45.82614338047055
 20
-89.56697046371937
 30
0.0
 10
45.82614338047055
 20
-89.56697046371937
 30
0.0
 10
45.90021293340342
 20
-89.55835772500625
 30
0.0
 10
46.00804442209174
 20
-89.54561087171082
 30
0.0
 10
46.11587591078006
 20
-89.5245957892508
 30
0.0
 10
46.11587591078006
 20
-89.5245957892508
 30
0.0
 10
46.11587591078006
 20
-89.34682886221191
 30
0.0
 10
46.11587591078006
 20
-89.34682886221191
 30
0.0
 10
45.97187091949662
 20
-89.41883135785363
 30
0.0
 10
45.87678628410372
 20
-89.44845917902678
 30
0.0
 10
45.71176621036025
 20
-89.47808700019992
 30
0.0
 10
45.71176621036025
 20
-89.47808700019992
 30
0.0
 10
45.59118786837651
 20
-89.30893281187416
 30
0.0
 10
45.59118786837651
 20
-89.30893281187416
 30
0.0
 10
45.90848116256802
 20
-89.28137204799216
 30
0.0
 10
46.10106200019349
 20
-89.18818221511616
 30
0.0
 10
46.27882892723238
 20
-89.05485701983699
 30
0.0
 10
46.13275687865779
 20
-89.05485701983699
 30
0.0
 10
45.832344552344
 20
-89.05916338919354
 30
0.0
 10
45.63562960013623
 20
-89.06553681584126
 30
0.0
 10
45.63562960013623
 20
-89.06553681584126
 30
0.0
 10
45.63562960013623
 20
-88.88776988880237
 30
0.0
 10
45.63562960013623
 20
-88.88776988880237
 30
0.0
 10
45.78996987787543
 20
-88.89414331545008
 30
0.0
 10
46.08624808960691
 20
-88.90051674209779
 30
0.0
 10
46.27021618851926
 20
-88.90051674209779
 30
0.0
 10
46.27021618851926
 20
-88.90051674209779
 30
0.0
 10
46.4817450513136
 20
-88.90051674209779
 30
0.0
 10
46.4817450513136
 20
-88.90051674209779
 30
0.0
 10
46.4817450513136
 20
-88.80525985193063
 30
0.0
 10
46.47967799402245
 20
-88.7544446935232
 30
0.0
 10
46.473476822149
 20
-88.70793590447232
 30
0.0
 10
46.473476822149
 20
-88.70793590447232
 30
0.0
 10
46.68913979952563
 20
-88.72481687235005
 30
0.0
 10
46.68913979952563
 20
-88.72481687235005
 30
0.0
 10
46.73771564586766
 20
-88.72912324170662
 30
0.0
 10
46.74632838458078
 20
-88.74393715229319
 30
0.0
 10
46.74632838458078
 20
-88.75875106287977
 30
0.0
 10
46.74632838458078
 20
-88.78407251469635
 30
0.0
 10
46.72944741670306
 20
-88.7925129986352
 30
0.0
 10
46.67846000352136
 20
-88.81800670522605
 30
0.0
 10
46.67639294623021
 20
-88.84332815704265
 30
0.0
 10
46.67639294623021
 20
-88.84970158369036
 30
0.0
 10
46.67432588893906
 20
-88.90051674209779
 30
0.0
 10
46.67432588893906
 20
-88.90051674209779
 30
0.0
 10
46.90480277690227
 20
-88.90051674209779
 30
0.0
 10
46.90480277690227
 20
-88.90051674209779
 30
0.0
 10
47.06982285064574
 20
-88.90051674209779
 30
0.0
 10
47.36196694779493
 20
-88.89414331545008
 30
0.0
 10
47.54180093212497
 20
-88.88776988880237
 30
0.0
 10
47.54180093212497
 20
-88.88776988880237
 30
0.0
 10
47.54180093212497
 20
-89.06553681584126
 30
0.0
 10
47.54180093212497
 20
-89.06553681584126
 30
0.0
 10
47.4126098514281
 20
-89.0612304464847
 30
0.0
 10
47.38952771167693
 20
-89.0612304464847
 30
0.0
 10
47.11219752511431
 20
-89.05692407712813
 30
0.0
  0
SPLINE
  5
F6
330
E9
100
AcDbEntity
  8
_U+30EC_U+30A4_U+30E4_U+30FC 1
370
     0
100
AcDbSpline
210
0.0
220
0.0
230
1.0
 70
    11
 71
     3
 72
    23
 73
    19
 74
     0
 42
0.0000000001
 43
0.0000000001
 12
1.0
 22
0.0
 32
0.0
 13
1.0
 23
0.0
 33
0.0
 40
0.0
 40
0.0
 40
0.0
 40
0.0
 40
1.0
 40
1.0
 40
1.0
 40
2.0
 40
2.0
 40
2.0
 40
3.0
 40
3.0
 40
3.0
 40
4.0
 40
4.0
 40
4.0
 40
5.0
 40
5.0
 40
5.0
 40
6.0
 40
6.0
 40
6.0
 40
6.0
 10
45.8282104377617
 20
-88.70586884718118
 30
0.0
 10
45.81132946988397
 20
-88.74600420958434
 30
0.0
 10
45.804783788462
 20
-88.76288517746207
 30
0.0
 10
45.78376870600198
 20
-88.76288517746207
 30
0.0
 10
45.7689547954154
 20
-88.76288517746207
 30
0.0
 10
45.75827499941113
 20
-88.74600420958434
 30
0.0
 10
45.75207382753768
 20
-88.73325735628892
 30
0.0
 10
45.75207382753768
 20
-88.73325735628892
 30
0.0
 10
45.65251056801396
 20
-88.56823728254544
 30
0.0
 10
45.65251056801396
 20
-88.56823728254544
 30
0.0
 10
45.75414088482883
 20
-88.53654240408115
 30
0.0
 10
45.90434704798572
 20
-88.48159313109142
 30
0.0
 10
46.10312905748464
 20
-88.3186401146391
 30
0.0
 10
46.10312905748464
 20
-88.3186401146391
 30
0.0
 10
46.16031764253978
 20
-88.49210067232143
 30
0.0
 10
46.16031764253978
 20
-88.49210067232143
 30
0.0
 10
46.06730006443804
 20
-88.57461070919315
 30
0.0
 10
45.97841660091859
 20
-88.63179929424831
 30
0.0
 10
45.8282104377617
 20
-88.70586884718118
 30
0.0
  0
SPLINE
  5
F7
330
E9
100
AcDbEntity
  8
_U+30EC_U+30A4_U+30E4_U+30FC 1
370
     0
100
AcDbSpline
210
0.0
220
0.0
230
1.0
 70
    11
 71
     3
 72
    17
 73
    13
 74
     0
 42
0.0000000001
 43
0.0000000001
 12
1.0
 22
0.0
 32
0.0
 13
1.0
 23
0.0
 33
0.0
 40
0.0
 40
0.0
 40
0.0
 40
0.0
 40
1.0
 40
1.0
 40
1.0
 40
2.0
 40
2.0
 40
2.0
 40
3.0
 40
3.0
 40
3.0
 40
4.0
 40
4.0
 40
4.0
 40
4.0
 10
45.98048365820974
 20
-88.24043644712393
 30
0.0
 10
45.95085583703659
 20
-88.20030108472076
 30
0.0
 10
45.88298745597717
 20
-88.10297713726246
 30
0.0
 10
45.70108641435598
 20
-87.99290633650872
 30
0.0
 10
45.70108641435598
 20
-87.99290633650872
 30
0.0
 10
45.8282104377617
 20
-87.85958114122955
 30
0.0
 10
45.8282104377617
 20
-87.85958114122955
 30
0.0
 10
46.01424559396519
 20
-87.96121145804442
 30
0.0
 10
46.07143417902034
 20
-88.05009492156387
 30
0.0
 10
46.09899494290234
 20
-88.09229734125817
 30
0.0
 10
46.09899494290234
 20
-88.09229734125817
 30
0.0
 10
45.98048365820974
 20
-88.24043644712393
 30
0.0
 10
45.98048365820974
 20
-88.24043644712393
 30
0.0
  0
SPLINE
  5
F8
330
E9
100
AcDbEntity
  8
_U+30EC_U+30A4_U+30E4_U+30FC 1
370
     0
100
AcDbSpline
210
0.0
220
0.0
230
1.0
 70
    11
 71
     3
 72
    38
 73
    34
 74
     0
 42
0.0000000001
 43
0.0000000001
 12
1.0
 22
0.0
 32
0.0
 13
1.0
 23
0.0
 33
0.0
 40
0.0
 40
0.0
 40
0.0
 40
0.0
 40
1.0
 40
1.0
 40
1.0
 40
2.0
 40
2.0
 40
2.0
 40
3.0
 40
3.0
 40
3.0
 40
4.0
 40
4.0
 40
4.0
 40
5.0
 40
5.0
 40
5.0
 40
6.0
 40
6.0
 40
6.0
 40
7.0
 40
7.0
 40
7.0
 40
8.0
 40
8.0
 40
8.0
 40
9.0
 40
9.0
 40
9.0
 40
10.0
 40
10.0
 40
10.0
 40
11.0
 40
11.0
 40
11.0
 40
11.0
 10
46.34841985603443
 20
-87.93571775145358
 30
0.0
 10
46.34635279874328
 20
-87.98239879527871
 30
0.0
 10
46.34428574145213
 20
-88.09867076790589
 30
0.0
 10
46.34428574145213
 20
-88.14311249966562
 30
0.0
 10
46.34428574145213
 20
-88.14311249966562
 30
0.0
 10
46.34428574145213
 20
-88.49003361503027
 30
0.0
 10
46.34428574145213
 20
-88.49003361503027
 30
0.0
 10
46.34428574145213
 20
-88.57685002125856
 30
0.0
 10
46.34635279874328
 20
-88.71844344570233
 30
0.0
 10
46.35703259474755
 20
-88.83902178768608
 30
0.0
 10
46.35703259474755
 20
-88.83902178768608
 30
0.0
 10
46.16651881441323
 20
-88.83902178768608
 30
0.0
 10
46.16651881441323
 20
-88.83902178768608
 30
0.0
 10
46.17099743854406
 20
-88.77563203075748
 30
0.0
 10
46.17513155312636
 20
-88.7227498150589
 30
0.0
 10
46.17719861041751
 20
-88.66780054206916
 30
0.0
 10
46.17926566770866
 20
-88.54498288802
 30
0.0
 10
46.18133272499981
 20
-88.53016897743343
 30
0.0
 10
46.18133272499981
 20
-88.48572724567371
 30
0.0
 10
46.18133272499981
 20
-88.48572724567371
 30
0.0
 10
46.18133272499981
 20
-88.1642998368999
 30
0.0
 10
46.18133272499981
 20
-88.1642998368999
 30
0.0
 10
46.18133272499981
 20
-88.1091783091359
 30
0.0
 10
46.16858587170438
 20
-87.87026093723382
 30
0.0
 10
46.16651881441323
 20
-87.81944577882639
 30
0.0
 10
46.16651881441323
 20
-87.81944577882639
 30
0.0
 10
46.36771239075183
 20
-87.84700654270839
 30
0.0
 10
46.36771239075183
 20
-87.84700654270839
 30
0.0
 10
46.38872747321185
 20
-87.84907359999954
 30
0.0
 10
46.42042235167614
 20
-87.85320771458184
 30
0.0
 10
46.42042235167614
 20
-87.87870142117269
 30
0.0
 10
46.42042235167614
 20
-87.90608993028043
 30
0.0
 10
46.36977944804298
 20
-87.92727726751471
 30
0.0
 10
46.34841985603443
 20
-87.93571775145358
 30
0.0
  0
SPLINE
  5
F9
330
E9
100
AcDbEntity
  8
_U+30EC_U+30A4_U+30E4_U+30FC 1
370
     0
100
AcDbSpline
210
0.0
220
0.0
230
1.0
 70
    11
 71
     3
 72
    83
 73
    79
 74
     0
 42
0.0000000001
 43
0.0000000001
 12
1.0
 22
0.0
 32
0.0
 13
1.0
 23
0.0
 33
0.0
 40
0.0
 40
0.0
 40
0.0
 40
0.0
 40
1.0
 40
1.0
 40
1.0
 40
2.0
 40
2.0
 40
2.0
 40
3.0
 40
3.0
 40
3.0
 40
4.0
 40
4.0
 40
4.0
 40
5.0
 40
5.0
 40
5.0
 40
6.0
 40
6.0
 40
6.0
 40
7.0
 40
7.0
 40
7.0
 40
8.0
 40
8.0
 40
8.0
 40
9.0
 40
9.0
 40
9.0
 40
10.0
 40
10.0
 40
10.0
 40
11.0
 40
11.0
 40
11.0
 40
12.0
 40
12.0
 40
12.0
 40
13.0
 40
13.0
 40
13.0
 40
14.0
 40
14.0
 40
14.0
 40
15.0
 40
15.0
 40
15.0
 40
16.0
 40
16.0
 40
16.0
 40
17.0
 40
17.0
 40
17.0
 40
18.0
 40
18.0
 40
18.0
 40
19.0
 40
19.0
 40
19.0
 40
20.0
 40
20.0
 40
20.0
 40
21.0
 40
21.0
 40
21.0
 40
22.0
 40
22.0
 40
22.0
 40
23.0
 40
23.0
 40
23.0
 40
24.0
 40
24.0
 40
24.0
 40
25.0
 40
25.0
 40
25.0
 40
26.0
 40
26.0
 40
26.0
 40
26.0
 10
47.15043808500059
 20
-88.25731741500165
 30
0.0
 10
47.15043808500059
 20
-88.25731741500165
 30
0.0
 10
47.05294188276802
 20
-88.25731741500165
 30
0.0
 10
47.05294188276802
 20
-88.25731741500165
 30
0.0
 10
47.05294188276802
 20
-88.25731741500165
 30
0.0
 10
47.05294188276802
 20
-88.50484752561685
 30
0.0
 10
47.05294188276802
 20
-88.50484752561685
 30
0.0
 10
47.05294188276802
 20
-88.50484752561685
 30
0.0
 10
47.13562417441401
 20
-88.50484752561685
 30
0.0
 10
47.13562417441401
 20
-88.50484752561685
 30
0.0
 10
47.20108098863376
 20
-88.50484752561685
 30
0.0
 10
47.34060735578637
 20
-88.50054115626028
 30
0.0
 10
47.4401706153101
 20
-88.49210067232143
 30
0.0
 10
47.4401706153101
 20
-88.49210067232143
 30
0.0
 10
47.4401706153101
 20
-88.67193465665146
 30
0.0
 10
47.4401706153101
 20
-88.67193465665146
 30
0.0
 10
47.34715303720835
 20
-88.6634941727126
 30
0.0
 10
47.19694687405146
 20
-88.6593600581303
 30
0.0
 10
47.13562417441401
 20
-88.6593600581303
 30
0.0
 10
47.13562417441401
 20
-88.6593600581303
 30
0.0
 10
46.8307332239694
 20
-88.6593600581303
 30
0.0
 10
46.8307332239694
 20
-88.6593600581303
 30
0.0
 10
46.77802326304508
 20
-88.6593600581303
 30
0.0
 10
46.63195121447048
 20
-88.6634941727126
 30
0.0
 10
46.52618678307331
 20
-88.67193465665146
 30
0.0
 10
46.52618678307331
 20
-88.67193465665146
 30
0.0
 10
46.52618678307331
 20
-88.49210067232143
 30
0.0
 10
46.52618678307331
 20
-88.49210067232143
 30
0.0
 10
46.62575004259703
 20
-88.50054115626028
 30
0.0
 10
46.76527640974965
 20
-88.50484752561685
 30
0.0
 10
46.8307332239694
 20
-88.50484752561685
 30
0.0
 10
46.8307332239694
 20
-88.50484752561685
 30
0.0
 10
46.87517495572912
 20
-88.50484752561685
 30
0.0
 10
46.87517495572912
 20
-88.50484752561685
 30
0.0
 10
46.87517495572912
 20
-88.50484752561685
 30
0.0
 10
46.87517495572912
 20
-88.25731741500165
 30
0.0
 10
46.87517495572912
 20
-88.25731741500165
 30
0.0
 10
46.87517495572912
 20
-88.25731741500165
 30
0.0
 10
46.80144991234478
 20
-88.25731741500165
 30
0.0
 10
46.80144991234478
 20
-88.25731741500165
 30
0.0
 10
46.73978270315881
 20
-88.25731741500165
 30
0.0
 10
46.57269557212419
 20
-88.2616237843582
 30
0.0
 10
46.45211723014044
 20
-88.27006426829708
 30
0.0
 10
46.45211723014044
 20
-88.27006426829708
 30
0.0
 10
46.45211723014044
 20
-88.09229734125817
 30
0.0
 10
46.45211723014044
 20
-88.09229734125817
 30
0.0
 10
46.56649440025074
 20
-88.09867076790589
 30
0.0
 10
46.72496879257223
 20
-88.10297713726246
 30
0.0
 10
46.80144991234478
 20
-88.10297713726246
 30
0.0
 10
46.80144991234478
 20
-88.10297713726246
 30
0.0
 10
46.87310789843797
 20
-88.10297713726246
 30
0.0
 10
46.87310789843797
 20
-88.10297713726246
 30
0.0
 10
46.86897378385567
 20
-87.95053166204015
 30
0.0
 10
46.86690672656452
 20
-87.9167697262847
 30
0.0
 10
46.86036104514255
 20
-87.82357989340869
 30
0.0
 10
46.86036104514255
 20
-87.82357989340869
 30
0.0
 10
47.07223441748542
 20
-87.84700654270839
 30
0.0
 10
47.07223441748542
 20
-87.84700654270839
 30
0.0
 10
47.09738361452774
 20
-87.84907359999954
 30
0.0
 10
47.12081026382744
 20
-87.85320771458184
 30
0.0
 10
47.12081026382744
 20
-87.87646210910728
 30
0.0
 10
47.12081026382744
 20
-87.90832924234584
 30
0.0
 10
47.07636853206772
 20
-87.92521021022357
 30
0.0
 10
47.05294188276802
 20
-87.93365069416242
 30
0.0
 10
47.05294188276802
 20
-87.93365069416242
 30
0.0
 10
47.05294188276802
 20
-88.10297713726246
 30
0.0
 10
47.05294188276802
 20
-88.10297713726246
 30
0.0
 10
47.05294188276802
 20
-88.10297713726246
 30
0.0
 10
47.15043808500059
 20
-88.10297713726246
 30
0.0
 10
47.15043808500059
 20
-88.10297713726246
 30
0.0
 10
47.22657469522461
 20
-88.10297713726246
 30
0.0
 10
47.3850490875461
 20
-88.09867076790589
 30
0.0
 10
47.50149331494755
 20
-88.09229734125817
 30
0.0
 10
47.50149331494755
 20
-88.09229734125817
 30
0.0
 10
47.50149331494755
 20
-88.27006426829708
 30
0.0
 10
47.50149331494755
 20
-88.27006426829708
 30
0.0
 10
47.39366182625923
 20
-88.26369084164936
 30
0.0
 10
47.22002901380263
 20
-88.25731741500165
 30
0.0
 10
47.15043808500059
 20
-88.25731741500165
 30
0.0
  0
SPLINE
  5
FA
330
E9
100
AcDbEntity
  8
_U+30EC_U+30A4_U+30E4_U+30FC 1
370
     0
100
AcDbSpline
210
0.0
220
0.0
230
1.0
 70
    11
 71
     3
 72
    17
 73
    13
 74
     0
 42
0.0000000001
 43
0.0000000001
 12
1.0
 22
0.0
 32
0.0
 13
1.0
 23
0.0
 33
0.0
 40
0.0
 40
0.0
 40
0.0
 40
0.0
 40
1.0
 40
1.0
 40
1.0
 40
2.0
 40
2.0
 40
2.0
 40
3.0
 40
3.0
 40
3.0
 40
4.0
 40
4.0
 40
4.0
 40
4.0
 10
46.90480277690227
 20
-89.05485701983699
 30
0.0
 10
46.90480277690227
 20
-89.05485701983699
 30
0.0
 10
46.70188665282106
 20
-89.05485701983699
 30
0.0
 10
46.70188665282106
 20
-89.05485701983699
 30
0.0
 10
46.72944741670306
 20
-89.11411266218329
 30
0.0
 10
46.78422443491853
 20
-89.186115157825
 30
0.0
 10
46.81178519880053
 20
-89.2155707242239
 30
0.0
 10
46.83934596268253
 20
-89.20092906841158
 30
0.0
 10
46.95372313279282
 20
-89.13736705670871
 30
0.0
 10
47.04467365360342
 20
-89.05485701983699
 30
0.0
 10
47.04467365360342
 20
-89.05485701983699
 30
0.0
 10
46.90480277690227
 20
-89.05485701983699
 30
0.0
 10
46.90480277690227
 20
-89.05485701983699
 30
0.0
  0
HATCH
  5
FB
330
E9
100
AcDbEntity
  8
_U+30EC_U+30A4_U+30E4_U+30FC 1
 62
   179
420
  2234388
100
AcDbHatch
 10
0.0
 20
0.0
 30
0.0
210
0.0
220
0.0
230
1.0
  2
SOLID
 70
     1
 71
     0
 91
        6
 92
        1
 93
        1
 72
     4
 94
        3
 73
     0
 74
     1
 95
      113
 96
      109
 40
0.0
 40
0.0
 40
0.0
 40
0.0
 40
1.0
 40
1.0
 40
1.0
 40
2.0
 40
2.0
 40
2.0
 40
3.0
 40
3.0
 40
3.0
 40
4.0
 40
4.0
 40
4.0
 40
5.0
 40
5.0
 40
5.0
 40
6.0
 40
6.0
 40
6.0
 40
7.0
 40
7.0
 40
7.0
 40
8.0
 40
8.0
 40
8.0
 40
9.0
 40
9.0
 40
9.0
 40
10.0
 40
10.0
 40
10.0
 40
11.0
 40
11.0
 40
11.0
 40
12.0
 40
12.0
 40
12.0
 40
13.0
 40
13.0
 40
13.0
 40
14.0
 40
14.0
 40
14.0
 40
15.0
 40
15.0
 40
15.0
 40
16.0
 40
16.0
 40
16.0
 40
17.0
 40
17.0
 40
17.0
 40
18.0
 40
18.0
 40
18.0
 40
19.0
 40
19.0
 40
19.0
 40
20.0
 40
20.0
 40
20.0
 40
21.0
 40
21.0
 40
21.0
 40
22.0
 40
22.0
 40
22.0
 40
23.0
 40
23.0
 40
23.0
 40
24.0
 40
24.0
 40
24.0
 40
25.0
 40
25.0
 40
25.0
 40
26.0
 40
26.0
 40
26.0
 40
27.0
 40
27.0
 40
27.0
 40
28.0
 40
28.0
 40
28.0
 40
29.0
 40
29.0
 40
29.0
 40
30.0
 40
30.0
 40
30.0
 40
31.0
 40
31.0
 40
31.0
 40
32.0
 40
32.0
 40
32.0
 40
33.0
 40
33.0
 40
33.0
 40
34.0
 40
34.0
 40
34.0
 40
35.0
 40
35.0
 40
35.0
 40
36.0
 40
36.0
 40
36.0
 40
36.0
 10
47.11219752511431
 20
-89.05692407712813
 10
47.11219752511431
 20
-89.05692407712813
 10
47.21176078463803
 20
-89.15648733665185
 10
47.21176078463803
 20
-89.15648733665185
 10
47.22244058064231
 20
-89.16699487788186
 10
47.23277586709806
 20
-89.17974173117729
 10
47.23277586709806
 20
-89.19455564176387
 10
47.23277586709806
 20
-89.19662269905501
 10
47.23277586709806
 20
-89.22625052022816
 10
47.19487981676031
 20
-89.22625052022816
 10
47.18626707804719
 20
-89.22625052022816
 10
47.14595946086976
 20
-89.22194415087161
 10
47.13975828899631
 20
-89.22194415087161
 10
47.09945067181889
 20
-89.25381128411016
 10
47.05294188276802
 20
-89.2875732198656
 10
46.95372313279282
 20
-89.34476180492076
 10
47.09945067181889
 20
-89.45259329360908
 10
47.25826957368891
 20
-89.50978187866423
 10
47.5311211361207
 20
-89.5480224385505
 10
47.5311211361207
 20
-89.5480224385505
 10
47.3809149729638
 20
-89.72337779874971
 10
47.3809149729638
 20
-89.72337779874971
 10
47.11874320653629
 20
-89.651375303108
 10
46.96199136195742
 20
-89.56283634913707
 10
46.8858547517334
 20
-89.50978187866423
 10
46.73564858857651
 20
-89.40815156184935
 10
46.59198810684159
 20
-89.24519854539703
 10
46.51585149661756
 20
-89.08017847165357
 10
46.44798311555815
 20
-89.14580754064758
 10
46.37391356262528
 20
-89.19868975634617
 10
46.2957098951101
 20
-89.24743785746244
 10
46.2957098951101
 20
-89.24743785746244
 10
46.2957098951101
 20
-89.49910208265995
 10
46.2957098951101
 20
-89.49910208265995
 10
46.45866291156242
 20
-89.47395288561762
 10
46.64469806776591
 20
-89.4295111538579
 10
46.70808782469451
 20
-89.41469724327133
 10
46.70808782469451
 20
-89.41469724327133
 10
46.67846000352136
 20
-89.5838514315971
 10
46.67846000352136
 20
-89.5838514315971
 10
46.67639294623021
 20
-89.5838514315971
 10
46.65744492106133
 20
-89.59005260347055
 10
46.65537786377018
 20
-89.59005260347055
 10
46.45659585427127
 20
-89.62829316335682
 10
46.13930256007976
 20
-89.69374997757657
 10
45.94224309832347
 20
-89.72992348017169
 10
45.93190781186772
 20
-89.74680444804942
 10
45.90848116256802
 20
-89.77849932651371
 10
45.88539902281685
 20
-89.77849932651371
 10
45.85783825893485
 20
-89.77849932651371
 10
45.85370414435255
 20
-89.75955130134484
 10
45.85129257751287
 20
-89.74025876662743
 10
45.85129257751287
 20
-89.74025876662743
 10
45.82614338047055
 20
-89.56697046371937
 10
45.82614338047055
 20
-89.56697046371937
 10
45.90021293340342
 20
-89.55835772500625
 10
46.00804442209174
 20
-89.54561087171082
 10
46.11587591078006
 20
-89.5245957892508
 10
46.11587591078006
 20
-89.5245957892508
 10
46.11587591078006
 20
-89.34682886221191
 10
46.11587591078006
 20
-89.34682886221191
 10
45.97187091949662
 20
-89.41883135785363
 10
45.87678628410372
 20
-89.44845917902678
 10
45.71176621036025
 20
-89.47808700019992
 10
45.71176621036025
 20
-89.47808700019992
 10
45.59118786837651
 20
-89.30893281187416
 10
45.59118786837651
 20
-89.30893281187416
 10
45.90848116256802
 20
-89.28137204799216
 10
46.10106200019349
 20
-89.18818221511616
 10
46.27882892723238
 20
-89.05485701983699
 10
46.13275687865779
 20
-89.05485701983699
 10
45.832344552344
 20
-89.05916338919354
 10
45.63562960013623
 20
-89.06553681584126
 10
45.63562960013623
 20
-89.06553681584126
 10
45.63562960013623
 20
-88.88776988880237
 10
45.63562960013623
 20
-88.88776988880237
 10
45.78996987787543
 20
-88.89414331545008
 10
46.08624808960691
 20
-88.90051674209779
 10
46.27021618851926
 20
-88.90051674209779
 10
46.27021618851926
 20
-88.90051674209779
 10
46.4817450513136
 20
-88.90051674209779
 10
46.4817450513136
 20
-88.90051674209779
 10
46.4817450513136
 20
-88.80525985193063
 10
46.47967799402245
 20
-88.7544446935232
 10
46.473476822149
 20
-88.70793590447232
 10
46.473476822149
 20
-88.70793590447232
 10
46.68913979952563
 20
-88.72481687235005
 10
46.68913979952563
 20
-88.72481687235005
 10
46.73771564586766
 20
-88.72912324170662
 10
46.74632838458078
 20
-88.74393715229319
 10
46.74632838458078
 20
-88.75875106287977
 10
46.74632838458078
 20
-88.78407251469635
 10
46.72944741670306
 20
-88.7925129986352
 10
46.67846000352136
 20
-88.81800670522605
 10
46.67639294623021
 20
-88.84332815704265
 10
46.67639294623021
 20
-88.84970158369036
 10
46.67432588893906
 20
-88.90051674209779
 10
46.67432588893906
 20
-88.90051674209779
 10
46.90480277690227
 20
-88.90051674209779
 10
46.90480277690227
 20
-88.90051674209779
 10
47.06982285064574
 20
-88.90051674209779
 10
47.36196694779493
 20
-88.89414331545008
 10
47.54180093212497
 20
-88.88776988880237
 10
47.54180093212497
 20
-88.88776988880237
 10
47.54180093212497
 20
-89.06553681584126
 10
47.54180093212497
 20
-89.06553681584126
 10
47.4126098514281
 20
-89.0612304464847
 10
47.38952771167693
 20
-89.0612304464847
 10
47.11219752511431
 20
-89.05692407712813
 97
        0
 97
        0
 92
        1
 93
        1
 72
     4
 94
        3
 73
     0
 74
     1
 95
       23
 96
       19
 40
0.0
 40
0.0
 40
0.0
 40
0.0
 40
1.0
 40
1.0
 40
1.0
 40
2.0
 40
2.0
 40
2.0
 40
3.0
 40
3.0
 40
3.0
 40
4.0
 40
4.0
 40
4.0
 40
5.0
 40
5.0
 40
5.0
 40
6.0
 40
6.0
 40
6.0
 40
6.0
 10
45.8282104377617
 20
-88.70586884718118
 10
45.81132946988397
 20
-88.74600420958434
 10
45.804783788462
 20
-88.76288517746207
 10
45.78376870600198
 20
-88.76288517746207
 10
45.7689547954154
 20
-88.76288517746207
 10
45.75827499941113
 20
-88.74600420958434
 10
45.75207382753768
 20
-88.73325735628892
 10
45.75207382753768
 20
-88.73325735628892
 10
45.65251056801396
 20
-88.56823728254544
 10
45.65251056801396
 20
-88.56823728254544
 10
45.75414088482883
 20
-88.53654240408115
 10
45.90434704798572
 20
-88.48159313109142
 10
46.10312905748464
 20
-88.3186401146391
 10
46.10312905748464
 20
-88.3186401146391
 10
46.16031764253978
 20
-88.49210067232143
 10
46.16031764253978
 20
-88.49210067232143
 10
46.06730006443804
 20
-88.57461070919315
 10
45.97841660091859
 20
-88.63179929424831
 10
45.8282104377617
 20
-88.70586884718118
 97
        0
 97
        0
 92
        1
 93
        1
 72
     4
 94
        3
 73
     0
 74
     1
 95
       17
 96
       13
 40
0.0
 40
0.0
 40
0.0
 40
0.0
 40
1.0
 40
1.0
 40
1.0
 40
2.0
 40
2.0
 40
2.0
 40
3.0
 40
3.0
 40
3.0
 40
4.0
 40
4.0
 40
4.0
 40
4.0
 10
45.98048365820974
 20
-88.24043644712393
 10
45.95085583703659
 20
-88.20030108472076
 10
45.88298745597717
 20
-88.10297713726246
 10
45.70108641435598
 20
-87.99290633650872
 10
45.70108641435598
 20
-87.99290633650872
 10
45.8282104377617
 20
-87.85958114122955
 10
45.8282104377617
 20
-87.85958114122955
 10
46.01424559396519
 20
-87.96121145804442
 10
46.07143417902034
 20
-88.05009492156387
 10
46.09899494290234
 20
-88.09229734125817
 10
46.09899494290234
 20
-88.09229734125817
 10
45.98048365820974
 20
-88.24043644712393
 10
45.98048365820974
 20
-88.24043644712393
 97
        0
 97
        0
 92
        1
 93
        1
 72
     4
 94
        3
 73
     0
 74
     1
 95
       38
 96
       34
 40
0.0
 40
0.0
 40
0.0
 40
0.0
 40
1.0
 40
1.0
 40
1.0
 40
2.0
 40
2.0
 40
2.0
 40
3.0
 40
3.0
 40
3.0
 40
4.0
 40
4.0
 40
4.0
 40
5.0
 40
5.0
 40
5.0
 40
6.0
 40
6.0
 40
6.0
 40
7.0
 40
7.0
 40
7.0
 40
8.0
 40
8.0
 40
8.0
 40
9.0
 40
9.0
 40
9.0
 40
10.0
 40
10.0
 40
10.0
 40
11.0
 40
11.0
 40
11.0
 40
11.0
 10
46.34841985603443
 20
-87.93571775145358
 10
46.34635279874328
 20
-87.98239879527871
 10
46.34428574145213
 20
-88.09867076790589
 10
46.34428574145213
 20
-88.14311249966562
 10
46.34428574145213
 20
-88.14311249966562
 10
46.34428574145213
 20
-88.49003361503027
 10
46.34428574145213
 20
-88.49003361503027
 10
46.34428574145213
 20
-88.57685002125856
 10
46.34635279874328
 20
-88.71844344570233
 10
46.35703259474755
 20
-88.83902178768608
 10
46.35703259474755
 20
-88.83902178768608
 10
46.16651881441323
 20
-88.83902178768608
 10
46.16651881441323
 20
-88.83902178768608
 10
46.17099743854406
 20
-88.77563203075748
 10
46.17513155312636
 20
-88.7227498150589
 10
46.17719861041751
 20
-88.66780054206916
 10
46.17926566770866
 20
-88.54498288802
 10
46.18133272499981
 20
-88.53016897743343
 10
46.18133272499981
 20
-88.48572724567371
 10
46.18133272499981
 20
-88.48572724567371
 10
46.18133272499981
 20
-88.1642998368999
 10
46.18133272499981
 20
-88.1642998368999
 10
46.18133272499981
 20
-88.1091783091359
 10
46.16858587170438
 20
-87.87026093723382
 10
46.16651881441323
 20
-87.81944577882639
 10
46.16651881441323
 20
-87.81944577882639
 10
46.36771239075183
 20
-87.84700654270839
 10
46.36771239075183
 20
-87.84700654270839
 10
46.38872747321185
 20
-87.84907359999954
 10
46.42042235167614
 20
-87.85320771458184
 10
46.42042235167614
 20
-87.87870142117269
 10
46.42042235167614
 20
-87.90608993028043
 10
46.36977944804298
 20
-87.92727726751471
 10
46.34841985603443
 20
-87.93571775145358
 97
        0
 97
        0
 92
        1
 93
        1
 72
     4
 94
        3
 73
     0
 74
     1
 95
       83
 96
       79
 40
0.0
 40
0.0
 40
0.0
 40
0.0
 40
1.0
 40
1.0
 40
1.0
 40
2.0
 40
2.0
 40
2.0
 40
3.0
 40
3.0
 40
3.0
 40
4.0
 40
4.0
 40
4.0
 40
5.0
 40
5.0
 40
5.0
 40
6.0
 40
6.0
 40
6.0
 40
7.0
 40
7.0
 40
7.0
 40
8.0
 40
8.0
 40
8.0
 40
9.0
 40
9.0
 40
9.0
 40
10.0
 40
10.0
 40
10.0
 40
11.0
 40
11.0
 40
11.0
 40
12.0
 40
12.0
 40
12.0
 40
13.0
 40
13.0
 40
13.0
 40
14.0
 40
14.0
 40
14.0
 40
15.0
 40
15.0
 40
15.0
 40
16.0
 40
16.0
 40
16.0
 40
17.0
 40
17.0
 40
17.0
 40
18.0
 40
18.0
 40
18.0
 40
19.0
 40
19.0
 40
19.0
 40
20.0
 40
20.0
 40
20.0
 40
21.0
 40
21.0
 40
21.0
 40
22.0
 40
22.0
 40
22.0
 40
23.0
 40
23.0
 40
23.0
 40
24.0
 40
24.0
 40
24.0
 40
25.0
 40
25.0
 40
25.0
 40
26.0
 40
26.0
 40
26.0
 40
26.0
 10
47.15043808500059
 20
-88.25731741500165
 10
47.15043808500059
 20
-88.25731741500165
 10
47.05294188276802
 20
-88.25731741500165
 10
47.05294188276802
 20
-88.25731741500165
 10
47.05294188276802
 20
-88.25731741500165
 10
47.05294188276802
 20
-88.50484752561685
 10
47.05294188276802
 20
-88.50484752561685
 10
47.05294188276802
 20
-88.50484752561685
 10
47.13562417441401
 20
-88.50484752561685
 10
47.13562417441401
 20
-88.50484752561685
 10
47.20108098863376
 20
-88.50484752561685
 10
47.34060735578637
 20
-88.50054115626028
 10
47.4401706153101
 20
-88.49210067232143
 10
47.4401706153101
 20
-88.49210067232143
 10
47.4401706153101
 20
-88.67193465665146
 10
47.4401706153101
 20
-88.67193465665146
 10
47.34715303720835
 20
-88.6634941727126
 10
47.19694687405146
 20
-88.6593600581303
 10
47.13562417441401
 20
-88.6593600581303
 10
47.13562417441401
 20
-88.6593600581303
 10
46.8307332239694
 20
-88.6593600581303
 10
46.8307332239694
 20
-88.6593600581303
 10
46.77802326304508
 20
-88.6593600581303
 10
46.63195121447048
 20
-88.6634941727126
 10
46.52618678307331
 20
-88.67193465665146
 10
46.52618678307331
 20
-88.67193465665146
 10
46.52618678307331
 20
-88.49210067232143
 10
46.52618678307331
 20
-88.49210067232143
 10
46.62575004259703
 20
-88.50054115626028
 10
46.76527640974965
 20
-88.50484752561685
 10
46.8307332239694
 20
-88.50484752561685
 10
46.8307332239694
 20
-88.50484752561685
 10
46.87517495572912
 20
-88.50484752561685
 10
46.87517495572912
 20
-88.50484752561685
 10
46.87517495572912
 20
-88.50484752561685
 10
46.87517495572912
 20
-88.25731741500165
 10
46.87517495572912
 20
-88.25731741500165
 10
46.87517495572912
 20
-88.25731741500165
 10
46.80144991234478
 20
-88.25731741500165
 10
46.80144991234478
 20
-88.25731741500165
 10
46.73978270315881
 20
-88.25731741500165
 10
46.57269557212419
 20
-88.2616237843582
 10
46.45211723014044
 20
-88.27006426829708
 10
46.45211723014044
 20
-88.27006426829708
 10
46.45211723014044
 20
-88.09229734125817
 10
46.45211723014044
 20
-88.09229734125817
 10
46.56649440025074
 20
-88.09867076790589
 10
46.72496879257223
 20
-88.10297713726246
 10
46.80144991234478
 20
-88.10297713726246
 10
46.80144991234478
 20
-88.10297713726246
 10
46.87310789843797
 20
-88.10297713726246
 10
46.87310789843797
 20
-88.10297713726246
 10
46.86897378385567
 20
-87.95053166204015
 10
46.86690672656452
 20
-87.9167697262847
 10
46.86036104514255
 20
-87.82357989340869
 10
46.86036104514255
 20
-87.82357989340869
 10
47.07223441748542
 20
-87.84700654270839
 10
47.07223441748542
 20
-87.84700654270839
 10
47.09738361452774
 20
-87.84907359999954
 10
47.12081026382744
 20
-87.85320771458184
 10
47.12081026382744
 20
-87.87646210910728
 10
47.12081026382744
 20
-87.90832924234584
 10
47.07636853206772
 20
-87.92521021022357
 10
47.05294188276802
 20
-87.93365069416242
 10
47.05294188276802
 20
-87.93365069416242
 10
47.05294188276802
 20
-88.10297713726246
 10
47.05294188276802
 20
-88.10297713726246
 10
47.05294188276802
 20
-88.10297713726246
 10
47.15043808500059
 20
-88.10297713726246
 10
47.15043808500059
 20
-88.10297713726246
 10
47.22657469522461
 20
-88.10297713726246
 10
47.3850490875461
 20
-88.09867076790589
 10
47.50149331494755
 20
-88.09229734125817
 10
47.50149331494755
 20
-88.09229734125817
 10
47.50149331494755
 20
-88.27006426829708
 10
47.50149331494755
 20
-88.27006426829708
 10
47.39366182625923
 20
-88.26369084164936
 10
47.22002901380263
 20
-88.25731741500165
 10
47.15043808500059
 20
-88.25731741500165
 97
        0
 97
        0
 92
        1
 93
        1
 72
     4
 94
        3
 73
     0
 74
     1
 95
       17
 96
       13
 40
0.0
 40
0.0
 40
0.0
 40
0.0
 40
1.0
 40
1.0
 40
1.0
 40
2.0
 40
2.0
 40
2.0
 40
3.0
 40
3.0
 40
3.0
 40
4.0
 40
4.0
 40
4.0
 40
4.0
 10
46.90480277690227
 20
-89.05485701983699
 10
46.90480277690227
 20
-89.05485701983699
 10
46.70188665282106
 20
-89.05485701983699
 10
46.70188665282106
 20
-89.05485701983699
 10
46.72944741670306
 20
-89.11411266218329
 10
46.78422443491853
 20
-89.186115157825
 10
46.81178519880053
 20
-89.2155707242239
 10
46.83934596268253
 20
-89.20092906841158
 10
46.95372313279282
 20
-89.13736705670871
 10
47.04467365360342
 20
-89.05485701983699
 10
47.04467365360342
 20
-89.05485701983699
 10
46.90480277690227
 20
-89.05485701983699
 10
46.90480277690227
 20
-89.05485701983699
 97
        0
 97
        0
 75
     2
 76
     1
 98
        0
  0
SPLINE
  5
FC
330
E9
100
AcDbEntity
  8
_U+30EC_U+30A4_U+30E4_U+30FC 1
370
     0
100
AcDbSpline
210
0.0
220
0.0
230
1.0
 70
    11
 71
     3
 72
    77
 73
    73
 74
     0
 42
0.0000000001
 43
0.0000000001
 12
1.0
 22
0.0
 32
0.0
 13
1.0
 23
0.0
 33
0.0
 40
0.0
 40
0.0
 40
0.0
 40
0.0
 40
1.0
 40
1.0
 40
1.0
 40
2.0
 40
2.0
 40
2.0
 40
3.0
 40
3.0
 40
3.0
 40
4.0
 40
4.0
 40
4.0
 40
5.0
 40
5.0
 40
5.0
 40
6.0
 40
6.0
 40
6.0
 40
7.0
 40
7.0
 40
7.0
 40
8.0
 40
8.0
 40
8.0
 40
9.0
 40
9.0
 40
9.0
 40
10.0
 40
10.0
 40
10.0
 40
11.0
 40
11.0
 40
11.0
 40
12.0
 40
12.0
 40
12.0
 40
13.0
 40
13.0
 40
13.0
 40
14.0
 40
14.0
 40
14.0
 40
15.0
 40
15.0
 40
15.0
 40
16.0
 40
16.0
 40
16.0
 40
17.0
 40
17.0
 40
17.0
 40
18.0
 40
18.0
 40
18.0
 40
19.0
 40
19.0
 40
19.0
 40
20.0
 40
20.0
 40
20.0
 40
21.0
 40
21.0
 40
21.0
 40
22.0
 40
22.0
 40
22.0
 40
23.0
 40
23.0
 40
23.0
 40
24.0
 40
24.0
 40
24.0
 40
24.0
 10
49.39595132228643
 20
-89.68548174841197
 30
0.0
 10
49.34944253323556
 20
-89.71063094545428
 30
0.0
 10
49.22473007666952
 20
-89.72337779874971
 30
0.0
 10
49.14618189960582
 20
-89.72337779874971
 30
0.0
 10
49.13377955585891
 20
-89.72337779874971
 30
0.0
 10
49.10828584926807
 20
-89.72337779874971
 30
0.0
 10
49.07452391351262
 20
-89.71924368416741
 30
0.0
 10
49.07452391351262
 20
-89.71924368416741
 30
0.0
 10
48.97702771128005
 20
-89.4929009107865
 30
0.0
 10
48.97702771128005
 20
-89.4929009107865
 30
0.0
 10
49.0066555324532
 20
-89.49910208265995
 30
0.0
 10
49.06384411750835
 20
-89.50771482137307
 30
0.0
 10
49.18028834490979
 20
-89.50771482137307
 30
0.0
 10
49.25849201242496
 20
-89.50771482137307
 30
0.0
 10
49.26055906971611
 20
-89.46534014690451
 30
0.0
 10
49.26055906971611
 20
-89.40815156184935
 30
0.0
 10
49.26055906971611
 20
-89.40815156184935
 30
0.0
 10
49.26055906971611
 20
-89.05916338919354
 30
0.0
 10
49.26055906971611
 20
-89.05916338919354
 30
0.0
 10
49.26055906971611
 20
-89.05916338919354
 30
0.0
 10
48.80132784153231
 20
-89.05916338919354
 30
0.0
 10
48.80132784153231
 20
-89.05916338919354
 30
0.0
 10
48.80373940837198
 20
-89.19662269905501
 30
0.0
 10
48.80580646566313
 20
-89.39540470855393
 30
0.0
 10
48.81200763753658
 20
-89.5287299038331
 30
0.0
 10
48.81407469482773
 20
-89.5562906677151
 30
0.0
 10
48.81407469482773
 20
-89.60073239947482
 30
0.0
 10
48.82682154812316
 20
-89.66205509911227
 30
0.0
 10
48.82682154812316
 20
-89.66205509911227
 30
0.0
 10
48.58566486415567
 20
-89.66205509911227
 30
0.0
 10
48.58566486415567
 20
-89.66205509911227
 30
0.0
 10
48.61115857074652
 20
-89.53734264254622
 30
0.0
 10
48.61115857074652
 20
-89.19662269905501
 30
0.0
 10
48.61115857074652
 20
-89.05916338919354
 30
0.0
 10
48.61115857074652
 20
-89.05916338919354
 30
0.0
 10
48.16880831044044
 20
-89.05916338919354
 30
0.0
 10
48.16880831044044
 20
-89.05916338919354
 30
0.0
 10
48.14572617068927
 20
-89.26655813740558
 30
0.0
 10
48.08026935646951
 20
-89.53527558525508
 30
0.0
 10
47.88320989471323
 20
-89.71924368416741
 30
0.0
 10
47.88320989471323
 20
-89.71924368416741
 30
0.0
 10
47.69510768121859
 20
-89.59659828489252
 30
0.0
 10
47.69510768121859
 20
-89.59659828489252
 30
0.0
 10
47.9490112184815
 20
-89.37645668338506
 30
0.0
 10
47.9807060969458
 20
-89.04434947860697
 30
0.0
 10
47.9807060969458
 20
-88.71224227382889
 30
0.0
 10
47.9807060969458
 20
-88.71224227382889
 30
0.0
 10
47.9807060969458
 20
-88.27643769494479
 30
0.0
 10
47.9807060969458
 20
-88.27643769494479
 30
0.0
 10
47.9807060969458
 20
-88.24043644712393
 30
0.0
 10
47.97863903965465
 20
-88.00772024709529
 30
0.0
 10
47.97002630094153
 20
-87.90608993028043
 30
0.0
 10
48.10989717764267
 20
-87.9167697262847
 30
0.0
 10
48.35105386161015
 20
-87.9167697262847
 30
0.0
 10
48.49471434334507
 20
-87.9167697262847
 30
0.0
 10
48.49471434334507
 20
-87.9167697262847
 30
0.0
 10
48.95394557152888
 20
-87.9167697262847
 30
0.0
 10
48.95394557152888
 20
-87.9167697262847
 30
0.0
 10
48.96875948211545
 20
-87.9167697262847
 30
0.0
 10
49.31774765477126
 20
-87.9167697262847
 30
0.0
 10
49.47622204709275
 20
-87.90608993028043
 30
0.0
 10
49.4741549898016
 20
-87.958972145979
 30
0.0
 10
49.46795381792816
 20
-88.11985810514018
 30
0.0
 10
49.46795381792816
 20
-88.17067326354761
 30
0.0
 10
49.46795381792816
 20
-88.17067326354761
 30
0.0
 10
49.46795381792816
 20
-88.77769908804864
 30
0.0
 10
49.46795381792816
 20
-88.77769908804864
 30
0.0
 10
49.46795381792816
 20
-88.79681936799177
 30
0.0
 10
49.4782891043839
 20
-89.36818845422046
 30
0.0
 10
49.4782891043839
 20
-89.48015405749108
 30
0.0
 10
49.4782891043839
 20
-89.53734264254622
 30
0.0
 10
49.4782891043839
 20
-89.6389729593611
 30
0.0
 10
49.39595132228643
 20
-89.68548174841197
 30
0.0
  0
POLYLINE
  5
FD
330
E9
100
AcDbEntity
  8
_U+30EC_U+30A4_U+30E4_U+30FC 1
370
     0
100
AcDb2dPolyline
 66
     1
 10
0.0
 20
0.0
 30
0.0
  0
VERTEX
  5
FE
330
FD
100
AcDbEntity
  8
_U+30EC_U+30A4_U+30E4_U+30FC 1
370
     0
100
AcDbVertex
100
AcDb2dVertex
 10
48.61115857074652
 20
-88.09867076790589
 30
0.0
  0
VERTEX
  5
FF
330
FD
100
AcDbEntity
  8
_U+30EC_U+30A4_U+30E4_U+30FC 1
370
     0
100
AcDbVertex
100
AcDb2dVertex
 10
48.17328693457127
 20
-88.09867076790589
 30
0.0
  0
VERTEX
  5
100
330
FD
100
AcDbEntity
  8
_U+30EC_U+30A4_U+30E4_U+30FC 1
370
     0
100
AcDbVertex
100
AcDb2dVertex
 10
48.17328693457127
 20
-88.40321720880198
 30
0.0
  0
VERTEX
  5
101
330
FD
100
AcDbEntity
  8
_U+30EC_U+30A4_U+30E4_U+30FC 1
370
     0
100
AcDbVertex
100
AcDb2dVertex
 10
48.61115857074652
 20
-88.40321720880198
 30
0.0
  0
VERTEX
  5
102
330
FD
100
AcDbEntity
  8
_U+30EC_U+30A4_U+30E4_U+30FC 1
370
     0
100
AcDbVertex
100
AcDb2dVertex
 10
48.61115857074652
 20
-88.09867076790589
 30
0.0
  0
SEQEND
  5
103
330
FD
100
AcDbEntity
  8
_U+30EC_U+30A4_U+30E4_U+30FC 1
370
     0
  0
POLYLINE
  5
104
330
E9
100
AcDbEntity
  8
_U+30EC_U+30A4_U+30E4_U+30FC 1
370
     0
100
AcDb2dPolyline
 66
     1
 10
0.0
 20
0.0
 30
0.0
  0
VERTEX
  5
105
330
104
100
AcDbEntity
  8
_U+30EC_U+30A4_U+30E4_U+30FC 1
370
     0
100
AcDbVertex
100
AcDb2dVertex
 10
48.61115857074652
 20
-88.57047659461085
 30
0.0
  0
VERTEX
  5
106
330
104
100
AcDbEntity
  8
_U+30EC_U+30A4_U+30E4_U+30FC 1
370
     0
100
AcDbVertex
100
AcDb2dVertex
 10
48.17328693457127
 20
-88.57047659461085
 30
0.0
  0
VERTEX
  5
107
330
104
100
AcDbEntity
  8
_U+30EC_U+30A4_U+30E4_U+30FC 1
370
     0
100
AcDbVertex
100
AcDb2dVertex
 10
48.17328693457127
 20
-88.87932940486351
 30
0.0
  0
VERTEX
  5
108
330
104
100
AcDbEntity
  8
_U+30EC_U+30A4_U+30E4_U+30FC 1
370
     0
100
AcDbVertex
100
AcDb2dVertex
 10
48.61115857074652
 20
-88.87932940486351
 30
0.0
  0
VERTEX
  5
109
330
104
100
AcDbEntity
  8
_U+30EC_U+30A4_U+30E4_U+30FC 1
370
     0
100
AcDbVertex
100
AcDb2dVertex
 10
48.61115857074652
 20
-88.57047659461085
 30
0.0
  0
SEQEND
  5
10A
330
104
100
AcDbEntity
  8
_U+30EC_U+30A4_U+30E4_U+30FC 1
370
     0
  0
POLYLINE
  5
10B
330
E9
100
AcDbEntity
  8
_U+30EC_U+30A4_U+30E4_U+30FC 1
370
     0
100
AcDb2dPolyline
 66
     1
 10
0.0
 20
0.0
 30
0.0
  0
VERTEX
  5
10C
330
10B
100
AcDbEntity
  8
_U+30EC_U+30A4_U+30E4_U+30FC 1
370
     0
100
AcDbVertex
100
AcDb2dVertex
 10
49.26055906971611
 20
-88.09867076790589
 30
0.0
  0
VERTEX
  5
10D
330
10B
100
AcDbEntity
  8
_U+30EC_U+30A4_U+30E4_U+30FC 1
370
     0
100
AcDbVertex
100
AcDb2dVertex
 10
48.80132784153231
 20
-88.09867076790589
 30
0.0
  0
VERTEX
  5
10E
330
10B
100
AcDbEntity
  8
_U+30EC_U+30A4_U+30E4_U+30FC 1
370
     0
100
AcDbVertex
100
AcDb2dVertex
 10
48.80132784153231
 20
-88.40321720880198
 30
0.0
  0
VERTEX
  5
10F
330
10B
100
AcDbEntity
  8
_U+30EC_U+30A4_U+30E4_U+30FC 1
370
     0
100
AcDbVertex
100
AcDb2dVertex
 10
49.26055906971611
 20
-88.40321720880198
 30
0.0
  0
VERTEX
  5
110
330
10B
100
AcDbEntity
  8
_U+30EC_U+30A4_U+30E4_U+30FC 1
370
     0
100
AcDbVertex
100
AcDb2dVertex
 10
49.26055906971611
 20
-88.09867076790589
 30
0.0
  0
SEQEND
  5
111
330
10B
100
AcDbEntity
  8
_U+30EC_U+30A4_U+30E4_U+30FC 1
370
     0
  0
POLYLINE
  5
112
330
E9
100
AcDbEntity
  8
_U+30EC_U+30A4_U+30E4_U+30FC 1
370
     0
100
AcDb2dPolyline
 66
     1
 10
0.0
 20
0.0
 30
0.0
  0
VERTEX
  5
113
330
112
100
AcDbEntity
  8
_U+30EC_U+30A4_U+30E4_U+30FC 1
370
     0
100
AcDbVertex
100
AcDb2dVertex
 10
49.26055906971611
 20
-88.57047659461085
 30
0.0
  0
VERTEX
  5
114
330
112
100
AcDbEntity
  8
_U+30EC_U+30A4_U+30E4_U+30FC 1
370
     0
100
AcDbVertex
100
AcDb2dVertex
 10
48.80132784153231
 20
-88.57047659461085
 30
0.0
  0
VERTEX
  5
115
330
112
100
AcDbEntity
  8
_U+30EC_U+30A4_U+30E4_U+30FC 1
370
     0
100
AcDbVertex
100
AcDb2dVertex
 10
48.80132784153231
 20
-88.87932940486351
 30
0.0
  0
VERTEX
  5
116
330
112
100
AcDbEntity
  8
_U+30EC_U+30A4_U+30E4_U+30FC 1
370
     0
100
AcDbVertex
100
AcDb2dVertex
 10
49.26055906971611
 20
-88.87932940486351
 30
0.0
  0
VERTEX
  5
117
330
112
100
AcDbEntity
  8
_U+30EC_U+30A4_U+30E4_U+30FC 1
370
     0
100
AcDbVertex
100
AcDb2dVertex
 10
49.26055906971611
 20
-88.57047659461085
 30
0.0
  0
SEQEND
  5
118
330
112
100
AcDbEntity
  8
_U+30EC_U+30A4_U+30E4_U+30FC 1
370
     0
  0
HATCH
  5
119
330
E9
100
AcDbEntity
  8
_U+30EC_U+30A4_U+30E4_U+30FC 1
 62
   179
420
  2234388
100
AcDbHatch
 10
0.0
 20
0.0
 30
0.0
210
0.0
220
0.0
230
1.0
  2
SOLID
 70
     1
 71
     0
 91
        5
 92
        1
 93
        1
 72
     4
 94
        3
 73
     0
 74
     1
 95
       77
 96
       73
 40
0.0
 40
0.0
 40
0.0
 40
0.0
 40
1.0
 40
1.0
 40
1.0
 40
2.0
 40
2.0
 40
2.0
 40
3.0
 40
3.0
 40
3.0
 40
4.0
 40
4.0
 40
4.0
 40
5.0
 40
5.0
 40
5.0
 40
6.0
 40
6.0
 40
6.0
 40
7.0
 40
7.0
 40
7.0
 40
8.0
 40
8.0
 40
8.0
 40
9.0
 40
9.0
 40
9.0
 40
10.0
 40
10.0
 40
10.0
 40
11.0
 40
11.0
 40
11.0
 40
12.0
 40
12.0
 40
12.0
 40
13.0
 40
13.0
 40
13.0
 40
14.0
 40
14.0
 40
14.0
 40
15.0
 40
15.0
 40
15.0
 40
16.0
 40
16.0
 40
16.0
 40
17.0
 40
17.0
 40
17.0
 40
18.0
 40
18.0
 40
18.0
 40
19.0
 40
19.0
 40
19.0
 40
20.0
 40
20.0
 40
20.0
 40
21.0
 40
21.0
 40
21.0
 40
22.0
 40
22.0
 40
22.0
 40
23.0
 40
23.0
 40
23.0
 40
24.0
 40
24.0
 40
24.0
 40
24.0
 10
49.39595132228643
 20
-89.68548174841197
 10
49.34944253323556
 20
-89.71063094545428
 10
49.22473007666952
 20
-89.72337779874971
 10
49.14618189960582
 20
-89.72337779874971
 10
49.13377955585891
 20
-89.72337779874971
 10
49.10828584926807
 20
-89.72337779874971
 10
49.07452391351262
 20
-89.71924368416741
 10
49.07452391351262
 20
-89.71924368416741
 10
48.97702771128005
 20
-89.4929009107865
 10
48.97702771128005
 20
-89.4929009107865
 10
49.0066555324532
 20
-89.49910208265995
 10
49.06384411750835
 20
-89.50771482137307
 10
49.18028834490979
 20
-89.50771482137307
 10
49.25849201242496
 20
-89.50771482137307
 10
49.26055906971611
 20
-89.46534014690451
 10
49.26055906971611
 20
-89.40815156184935
 10
49.26055906971611
 20
-89.40815156184935
 10
49.26055906971611
 20
-89.05916338919354
 10
49.26055906971611
 20
-89.05916338919354
 10
49.26055906971611
 20
-89.05916338919354
 10
48.80132784153231
 20
-89.05916338919354
 10
48.80132784153231
 20
-89.05916338919354
 10
48.80373940837198
 20
-89.19662269905501
 10
48.80580646566313
 20
-89.39540470855393
 10
48.81200763753658
 20
-89.5287299038331
 10
48.81407469482773
 20
-89.5562906677151
 10
48.81407469482773
 20
-89.60073239947482
 10
48.82682154812316
 20
-89.66205509911227
 10
48.82682154812316
 20
-89.66205509911227
 10
48.58566486415567
 20
-89.66205509911227
 10
48.58566486415567
 20
-89.66205509911227
 10
48.61115857074652
 20
-89.53734264254622
 10
48.61115857074652
 20
-89.19662269905501
 10
48.61115857074652
 20
-89.05916338919354
 10
48.61115857074652
 20
-89.05916338919354
 10
48.16880831044044
 20
-89.05916338919354
 10
48.16880831044044
 20
-89.05916338919354
 10
48.14572617068927
 20
-89.26655813740558
 10
48.08026935646951
 20
-89.53527558525508
 10
47.88320989471323
 20
-89.71924368416741
 10
47.88320989471323
 20
-89.71924368416741
 10
47.69510768121859
 20
-89.59659828489252
 10
47.69510768121859
 20
-89.59659828489252
 10
47.9490112184815
 20
-89.37645668338506
 10
47.9807060969458
 20
-89.04434947860697
 10
47.9807060969458
 20
-88.71224227382889
 10
47.9807060969458
 20
-88.71224227382889
 10
47.9807060969458
 20
-88.27643769494479
 10
47.9807060969458
 20
-88.27643769494479
 10
47.9807060969458
 20
-88.24043644712393
 10
47.97863903965465
 20
-88.00772024709529
 10
47.97002630094153
 20
-87.90608993028043
 10
48.10989717764267
 20
-87.9167697262847
 10
48.35105386161015
 20
-87.9167697262847
 10
48.49471434334507
 20
-87.9167697262847
 10
48.49471434334507
 20
-87.9167697262847
 10
48.95394557152888
 20
-87.9167697262847
 10
48.95394557152888
 20
-87.9167697262847
 10
48.96875948211545
 20
-87.9167697262847
 10
49.31774765477126
 20
-87.9167697262847
 10
49.47622204709275
 20
-87.90608993028043
 10
49.4741549898016
 20
-87.958972145979
 10
49.46795381792816
 20
-88.11985810514018
 10
49.46795381792816
 20
-88.17067326354761
 10
49.46795381792816
 20
-88.17067326354761
 10
49.46795381792816
 20
-88.77769908804864
 10
49.46795381792816
 20
-88.77769908804864
 10
49.46795381792816
 20
-88.79681936799177
 10
49.4782891043839
 20
-89.36818845422046
 10
49.4782891043839
 20
-89.48015405749108
 10
49.4782891043839
 20
-89.53734264254622
 10
49.4782891043839
 20
-89.6389729593611
 10
49.39595132228643
 20
-89.68548174841197
 97
        0
 97
        0
 92
        1
 93
        4
 72
     1
 10
48.61115857074652
 20
-88.09867076790589
 11
48.17328693457127
 21
-88.09867076790589
 72
     1
 10
48.17328693457127
 20
-88.09867076790589
 11
48.17328693457127
 21
-88.40321720880198
 72
     1
 10
48.17328693457127
 20
-88.40321720880198
 11
48.61115857074652
 21
-88.40321720880198
 72
     1
 10
48.61115857074652
 20
-88.40321720880198
 11
48.61115857074652
 21
-88.09867076790589
 97
        0
 92
        1
 93
        4
 72
     1
 10
48.61115857074652
 20
-88.57047659461085
 11
48.17328693457127
 21
-88.57047659461085
 72
     1
 10
48.17328693457127
 20
-88.57047659461085
 11
48.17328693457127
 21
-88.87932940486351
 72
     1
 10
48.17328693457127
 20
-88.87932940486351
 11
48.61115857074652
 21
-88.87932940486351
 72
     1
 10
48.61115857074652
 20
-88.87932940486351
 11
48.61115857074652
 21
-88.57047659461085
 97
        0
 92
        1
 93
        4
 72
     1
 10
49.26055906971611
 20
-88.09867076790589
 11
48.80132784153231
 21
-88.09867076790589
 72
     1
 10
48.80132784153231
 20
-88.09867076790589
 11
48.80132784153231
 21
-88.40321720880198
 72
     1
 10
48.80132784153231
 20
-88.40321720880198
 11
49.26055906971611
 21
-88.40321720880198
 72
     1
 10
49.26055906971611
 20
-88.40321720880198
 11
49.26055906971611
 21
-88.09867076790589
 97
        0
 92
        1
 93
        4
 72
     1
 10
49.26055906971611
 20
-88.57047659461085
 11
48.80132784153231
 21
-88.57047659461085
 72
     1
 10
48.80132784153231
 20
-88.57047659461085
 11
48.80132784153231
 21
-88.87932940486351
 72
     1
 10
48.80132784153231
 20
-88.87932940486351
 11
49.26055906971611
 21
-88.87932940486351
 72
     1
 10
49.26055906971611
 20
-88.87932940486351
 11
49.26055906971611
 21
-88.57047659461085
 97
        0
 75
     2
 76
     1
 98
        0
  0
SPLINE
  5
11A
330
E9
100
AcDbEntity
  8
_U+30EC_U+30A4_U+30E4_U+30FC 1
370
     0
100
AcDbSpline
210
0.0
220
0.0
230
1.0
 70
    11
 71
     3
 72
    44
 73
    40
 74
     0
 42
0.0000000001
 43
0.0000000001
 12
1.0
 22
0.0
 32
0.0
 13
1.0
 23
0.0
 33
0.0
 40
0.0
 40
0.0
 40
0.0
 40
0.0
 40
1.0
 40
1.0
 40
1.0
 40
2.0
 40
2.0
 40
2.0
 40
3.0
 40
3.0
 40
3.0
 40
4.0
 40
4.0
 40
4.0
 40
5.0
 40
5.0
 40
5.0
 40
6.0
 40
6.0
 40
6.0
 40
7.0
 40
7.0
 40
7.0
 40
8.0
 40
8.0
 40
8.0
 40
9.0
 40
9.0
 40
9.0
 40
10.0
 40
10.0
 40
10.0
 40
11.0
 40
11.0
 40
11.0
 40
12.0
 40
12.0
 40
12.0
 40
13.0
 40
13.0
 40
13.0
 40
13.0
 10
44.94454344579512
 20
-90.9753254980895
 30
0.0
 10
44.83257784252449
 20
-91.3432616959142
 30
0.0
 10
44.78193493889133
 20
-91.5020805977842
 30
0.0
 10
44.58521998668355
 20
-91.75150551091629
 30
0.0
 10
44.40090737822269
 20
-91.98232690842804
 30
0.0
 10
44.16422931838603
 20
-92.16836206463152
 30
0.0
 10
43.88483207453227
 20
-92.26137964273327
 30
0.0
 10
43.88483207453227
 20
-92.26137964273327
 30
0.0
 10
43.6922512369068
 20
-92.08154565840323
 30
0.0
 10
43.6922512369068
 20
-92.08154565840323
 30
0.0
 10
44.3333835067118
 20
-91.92927243795519
 30
0.0
 10
44.66342365419873
 20
-91.37288951708734
 30
0.0
 10
44.72681341112732
 20
-90.93295082362093
 30
0.0
 10
44.72681341112732
 20
-90.93295082362093
 30
0.0
 10
43.96096868475629
 20
-90.93295082362093
 30
0.0
 10
43.96096868475629
 20
-90.93295082362093
 30
0.0
 10
43.86795110665454
 20
-90.93295082362093
 30
0.0
 10
43.6839830077422
 20
-90.93708493820323
 30
0.0
 10
43.52723116316334
 20
-90.95603296337211
 30
0.0
 10
43.52723116316334
 20
-90.95603296337211
 30
0.0
 10
43.52723116316334
 20
-90.73623587141317
 30
0.0
 10
43.52723116316334
 20
-90.73623587141317
 30
0.0
 10
43.61404756939163
 20
-90.7572509538732
 30
0.0
 10
43.86588404936339
 20
-90.7572509538732
 30
0.0
 10
43.96510279933859
 20
-90.7572509538732
 30
0.0
 10
43.96510279933859
 20
-90.7572509538732
 30
0.0
 10
44.39677326364039
 20
-90.7572509538732
 30
0.0
 10
44.39677326364039
 20
-90.7572509538732
 30
0.0
 10
44.43914793810897
 20
-90.7572509538732
 30
0.0
 10
44.67375894065448
 20
-90.75518389658204
 30
0.0
 10
44.71199950054075
 20
-90.7489827247086
 30
0.0
 10
44.75437417500932
 20
-90.74243704328661
 30
0.0
 10
44.75644123230047
 20
-90.74036998599547
 30
0.0
 10
44.81776393193793
 20
-90.70006236881804
 30
0.0
 10
44.81776393193793
 20
-90.70006236881804
 30
0.0
 10
45.00586614543256
 20
-90.85474715610576
 30
0.0
 10
45.00586614543256
 20
-90.85474715610576
 30
0.0
 10
44.97658283380794
 20
-90.88437497727891
 30
0.0
 10
44.96176892322136
 20
-90.9160698557432
 30
0.0
 10
44.94454344579512
 20
-90.9753254980895
 30
0.0
  0
SPLINE
  5
11B
330
E9
100
AcDbEntity
  8
_U+30EC_U+30A4_U+30E4_U+30FC 1
370
     0
100
AcDbSpline
210
0.0
220
0.0
230
1.0
 70
    11
 71
     3
 72
    17
 73
    13
 74
     0
 42
0.0000000001
 43
0.0000000001
 12
1.0
 22
0.0
 32
0.0
 13
1.0
 23
0.0
 33
0.0
 40
0.0
 40
0.0
 40
0.0
 40
0.0
 40
1.0
 40
1.0
 40
1.0
 40
2.0
 40
2.0
 40
2.0
 40
3.0
 40
3.0
 40
3.0
 40
4.0
 40
4.0
 40
4.0
 40
4.0
 10
45.15400525129831
 20
-90.77619897904206
 30
0.0
 10
45.02722573744111
 20
-90.77619897904206
 30
0.0
 10
44.92559542062624
 20
-90.67491317177571
 30
0.0
 10
44.92559542062624
 20
-90.54778914837
 30
0.0
 10
44.92559542062624
 20
-90.42100963451281
 30
0.0
 10
45.02722573744111
 20
-90.3173122604068
 30
0.0
 10
45.15400525129831
 20
-90.3173122604068
 30
0.0
 10
45.28112927470403
 20
-90.3173122604068
 30
0.0
 10
45.38482664881005
 20
-90.42100963451281
 30
0.0
 10
45.38482664881005
 20
-90.54778914837
 30
0.0
 10
45.38482664881005
 20
-90.67491317177571
 30
0.0
 10
45.28112927470403
 20
-90.77619897904206
 30
0.0
 10
45.15400525129831
 20
-90.77619897904206
 30
0.0
  0
SPLINE
  5
11C
330
E9
100
AcDbEntity
  8
_U+30EC_U+30A4_U+30E4_U+30FC 1
370
     0
100
AcDbSpline
210
0.0
220
0.0
230
1.0
 70
    11
 71
     3
 72
    17
 73
    13
 74
     0
 42
0.0000000001
 43
0.0000000001
 12
1.0
 22
0.0
 32
0.0
 13
1.0
 23
0.0
 33
0.0
 40
0.0
 40
0.0
 40
0.0
 40
0.0
 40
1.0
 40
1.0
 40
1.0
 40
2.0
 40
2.0
 40
2.0
 40
3.0
 40
3.0
 40
3.0
 40
4.0
 40
4.0
 40
4.0
 40
4.0
 10
45.15193819400716
 20
-90.44615883155514
 30
0.0
 10
45.09716117579168
 20
-90.44615883155514
 30
0.0
 10
45.05271944403196
 20
-90.49060056331486
 30
0.0
 10
45.05271944403196
 20
-90.54572209107886
 30
0.0
 10
45.05271944403196
 20
-90.602910676134
 30
0.0
 10
45.09716117579168
 20
-90.65148652247602
 30
0.0
 10
45.15607230858946
 20
-90.65148652247602
 30
0.0
 10
45.21532795093575
 20
-90.65148652247602
 30
0.0
 10
45.25563556811318
 20
-90.60084361884284
 30
0.0
 10
45.25563556811318
 20
-90.54778914837
 30
0.0
 10
45.25563556811318
 20
-90.49060056331486
 30
0.0
 10
45.2091267790623
 20
-90.44615883155514
 30
0.0
 10
45.15193819400716
 20
-90.44615883155514
 30
0.0
  0
HATCH
  5
11D
330
E9
100
AcDbEntity
  8
_U+30EC_U+30A4_U+30E4_U+30FC 1
 62
   179
420
  2234388
100
AcDbHatch
 10
0.0
 20
0.0
 30
0.0
210
0.0
220
0.0
230
1.0
  2
SOLID
 70
     1
 71
     0
 91
        3
 92
        1
 93
        1
 72
     4
 94
        3
 73
     0
 74
     1
 95
       44
 96
       40
 40
0.0
 40
0.0
 40
0.0
 40
0.0
 40
1.0
 40
1.0
 40
1.0
 40
2.0
 40
2.0
 40
2.0
 40
3.0
 40
3.0
 40
3.0
 40
4.0
 40
4.0
 40
4.0
 40
5.0
 40
5.0
 40
5.0
 40
6.0
 40
6.0
 40
6.0
 40
7.0
 40
7.0
 40
7.0
 40
8.0
 40
8.0
 40
8.0
 40
9.0
 40
9.0
 40
9.0
 40
10.0
 40
10.0
 40
10.0
 40
11.0
 40
11.0
 40
11.0
 40
12.0
 40
12.0
 40
12.0
 40
13.0
 40
13.0
 40
13.0
 40
13.0
 10
44.94454344579512
 20
-90.9753254980895
 10
44.83257784252449
 20
-91.3432616959142
 10
44.78193493889133
 20
-91.5020805977842
 10
44.58521998668355
 20
-91.75150551091629
 10
44.40090737822269
 20
-91.98232690842804
 10
44.16422931838603
 20
-92.16836206463152
 10
43.88483207453227
 20
-92.26137964273327
 10
43.88483207453227
 20
-92.26137964273327
 10
43.6922512369068
 20
-92.08154565840323
 10
43.6922512369068
 20
-92.08154565840323
 10
44.3333835067118
 20
-91.92927243795519
 10
44.66342365419873
 20
-91.37288951708734
 10
44.72681341112732
 20
-90.93295082362093
 10
44.72681341112732
 20
-90.93295082362093
 10
43.96096868475629
 20
-90.93295082362093
 10
43.96096868475629
 20
-90.93295082362093
 10
43.86795110665454
 20
-90.93295082362093
 10
43.6839830077422
 20
-90.93708493820323
 10
43.52723116316334
 20
-90.95603296337211
 10
43.52723116316334
 20
-90.95603296337211
 10
43.52723116316334
 20
-90.73623587141317
 10
43.52723116316334
 20
-90.73623587141317
 10
43.61404756939163
 20
-90.7572509538732
 10
43.86588404936339
 20
-90.7572509538732
 10
43.96510279933859
 20
-90.7572509538732
 10
43.96510279933859
 20
-90.7572509538732
 10
44.39677326364039
 20
-90.7572509538732
 10
44.39677326364039
 20
-90.7572509538732
 10
44.43914793810897
 20
-90.7572509538732
 10
44.67375894065448
 20
-90.75518389658204
 10
44.71199950054075
 20
-90.7489827247086
 10
44.75437417500932
 20
-90.74243704328661
 10
44.75644123230047
 20
-90.74036998599547
 10
44.81776393193793
 20
-90.70006236881804
 10
44.81776393193793
 20
-90.70006236881804
 10
45.00586614543256
 20
-90.85474715610576
 10
45.00586614543256
 20
-90.85474715610576
 10
44.97658283380794
 20
-90.88437497727891
 10
44.96176892322136
 20
-90.9160698557432
 10
44.94454344579512
 20
-90.9753254980895
 97
        0
 97
        0
 92
        1
 93
        1
 72
     4
 94
        3
 73
     0
 74
     1
 95
       17
 96
       13
 40
0.0
 40
0.0
 40
0.0
 40
0.0
 40
1.0
 40
1.0
 40
1.0
 40
2.0
 40
2.0
 40
2.0
 40
3.0
 40
3.0
 40
3.0
 40
4.0
 40
4.0
 40
4.0
 40
4.0
 10
45.15400525129831
 20
-90.77619897904206
 10
45.02722573744111
 20
-90.77619897904206
 10
44.92559542062624
 20
-90.67491317177571
 10
44.92559542062624
 20
-90.54778914837
 10
44.92559542062624
 20
-90.42100963451281
 10
45.02722573744111
 20
-90.3173122604068
 10
45.15400525129831
 20
-90.3173122604068
 10
45.28112927470403
 20
-90.3173122604068
 10
45.38482664881005
 20
-90.42100963451281
 10
45.38482664881005
 20
-90.54778914837
 10
45.38482664881005
 20
-90.67491317177571
 10
45.28112927470403
 20
-90.77619897904206
 10
45.15400525129831
 20
-90.77619897904206
 97
        0
 97
        0
 92
        1
 93
        1
 72
     4
 94
        3
 73
     0
 74
     1
 95
       17
 96
       13
 40
0.0
 40
0.0
 40
0.0
 40
0.0
 40
1.0
 40
1.0
 40
1.0
 40
2.0
 40
2.0
 40
2.0
 40
3.0
 40
3.0
 40
3.0
 40
4.0
 40
4.0
 40
4.0
 40
4.0
 10
45.15193819400716
 20
-90.44615883155514
 10
45.09716117579168
 20
-90.44615883155514
 10
45.05271944403196
 20
-90.49060056331486
 10
45.05271944403196
 20
-90.54572209107886
 10
45.05271944403196
 20
-90.602910676134
 10
45.09716117579168
 20
-90.65148652247602
 10
45.15607230858946
 20
-90.65148652247602
 10
45.21532795093575
 20
-90.65148652247602
 10
45.25563556811318
 20
-90.60084361884284
 10
45.25563556811318
 20
-90.54778914837
 10
45.25563556811318
 20
-90.49060056331486
 10
45.2091267790623
 20
-90.44615883155514
 10
45.15193819400716
 20
-90.44615883155514
 97
        0
 97
        0
 75
     2
 76
     1
 98
        0
  0
SPLINE
  5
11E
330
E9
100
AcDbEntity
  8
_U+30EC_U+30A4_U+30E4_U+30FC 1
370
     0
100
AcDbSpline
210
0.0
220
0.0
230
1.0
 70
    11
 71
     3
 72
    50
 73
    46
 74
     0
 42
0.0000000001
 43
0.0000000001
 12
1.0
 22
0.0
 32
0.0
 13
1.0
 23
0.0
 33
0.0
 40
0.0
 40
0.0
 40
0.0
 40
0.0
 40
1.0
 40
1.0
 40
1.0
 40
2.0
 40
2.0
 40
2.0
 40
3.0
 40
3.0
 40
3.0
 40
4.0
 40
4.0
 40
4.0
 40
5.0
 40
5.0
 40
5.0
 40
6.0
 40
6.0
 40
6.0
 40
7.0
 40
7.0
 40
7.0
 40
8.0
 40
8.0
 40
8.0
 40
9.0
 40
9.0
 40
9.0
 40
10.0
 40
10.0
 40
10.0
 40
11.0
 40
11.0
 40
11.0
 40
12.0
 40
12.0
 40
12.0
 40
13.0
 40
13.0
 40
13.0
 40
14.0
 40
14.0
 40
14.0
 40
15.0
 40
15.0
 40
15.0
 40
15.0
 10
46.949244508662
 20
-91.2840060535679
 30
0.0
 10
46.8706963315983
 20
-91.46177298060678
 30
0.0
 10
46.73530407902798
 20
-91.66916772881882
 30
0.0
 10
46.59784476916651
 20
-91.80869409597145
 30
0.0
 10
46.42869058084074
 20
-91.97991534158835
 30
0.0
 10
46.26573756438843
 20
-92.0687988051078
 30
0.0
 10
45.94637721290577
 20
-92.2107367391001
 30
0.0
 10
45.94637721290577
 20
-92.2107367391001
 30
0.0
 10
45.77722302458
 20
-92.02229001605693
 30
0.0
 10
45.77722302458
 20
-92.02229001605693
 30
0.0
 10
45.96325818078349
 20
-91.99920787630576
 30
0.0
 10
46.13447942640041
 20
-91.91239147007747
 30
0.0
 10
46.28709715639697
 20
-91.80662703868029
 30
0.0
 10
46.54926892282449
 20
-91.6247259970591
 30
0.0
 10
46.73978270315881
 20
-91.31156681744989
 30
0.0
 10
46.78835854950083
 20
-91.1296657758287
 30
0.0
 10
46.78835854950083
 20
-91.1296657758287
 30
0.0
 10
46.11759845852269
 20
-91.1296657758287
 30
0.0
 10
46.11759845852269
 20
-91.1296657758287
 30
0.0
 10
45.95912406620119
 20
-91.1296657758287
 30
0.0
 10
45.66697996905201
 20
-91.1379340049933
 30
0.0
 10
45.51470674860396
 20
-91.15515948241955
 30
0.0
 10
45.51470674860396
 20
-91.15515948241955
 30
0.0
 10
45.51470674860396
 20
-90.92640514219896
 30
0.0
 10
45.51470674860396
 20
-90.92640514219896
 30
0.0
 10
45.54881319390794
 20
-90.93295082362093
 30
0.0
 10
45.57396239095026
 20
-90.93915199549438
 30
0.0
 10
45.62701686142311
 20
-90.94328611007668
 30
0.0
 10
45.72830266868945
 20
-90.94983179149865
 30
0.0
 10
45.92536213044575
 20
-90.95189884878981
 30
0.0
 10
46.00976696983437
 20
-90.95189884878981
 30
0.0
 10
46.00976696983437
 20
-90.95189884878981
 30
0.0
 10
46.51550698706905
 20
-90.95189884878981
 30
0.0
 10
46.51550698706905
 20
-90.95189884878981
 30
0.0
 10
46.58303085857994
 20
-90.95189884878981
 30
0.0
 10
46.72910290715453
 20
-90.94776473420751
 30
0.0
 10
46.79042560679198
 20
-90.94121905278553
 30
0.0
 10
46.8624281024337
 20
-90.93295082362093
 30
0.0
 10
46.8899888663157
 20
-90.91813691303436
 30
0.0
 10
46.92375080207115
 20
-90.89471026373467
 30
0.0
 10
46.92375080207115
 20
-90.89471026373467
 30
0.0
 10
47.08877087581462
 20
-91.06179739476927
 30
0.0
 10
47.08877087581462
 20
-91.06179739476927
 30
0.0
 10
47.01883543746404
 20
-91.1296657758287
 30
0.0
 10
46.97232664841317
 20
-91.23336314993472
 30
0.0
 10
46.949244508662
 20
-91.2840060535679
 30
0.0
  0
SPLINE
  5
11F
330
E9
100
AcDbEntity
  8
_U+30EC_U+30A4_U+30E4_U+30FC 1
370
     0
100
AcDbSpline
210
0.0
220
0.0
230
1.0
 70
    11
 71
     3
 72
    29
 73
    25
 74
     0
 42
0.0000000001
 43
0.0000000001
 12
1.0
 22
0.0
 32
0.0
 13
1.0
 23
0.0
 33
0.0
 40
0.0
 40
0.0
 40
0.0
 40
0.0
 40
1.0
 40
1.0
 40
1.0
 40
2.0
 40
2.0
 40
2.0
 40
3.0
 40
3.0
 40
3.0
 40
4.0
 40
4.0
 40
4.0
 40
5.0
 40
5.0
 40
5.0
 40
6.0
 40
6.0
 40
6.0
 40
7.0
 40
7.0
 40
7.0
 40
8.0
 40
8.0
 40
8.0
 40
8.0
 10
46.45625134472274
 20
-90.658032203898
 30
0.0
 10
46.45625134472274
 20
-90.658032203898
 30
0.0
 10
46.11553140123154
 20
-90.658032203898
 30
0.0
 10
46.11553140123154
 20
-90.658032203898
 30
0.0
 10
46.00149874066977
 20
-90.658032203898
 30
0.0
 10
45.88505451326832
 20
-90.6621663184803
 30
0.0
 10
45.77067734315803
 20
-90.67698022906687
 30
0.0
 10
45.77067734315803
 20
-90.67698022906687
 30
0.0
 10
45.77067734315803
 20
-90.46751842356367
 30
0.0
 10
45.77067734315803
 20
-90.46751842356367
 30
0.0
 10
45.88918862785062
 20
-90.48233233415026
 30
0.0
 10
46.06282144030721
 20
-90.48646644873256
 30
0.0
 10
46.11553140123154
 20
-90.48646644873256
 30
0.0
 10
46.11553140123154
 20
-90.48646644873256
 30
0.0
 10
46.45625134472274
 20
-90.48646644873256
 30
0.0
 10
46.45625134472274
 20
-90.48646644873256
 30
0.0
 10
46.57269557212419
 20
-90.48646644873256
 30
0.0
 10
46.68879528997711
 20
-90.48233233415026
 30
0.0
 10
46.80523951737855
 20
-90.46751842356367
 30
0.0
 10
46.80523951737855
 20
-90.46751842356367
 30
0.0
 10
46.80523951737855
 20
-90.67698022906687
 30
0.0
 10
46.80523951737855
 20
-90.67698022906687
 30
0.0
 10
46.65503335422166
 20
-90.658032203898
 30
0.0
 10
46.47106525530932
 20
-90.658032203898
 30
0.0
 10
46.45625134472274
 20
-90.658032203898
 30
0.0
  0
HATCH
  5
120
330
E9
100
AcDbEntity
  8
_U+30EC_U+30A4_U+30E4_U+30FC 1
 62
   179
420
  2234388
100
AcDbHatch
 10
0.0
 20
0.0
 30
0.0
210
0.0
220
0.0
230
1.0
  2
SOLID
 70
     1
 71
     0
 91
        2
 92
        1
 93
        1
 72
     4
 94
        3
 73
     0
 74
     1
 95
       50
 96
       46
 40
0.0
 40
0.0
 40
0.0
 40
0.0
 40
1.0
 40
1.0
 40
1.0
 40
2.0
 40
2.0
 40
2.0
 40
3.0
 40
3.0
 40
3.0
 40
4.0
 40
4.0
 40
4.0
 40
5.0
 40
5.0
 40
5.0
 40
6.0
 40
6.0
 40
6.0
 40
7.0
 40
7.0
 40
7.0
 40
8.0
 40
8.0
 40
8.0
 40
9.0
 40
9.0
 40
9.0
 40
10.0
 40
10.0
 40
10.0
 40
11.0
 40
11.0
 40
11.0
 40
12.0
 40
12.0
 40
12.0
 40
13.0
 40
13.0
 40
13.0
 40
14.0
 40
14.0
 40
14.0
 40
15.0
 40
15.0
 40
15.0
 40
15.0
 10
46.949244508662
 20
-91.2840060535679
 10
46.8706963315983
 20
-91.46177298060678
 10
46.73530407902798
 20
-91.66916772881882
 10
46.59784476916651
 20
-91.80869409597145
 10
46.42869058084074
 20
-91.97991534158835
 10
46.26573756438843
 20
-92.0687988051078
 10
45.94637721290577
 20
-92.2107367391001
 10
45.94637721290577
 20
-92.2107367391001
 10
45.77722302458
 20
-92.02229001605693
 10
45.77722302458
 20
-92.02229001605693
 10
45.96325818078349
 20
-91.99920787630576
 10
46.13447942640041
 20
-91.91239147007747
 10
46.28709715639697
 20
-91.80662703868029
 10
46.54926892282449
 20
-91.6247259970591
 10
46.73978270315881
 20
-91.31156681744989
 10
46.78835854950083
 20
-91.1296657758287
 10
46.78835854950083
 20
-91.1296657758287
 10
46.11759845852269
 20
-91.1296657758287
 10
46.11759845852269
 20
-91.1296657758287
 10
45.95912406620119
 20
-91.1296657758287
 10
45.66697996905201
 20
-91.1379340049933
 10
45.51470674860396
 20
-91.15515948241955
 10
45.51470674860396
 20
-91.15515948241955
 10
45.51470674860396
 20
-90.92640514219896
 10
45.51470674860396
 20
-90.92640514219896
 10
45.54881319390794
 20
-90.93295082362093
 10
45.57396239095026
 20
-90.93915199549438
 10
45.62701686142311
 20
-90.94328611007668
 10
45.72830266868945
 20
-90.94983179149865
 10
45.92536213044575
 20
-90.95189884878981
 10
46.00976696983437
 20
-90.95189884878981
 10
46.00976696983437
 20
-90.95189884878981
 10
46.51550698706905
 20
-90.95189884878981
 10
46.51550698706905
 20
-90.95189884878981
 10
46.58303085857994
 20
-90.95189884878981
 10
46.72910290715453
 20
-90.94776473420751
 10
46.79042560679198
 20
-90.94121905278553
 10
46.8624281024337
 20
-90.93295082362093
 10
46.8899888663157
 20
-90.91813691303436
 10
46.92375080207115
 20
-90.89471026373467
 10
46.92375080207115
 20
-90.89471026373467
 10
47.08877087581462
 20
-91.06179739476927
 10
47.08877087581462
 20
-91.06179739476927
 10
47.01883543746404
 20
-91.1296657758287
 10
46.97232664841317
 20
-91.23336314993472
 10
46.949244508662
 20
-91.2840060535679
 97
        0
 97
        0
 92
        1
 93
        1
 72
     4
 94
        3
 73
     0
 74
     1
 95
       29
 96
       25
 40
0.0
 40
0.0
 40
0.0
 40
0.0
 40
1.0
 40
1.0
 40
1.0
 40
2.0
 40
2.0
 40
2.0
 40
3.0
 40
3.0
 40
3.0
 40
4.0
 40
4.0
 40
4.0
 40
5.0
 40
5.0
 40
5.0
 40
6.0
 40
6.0
 40
6.0
 40
7.0
 40
7.0
 40
7.0
 40
8.0
 40
8.0
 40
8.0
 40
8.0
 10
46.45625134472274
 20
-90.658032203898
 10
46.45625134472274
 20
-90.658032203898
 10
46.11553140123154
 20
-90.658032203898
 10
46.11553140123154
 20
-90.658032203898
 10
46.00149874066977
 20
-90.658032203898
 10
45.88505451326832
 20
-90.6621663184803
 10
45.77067734315803
 20
-90.67698022906687
 10
45.77067734315803
 20
-90.67698022906687
 10
45.77067734315803
 20
-90.46751842356367
 10
45.77067734315803
 20
-90.46751842356367
 10
45.88918862785062
 20
-90.48233233415026
 10
46.06282144030721
 20
-90.48646644873256
 10
46.11553140123154
 20
-90.48646644873256
 10
46.11553140123154
 20
-90.48646644873256
 10
46.45625134472274
 20
-90.48646644873256
 10
46.45625134472274
 20
-90.48646644873256
 10
46.57269557212419
 20
-90.48646644873256
 10
46.68879528997711
 20
-90.48233233415026
 10
46.80523951737855
 20
-90.46751842356367
 10
46.80523951737855
 20
-90.46751842356367
 10
46.80523951737855
 20
-90.67698022906687
 10
46.80523951737855
 20
-90.67698022906687
 10
46.65503335422166
 20
-90.658032203898
 10
46.47106525530932
 20
-90.658032203898
 10
46.45625134472274
 20
-90.658032203898
 97
        0
 97
        0
 75
     2
 76
     1
 98
        0
  0
SPLINE
  5
121
330
E9
100
AcDbEntity
  8
_U+30EC_U+30A4_U+30E4_U+30FC 1
370
     0
100
AcDbSpline
210
0.0
220
0.0
230
1.0
 70
    11
 71
     3
 72
    50
 73
    46
 74
     0
 42
0.0000000001
 43
0.0000000001
 12
1.0
 22
0.0
 32
0.0
 13
1.0
 23
0.0
 33
0.0
 40
0.0
 40
0.0
 40
0.0
 40
0.0
 40
1.0
 40
1.0
 40
1.0
 40
2.0
 40
2.0
 40
2.0
 40
3.0
 40
3.0
 40
3.0
 40
4.0
 40
4.0
 40
4.0
 40
5.0
 40
5.0
 40
5.0
 40
6.0
 40
6.0
 40
6.0
 40
7.0
 40
7.0
 40
7.0
 40
8.0
 40
8.0
 40
8.0
 40
9.0
 40
9.0
 40
9.0
 40
10.0
 40
10.0
 40
10.0
 40
11.0
 40
11.0
 40
11.0
 40
12.0
 40
12.0
 40
12.0
 40
13.0
 40
13.0
 40
13.0
 40
14.0
 40
14.0
 40
14.0
 40
15.0
 40
15.0
 40
15.0
 40
15.0
 10
48.65938990754002
 20
-90.64321829331142
 30
0.0
 10
48.44992810203683
 20
-90.85681421339692
 30
0.0
 10
48.37827011594363
 20
-90.92881670903863
 30
0.0
 10
48.23633218195133
 20
-91.0469834841827
 30
0.0
 10
48.23633218195133
 20
-91.0469834841827
 30
0.0
 10
48.23633218195133
 20
-91.61404620105482
 30
0.0
 10
48.23633218195133
 20
-91.61404620105482
 30
0.0
 10
48.23633218195133
 20
-91.76425236421171
 30
0.0
 10
48.24287786337331
 20
-91.7832003893806
 30
0.0
 10
48.24701197795561
 20
-91.96096731641948
 30
0.0
 10
48.24907903524676
 20
-92.0922254544075
 30
0.0
 10
48.25528020712021
 20
-92.14080130074953
 30
0.0
 10
48.26182588854218
 20
-92.20005694309582
 30
0.0
 10
48.26182588854218
 20
-92.20005694309582
 30
0.0
 10
48.03548311516127
 20
-92.20005694309582
 30
0.0
 10
48.03548311516127
 20
-92.20005694309582
 30
0.0
 10
48.03961722974357
 20
-92.1556152113361
 30
0.0
 10
48.04375134432587
 20
-92.10910642228522
 30
0.0
 10
48.04375134432587
 20
-92.1004936835721
 30
0.0
 10
48.04375134432587
 20
-92.02022295876579
 30
0.0
 10
48.0482299684567
 20
-91.66916772881882
 30
0.0
 10
48.0482299684567
 20
-91.59716523317711
 30
0.0
 10
48.0482299684567
 20
-91.59716523317711
 30
0.0
 10
48.0482299684567
 20
-91.19098847546614
 30
0.0
 10
48.0482299684567
 20
-91.19098847546614
 30
0.0
 10
47.8663289268355
 20
-91.31570093203219
 30
0.0
 10
47.67168103191889
 20
-91.42594398756019
 30
0.0
 10
47.46842039828915
 20
-91.51241588423996
 30
0.0
 10
47.46842039828915
 20
-91.51241588423996
 30
0.0
 10
47.26550427420793
 20
-91.34946286778764
 30
0.0
 10
47.26550427420793
 20
-91.34946286778764
 30
0.0
 10
47.38814967348283
 20
-91.31363387474104
 30
0.0
 10
47.64412026803689
 20
-91.23956432180817
 30
0.0
 10
47.98897432611039
 20
-90.9835937272541
 30
0.0
 10
48.20463730348704
 20
-90.82511933493261
 30
0.0
 10
48.3972181411125
 20
-90.63667261188945
 30
0.0
 10
48.54949136156055
 20
-90.41653101038199
 30
0.0
 10
48.54949136156055
 20
-90.41653101038199
 30
0.0
 10
48.74207219918601
 20
-90.56053600166543
 30
0.0
 10
48.74207219918601
 20
-90.56053600166543
 30
0.0
 10
48.75481905248144
 20
-90.5712157976697
 30
0.0
 10
48.76308728164604
 20
-90.58602970825628
 30
0.0
 10
48.76308728164604
 20
-90.5987765615517
 30
0.0
 10
48.76308728164604
 20
-90.6387396691806
 30
0.0
 10
48.72519123130829
 20
-90.6387396691806
 30
0.0
 10
48.65938990754002
 20
-90.64321829331142
 30
0.0
  0
HATCH
  5
122
330
E9
100
AcDbEntity
  8
_U+30EC_U+30A4_U+30E4_U+30FC 1
 62
   179
420
  2234388
100
AcDbHatch
 10
0.0
 20
0.0
 30
0.0
210
0.0
220
0.0
230
1.0
  2
SOLID
 70
     1
 71
     0
 91
        1
 92
        1
 93
        1
 72
     4
 94
        3
 73
     0
 74
     1
 95
       50
 96
       46
 40
0.0
 40
0.0
 40
0.0
 40
0.0
 40
1.0
 40
1.0
 40
1.0
 40
2.0
 40
2.0
 40
2.0
 40
3.0
 40
3.0
 40
3.0
 40
4.0
 40
4.0
 40
4.0
 40
5.0
 40
5.0
 40
5.0
 40
6.0
 40
6.0
 40
6.0
 40
7.0
 40
7.0
 40
7.0
 40
8.0
 40
8.0
 40
8.0
 40
9.0
 40
9.0
 40
9.0
 40
10.0
 40
10.0
 40
10.0
 40
11.0
 40
11.0
 40
11.0
 40
12.0
 40
12.0
 40
12.0
 40
13.0
 40
13.0
 40
13.0
 40
14.0
 40
14.0
 40
14.0
 40
15.0
 40
15.0
 40
15.0
 40
15.0
 10
48.65938990754002
 20
-90.64321829331142
 10
48.44992810203683
 20
-90.85681421339692
 10
48.37827011594363
 20
-90.92881670903863
 10
48.23633218195133
 20
-91.0469834841827
 10
48.23633218195133
 20
-91.0469834841827
 10
48.23633218195133
 20
-91.61404620105482
 10
48.23633218195133
 20
-91.61404620105482
 10
48.23633218195133
 20
-91.76425236421171
 10
48.24287786337331
 20
-91.7832003893806
 10
48.24701197795561
 20
-91.96096731641948
 10
48.24907903524676
 20
-92.0922254544075
 10
48.25528020712021
 20
-92.14080130074953
 10
48.26182588854218
 20
-92.20005694309582
 10
48.26182588854218
 20
-92.20005694309582
 10
48.03548311516127
 20
-92.20005694309582
 10
48.03548311516127
 20
-92.20005694309582
 10
48.03961722974357
 20
-92.1556152113361
 10
48.04375134432587
 20
-92.10910642228522
 10
48.04375134432587
 20
-92.1004936835721
 10
48.04375134432587
 20
-92.02022295876579
 10
48.0482299684567
 20
-91.66916772881882
 10
48.0482299684567
 20
-91.59716523317711
 10
48.0482299684567
 20
-91.59716523317711
 10
48.0482299684567
 20
-91.19098847546614
 10
48.0482299684567
 20
-91.19098847546614
 10
47.8663289268355
 20
-91.31570093203219
 10
47.67168103191889
 20
-91.42594398756019
 10
47.46842039828915
 20
-91.51241588423996
 10
47.46842039828915
 20
-91.51241588423996
 10
47.26550427420793
 20
-91.34946286778764
 10
47.26550427420793
 20
-91.34946286778764
 10
47.38814967348283
 20
-91.31363387474104
 10
47.64412026803689
 20
-91.23956432180817
 10
47.98897432611039
 20
-90.9835937272541
 10
48.20463730348704
 20
-90.82511933493261
 10
48.3972181411125
 20
-90.63667261188945
 10
48.54949136156055
 20
-90.41653101038199
 10
48.54949136156055
 20
-90.41653101038199
 10
48.74207219918601
 20
-90.56053600166543
 10
48.74207219918601
 20
-90.56053600166543
 10
48.75481905248144
 20
-90.5712157976697
 10
48.76308728164604
 20
-90.58602970825628
 10
48.76308728164604
 20
-90.5987765615517
 10
48.76308728164604
 20
-90.6387396691806
 10
48.72519123130829
 20
-90.6387396691806
 10
48.65938990754002
 20
-90.64321829331142
 97
        0
 97
        0
 75
     2
 76
     1
 98
        0
  0
SPLINE
  5
123
330
E9
100
AcDbEntity
  8
_U+30EC_U+30A4_U+30E4_U+30FC 1
370
     0
100
AcDbSpline
210
0.0
220
0.0
230
1.0
 70
    11
 71
     3
 72
    50
 73
    46
 74
     0
 42
0.0000000001
 43
0.0000000001
 12
1.0
 22
0.0
 32
0.0
 13
1.0
 23
0.0
 33
0.0
 40
0.0
 40
0.0
 40
0.0
 40
0.0
 40
1.0
 40
1.0
 40
1.0
 40
2.0
 40
2.0
 40
2.0
 40
3.0
 40
3.0
 40
3.0
 40
4.0
 40
4.0
 40
4.0
 40
5.0
 40
5.0
 40
5.0
 40
6.0
 40
6.0
 40
6.0
 40
7.0
 40
7.0
 40
7.0
 40
8.0
 40
8.0
 40
8.0
 40
9.0
 40
9.0
 40
9.0
 40
10.0
 40
10.0
 40
10.0
 40
11.0
 40
11.0
 40
11.0
 40
12.0
 40
12.0
 40
12.0
 40
13.0
 40
13.0
 40
13.0
 40
14.0
 40
14.0
 40
14.0
 40
15.0
 40
15.0
 40
15.0
 40
15.0
 10
50.36781275867541
 20
-91.16997339300612
 30
0.0
 10
50.30649005903796
 20
-91.24163137909932
 30
0.0
 10
50.04604084035307
 20
-91.55892467329083
 30
0.0
 10
49.98919676484645
 20
-91.62265893976794
 30
0.0
 10
50.07360160423507
 20
-91.719810632452
 30
0.0
 10
50.12458901741677
 20
-91.7832003893806
 30
0.0
 10
50.19004583163652
 20
-91.87415091019119
 30
0.0
 10
50.19004583163652
 20
-91.87415091019119
 30
0.0
 10
50.00607773272418
 20
-92.01195472960119
 30
0.0
 10
50.00607773272418
 20
-92.01195472960119
 30
0.0
 10
49.87068548015386
 20
-91.80008135725832
 30
0.0
 10
49.69911972498841
 20
-91.57615015071708
 30
0.0
 10
49.40525308009661
 20
-91.37702363166964
 30
0.0
 10
49.40525308009661
 20
-91.37702363166964
 30
0.0
 10
49.55339218596235
 20
-91.22268335393045
 30
0.0
 10
49.55339218596235
 20
-91.22268335393045
 30
0.0
 10
49.66329073194182
 20
-91.30295407873676
 30
0.0
 10
49.76698810604784
 20
-91.39183754225621
 30
0.0
 10
49.86413979873188
 20
-91.48726668719763
 30
0.0
 10
49.9320081797913
 20
-91.4111300769736
 30
0.0
 10
50.13492430387252
 20
-91.16756182616645
 30
0.0
 10
50.26824949915169
 20
-90.93915199549438
 30
0.0
 10
50.26824949915169
 20
-90.93915199549438
 30
0.0
 10
49.59542235088239
 20
-90.93915199549438
 30
0.0
 10
49.59542235088239
 20
-90.93915199549438
 30
0.0
 10
49.47070989431635
 20
-90.93915199549438
 30
0.0
 10
49.21887341434459
 20
-90.94776473420751
 30
0.0
 10
49.0094116088414
 20
-90.95810002066325
 30
0.0
 10
49.0094116088414
 20
-90.95810002066325
 30
0.0
 10
49.0094116088414
 20
-90.73830292870431
 30
0.0
 10
49.0094116088414
 20
-90.73830292870431
 30
0.0
 10
49.19372421730227
 20
-90.7572509538732
 30
0.0
 10
49.39870739867463
 20
-90.7613850684555
 30
0.0
 10
49.58715412171779
 20
-90.7613850684555
 30
0.0
 10
49.58715412171779
 20
-90.7613850684555
 30
0.0
 10
50.0904825721128
 20
-90.7613850684555
 30
0.0
 10
50.0904825721128
 20
-90.7613850684555
 30
0.0
 10
50.42913545831286
 20
-90.7613850684555
 30
0.0
 10
50.47357719007258
 20
-90.74657115786891
 30
0.0
 10
50.55591497217005
 20
-90.70660805024002
 30
0.0
 10
50.55591497217005
 20
-90.70660805024002
 30
0.0
 10
50.72300210320467
 20
-90.86508244256152
 30
0.0
 10
50.72300210320467
 20
-90.86508244256152
 30
0.0
 10
50.57072888275663
 20
-90.93708493820323
 30
0.0
 10
50.42706840102171
 20
-91.10003795465555
 30
0.0
 10
50.36781275867541
 20
-91.16997339300612
 30
0.0
  0
HATCH
  5
124
330
E9
100
AcDbEntity
  8
_U+30EC_U+30A4_U+30E4_U+30FC 1
 62
   179
420
  2234388
100
AcDbHatch
 10
0.0
 20
0.0
 30
0.0
210
0.0
220
0.0
230
1.0
  2
SOLID
 70
     1
 71
     0
 91
        1
 92
        1
 93
        1
 72
     4
 94
        3
 73
     0
 74
     1
 95
       50
 96
       46
 40
0.0
 40
0.0
 40
0.0
 40
0.0
 40
1.0
 40
1.0
 40
1.0
 40
2.0
 40
2.0
 40
2.0
 40
3.0
 40
3.0
 40
3.0
 40
4.0
 40
4.0
 40
4.0
 40
5.0
 40
5.0
 40
5.0
 40
6.0
 40
6.0
 40
6.0
 40
7.0
 40
7.0
 40
7.0
 40
8.0
 40
8.0
 40
8.0
 40
9.0
 40
9.0
 40
9.0
 40
10.0
 40
10.0
 40
10.0
 40
11.0
 40
11.0
 40
11.0
 40
12.0
 40
12.0
 40
12.0
 40
13.0
 40
13.0
 40
13.0
 40
14.0
 40
14.0
 40
14.0
 40
15.0
 40
15.0
 40
15.0
 40
15.0
 10
50.36781275867541
 20
-91.16997339300612
 10
50.30649005903796
 20
-91.24163137909932
 10
50.04604084035307
 20
-91.55892467329083
 10
49.98919676484645
 20
-91.62265893976794
 10
50.07360160423507
 20
-91.719810632452
 10
50.12458901741677
 20
-91.7832003893806
 10
50.19004583163652
 20
-91.87415091019119
 10
50.19004583163652
 20
-91.87415091019119
 10
50.00607773272418
 20
-92.01195472960119
 10
50.00607773272418
 20
-92.01195472960119
 10
49.87068548015386
 20
-91.80008135725832
 10
49.69911972498841
 20
-91.57615015071708
 10
49.40525308009661
 20
-91.37702363166964
 10
49.40525308009661
 20
-91.37702363166964
 10
49.55339218596235
 20
-91.22268335393045
 10
49.55339218596235
 20
-91.22268335393045
 10
49.66329073194182
 20
-91.30295407873676
 10
49.76698810604784
 20
-91.39183754225621
 10
49.86413979873188
 20
-91.48726668719763
 10
49.9320081797913
 20
-91.4111300769736
 10
50.13492430387252
 20
-91.16756182616645
 10
50.26824949915169
 20
-90.93915199549438
 10
50.26824949915169
 20
-90.93915199549438
 10
49.59542235088239
 20
-90.93915199549438
 10
49.59542235088239
 20
-90.93915199549438
 10
49.47070989431635
 20
-90.93915199549438
 10
49.21887341434459
 20
-90.94776473420751
 10
49.0094116088414
 20
-90.95810002066325
 10
49.0094116088414
 20
-90.95810002066325
 10
49.0094116088414
 20
-90.73830292870431
 10
49.0094116088414
 20
-90.73830292870431
 10
49.19372421730227
 20
-90.7572509538732
 10
49.39870739867463
 20
-90.7613850684555
 10
49.58715412171779
 20
-90.7613850684555
 10
49.58715412171779
 20
-90.7613850684555
 10
50.0904825721128
 20
-90.7613850684555
 10
50.0904825721128
 20
-90.7613850684555
 10
50.42913545831286
 20
-90.7613850684555
 10
50.47357719007258
 20
-90.74657115786891
 10
50.55591497217005
 20
-90.70660805024002
 10
50.55591497217005
 20
-90.70660805024002
 10
50.72300210320467
 20
-90.86508244256152
 10
50.72300210320467
 20
-90.86508244256152
 10
50.57072888275663
 20
-90.93708493820323
 10
50.42706840102171
 20
-91.10003795465555
 10
50.36781275867541
 20
-91.16997339300612
 97
        0
 97
        0
 75
     2
 76
     1
 98
        0
  0
SPLINE
  5
125
330
E9
100
AcDbEntity
  8
_U+30EC_U+30A4_U+30E4_U+30FC 1
370
     0
100
AcDbSpline
210
0.0
220
0.0
230
1.0
 70
    11
 71
     3
 72
    29
 73
    25
 74
     0
 42
0.0000000001
 43
0.0000000001
 12
1.0
 22
0.0
 32
0.0
 13
1.0
 23
0.0
 33
0.0
 40
0.0
 40
0.0
 40
0.0
 40
0.0
 40
1.0
 40
1.0
 40
1.0
 40
2.0
 40
2.0
 40
2.0
 40
3.0
 40
3.0
 40
3.0
 40
4.0
 40
4.0
 40
4.0
 40
5.0
 40
5.0
 40
5.0
 40
6.0
 40
6.0
 40
6.0
 40
7.0
 40
7.0
 40
7.0
 40
8.0
 40
8.0
 40
8.0
 40
8.0
 10
51.99148626087366
 20
-91.41319713426476
 30
0.0
 10
51.99148626087366
 20
-91.41319713426476
 30
0.0
 10
51.50710583564753
 20
-91.41319713426476
 30
0.0
 10
51.50710583564753
 20
-91.41319713426476
 30
0.0
 10
51.47954507176554
 20
-91.41319713426476
 30
0.0
 10
51.16225177757402
 20
-91.41319713426476
 30
0.0
 10
50.95072291477968
 20
-91.43834633130709
 30
0.0
 10
50.95072291477968
 20
-91.43834633130709
 30
0.0
 10
50.95072291477968
 20
-91.20786944334387
 30
0.0
 10
50.95072291477968
 20
-91.20786944334387
 30
0.0
 10
51.10919730710118
 20
-91.23129609264357
 30
0.0
 10
51.29971108743549
 20
-91.23336314993472
 30
0.0
 10
51.50710583564753
 20
-91.23336314993472
 30
0.0
 10
51.50710583564753
 20
-91.23336314993472
 30
0.0
 10
51.99148626087366
 20
-91.23336314993472
 30
0.0
 10
51.99148626087366
 20
-91.23336314993472
 30
0.0
 10
52.17752141707715
 20
-91.23336314993472
 30
0.0
 10
52.36390108282917
 20
-91.23129609264357
 30
0.0
 10
52.5478691817415
 20
-91.20786944334387
 30
0.0
 10
52.5478691817415
 20
-91.20786944334387
 30
0.0
 10
52.5478691817415
 20
-91.43834633130709
 30
0.0
 10
52.5478691817415
 20
-91.43834633130709
 30
0.0
 10
52.36390108282917
 20
-91.4152641915559
 30
0.0
 10
52.1161987174397
 20
-91.41319713426476
 30
0.0
 10
51.99148626087366
 20
-91.41319713426476
 30
0.0
  0
HATCH
  5
126
330
E9
100
AcDbEntity
  8
_U+30EC_U+30A4_U+30E4_U+30FC 1
 62
   179
420
  2234388
100
AcDbHatch
 10
0.0
 20
0.0
 30
0.0
210
0.0
220
0.0
230
1.0
  2
SOLID
 70
     1
 71
     0
 91
        1
 92
        1
 93
        1
 72
     4
 94
        3
 73
     0
 74
     1
 95
       29
 96
       25
 40
0.0
 40
0.0
 40
0.0
 40
0.0
 40
1.0
 40
1.0
 40
1.0
 40
2.0
 40
2.0
 40
2.0
 40
3.0
 40
3.0
 40
3.0
 40
4.0
 40
4.0
 40
4.0
 40
5.0
 40
5.0
 40
5.0
 40
6.0
 40
6.0
 40
6.0
 40
7.0
 40
7.0
 40
7.0
 40
8.0
 40
8.0
 40
8.0
 40
8.0
 10
51.99148626087366
 20
-91.41319713426476
 10
51.99148626087366
 20
-91.41319713426476
 10
51.50710583564753
 20
-91.41319713426476
 10
51.50710583564753
 20
-91.41319713426476
 10
51.47954507176554
 20
-91.41319713426476
 10
51.16225177757402
 20
-91.41319713426476
 10
50.95072291477968
 20
-91.43834633130709
 10
50.95072291477968
 20
-91.43834633130709
 10
50.95072291477968
 20
-91.20786944334387
 10
50.95072291477968
 20
-91.20786944334387
 10
51.10919730710118
 20
-91.23129609264357
 10
51.29971108743549
 20
-91.23336314993472
 10
51.50710583564753
 20
-91.23336314993472
 10
51.50710583564753
 20
-91.23336314993472
 10
51.99148626087366
 20
-91.23336314993472
 10
51.99148626087366
 20
-91.23336314993472
 10
52.17752141707715
 20
-91.23336314993472
 10
52.36390108282917
 20
-91.23129609264357
 10
52.5478691817415
 20
-91.20786944334387
 10
52.5478691817415
 20
-91.20786944334387
 10
52.5478691817415
 20
-91.43834633130709
 10
52.5478691817415
 20
-91.43834633130709
 10
52.36390108282917
 20
-91.4152641915559
 10
52.1161987174397
 20
-91.41319713426476
 10
51.99148626087366
 20
-91.41319713426476
 97
        0
 97
        0
 75
     2
 76
     1
 98
        0
  0
ENDBLK
  5
EC
330
E9
100
AcDbEntity
  8
0
100
AcDbBlockEnd
  0
ENDSEC
  0
SECTION
  2
ENTITIES
  0
SPLINE
  5
41
330
1F
100
AcDbEntity
  8
_U+30EC_U+30A4_U+30E4_U+30FC 1
 62
   179
420
  2234388
370
     9
100
AcDbSpline
210
0.0
220
0.0
230
1.0
 70
    11
 71
     3
 72
    17
 73
    13
 74
     0
 42
0.0000000001
 43
0.0000000001
 12
1.0
 22
0.0
 32
0.0
 13
1.0
 23
0.0
 33
0.0
 40
0.0
 40
0.0
 40
0.0
 40
0.0
 40
1.0
 40
1.0
 40
1.0
 40
2.0
 40
2.0
 40
2.0
 40
3.0
 40
3.0
 40
3.0
 40
4.0
 40
4.0
 40
4.0
 40
4.0
 10
64.533531409168
 20
-102.8850283076118
 30
0.0
 10
64.533531409168
 20
-102.8298891409594
 30
0.0
 10
64.48872863253324
 20
-102.7851216409702
 30
0.0
 10
64.43362474505017
 20
-102.7851216409702
 30
0.0
 10
64.37848557979022
 20
-102.7851216409702
 30
0.0
 10
64.33371808093234
 20
-102.8298891409594
 30
0.0
 10
64.33371808093234
 20
-102.8850283076118
 30
0.0
 10
64.33371808093234
 20
-102.9401321964874
 30
0.0
 10
64.37848557979022
 20
-102.9849349742541
 30
0.0
 10
64.43362474505017
 20
-102.9849349742541
 30
0.0
 10
64.48872863253324
 20
-102.9849349742541
 30
0.0
 10
64.533531409168
 20
-102.9401321964874
 30
0.0
 10
64.533531409168
 20
-102.8850283076118
 30
0.0
  0
SPLINE
  5
42
330
1F
100
AcDbEntity
  8
_U+30EC_U+30A4_U+30E4_U+30FC 1
 62
   179
420
  2234388
370
     9
100
AcDbSpline
210
0.0
220
0.0
230
1.0
 70
    11
 71
     3
 72
    17
 73
    13
 74
     0
 42
0.0000000001
 43
0.0000000001
 12
1.0
 22
0.0
 32
0.0
 13
1.0
 23
0.0
 33
0.0
 40
0.0
 40
0.0
 40
0.0
 40
0.0
 40
1.0
 40
1.0
 40
1.0
 40
2.0
 40
2.0
 40
2.0
 40
3.0
 40
3.0
 40
3.0
 40
4.0
 40
4.0
 40
4.0
 40
4.0
 10
54.53344720858873
 20
-102.8850283076118
 30
0.0
 10
54.53344720858873
 20
-102.8298891409594
 30
0.0
 10
54.48867833210023
 20
-102.7851216409702
 30
0.0
 10
54.43353916684028
 20
-102.7851216409702
 30
0.0
 10
54.37808250158843
 20
-102.7851216409702
 30
0.0
 10
54.33327972495366
 20
-102.8298891409594
 30
0.0
 10
54.33327972495366
 20
-102.8850283076118
 30
0.0
 10
54.33327972495366
 20
-102.9401321964874
 30
0.0
 10
54.37808250158843
 20
-102.9849349742541
 30
0.0
 10
54.43353916684028
 20
-102.9849349742541
 30
0.0
 10
54.48867833210023
 20
-102.9849349742541
 30
0.0
 10
54.53344720858873
 20
-102.9401321964874
 30
0.0
 10
54.53344720858873
 20
-102.8850283076118
 30
0.0
  0
SPLINE
  5
43
330
1F
100
AcDbEntity
  8
_U+30EC_U+30A4_U+30E4_U+30FC 1
 62
   179
420
  2234388
370
     9
100
AcDbSpline
210
0.0
220
0.0
230
1.0
 70
    11
 71
     3
 72
    17
 73
    13
 74
     0
 42
0.0000000001
 43
0.0000000001
 12
1.0
 22
0.0
 32
0.0
 13
1.0
 23
0.0
 33
0.0
 40
0.0
 40
0.0
 40
0.0
 40
0.0
 40
1.0
 40
1.0
 40
1.0
 40
2.0
 40
2.0
 40
2.0
 40
3.0
 40
3.0
 40
3.0
 40
4.0
 40
4.0
 40
4.0
 40
4.0
 10
42.5334983593245
 20
-102.8850283076118
 30
0.0
 10
42.5334983593245
 20
-102.8298891409594
 30
0.0
 10
42.48869558268974
 20
-102.7851216409702
 30
0.0
 10
42.43359169520667
 20
-102.7851216409702
 30
0.0
 10
42.37813610051672
 20
-102.7851216409702
 30
0.0
 10
42.33333332275
 20
-102.8298891409594
 30
0.0
 10
42.33333332275
 20
-102.8850283076118
 30
0.0
 10
42.33333332275
 20
-102.9401321964874
 30
0.0
 10
42.37813610051672
 20
-102.9849349742541
 30
0.0
 10
42.43359169520667
 20
-102.9849349742541
 30
0.0
 10
42.48869558268974
 20
-102.9849349742541
 30
0.0
 10
42.5334983593245
 20
-102.9401321964874
 30
0.0
 10
42.5334983593245
 20
-102.8850283076118
 30
0.0
  0
POLYLINE
  5
44
330
1F
100
AcDbEntity
  8
_U+30EC_U+30A4_U+30E4_U+30FC 1
 62
   179
420
  2234388
370
     9
100
AcDb2dPolyline
 66
     1
 10
0.0
 20
0.0
 30
0.0
  0
VERTEX
  5
45
330
44
100
AcDbEntity
  8
_U+30EC_U+30A4_U+30E4_U+30FC 1
 62
   179
420
  2234388
370
     9
100
AcDbVertex
100
AcDb2dVertex
 10
54.43353916684028
 20
-102.8850283076118
 30
0.0
  0
VERTEX
  5
46
330
44
100
AcDbEntity
  8
_U+30EC_U+30A4_U+30E4_U+30FC 1
 62
   179
420
  2234388
370
     9
100
AcDbVertex
100
AcDb2dVertex
 10
64.43362474505017
 20
-102.8850283076118
 30
0.0
  0
SEQEND
  5
47
330
44
100
AcDbEntity
  8
_U+30EC_U+30A4_U+30E4_U+30FC 1
 62
   179
420
  2234388
370
     9
  0
POLYLINE
  5
48
330
1F
100
AcDbEntity
  8
_U+30EC_U+30A4_U+30E4_U+30FC 1
 62
   179
420
  2234388
370
     9
100
AcDb2dPolyline
 66
     1
 10
0.0
 20
0.0
 30
0.0
  0
VERTEX
  5
49
330
48
100
AcDbEntity
  8
_U+30EC_U+30A4_U+30E4_U+30FC 1
 62
   179
420
  2234388
370
     9
100
AcDbVertex
100
AcDb2dVertex
 10
54.43353916684028
 20
-101.4249869190881
 30
0.0
  0
VERTEX
  5
4A
330
48
100
AcDbEntity
  8
_U+30EC_U+30A4_U+30E4_U+30FC 1
 62
   179
420
  2234388
370
     9
100
AcDbVertex
100
AcDb2dVertex
 10
54.43353916684028
 20
-103.8854708073617
 30
0.0
  0
SEQEND
  5
4B
330
48
100
AcDbEntity
  8
_U+30EC_U+30A4_U+30E4_U+30FC 1
 62
   179
420
  2234388
370
     9
  0
POLYLINE
  5
4C
330
1F
100
AcDbEntity
  8
_U+30EC_U+30A4_U+30E4_U+30FC 1
 62
   179
420
  2234388
370
     9
100
AcDb2dPolyline
 66
     1
 10
0.0
 20
0.0
 30
0.0
  0
VERTEX
  5
4D
330
4C
100
AcDbEntity
  8
_U+30EC_U+30A4_U+30E4_U+30FC 1
 62
   179
420
  2234388
370
     9
100
AcDbVertex
100
AcDb2dVertex
 10
64.43362474505017
 20
-100.7249346970411
 30
0.0
  0
VERTEX
  5
4E
330
4C
100
AcDbEntity
  8
_U+30EC_U+30A4_U+30E4_U+30FC 1
 62
   179
420
  2234388
370
     9
100
AcDbVertex
100
AcDb2dVertex
 10
64.43362474505017
 20
-103.8854708073617
 30
0.0
  0
SEQEND
  5
4F
330
4C
100
AcDbEntity
  8
_U+30EC_U+30A4_U+30E4_U+30FC 1
 62
   179
420
  2234388
370
     9
  0
INSERT
  5
51
330
1F
100
AcDbEntity
  8
_U+30EC_U+30A4_U+30E4_U+30FC 1
100
AcDbBlockReference
  2
block 2
 10
0.0
 20
0.0
 30
0.0
  0
POLYLINE
  5
59
330
1F
100
AcDbEntity
  8
_U+30EC_U+30A4_U+30E4_U+30FC 1
 62
   179
420
  2234388
370
     9
100
AcDb2dPolyline
 66
     1
 10
0.0
 20
0.0
 30
0.0
  0
VERTEX
  5
5A
330
59
100
AcDbEntity
  8
_U+30EC_U+30A4_U+30E4_U+30FC 1
 62
   179
420
  2234388
370
     9
100
AcDbVertex
100
AcDb2dVertex
 10
42.43359169520667
 20
-102.8850283076118
 30
0.0
  0
VERTEX
  5
5B
330
59
100
AcDbEntity
  8
_U+30EC_U+30A4_U+30E4_U+30FC 1
 62
   179
420
  2234388
370
     9
100
AcDbVertex
100
AcDb2dVertex
 10
54.43353916684028
 20
-102.8850283076118
 30
0.0
  0
SEQEND
  5
5C
330
59
100
AcDbEntity
  8
_U+30EC_U+30A4_U+30E4_U+30FC 1
 62
   179
420
  2234388
370
     9
  0
POLYLINE
  5
5D
330
1F
100
AcDbEntity
  8
_U+30EC_U+30A4_U+30E4_U+30FC 1
 62
   179
420
  2234388
370
     9
100
AcDb2dPolyline
 66
     1
 10
0.0
 20
0.0
 30
0.0
  0
VERTEX
  5
5E
330
5D
100
AcDbEntity
  8
_U+30EC_U+30A4_U+30E4_U+30FC 1
 62
   179
420
  2234388
370
     9
100
AcDbVertex
100
AcDb2dVertex
 10
42.43359169520667
 20
-84.48597386776736
 30
0.0
  0
VERTEX
  5
5F
330
5D
100
AcDbEntity
  8
_U+30EC_U+30A4_U+30E4_U+30FC 1
 62
   179
420
  2234388
370
     9
100
AcDbVertex
100
AcDb2dVertex
 10
42.43359169520667
 20
-103.8854708073617
 30
0.0
  0
SEQEND
  5
60
330
5D
100
AcDbEntity
  8
_U+30EC_U+30A4_U+30E4_U+30FC 1
 62
   179
420
  2234388
370
     9
  0
INSERT
  5
62
330
1F
100
AcDbEntity
  8
_U+30EC_U+30A4_U+30E4_U+30FC 1
100
AcDbBlockReference
  2
block 3
 10
0.0
 20
0.0
 30
0.0
  0
POLYLINE
  5
69
330
1F
100
AcDbEntity
  8
_U+30EC_U+30A4_U+30E4_U+30FC 1
  6
AI-Linetype-1
 62
   154
420
    23468
370
    25
100
AcDb2dPolyline
 66
     1
 10
0.0
 20
0.0
 30
0.0
  0
VERTEX
  5
6A
330
69
100
AcDbEntity
  8
_U+30EC_U+30A4_U+30E4_U+30FC 1
  6
AI-Linetype-1
 62
   154
420
    23468
370
    25
100
AcDbVertex
100
AcDb2dVertex
 10
53.75659390633281
 20
-99.16502191965328
 30
0.0
  0
VERTEX
  5
6B
330
69
100
AcDbEntity
  8
_U+30EC_U+30A4_U+30E4_U+30FC 1
  6
AI-Linetype-1
 62
   154
420
    23468
370
    25
100
AcDbVertex
100
AcDb2dVertex
 10
53.75659390633281
 20
-82.74378081264727
 30
0.0
  0
SEQEND
  5
6D
330
69
100
AcDbEntity
  8
_U+30EC_U+30A4_U+30E4_U+30FC 1
  6
AI-Linetype-1
 62
   154
420
    23468
370
    25
  0
POLYLINE
  5
6E
330
1F
100
AcDbEntity
  8
_U+30EC_U+30A4_U+30E4_U+30FC 1
  6
AI-Linetype-2
 62
   154
420
    23468
370
    25
100
AcDb2dPolyline
 66
     1
 10
0.0
 20
0.0
 30
0.0
  0
VERTEX
  5
6F
330
6E
100
AcDbEntity
  8
_U+30EC_U+30A4_U+30E4_U+30FC 1
  6
AI-Linetype-2
 62
   154
420
    23468
370
    25
100
AcDbVertex
100
AcDb2dVertex
 10
42.33333332275
 20
-82.4729885904927
 30
0.0
  0
VERTEX
  5
70
330
6E
100
AcDbEntity
  8
_U+30EC_U+30A4_U+30E4_U+30FC 1
  6
AI-Linetype-2
 62
   154
420
    23468
370
    25
100
AcDbVertex
100
AcDb2dVertex
 10
53.66734113083206
 20
-82.4729885904927
 30
0.0
  0
SEQEND
  5
72
330
6E
100
AcDbEntity
  8
_U+30EC_U+30A4_U+30E4_U+30FC 1
  6
AI-Linetype-2
 62
   154
420
    23468
370
    25
  0
POLYLINE
  5
73
330
1F
100
AcDbEntity
  8
_U+30EC_U+30A4_U+30E4_U+30FC 1
  6
AI-Linetype-3
 62
   154
420
    23468
370
    25
100
AcDb2dPolyline
 66
     1
 10
0.0
 20
0.0
 30
0.0
  0
VERTEX
  5
74
330
73
100
AcDbEntity
  8
_U+30EC_U+30A4_U+30E4_U+30FC 1
  6
AI-Linetype-3
 62
   154
420
    23468
370
    25
100
AcDbVertex
100
AcDb2dVertex
 10
54.22338944997942
 20
-99.35379330849469
 30
0.0
  0
VERTEX
  5
75
330
73
100
AcDbEntity
  8
_U+30EC_U+30A4_U+30E4_U+30FC 1
  6
AI-Linetype-3
 62
   154
420
    23468
370
    25
100
AcDbVertex
100
AcDb2dVertex
 10
64.53317863139922
 20
-98.48839414204478
 30
0.0
  0
SEQEND
  5
77
330
73
100
AcDbEntity
  8
_U+30EC_U+30A4_U+30E4_U+30FC 1
  6
AI-Linetype-3
 62
   154
420
    23468
370
    25
  0
POLYLINE
  5
78
330
1F
100
AcDbEntity
  8
_U+30EC_U+30A4_U+30E4_U+30FC 1
 62
   179
420
  2234388
370
    25
100
AcDb2dPolyline
 66
     1
 10
0.0
 20
0.0
 30
0.0
  0
VERTEX
  5
79
330
78
100
AcDbEntity
  8
_U+30EC_U+30A4_U+30E4_U+30FC 1
 62
   179
420
  2234388
370
    25
100
AcDbVertex
100
AcDb2dVertex
 10
42.43359169520667
 20
-81.98587303505896
 30
0.0
  0
VERTEX
  5
7A
330
78
100
AcDbEntity
  8
_U+30EC_U+30A4_U+30E4_U+30FC 1
 62
   179
420
  2234388
370
    25
100
AcDbVertex
100
AcDb2dVertex
 10
54.43353916684028
 20
-81.98587303505896
 30
0.0
  0
VERTEX
  5
7B
330
78
100
AcDbEntity
  8
_U+30EC_U+30A4_U+30E4_U+30FC 1
 62
   179
420
  2234388
370
    25
100
AcDbVertex
100
AcDb2dVertex
 10
54.43353916684028
 20
-98.48564247537837
 30
0.0
  0
VERTEX
  5
7C
330
78
100
AcDbEntity
  8
_U+30EC_U+30A4_U+30E4_U+30FC 1
 62
   179
420
  2234388
370
    25
100
AcDbVertex
100
AcDb2dVertex
 10
64.43362474505017
 20
-97.98540358661467
 30
0.0
  0
VERTEX
  5
7D
330
78
100
AcDbEntity
  8
_U+30EC_U+30A4_U+30E4_U+30FC 1
 62
   179
420
  2234388
370
    25
100
AcDbVertex
100
AcDb2dVertex
 10
64.43362474505017
 20
-97.48587025340647
 30
0.0
  0
VERTEX
  5
7E
330
78
100
AcDbEntity
  8
_U+30EC_U+30A4_U+30E4_U+30FC 1
 62
   179
420
  2234388
370
    25
100
AcDbVertex
100
AcDb2dVertex
 10
57.43352603474868
 20
-97.48587025340647
 30
0.0
  0
VERTEX
  5
7F
330
78
100
AcDbEntity
  8
_U+30EC_U+30A4_U+30E4_U+30FC 1
 62
   179
420
  2234388
370
    25
100
AcDbVertex
100
AcDb2dVertex
 10
57.43352603474868
 20
-81.98552025728152
 30
0.0
  0
VERTEX
  5
80
330
78
100
AcDbEntity
  8
_U+30EC_U+30A4_U+30E4_U+30FC 1
 62
   179
420
  2234388
370
    25
100
AcDbVertex
100
AcDb2dVertex
 10
79.43356109125246
 20
-81.98552025728152
 30
0.0
  0
VERTEX
  5
81
330
78
100
AcDbEntity
  8
_U+30EC_U+30A4_U+30E4_U+30FC 1
 62
   179
420
  2234388
370
    25
100
AcDbVertex
100
AcDb2dVertex
 10
79.43356109125246
 20
-80.98574803530899
 30
0.0
  0
VERTEX
  5
82
330
78
100
AcDbEntity
  8
_U+30EC_U+30A4_U+30E4_U+30FC 1
 62
   179
420
  2234388
370
    25
100
AcDbVertex
100
AcDb2dVertex
 10
56.43357744914838
 20
-80.98574803530899
 30
0.0
  0
VERTEX
  5
83
330
78
100
AcDbEntity
  8
_U+30EC_U+30A4_U+30E4_U+30FC 1
 62
   179
420
  2234388
370
    25
100
AcDbVertex
100
AcDb2dVertex
 10
56.43357744914838
 20
-97.48587025340647
 30
0.0
  0
VERTEX
  5
84
330
78
100
AcDbEntity
  8
_U+30EC_U+30A4_U+30E4_U+30FC 1
 62
   179
420
  2234388
370
    25
100
AcDbVertex
100
AcDb2dVertex
 10
55.43348775244058
 20
-97.48587025340647
 30
0.0
  0
VERTEX
  5
85
330
78
100
AcDbEntity
  8
_U+30EC_U+30A4_U+30E4_U+30FC 1
 62
   179
420
  2234388
370
    25
100
AcDbVertex
100
AcDb2dVertex
 10
55.43366414132496
 20
-80.98574803530899
 30
0.0
  0
VERTEX
  5
86
330
78
100
AcDbEntity
  8
_U+30EC_U+30A4_U+30E4_U+30FC 1
 62
   179
420
  2234388
370
    25
100
AcDbVertex
100
AcDb2dVertex
 10
42.43359169520667
 20
-80.98574803530899
 30
0.0
  0
VERTEX
  5
87
330
78
100
AcDbEntity
  8
_U+30EC_U+30A4_U+30E4_U+30FC 1
 62
   179
420
  2234388
370
    25
100
AcDbVertex
100
AcDb2dVertex
 10
42.43359169520667
 20
-81.98587303505896
 30
0.0
  0
SEQEND
  5
88
330
78
100
AcDbEntity
  8
_U+30EC_U+30A4_U+30E4_U+30FC 1
 62
   179
420
  2234388
370
    25
  0
SPLINE
  5
89
330
1F
100
AcDbEntity
  8
_U+30EC_U+30A4_U+30E4_U+30FC 1
 62
   179
420
  2234388
370
     9
100
AcDbSpline
210
0.0
220
0.0
230
1.0
 70
    11
 71
     3
 72
    17
 73
    13
 74
     0
 42
0.0000000001
 43
0.0000000001
 12
1.0
 22
0.0
 32
0.0
 13
1.0
 23
0.0
 33
0.0
 40
0.0
 40
0.0
 40
0.0
 40
0.0
 40
1.0
 40
1.0
 40
1.0
 40
2.0
 40
2.0
 40
2.0
 40
3.0
 40
3.0
 40
3.0
 40
4.0
 40
4.0
 40
4.0
 40
4.0
 10
83.40954092760089
 20
-80.98574803530899
 30
0.0
 10
83.40954092760089
 20
-81.04088720196206
 30
0.0
 10
83.45434370423565
 20
-81.08565470195094
 30
0.0
 10
83.50944759171873
 20
-81.08565470195094
 30
0.0
 10
83.56458886799781
 20
-81.08565470195094
 30
0.0
 10
83.60935425583655
 20
-81.04088720196206
 30
0.0
 10
83.60935425583655
 20
-80.98574803530899
 30
0.0
 10
83.60935425583655
 20
-80.92993859087854
 30
0.0
 10
83.56458886799781
 20
-80.88517109088998
 30
0.0
 10
83.50944759171873
 20
-80.88517109088998
 30
0.0
 10
83.45434370423565
 20
-80.88517109088998
 30
0.0
 10
83.40954092760089
 20
-80.92993859087854
 30
0.0
 10
83.40954092760089
 20
-80.98574803530899
 30
0.0
  0
POLYLINE
  5
8A
330
1F
100
AcDbEntity
  8
_U+30EC_U+30A4_U+30E4_U+30FC 1
 62
   179
420
  2234388
370
     9
100
AcDb2dPolyline
 66
     1
 10
0.0
 20
0.0
 30
0.0
  0
VERTEX
  5
8B
330
8A
100
AcDbEntity
  8
_U+30EC_U+30A4_U+30E4_U+30FC 1
 62
   179
420
  2234388
370
     9
100
AcDbVertex
100
AcDb2dVertex
 10
83.50944759171873
 20
-77.29156498067695
 30
0.0
  0
VERTEX
  5
8C
330
8A
100
AcDbEntity
  8
_U+30EC_U+30A4_U+30E4_U+30FC 1
 62
   179
420
  2234388
370
     9
100
AcDbVertex
100
AcDb2dVertex
 10
83.50944759171873
 20
-97.48587025340647
 30
0.0
  0
SEQEND
  5
8D
330
8A
100
AcDbEntity
  8
_U+30EC_U+30A4_U+30E4_U+30FC 1
 62
   179
420
  2234388
370
     9
  0
POLYLINE
  5
8E
330
1F
100
AcDbEntity
  8
_U+30EC_U+30A4_U+30E4_U+30FC 1
 62
   179
420
  2234388
370
     9
100
AcDb2dPolyline
 66
     1
 10
0.0
 20
0.0
 30
0.0
  0
VERTEX
  5
8F
330
8E
100
AcDbEntity
  8
_U+30EC_U+30A4_U+30E4_U+30FC 1
 62
   179
420
  2234388
370
     9
100
AcDbVertex
100
AcDb2dVertex
 10
69.4334735063823
 20
-92.7254516434855
 30
0.0
  0
VERTEX
  5
90
330
8E
100
AcDbEntity
  8
_U+30EC_U+30A4_U+30E4_U+30FC 1
 62
   179
420
  2234388
370
     9
100
AcDbVertex
100
AcDb2dVertex
 10
69.4334735063823
 20
-99.2828144196237
 30
0.0
  0
SEQEND
  5
91
330
8E
100
AcDbEntity
  8
_U+30EC_U+30A4_U+30E4_U+30FC 1
 62
   179
420
  2234388
370
     9
  0
POLYLINE
  5
92
330
1F
100
AcDbEntity
  8
_U+30EC_U+30A4_U+30E4_U+30FC 1
 62
   179
420
  2234388
370
     9
100
AcDb2dPolyline
 66
     1
 10
0.0
 20
0.0
 30
0.0
  0
VERTEX
  5
93
330
92
100
AcDbEntity
  8
_U+30EC_U+30A4_U+30E4_U+30FC 1
 62
   179
420
  2234388
370
     9
100
AcDbVertex
100
AcDb2dVertex
 10
81.93334442396126
 20
-80.98574803530899
 30
0.0
  0
VERTEX
  5
94
330
92
100
AcDbEntity
  8
_U+30EC_U+30A4_U+30E4_U+30FC 1
 62
   179
420
  2234388
370
     9
100
AcDbVertex
100
AcDb2dVertex
 10
84.5819272865797
 20
-80.98574803530899
 30
0.0
  0
SEQEND
  5
95
330
92
100
AcDbEntity
  8
_U+30EC_U+30A4_U+30E4_U+30FC 1
 62
   179
420
  2234388
370
     9
  0
SPLINE
  5
96
330
1F
100
AcDbEntity
  8
_U+30EC_U+30A4_U+30E4_U+30FC 1
 62
   179
420
  2234388
370
     9
100
AcDbSpline
210
0.0
220
0.0
230
1.0
 70
    11
 71
     3
 72
    17
 73
    13
 74
     0
 42
0.0000000001
 43
0.0000000001
 12
1.0
 22
0.0
 32
0.0
 13
1.0
 23
0.0
 33
0.0
 40
0.0
 40
0.0
 40
0.0
 40
0.0
 40
1.0
 40
1.0
 40
1.0
 40
2.0
 40
2.0
 40
2.0
 40
3.0
 40
3.0
 40
3.0
 40
4.0
 40
4.0
 40
4.0
 40
4.0
 10
83.40954092760089
 20
-81.98552025728152
 30
0.0
 10
83.40954092760089
 20
-82.04065942393429
 30
0.0
 10
83.45434370423565
 20
-82.08542692392317
 30
0.0
 10
83.50944759171873
 20
-82.08542692392317
 30
0.0
 10
83.56458886799781
 20
-82.08542692392317
 30
0.0
 10
83.60935425583655
 20
-82.04065942393429
 30
0.0
 10
83.60935425583655
 20
-81.98552025728152
 30
0.0
 10
83.60935425583655
 20
-81.92971081285076
 30
0.0
 10
83.56458886799781
 20
-81.88490803508436
 30
0.0
 10
83.50944759171873
 20
-81.88490803508436
 30
0.0
 10
83.45434370423565
 20
-81.88490803508436
 30
0.0
 10
83.40954092760089
 20
-81.92971081285076
 30
0.0
 10
83.40954092760089
 20
-81.98552025728152
 30
0.0
  0
POLYLINE
  5
97
330
1F
100
AcDbEntity
  8
_U+30EC_U+30A4_U+30E4_U+30FC 1
 62
   179
420
  2234388
370
     9
100
AcDb2dPolyline
 66
     1
 10
0.0
 20
0.0
 30
0.0
  0
VERTEX
  5
98
330
97
100
AcDbEntity
  8
_U+30EC_U+30A4_U+30E4_U+30FC 1
 62
   179
420
  2234388
370
     9
100
AcDbVertex
100
AcDb2dVertex
 10
81.93334442396126
 20
-81.98552025728152
 30
0.0
  0
VERTEX
  5
99
330
97
100
AcDbEntity
  8
_U+30EC_U+30A4_U+30E4_U+30FC 1
 62
   179
420
  2234388
370
     9
100
AcDbVertex
100
AcDb2dVertex
 10
84.5819272865797
 20
-81.98552025728152
 30
0.0
  0
SEQEND
  5
9A
330
97
100
AcDbEntity
  8
_U+30EC_U+30A4_U+30E4_U+30FC 1
 62
   179
420
  2234388
370
     9
  0
SPLINE
  5
9B
330
1F
100
AcDbEntity
  8
_U+30EC_U+30A4_U+30E4_U+30FC 1
 62
   179
420
  2234388
370
     9
100
AcDbSpline
210
0.0
220
0.0
230
1.0
 70
    11
 71
     3
 72
    17
 73
    13
 74
     0
 42
0.0000000001
 43
0.0000000001
 12
1.0
 22
0.0
 32
0.0
 13
1.0
 23
0.0
 33
0.0
 40
0.0
 40
0.0
 40
0.0
 40
0.0
 40
1.0
 40
1.0
 40
1.0
 40
2.0
 40
2.0
 40
2.0
 40
3.0
 40
3.0
 40
3.0
 40
4.0
 40
4.0
 40
4.0
 40
4.0
 10
69.33356684226446
 20
-97.98540358661467
 30
0.0
 10
69.33356684226446
 20
-98.04054275326774
 30
0.0
 10
69.37836961889921
 20
-98.0853102532563
 30
0.0
 10
69.4334735063823
 20
-98.0853102532563
 30
0.0
 10
69.48861267164224
 20
-98.0853102532563
 30
0.0
 10
69.53338017050012
 20
-98.04054275326774
 30
0.0
 10
69.53338017050012
 20
-97.98540358661467
 30
0.0
 10
69.53338017050012
 20
-97.92959414218421
 30
0.0
 10
69.48861267164224
 20
-97.88482664219566
 30
0.0
 10
69.4334735063823
 20
-97.88482664219566
 30
0.0
 10
69.37836961889921
 20
-97.88482664219566
 30
0.0
 10
69.33356684226446
 20
-97.92959414218421
 30
0.0
 10
69.33356684226446
 20
-97.98540358661467
 30
0.0
  0
POLYLINE
  5
9C
330
1F
100
AcDbEntity
  8
_U+30EC_U+30A4_U+30E4_U+30FC 1
 62
   179
420
  2234388
370
     9
100
AcDb2dPolyline
 66
     1
 10
0.0
 20
0.0
 30
0.0
  0
VERTEX
  5
9D
330
9C
100
AcDbEntity
  8
_U+30EC_U+30A4_U+30E4_U+30FC 1
 62
   179
420
  2234388
370
     9
100
AcDbVertex
100
AcDb2dVertex
 10
67.8094610478143
 20
-97.98540358661467
 30
0.0
  0
VERTEX
  5
9E
330
9C
100
AcDbEntity
  8
_U+30EC_U+30A4_U+30E4_U+30FC 1
 62
   179
420
  2234388
370
     9
100
AcDbVertex
100
AcDb2dVertex
 10
70.4332457030982
 20
-97.98540358661467
 30
0.0
  0
SEQEND
  5
9F
330
9C
100
AcDbEntity
  8
_U+30EC_U+30A4_U+30E4_U+30FC 1
 62
   179
420
  2234388
370
     9
  0
SPLINE
  5
A0
330
1F
100
AcDbEntity
  8
_U+30EC_U+30A4_U+30E4_U+30FC 1
 62
   179
420
  2234388
370
     9
100
AcDbSpline
210
0.0
220
0.0
230
1.0
 70
    11
 71
     3
 72
    17
 73
    13
 74
     0
 42
0.0000000001
 43
0.0000000001
 12
1.0
 22
0.0
 32
0.0
 13
1.0
 23
0.0
 33
0.0
 40
0.0
 40
0.0
 40
0.0
 40
0.0
 40
1.0
 40
1.0
 40
1.0
 40
2.0
 40
2.0
 40
2.0
 40
3.0
 40
3.0
 40
3.0
 40
4.0
 40
4.0
 40
4.0
 40
4.0
 10
83.40954092760089
 20
-97.48587025340647
 30
0.0
 10
83.40954092760089
 20
-97.54097414228139
 30
0.0
 10
83.45434370423565
 20
-97.5857769200481
 30
0.0
 10
83.50944759171873
 20
-97.5857769200481
 30
0.0
 10
83.56458886799781
 20
-97.5857769200481
 30
0.0
 10
83.60935425583655
 20
-97.54097414228139
 30
0.0
 10
83.60935425583655
 20
-97.48587025340647
 30
0.0
 10
83.60935425583655
 20
-97.43006080897604
 30
0.0
 10
83.56458886799781
 20
-97.38525803120932
 30
0.0
 10
83.50944759171873
 20
-97.38525803120932
 30
0.0
 10
83.45434370423565
 20
-97.38525803120932
 30
0.0
 10
83.40954092760089
 20
-97.43006080897604
 30
0.0
 10
83.40954092760089
 20
-97.48587025340647
 30
0.0
  0
SPLINE
  5
A1
330
1F
100
AcDbEntity
  8
_U+30EC_U+30A4_U+30E4_U+30FC 1
 62
   179
420
  2234388
370
     9
100
AcDbSpline
210
0.0
220
0.0
230
1.0
 70
    11
 71
     3
 72
    17
 73
    13
 74
     0
 42
0.0000000001
 43
0.0000000001
 12
1.0
 22
0.0
 32
0.0
 13
1.0
 23
0.0
 33
0.0
 40
0.0
 40
0.0
 40
0.0
 40
0.0
 40
1.0
 40
1.0
 40
1.0
 40
2.0
 40
2.0
 40
2.0
 40
3.0
 40
3.0
 40
3.0
 40
4.0
 40
4.0
 40
4.0
 40
4.0
 10
69.33356684226446
 20
-97.48587025340647
 30
0.0
 10
69.33356684226446
 20
-97.54097414228139
 30
0.0
 10
69.37836961889921
 20
-97.5857769200481
 30
0.0
 10
69.4334735063823
 20
-97.5857769200481
 30
0.0
 10
69.48861267164224
 20
-97.5857769200481
 30
0.0
 10
69.53338017050012
 20
-97.54097414228139
 30
0.0
 10
69.53338017050012
 20
-97.48587025340647
 30
0.0
 10
69.53338017050012
 20
-97.43006080897604
 30
0.0
 10
69.48861267164224
 20
-97.38525803120932
 30
0.0
 10
69.4334735063823
 20
-97.38525803120932
 30
0.0
 10
69.37836961889921
 20
-97.38525803120932
 30
0.0
 10
69.33356684226446
 20
-97.43006080897604
 30
0.0
 10
69.33356684226446
 20
-97.48587025340647
 30
0.0
  0
POLYLINE
  5
A2
330
1F
100
AcDbEntity
  8
_U+30EC_U+30A4_U+30E4_U+30FC 1
 62
   179
420
  2234388
370
     9
100
AcDb2dPolyline
 66
     1
 10
0.0
 20
0.0
 30
0.0
  0
VERTEX
  5
A3
330
A2
100
AcDbEntity
  8
_U+30EC_U+30A4_U+30E4_U+30FC 1
 62
   179
420
  2234388
370
     9
100
AcDbVertex
100
AcDb2dVertex
 10
67.8094610478143
 20
-97.48587025340647
 30
0.0
  0
VERTEX
  5
A4
330
A2
100
AcDbEntity
  8
_U+30EC_U+30A4_U+30E4_U+30FC 1
 62
   179
420
  2234388
370
     9
100
AcDbVertex
100
AcDb2dVertex
 10
84.5819272865797
 20
-97.48587025340647
 30
0.0
  0
SEQEND
  5
A5
330
A2
100
AcDbEntity
  8
_U+30EC_U+30A4_U+30E4_U+30FC 1
 62
   179
420
  2234388
370
     9
  0
INSERT
  5
A7
330
1F
100
AcDbEntity
  8
_U+30EC_U+30A4_U+30E4_U+30FC 1
100
AcDbBlockReference
  2
block 4
 10
0.0
 20
0.0
 30
0.0
  0
INSERT
  5
B9
330
1F
100
AcDbEntity
  8
_U+30EC_U+30A4_U+30E4_U+30FC 1
100
AcDbBlockReference
  2
block 5
 10
0.0
 20
0.0
 30
0.0
  0
INSERT
  5
BF
330
1F
100
AcDbEntity
  8
_U+30EC_U+30A4_U+30E4_U+30FC 1
100
AcDbBlockReference
  2
block 6
 10
0.0
 20
0.0
 30
0.0
  0
POLYLINE
  5
CF
330
1F
100
AcDbEntity
  8
_U+30EC_U+30A4_U+30E4_U+30FC 1
 62
   179
420
  2234388
370
     9
100
AcDb2dPolyline
 66
     1
 10
0.0
 20
0.0
 30
0.0
  0
VERTEX
  5
D0
330
CF
100
AcDbEntity
  8
_U+30EC_U+30A4_U+30E4_U+30FC 1
 62
   179
420
  2234388
370
     9
100
AcDbVertex
100
AcDb2dVertex
 10
79.40290269648541
 20
-77.29156498067695
 30
0.0
  0
VERTEX
  5
D1
330
CF
100
AcDbEntity
  8
_U+30EC_U+30A4_U+30E4_U+30FC 1
 62
   179
420
  2234388
370
     9
100
AcDbVertex
100
AcDb2dVertex
 10
42.43359169520667
 20
-77.29156498067695
 30
0.0
  0
SEQEND
  5
D2
330
CF
100
AcDbEntity
  8
_U+30EC_U+30A4_U+30E4_U+30FC 1
 62
   179
420
  2234388
370
     9
  0
SPLINE
  5
D3
330
1F
100
AcDbEntity
  8
_U+30EC_U+30A4_U+30E4_U+30FC 1
 62
   179
420
  2234388
370
     9
100
AcDbSpline
210
0.0
220
0.0
230
1.0
 70
    11
 71
     3
 72
    17
 73
    13
 74
     0
 42
0.0000000001
 43
0.0000000001
 12
1.0
 22
0.0
 32
0.0
 13
1.0
 23
0.0
 33
0.0
 40
0.0
 40
0.0
 40
0.0
 40
0.0
 40
1.0
 40
1.0
 40
1.0
 40
2.0
 40
2.0
 40
2.0
 40
3.0
 40
3.0
 40
3.0
 40
4.0
 40
4.0
 40
4.0
 40
4.0
 10
42.40293530709989
 20
-77.19165831403531
 30
0.0
 10
42.34779721163533
 20
-77.19165831403531
 30
0.0
 10
42.30302864298205
 20
-77.23646109180204
 30
0.0
 10
42.30302864298205
 20
-77.29156498067695
 30
0.0
 10
42.30302864298205
 20
-77.34670414733003
 30
0.0
 10
42.34779721163533
 20
-77.39147164731891
 30
0.0
 10
42.40293530709989
 20
-77.39147164731891
 30
0.0
 10
42.45803919458296
 20
-77.39147164731891
 30
0.0
 10
42.50284197121772
 20
-77.34670414733003
 30
0.0
 10
42.50284197121772
 20
-77.29156498067695
 30
0.0
 10
42.50284197121772
 20
-77.23646109180204
 30
0.0
 10
42.45803919458296
 20
-77.19165831403531
 30
0.0
 10
42.40293530709989
 20
-77.19165831403531
 30
0.0
  0
POLYLINE
  5
D4
330
1F
100
AcDbEntity
  8
_U+30EC_U+30A4_U+30E4_U+30FC 1
 62
   179
420
  2234388
370
     9
100
AcDb2dPolyline
 66
     1
 10
0.0
 20
0.0
 30
0.0
  0
VERTEX
  5
D5
330
D4
100
AcDbEntity
  8
_U+30EC_U+30A4_U+30E4_U+30FC 1
 62
   179
420
  2234388
370
     9
100
AcDbVertex
100
AcDb2dVertex
 10
42.40293530709989
 20
-75.83155886993109
 30
0.0
  0
VERTEX
  5
D6
330
D4
100
AcDbEntity
  8
_U+30EC_U+30A4_U+30E4_U+30FC 1
 62
   179
420
  2234388
370
     9
100
AcDbVertex
100
AcDb2dVertex
 10
42.40293530709989
 20
-78.5724658136901
 30
0.0
  0
SEQEND
  5
D7
330
D4
100
AcDbEntity
  8
_U+30EC_U+30A4_U+30E4_U+30FC 1
 62
   179
420
  2234388
370
     9
  0
SPLINE
  5
D8
330
1F
100
AcDbEntity
  8
_U+30EC_U+30A4_U+30E4_U+30FC 1
 62
   179
420
  2234388
370
     9
100
AcDbSpline
210
0.0
220
0.0
230
1.0
 70
    11
 71
     3
 72
    17
 73
    13
 74
     0
 42
0.0000000001
 43
0.0000000001
 12
1.0
 22
0.0
 32
0.0
 13
1.0
 23
0.0
 33
0.0
 40
0.0
 40
0.0
 40
0.0
 40
0.0
 40
1.0
 40
1.0
 40
1.0
 40
2.0
 40
2.0
 40
2.0
 40
3.0
 40
3.0
 40
3.0
 40
4.0
 40
4.0
 40
4.0
 40
4.0
 10
79.40290269648541
 20
-77.19165831403531
 30
0.0
 10
79.34779880900234
 20
-77.19165831403531
 30
0.0
 10
79.30299603236757
 20
-77.23646109180204
 30
0.0
 10
79.30299603236757
 20
-77.29156498067695
 30
0.0
 10
79.30299603236757
 20
-77.34670414733003
 30
0.0
 10
79.34779880900234
 20
-77.39147164731891
 30
0.0
 10
79.40290269648541
 20
-77.39147164731891
 30
0.0
 10
79.45804186174536
 20
-77.39147164731891
 30
0.0
 10
79.50280936060324
 20
-77.34670414733003
 30
0.0
 10
79.50280936060324
 20
-77.29156498067695
 30
0.0
 10
79.50280936060324
 20
-77.23646109180204
 30
0.0
 10
79.45804186174536
 20
-77.19165831403531
 30
0.0
 10
79.40290269648541
 20
-77.19165831403531
 30
0.0
  0
POLYLINE
  5
D9
330
1F
100
AcDbEntity
  8
_U+30EC_U+30A4_U+30E4_U+30FC 1
 62
   179
420
  2234388
370
     9
100
AcDb2dPolyline
 66
     1
 10
0.0
 20
0.0
 30
0.0
  0
VERTEX
  5
DA
330
D9
100
AcDbEntity
  8
_U+30EC_U+30A4_U+30E4_U+30FC 1
 62
   179
420
  2234388
370
     9
100
AcDbVertex
100
AcDb2dVertex
 10
79.40290269648541
 20
-75.83155886993109
 30
0.0
  0
VERTEX
  5
DB
330
D9
100
AcDbEntity
  8
_U+30EC_U+30A4_U+30E4_U+30FC 1
 62
   179
420
  2234388
370
     9
100
AcDbVertex
100
AcDb2dVertex
 10
79.40290269648541
 20
-78.5724658136901
 30
0.0
  0
SEQEND
  5
DC
330
D9
100
AcDbEntity
  8
_U+30EC_U+30A4_U+30E4_U+30FC 1
 62
   179
420
  2234388
370
     9
  0
INSERT
  5
DE
330
1F
100
AcDbEntity
  8
_U+30EC_U+30A4_U+30E4_U+30FC 1
100
AcDbBlockReference
  2
block 7
 10
0.0
 20
0.0
 30
0.0
  0
POLYLINE
  5
E5
330
1F
100
AcDbEntity
  8
_U+30EC_U+30A4_U+30E4_U+30FC 1
 62
   179
420
  2234388
370
     9
100
AcDb2dPolyline
 66
     1
 10
0.0
 20
0.0
 30
0.0
  0
VERTEX
  5
E6
330
E5
100
AcDbEntity
  8
_U+30EC_U+30A4_U+30E4_U+30FC 1
 62
   179
420
  2234388
370
     9
100
AcDbVertex
100
AcDb2dVertex
 10
48.31609165458759
 20
-82.61836831267875
 30
0.0
  0
VERTEX
  5
E7
330
E5
100
AcDbEntity
  8
_U+30EC_U+30A4_U+30E4_U+30FC 1
 62
   179
420
  2234388
370
     9
100
AcDbVertex
100
AcDb2dVertex
 10
46.50260103584203
 20
-87.52557775589648
 30
0.0
  0
SEQEND
  5
E8
330
E5
100
AcDbEntity
  8
_U+30EC_U+30A4_U+30E4_U+30FC 1
 62
   179
420
  2234388
370
     9
  0
INSERT
  5
EA
330
1F
100
AcDbEntity
  8
_U+30EC_U+30A4_U+30E4_U+30FC 1
100
AcDbBlockReference
  2
block 8
 10
0.0
 20
0.0
 30
0.0
  0
ENDSEC
  0
SECTION
  2
OBJECTS
  0
DICTIONARY
  5
C
330
0
100
AcDbDictionary
281
     1
  3
ACAD_GROUP
350
D
  3
ACAD_LAYOUT
350
1A
  3
ACAD_MATERIAL
350
3B
  3
ACAD_MLEADERSTYLE
350
128
  3
ACAD_MLINESTYLE
350
17
  3
ACAD_PLOTSETTINGS
350
19
  3
ACAD_PLOTSTYLENAME
350
E
  3
ACAD_TABLESTYLE
350
127
  3
ACAD_VISUALSTYLE
350
2A
  0
SUN
  5
3F
330
29
100
AcDbSun
 90
        1
290
     0
 63
     7
421
 16777215
 40
1.0
291
     1
 91
  2455826
 92
 54000000
292
     0
 70
     2
 71
   256
280
     1
  0
DICTIONARY
  5
D
102
{ACAD_REACTORS
330
C
102
}
330
C
100
AcDbDictionary
281
     1
  0
DICTIONARY
  5
1A
102
{ACAD_REACTORS
330
C
102
}
330
C
100
AcDbDictionary
281
     1
  3
Layout1
350
1E
  3
Layout2
350
26
  3
Model
350
22
  0
DICTIONARY
  5
3B
102
{ACAD_REACTORS
330
C
102
}
330
C
100
AcDbDictionary
281
     1
  3
ByBlock
350
3D
  3
ByLayer
350
3C
  3
Global
350
3E
  0
DICTIONARY
  5
128
102
{ACAD_REACTORS
330
C
102
}
330
C
100
AcDbDictionary
281
     1
  0
DICTIONARY
  5
17
102
{ACAD_REACTORS
330
C
102
}
330
C
100
AcDbDictionary
281
     1
  3
Standard
350
18
  0
DICTIONARY
  5
19
102
{ACAD_REACTORS
330
C
102
}
330
C
100
AcDbDictionary
281
     1
  0
ACDBDICTIONARYWDFLT
  5
E
102
{ACAD_REACTORS
330
C
102
}
330
C
100
AcDbDictionary
281
     1
  3
Normal
350
F
100
AcDbDictionaryWithDefault
340
F
  0
DICTIONARY
  5
127
102
{ACAD_REACTORS
330
C
102
}
330
C
100
AcDbDictionary
281
     1
  0
DICTIONARY
  5
2A
102
{ACAD_REACTORS
330
C
102
}
330
C
100
AcDbDictionary
281
     1
  3
2dWireframe
350
2F
  3
3D Hidden
350
31
  3
3dWireframe
350
30
  3
Basic
350
32
  3
Brighten
350
36
  3
ColorChange
350
3A
  3
Conceptual
350
34
  3
Dim
350
35
  3
Facepattern
350
39
  3
Flat
350
2B
  3
FlatWithEdges
350
2C
  3
Gouraud
350
2D
  3
GouraudWithEdges
350
2E
  3
Linepattern
350
38
  3
Realistic
350
33
  3
Thicken
350
37
  0
LAYOUT
  5
1E
102
{ACAD_REACTORS
330
1A
102
}
330
1A
100
AcDbPlotSettings
  1

  2
none_device
  4

  6

 40
0.0
 41
0.0
 42
0.0
 43
0.0
 44
0.0
 45
0.0
 46
0.0
 47
0.0
 48
0.0
 49
0.0
140
0.0
141
0.0
142
1.0
143
1.0
 70
   688
 72
     0
 73
     0
 74
     5
  7

 75
    16
 76
     0
 77
     2
 78
   300
147
1.0
148
0.0
149
0.0
100
AcDbLayout
  1
Layout1
 70
     1
 71
     1
 10
0.0
 20
0.0
 11
12.0
 21
9.0
 12
0.0
 22
0.0
 32
0.0
 14
1.000000000000000E+20
 24
1.000000000000000E+20
 34
1.000000000000000E+20
 15
-1.000000000000000E+20
 25
-1.000000000000000E+20
 35
-1.000000000000000E+20
146
0.0
 13
0.0
 23
0.0
 33
0.0
 16
1.0
 26
0.0
 36
0.0
 17
0.0
 27
1.0
 37
0.0
 76
     0
330
1B
  0
LAYOUT
  5
26
102
{ACAD_REACTORS
330
1A
102
}
330
1A
100
AcDbPlotSettings
  1

  2
none_device
  4

  6

 40
0.0
 41
0.0
 42
0.0
 43
0.0
 44
0.0
 45
0.0
 46
0.0
 47
0.0
 48
0.0
 49
0.0
140
0.0
141
0.0
142
1.0
143
1.0
 70
   688
 72
     0
 73
     0
 74
     5
  7

 75
    16
 76
     0
 77
     2
 78
   300
147
1.0
148
0.0
149
0.0
100
AcDbLayout
  1
Layout2
 70
     1
 71
     2
 10
0.0
 20
0.0
 11
0.0
 21
0.0
 12
0.0
 22
0.0
 32
0.0
 14
0.0
 24
0.0
 34
0.0
 15
0.0
 25
0.0
 35
0.0
146
0.0
 13
0.0
 23
0.0
 33
0.0
 16
1.0
 26
0.0
 36
0.0
 17
0.0
 27
1.0
 37
0.0
 76
     0
330
23
  0
LAYOUT
  5
22
102
{ACAD_REACTORS
330
1A
102
}
330
1A
100
AcDbPlotSettings
  1

  2
none_device
  4

  6

 40
0.0
 41
0.0
 42
0.0
 43
0.0
 44
0.0
 45
0.0
 46
0.0
 47
0.0
 48
0.0
 49
0.0
140
0.0
141
0.0
142
1.0
143
1.0
 70
  1712
 72
     0
 73
     0
 74
     0
  7

 75
     0
 76
     0
 77
     2
 78
   300
147
1.0
148
0.0
149
0.0
100
AcDbLayout
  1
Model
 70
     1
 71
     0
 10
0.0
 20
0.0
 11
12.0
 21
9.0
 12
0.0
 22
0.0
 32
0.0
 14
1.000000000000000E+20
 24
1.000000000000000E+20
 34
1.000000000000000E+20
 15
-1.000000000000000E+20
 25
-1.000000000000000E+20
 35
-1.000000000000000E+20
146
0.0
 13
0.0
 23
0.0
 33
0.0
 16
1.0
 26
0.0
 36
0.0
 17
0.0
 27
1.0
 37
0.0
 76
     0
330
1F
331
29
  0
MATERIAL
  5
3D
102
{ACAD_REACTORS
330
3B
102
}
330
3B
100
AcDbMaterial
  1
ByBlock
 72
     1
 94
      127
  0
MATERIAL
  5
3C
102
{ACAD_REACTORS
330
3B
102
}
330
3B
100
AcDbMaterial
  1
ByLayer
 72
     1
 94
      127
  0
MATERIAL
  5
3E
102
{ACAD_REACTORS
330
3B
102
}
330
3B
100
AcDbMaterial
  1
Global
 72
     1
 94
      127
  0
MLINESTYLE
  5
18
102
{ACAD_REACTORS
330
17
102
}
330
17
100
AcDbMlineStyle
  2
Standard
 70
     0
  3

 62
   256
 51
90.0
 52
90.0
 71
     2
 49
0.5
 62
   256
  6
BYLAYER
 49
-0.5
 62
   256
  6
BYLAYER
  0
ACDBPLACEHOLDER
  5
F
102
{ACAD_REACTORS
330
E
102
}
330
E
  0
VISUALSTYLE
  5
2F
102
{ACAD_REACTORS
330
2A
102
}
330
2A
100
AcDbVisualStyle
  2
2dWireframe
 70
     4
177
     2
291
     0
 71
     0
176
     1
 72
     2
176
     1
 73
     0
176
     1
 90
        0
176
     1
 40
-0.6
176
     1
 41
-30.0
176
     1
 62
     5
 63
     7
421
 16777215
176
     1
 74
     1
176
     1
 91
        4
176
     1
 64
     7
176
     1
 65
   257
176
     1
 75
     1
176
     1
175
     1
176
     1
 42
1.0
176
     1
 92
        0
176
     1
 66
   257
176
     1
 43
1.0
176
     1
 76
     1
176
     1
 77
     6
176
     1
 78
     2
176
     1
 67
     7
176
     1
 79
     5
176
     1
170
     0
176
     1
171
     0
176
     1
290
     0
176
     1
 93
        1
176
     1
 44
0.0
176
     1
173
     0
176
     1
  0
VISUALSTYLE
  5
31
102
{ACAD_REACTORS
330
2A
102
}
330
2A
100
AcDbVisualStyle
  2
3D Hidden
 70
     6
177
     2
291
     0
 71
     1
176
     1
 72
     2
176
     1
 73
     2
176
     1
 90
        0
176
     1
 40
-0.6
176
     1
 41
-30.0
176
     1
 62
     5
 63
     7
421
 16777215
176
     1
 74
     2
176
     1
 91
        2
176
     1
 64
     7
176
     1
 65
   257
176
     1
 75
     2
176
     1
175
     1
176
     1
 42
40.0
176
     1
 92
        0
176
     1
 66
   257
176
     1
 43
1.0
176
     1
 76
     1
176
     1
 77
     6
176
     1
 78
     2
176
     1
 67
     7
176
     1
 79
     3
176
     1
170
     0
176
     1
171
     0
176
     1
290
     0
176
     1
 93
        1
176
     1
 44
0.0
176
     1
173
     0
176
     1
  0
VISUALSTYLE
  5
30
102
{ACAD_REACTORS
330
2A
102
}
330
2A
100
AcDbVisualStyle
  2
3dWireframe
 70
     5
177
     2
291
     0
 71
     0
176
     1
 72
     2
176
     1
 73
     0
176
     1
 90
        0
176
     1
 40
-0.6
176
     1
 41
-30.0
176
     1
 62
     5
 63
     7
421
 16777215
176
     1
 74
     1
176
     1
 91
        4
176
     1
 64
     7
176
     1
 65
   257
176
     1
 75
     1
176
     1
175
     1
176
     1
 42
1.0
176
     1
 92
        0
176
     1
 66
   257
176
     1
 43
1.0
176
     1
 76
     1
176
     1
 77
     6
176
     1
 78
     2
176
     1
 67
     7
176
     1
 79
     5
176
     1
170
     0
176
     1
171
     0
176
     1
290
     0
176
     1
 93
        1
176
     1
 44
0.0
176
     1
173
     0
176
     1
  0
VISUALSTYLE
  5
32
102
{ACAD_REACTORS
330
2A
102
}
330
2A
100
AcDbVisualStyle
  2
Basic
 70
     7
177
     2
291
     1
 71
     1
176
     1
 72
     0
176
     1
 73
     1
176
     1
 90
        0
176
     1
 40
-0.6
176
     1
 41
-30.0
176
     1
 62
     5
 63
     7
421
 16777215
176
     1
 74
     0
176
     1
 91
        4
176
     1
 64
     7
176
     1
 65
   257
176
     1
 75
     1
176
     1
175
     1
176
     1
 42
1.0
176
     1
 92
        8
176
     1
 66
     7
176
     1
 43
1.0
176
     1
 76
     1
176
     1
 77
     6
176
     1
 78
     2
176
     1
 67
     7
176
     1
 79
     5
176
     1
170
     0
176
     1
171
     0
176
     1
290
     0
176
     1
 93
        1
176
     1
 44
0.0
176
     1
173
     0
176
     1
  0
VISUALSTYLE
  5
36
102
{ACAD_REACTORS
330
2A
102
}
330
2A
100
AcDbVisualStyle
  2
Brighten
 70
    12
177
     2
291
     1
 71
     2
176
     1
 72
     2
176
     1
 73
     0
176
     1
 90
        0
176
     1
 40
-0.6
176
     1
 41
-30.0
176
     1
 62
     5
 63
     7
421
 16777215
176
     1
 74
     1
176
     1
 91
        4
176
     1
 64
     7
176
     1
 65
   257
176
     1
 75
     1
176
     1
175
     1
176
     1
 42
1.0
176
     1
 92
        8
176
     1
 66
     7
176
     1
 43
1.0
176
     1
 76
     1
176
     1
 77
     6
176
     1
 78
     2
176
     1
 67
     7
176
     1
 79
     5
176
     1
170
     0
176
     1
171
     0
176
     1
290
     0
176
     1
 93
        1
176
     1
 44
50.0
176
     1
173
     0
176
     1
  0
VISUALSTYLE
  5
3A
102
{ACAD_REACTORS
330
2A
102
}
330
2A
100
AcDbVisualStyle
  2
ColorChange
 70
    16
177
     2
291
     1
 71
     2
176
     1
 72
     2
176
     1
 73
     3
176
     1
 90
        0
176
     1
 40
-0.6
176
     1
 41
-30.0
176
     1
 62
     5
 63
     8
421
  8421504
176
     1
 74
     1
176
     1
 91
        4
176
     1
 64
     7
176
     1
 65
   257
176
     1
 75
     1
176
     1
175
     1
176
     1
 42
1.0
176
     1
 92
        8
176
     1
 66
     8
424
  8421504
176
     1
 43
1.0
176
     1
 76
     1
176
     1
 77
     6
176
     1
 78
     2
176
     1
 67
     7
176
     1
 79
     5
176
     1
170
     0
176
     1
171
     0
176
     1
290
     0
176
     1
 93
        1
176
     1
 44
0.0
176
     1
173
     0
176
     1
  0
VISUALSTYLE
  5
34
102
{ACAD_REACTORS
330
2A
102
}
330
2A
100
AcDbVisualStyle
  2
Conceptual
 70
     9
177
     2
291
     0
 71
     3
176
     1
 72
     2
176
     1
 73
     0
176
     1
 90
        0
176
     1
 40
-0.6
176
     1
 41
-30.0
176
     1
 62
     5
 63
     7
421
 16777215
176
     1
 74
     2
176
     1
 91
        2
176
     1
 64
     7
176
     1
 65
   257
176
     1
 75
     1
176
     1
175
     1
176
     1
 42
40.0
176
     1
 92
        8
176
     1
 66
     7
176
     1
 43
1.0
176
     1
 76
     1
176
     1
 77
     6
176
     1
 78
     2
176
     1
 67
     7
176
     1
 79
     3
176
     1
170
     0
176
     1
171
     0
176
     1
290
     0
176
     1
 93
        1
176
     1
 44
0.0
176
     1
173
     0
176
     1
  0
VISUALSTYLE
  5
35
102
{ACAD_REACTORS
330
2A
102
}
330
2A
100
AcDbVisualStyle
  2
Dim
 70
    11
177
     2
291
     1
 71
     2
176
     1
 72
     2
176
     1
 73
     0
176
     1
 90
        0
176
     1
 40
-0.6
176
     1
 41
-30.0
176
     1
 62
     5
 63
     7
421
 16777215
176
     1
 74
     1
176
     1
 91
        4
176
     1
 64
     7
176
     1
 65
   257
176
     1
 75
     1
176
     1
175
     1
176
     1
 42
1.0
176
     1
 92
        8
176
     1
 66
     7
176
     1
 43
1.0
176
     1
 76
     1
176
     1
 77
     6
176
     1
 78
     2
176
     1
 67
     7
176
     1
 79
     5
176
     1
170
     0
176
     1
171
     0
176
     1
290
     0
176
     1
 93
        1
176
     1
 44
-50.0
176
     1
173
     0
176
     1
  0
VISUALSTYLE
  5
39
102
{ACAD_REACTORS
330
2A
102
}
330
2A
100
AcDbVisualStyle
  2
Facepattern
 70
    15
177
     2
291
     1
 71
     2
176
     1
 72
     2
176
     1
 73
     0
176
     1
 90
        0
176
     1
 40
-0.6
176
     1
 41
-30.0
176
     1
 62
     5
 63
     7
421
 16777215
176
     1
 74
     1
176
     1
 91
        4
176
     1
 64
     7
176
     1
 65
   257
176
     1
 75
     1
176
     1
175
     1
176
     1
 42
1.0
176
     1
 92
        8
176
     1
 66
     7
176
     1
 43
1.0
176
     1
 76
     1
176
     1
 77
     6
176
     1
 78
     2
176
     1
 67
     7
176
     1
 79
     5
176
     1
170
     0
176
     1
171
     0
176
     1
290
     0
176
     1
 93
        1
176
     1
 44
0.0
176
     1
173
     0
176
     1
  0
VISUALSTYLE
  5
2B
102
{ACAD_REACTORS
330
2A
102
}
330
2A
100
AcDbVisualStyle
  2
Flat
 70
     0
177
     2
291
     1
 71
     2
176
     1
 72
     1
176
     1
 73
     1
176
     1
 90
        2
176
     1
 40
-0.6
176
     1
 41
30.0
176
     1
 62
     5
 63
     7
421
 16777215
176
     1
 74
     0
176
     1
 91
        4
176
     1
 64
     7
176
     1
 65
   257
176
     1
 75
     1
176
     1
175
     1
176
     1
 42
1.0
176
     1
 92
        8
176
     1
 66
     7
176
     1
 43
1.0
176
     1
 76
     1
176
     1
 77
     6
176
     1
 78
     2
176
     1
 67
     7
176
     1
 79
     5
176
     1
170
     0
176
     1
171
     0
176
     1
290
     0
176
     1
 93
       13
176
     1
 44
0.0
176
     1
173
     0
176
     1
  0
VISUALSTYLE
  5
2C
102
{ACAD_REACTORS
330
2A
102
}
330
2A
100
AcDbVisualStyle
  2
FlatWithEdges
 70
     1
177
     2
291
     1
 71
     2
176
     1
 72
     1
176
     1
 73
     1
176
     1
 90
        2
176
     1
 40
-0.6
176
     1
 41
30.0
176
     1
 62
     5
 63
     7
421
 16777215
176
     1
 74
     1
176
     1
 91
        4
176
     1
 64
     7
176
     1
 65
   257
176
     1
 75
     1
176
     1
175
     1
176
     1
 42
1.0
176
     1
 92
        0
176
     1
 66
   257
176
     1
 43
1.0
176
     1
 76
     1
176
     1
 77
     6
176
     1
 78
     2
176
     1
 67
     7
176
     1
 79
     5
176
     1
170
     0
176
     1
171
     0
176
     1
290
     0
176
     1
 93
       13
176
     1
 44
0.0
176
     1
173
     0
176
     1
  0
VISUALSTYLE
  5
2D
102
{ACAD_REACTORS
330
2A
102
}
330
2A
100
AcDbVisualStyle
  2
Gouraud
 70
     2
177
     2
291
     1
 71
     2
176
     1
 72
     2
176
     1
 73
     1
176
     1
 90
        2
176
     1
 40
-0.6
176
     1
 41
30.0
176
     1
 62
     5
 63
     7
421
 16777215
176
     1
 74
     0
176
     1
 91
        4
176
     1
 64
     7
176
     1
 65
   257
176
     1
 75
     1
176
     1
175
     1
176
     1
 42
1.0
176
     1
 92
        0
176
     1
 66
     7
176
     1
 43
1.0
176
     1
 76
     1
176
     1
 77
     6
176
     1
 78
     2
176
     1
 67
     7
176
     1
 79
     5
176
     1
170
     0
176
     1
171
     0
176
     1
290
     0
176
     1
 93
       13
176
     1
 44
0.0
176
     1
173
     0
176
     1
  0
VISUALSTYLE
  5
2E
102
{ACAD_REACTORS
330
2A
102
}
330
2A
100
AcDbVisualStyle
  2
GouraudWithEdges
 70
     3
177
     2
291
     1
 71
     2
176
     1
 72
     2
176
     1
 73
     1
176
     1
 90
        2
176
     1
 40
-0.6
176
     1
 41
30.0
176
     1
 62
     5
 63
     7
421
 16777215
176
     1
 74
     1
176
     1
 91
        4
176
     1
 64
     7
176
     1
 65
   257
176
     1
 75
     1
176
     1
175
     1
176
     1
 42
1.0
176
     1
 92
        0
176
     1
 66
   257
176
     1
 43
1.0
176
     1
 76
     1
176
     1
 77
     6
176
     1
 78
     2
176
     1
 67
     7
176
     1
 79
     5
176
     1
170
     0
176
     1
171
     0
176
     1
290
     0
176
     1
 93
       13
176
     1
 44
0.0
176
     1
173
     0
176
     1
  0
VISUALSTYLE
  5
38
102
{ACAD_REACTORS
330
2A
102
}
330
2A
100
AcDbVisualStyle
  2
Linepattern
 70
    14
177
     2
291
     1
 71
     2
176
     1
 72
     2
176
     1
 73
     0
176
     1
 90
        0
176
     1
 40
-0.6
176
     1
 41
-30.0
176
     1
 62
     5
 63
     7
421
 16777215
176
     1
 74
     1
176
     1
 91
        4
176
     1
 64
     7
176
     1
 65
   257
176
     1
 75
     7
176
     1
175
     7
176
     1
 42
1.0
176
     1
 92
        8
176
     1
 66
     7
176
     1
 43
1.0
176
     1
 76
     1
176
     1
 77
     6
176
     1
 78
     2
176
     1
 67
     7
176
     1
 79
     5
176
     1
170
     0
176
     1
171
     0
176
     1
290
     0
176
     1
 93
        1
176
     1
 44
0.0
176
     1
173
     0
176
     1
  0
VISUALSTYLE
  5
33
102
{ACAD_REACTORS
330
2A
102
}
330
2A
100
AcDbVisualStyle
  2
Realistic
 70
     8
177
     2
291
     0
 71
     2
176
     1
 72
     2
176
     1
 73
     0
176
     1
 90
        0
176
     1
 40
-0.6
176
     1
 41
-30.0
176
     1
 62
     5
 63
     7
421
 16777215
176
     1
 74
     1
176
     1
 91
        0
176
     1
 64
     7
176
     1
 65
   257
176
     1
 75
     1
176
     1
175
     1
176
     1
 42
1.0
176
     1
 92
        8
176
     1
 66
     8
424
  7895160
176
     1
 43
1.0
176
     1
 76
     1
176
     1
 77
     6
176
     1
 78
     2
176
     1
 67
     7
176
     1
 79
     5
176
     1
170
     0
176
     1
171
     0
176
     1
290
     0
176
     1
 93
       13
176
     1
 44
0.0
176
     1
173
     0
176
     1
  0
VISUALSTYLE
  5
37
102
{ACAD_REACTORS
330
2A
102
}
330
2A
100
AcDbVisualStyle
  2
Thicken
 70
    13
177
     2
291
     1
 71
     2
176
     1
 72
     2
176
     1
 73
     0
176
     1
 90
        0
176
     1
 40
-0.6
176
     1
 41
-30.0
176
     1
 62
     5
 63
     7
421
 16777215
176
     1
 74
     1
176
     1
 91
        4
176
     1
 64
     7
176
     1
 65
   257
176
     1
 75
     1
176
     1
175
     1
176
     1
 42
1.0
176
     1
 92
       12
176
     1
 66
     7
176
     1
 43
1.0
176
     1
 76
     1
176
     1
 77
     6
176
     1
 78
     2
176
     1
 67
     7
176
     1
 79
     5
176
     1
170
     0
176
     1
171
     0
176
     1
290
     0
176
     1
 93
        1
176
     1
 44
0.0
176
     1
173
     0
176
     1
  0
ENDSEC
  0
EOF
