  0
SECTION
  2
HEADER
  9
$ACADVER
  1
AC1024
  9
$ACADMAINTVER
 70
   226
  9
$DWGCODEPAGE
  3
ANSI_932
  9
$INSBASE
 10
0.0
 20
0.0
 30
0.0
  9
$EXTMIN
 10
1.000000000000000E+20
 20
1.000000000000000E+20
 30
1.000000000000000E+20
  9
$EXTMAX
 10
-1.000000000000000E+20
 20
-1.000000000000000E+20
 30
-1.000000000000000E+20
  9
$LIMMIN
 10
0.0
 20
0.0
  9
$LIMMAX
 10
12.0
 20
9.0
  9
$ORTHOMODE
 70
     0
  9
$REGENMODE
 70
     1
  9
$FILLMODE
 70
     1
  9
$QTEXTMODE
 70
     0
  9
$MIRRTEXT
 70
     0
  9
$LTSCALE
 40
1.0
  9
$ATTMODE
 70
     1
  9
$TEXTSIZE
 40
0.2
  9
$TRACEWID
 40
0.05
  9
$TEXTSTYLE
  7
Standard
  9
$CLAYER
  8
0
  9
$CELTYPE
  6
ByLayer
  9
$CECOLOR
 62
   256
  9
$CELTSCALE
 40
1.0
  9
$DISPSILH
 70
     0
  9
$DIMSCALE
 40
1.0
  9
$DIMASZ
 40
0.18
  9
$DIMEXO
 40
0.0625
  9
$DIMDLI
 40
0.38
  9
$DIMRND
 40
0.0
  9
$DIMDLE
 40
0.0
  9
$DIMEXE
 40
0.18
  9
$DIMTP
 40
0.0
  9
$DIMTM
 40
0.0
  9
$DIMTXT
 40
0.18
  9
$DIMCEN
 40
0.09
  9
$DIMTSZ
 40
0.0
  9
$DIMTOL
 70
     0
  9
$DIMLIM
 70
     0
  9
$DIMTIH
 70
     1
  9
$DIMTOH
 70
     1
  9
$DIMSE1
 70
     0
  9
$DIMSE2
 70
     0
  9
$DIMTAD
 70
     0
  9
$DIMZIN
 70
     0
  9
$DIMBLK
  1

  9
$DIMASO
 70
     1
  9
$DIMSHO
 70
     1
  9
$DIMPOST
  1

  9
$DIMAPOST
  1

  9
$DIMALT
 70
     0
  9
$DIMALTD
 70
     2
  9
$DIMALTF
 40
25.4
  9
$DIMLFAC
 40
1.0
  9
$DIMTOFL
 70
     0
  9
$DIMTVP
 40
0.0
  9
$DIMTIX
 70
     0
  9
$DIMSOXD
 70
     0
  9
$DIMSAH
 70
     0
  9
$DIMBLK1
  1

  9
$DIMBLK2
  1

  9
$DIMSTYLE
  2
Standard
  9
$DIMCLRD
 70
     0
  9
$DIMCLRE
 70
     0
  9
$DIMCLRT
 70
     0
  9
$DIMTFAC
 40
1.0
  9
$DIMGAP
 40
0.09
  9
$DIMJUST
 70
     0
  9
$DIMSD1
 70
     0
  9
$DIMSD2
 70
     0
  9
$DIMTOLJ
 70
     1
  9
$DIMTZIN
 70
     0
  9
$DIMALTZ
 70
     0
  9
$DIMALTTZ
 70
     0
  9
$DIMUPT
 70
     0
  9
$DIMDEC
 70
     4
  9
$DIMTDEC
 70
     4
  9
$DIMALTU
 70
     2
  9
$DIMALTTD
 70
     2
  9
$DIMTXSTY
  7
Standard
  9
$DIMAUNIT
 70
     0
  9
$DIMADEC
 70
     0
  9
$DIMALTRND
 40
0.0
  9
$DIMAZIN
 70
     0
  9
$DIMDSEP
 70
    46
  9
$DIMATFIT
 70
     3
  9
$DIMFRAC
 70
     0
  9
$DIMLDRBLK
  1

  9
$DIMLUNIT
 70
     2
  9
$DIMLWD
 70
    -2
  9
$DIMLWE
 70
    -2
  9
$DIMTMOVE
 70
     0
  9
$DIMFXL
 40
1.0
  9
$DIMFXLON
 70
     0
  9
$DIMJOGANG
 40
0.7853981633974483
  9
$DIMTFILL
 70
     0
  9
$DIMTFILLCLR
 70
     0
  9
$DIMARCSYM
 70
     0
  9
$DIMLTYPE
  6

  9
$DIMLTEX1
  6

  9
$DIMLTEX2
  6

  9
$DIMTXTDIRECTION
 70
     0
  9
$LUNITS
 70
     2
  9
$LUPREC
 70
     4
  9
$SKETCHINC
 40
0.1
  9
$FILLETRAD
 40
0.0
  9
$AUNITS
 70
     0
  9
$AUPREC
 70
     0
  9
$MENU
  1
.
  9
$ELEVATION
 40
0.0
  9
$PELEVATION
 40
0.0
  9
$THICKNESS
 40
0.0
  9
$LIMCHECK
 70
     0
  9
$CHAMFERA
 40
0.0
  9
$CHAMFERB
 40
0.0
  9
$CHAMFERC
 40
0.0
  9
$CHAMFERD
 40
0.0
  9
$SKPOLY
 70
     0
  9
$TDCREATE
 40
2459569.488912037
  9
$TDUCREATE
 40
2459569.113912037
  9
$TDUPDATE
 40
2459569.488912037
  9
$TDUUPDATE
 40
2459569.113912037
  9
$TDINDWG
 40
0.0000000000
  9
$TDUSRTIMER
 40
0.0000000000
  9
$USRTIMER
 70
     1
  9
$ANGBASE
 50
0.0
  9
$ANGDIR
 70
     0
  9
$PDMODE
 70
     0
  9
$PDSIZE
 40
0.0
  9
$PLINEWID
 40
0.0
  9
$SPLFRAME
 70
     0
  9
$SPLINETYPE
 70
     6
  9
$SPLINESEGS
 70
     8
  9
$HANDSEED
  5
136
  9
$SURFTAB1
 70
     6
  9
$SURFTAB2
 70
     6
  9
$SURFTYPE
 70
     6
  9
$SURFU
 70
     6
  9
$SURFV
 70
     6
  9
$UCSBASE
  2

  9
$UCSNAME
  2

  9
$UCSORG
 10
0.0
 20
0.0
 30
0.0
  9
$UCSXDIR
 10
1.0
 20
0.0
 30
0.0
  9
$UCSYDIR
 10
0.0
 20
1.0
 30
0.0
  9
$UCSORTHOREF
  2

  9
$UCSORTHOVIEW
 70
     0
  9
$UCSORGTOP
 10
0.0
 20
0.0
 30
0.0
  9
$UCSORGBOTTOM
 10
0.0
 20
0.0
 30
0.0
  9
$UCSORGLEFT
 10
0.0
 20
0.0
 30
0.0
  9
$UCSORGRIGHT
 10
0.0
 20
0.0
 30
0.0
  9
$UCSORGFRONT
 10
0.0
 20
0.0
 30
0.0
  9
$UCSORGBACK
 10
0.0
 20
0.0
 30
0.0
  9
$PUCSBASE
  2

  9
$PUCSNAME
  2

  9
$PUCSORG
 10
0.0
 20
0.0
 30
0.0
  9
$PUCSXDIR
 10
1.0
 20
0.0
 30
0.0
  9
$PUCSYDIR
 10
0.0
 20
1.0
 30
0.0
  9
$PUCSORTHOREF
  2

  9
$PUCSORTHOVIEW
 70
     0
  9
$PUCSORGTOP
 10
0.0
 20
0.0
 30
0.0
  9
$PUCSORGBOTTOM
 10
0.0
 20
0.0
 30
0.0
  9
$PUCSORGLEFT
 10
0.0
 20
0.0
 30
0.0
  9
$PUCSORGRIGHT
 10
0.0
 20
0.0
 30
0.0
  9
$PUCSORGFRONT
 10
0.0
 20
0.0
 30
0.0
  9
$PUCSORGBACK
 10
0.0
 20
0.0
 30
0.0
  9
$USERI1
 70
     0
  9
$USERI2
 70
     0
  9
$USERI3
 70
     0
  9
$USERI4
 70
     0
  9
$USERI5
 70
     0
  9
$USERR1
 40
0.0
  9
$USERR2
 40
0.0
  9
$USERR3
 40
0.0
  9
$USERR4
 40
0.0
  9
$USERR5
 40
0.0
  9
$WORLDVIEW
 70
     1
  9
$SHADEDGE
 70
     3
  9
$SHADEDIF
 70
    70
  9
$TILEMODE
 70
     1
  9
$MAXACTVP
 70
    64
  9
$PINSBASE
 10
0.0
 20
0.0
 30
0.0
  9
$PLIMCHECK
 70
     0
  9
$PEXTMIN
 10
1.000000000000000E+20
 20
1.000000000000000E+20
 30
1.000000000000000E+20
  9
$PEXTMAX
 10
-1.000000000000000E+20
 20
-1.000000000000000E+20
 30
-1.000000000000000E+20
  9
$PLIMMIN
 10
0.0
 20
0.0
  9
$PLIMMAX
 10
12.0
 20
9.0
  9
$UNITMODE
 70
     0
  9
$VISRETAIN
 70
     1
  9
$PLINEGEN
 70
     0
  9
$PSLTSCALE
 70
     1
  9
$TREEDEPTH
 70
  3020
  9
$CMLSTYLE
  2
Standard
  9
$CMLJUST
 70
     0
  9
$CMLSCALE
 40
1.0
  9
$PROXYGRAPHICS
 70
     1
  9
$MEASUREMENT
 70
     0
  9
$CELWEIGHT
370
    -1
  9
$ENDCAPS
280
     0
  9
$JOINSTYLE
280
     0
  9
$LWDISPLAY
290
     1
  9
$INSUNITS
 70
     4
  9
$HYPERLINKBASE
  1

  9
$STYLESHEET
  1

  9
$XEDIT
290
     1
  9
$CEPSNTYPE
380
     0
  9
$PSTYLEMODE
290
     1
  9
$FINGERPRINTGUID
  2
{5074E0DA-607C-834A-8496-E3D07C4F629D}
  9
$VERSIONGUID
  2
{AF1B80E0-4985-7F40-B9E8-57BD0C34910A}
  9
$EXTNAMES
290
     1
  9
$PSVPSCALE
 40
0.0
  9
$OLESTARTUP
290
     0
  9
$SORTENTS
280
   127
  9
$INDEXCTL
280
     0
  9
$HIDETEXT
280
     1
  9
$XCLIPFRAME
280
     2
  9
$HALOGAP
280
     0
  9
$OBSCOLOR
 70
   257
  9
$OBSLTYPE
280
     0
  9
$INTERSECTIONDISPLAY
280
     0
  9
$INTERSECTIONCOLOR
 70
   257
  9
$DIMASSOC
280
     2
  9
$PROJECTNAME
  1

  9
$CAMERADISPLAY
290
     0
  9
$LENSLENGTH
 40
50.0
  9
$CAMERAHEIGHT
 40
0.0
  9
$STEPSPERSEC
 40
2.0
  9
$STEPSIZE
 40
6.0
  9
$3DDWFPREC
 40
2.0
  9
$PSOLWIDTH
 40
0.25
  9
$PSOLHEIGHT
 40
4.0
  9
$LOFTANG1
 40
1.570796326794896
  9
$LOFTANG2
 40
1.570796326794896
  9
$LOFTMAG1
 40
0.0
  9
$LOFTMAG2
 40
0.0
  9
$LOFTPARAM
 70
     7
  9
$LOFTNORMALS
280
     1
  9
$LATITUDE
 40
37.795
  9
$LONGITUDE
 40
-122.394
  9
$NORTHDIRECTION
 40
0.0
  9
$TIMEZONE
 70
 -8000
  9
$LIGHTGLYPHDISPLAY
280
     1
  9
$TILEMODELIGHTSYNCH
280
     1
  9
$CMATERIAL
347
11
  9
$SOLIDHIST
280
     0
  9
$SHOWHIST
280
     1
  9
$DWFFRAME
280
     2
  9
$DGNFRAME
280
     0
  9
$REALWORLDSCALE
290
     1
  9
$INTERFERECOLOR
 62
     1
  9
$INTERFEREOBJVS
345
33
  9
$INTERFEREVPVS
346
30
  9
$CSHADOW
280
     0
  9
$SHADOWPLANELOCATION
 40
0.0
  0
ENDSEC
  0
SECTION
  2
CLASSES
  0
CLASS
  1
ACDBDICTIONARYWDFLT
  2
AcDbDictionaryWithDefault
  3
ObjectDBX Classes
 90
        0
 91
        1
280
     0
281
     0
  0
CLASS
  1
MATERIAL
  2
AcDbMaterial
  3
ObjectDBX Classes
 90
     1153
 91
        3
280
     0
281
     0
  0
CLASS
  1
VISUALSTYLE
  2
AcDbVisualStyle
  3
ObjectDBX Classes
 90
     4095
 91
       24
280
     0
281
     0
  0
CLASS
  1
SCALE
  2
AcDbScale
  3
ObjectDBX Classes
 90
     1153
 91
       17
280
     0
281
     0
  0
CLASS
  1
TABLESTYLE
  2
AcDbTableStyle
  3
ObjectDBX Classes
 90
     4095
 91
        1
280
     0
281
     0
  0
CLASS
  1
MLEADERSTYLE
  2
AcDbMLeaderStyle
  3
ACDB_MLEADERSTYLE_CLASS
 90
     4095
 91
        1
280
     0
281
     0
  0
CLASS
  1
ACDBSECTIONVIEWSTYLE
  2
AcDbSectionViewStyle
  3
ObjectDBX Classes
 90
     1025
 91
        1
280
     0
281
     0
  0
CLASS
  1
ACDBDETAILVIEWSTYLE
  2
AcDbDetailViewStyle
  3
ObjectDBX Classes
 90
     1025
 91
        1
280
     0
281
     0
  0
CLASS
  1
DICTIONARYVAR
  2
AcDbDictionaryVar
  3
ObjectDBX Classes
 90
        0
 91
        5
280
     0
281
     0
  0
CLASS
  1
CELLSTYLEMAP
  2
AcDbCellStyleMap
  3
ObjectDBX Classes
 90
     1152
 91
        1
280
     0
281
     0
  0
ENDSEC
  0
SECTION
  2
TABLES
  0
TABLE
  2
VPORT
  5
8
330
0
100
AcDbSymbolTable
 70
     1
  0
VPORT
  5
57
330
8
100
AcDbSymbolTableRecord
100
AcDbViewportTableRecord
  2
*Active
 70
     0
 10
0.0
 20
0.0
 11
1.0
 21
1.0
 12
0.0
 22
0.0
 13
0.0
 23
0.0
 14
1.0
 24
1.0
 15
0.0
 25
0.0
 16
0.0
 26
0.0
 36
1.0
 17
104.9999999737534
 27
-148.4999999628701
 37
0.0
 40
302.939999924255
 41
0.7070707070707534
 42
50.0
 43
0.0
 44
0.0
 50
0.0
 51
0.0
 71
     0
 72
   100
 73
     1
 74
     0
 75
     1
 76
     0
 77
     0
 78
     0
281
     0
 65
     1
110
0.0
120
0.0
130
0.0
111
1.0
121
0.0
131
0.0
112
0.0
122
1.0
132
0.0
 79
     0
146
0.0
 60
     3
 61
     5
292
     1
282
     1
141
0.0
142
0.0
 63
   250
421
  3355443
  0
ENDTAB
  0
TABLE
  2
LTYPE
  5
5
330
0
100
AcDbSymbolTable
 70
     2
  0
LTYPE
  5
5B
330
5
100
AcDbSymbolTableRecord
100
AcDbLinetypeTableRecord
  2
ByBlock
 70
     0
  3

 72
    65
 73
     0
 40
0.0
  0
LTYPE
  5
5C
330
5
100
AcDbSymbolTableRecord
100
AcDbLinetypeTableRecord
  2
ByLayer
 70
     0
  3

 72
    65
 73
     0
 40
0.0
  0
LTYPE
  5
5D
330
5
100
AcDbSymbolTableRecord
100
AcDbLinetypeTableRecord
  2
Continuous
 70
     0
  3
Solid line
 72
    65
 73
     0
 40
0.0
  0
LTYPE
  5
D6
330
5
100
AcDbSymbolTableRecord
100
AcDbLinetypeTableRecord
  2
AI-Linetype-0
 70
     0
  3
Adobe Illustrator Linetype No. 0
 72
    65
 73
     2
 40
1.411111110758333
 49
0.7055555553791667
 74
     0
 49
-0.7055555553791667
 74
     0
  0
ENDTAB
  0
TABLE
  2
LAYER
  5
2
330
0
100
AcDbSymbolTable
 70
     2
  0
LAYER
  5
54
330
2
100
AcDbSymbolTableRecord
100
AcDbLayerTableRecord
  2
0
 70
     0
 62
     7
  6
Continuous
370
    -3
390
F
347
21
  0
LAYER
  5
78
330
2
100
AcDbSymbolTableRecord
100
AcDbLayerTableRecord
  2
レイヤー 1
 70
     0
 62
     7
  6
Continuous
370
     0
390
F
347
21
  0
ENDTAB
  0
TABLE
  2
STYLE
  5
3
330
0
100
AcDbSymbolTable
 70
     2
  0
STYLE
  5
55
330
3
100
AcDbSymbolTableRecord
100
AcDbTextStyleTableRecord
  2
Standard
 70
     0
 40
0.0
 41
1.0
 50
0.0
 71
     0
 42
0.2
  3
txt
  4

  0
STYLE
  5
5A
330
3
100
AcDbSymbolTableRecord
100
AcDbTextStyleTableRecord
  2
Annotative
 70
     0
 40
0.0
 41
1.0
 50
0.0
 71
     0
 42
0.2
  3
txt
  4

1001
AcadAnnotative
1000
AnnotativeData
1002
{
1070
     1
1070
     1
1002
}
  0
ENDTAB
  0
TABLE
  2
VIEW
  5
6
330
0
100
AcDbSymbolTable
 70
     0
  0
ENDTAB
  0
TABLE
  2
UCS
  5
7
330
0
100
AcDbSymbolTable
 70
     0
  0
ENDTAB
  0
TABLE
  2
APPID
  5
9
330
0
100
AcDbSymbolTable
 70
     2
  0
APPID
  5
56
330
9
100
AcDbSymbolTableRecord
100
AcDbRegAppTableRecord
  2
ACAD
 70
     0
  0
APPID
  5
5E
330
9
100
AcDbSymbolTableRecord
100
AcDbRegAppTableRecord
  2
AcadAnnotative
 70
     0
  0
ENDTAB
  0
TABLE
  2
DIMSTYLE
  5
A
330
0
100
AcDbSymbolTable
 70
     2
100
AcDbDimStyleTable
 71
     0
  0
DIMSTYLE
105
58
330
A
100
AcDbSymbolTableRecord
100
AcDbDimStyleTableRecord
  2
Standard
 70
     0
340
55
  0
DIMSTYLE
105
59
330
A
100
AcDbSymbolTableRecord
100
AcDbDimStyleTableRecord
  2
Annotative
 70
     0
340
55
1001
AcadAnnotative
1000
AnnotativeData
1002
{
1070
     1
1070
     1
1002
}
  0
ENDTAB
  0
TABLE
  2
BLOCK_RECORD
  5
1
330
0
100
AcDbSymbolTable
 70
    13
  0
BLOCK_RECORD
  5
70
330
1
100
AcDbSymbolTableRecord
100
AcDbBlockTableRecord
  2
*Model_Space
340
73
 70
     0
280
     1
281
     0
  0
BLOCK_RECORD
  5
6C
330
1
100
AcDbSymbolTableRecord
100
AcDbBlockTableRecord
  2
*Paper_Space
340
6F
 70
     0
280
     1
281
     0
  0
BLOCK_RECORD
  5
74
330
1
100
AcDbSymbolTableRecord
100
AcDbBlockTableRecord
  2
*Paper_Space0
340
77
 70
     0
280
     1
281
     0
  0
BLOCK_RECORD
  5
79
330
1
100
AcDbSymbolTableRecord
100
AcDbBlockTableRecord
  2
Block_0
340
0
102
{BLKREFS
331
7A
102
}
 70
     0
280
     1
281
     0
  0
BLOCK_RECORD
  5
93
330
1
100
AcDbSymbolTableRecord
100
AcDbBlockTableRecord
  2
Block_1
340
0
102
{BLKREFS
331
94
102
}
 70
     0
280
     1
281
     0
  0
BLOCK_RECORD
  5
9C
330
1
100
AcDbSymbolTableRecord
100
AcDbBlockTableRecord
  2
Block_2
340
0
102
{BLKREFS
331
9D
102
}
 70
     0
280
     1
281
     0
  0
BLOCK_RECORD
  5
A0
330
1
100
AcDbSymbolTableRecord
100
AcDbBlockTableRecord
  2
Block_3
340
0
102
{BLKREFS
331
A1
102
}
 70
     0
280
     1
281
     0
  0
BLOCK_RECORD
  5
AB
330
1
100
AcDbSymbolTableRecord
100
AcDbBlockTableRecord
  2
Block_4
340
0
102
{BLKREFS
331
AC
102
}
 70
     0
280
     1
281
     0
  0
BLOCK_RECORD
  5
AF
330
1
100
AcDbSymbolTableRecord
100
AcDbBlockTableRecord
  2
Block_5
340
0
102
{BLKREFS
331
B0
102
}
 70
     0
280
     1
281
     0
  0
BLOCK_RECORD
  5
BC
330
1
100
AcDbSymbolTableRecord
100
AcDbBlockTableRecord
  2
Block_6
340
0
102
{BLKREFS
331
BD
102
}
 70
     0
280
     1
281
     0
  0
BLOCK_RECORD
  5
C3
330
1
100
AcDbSymbolTableRecord
100
AcDbBlockTableRecord
  2
Block_7
340
0
102
{BLKREFS
331
C4
102
}
 70
     0
280
     1
281
     0
  0
BLOCK_RECORD
  5
C7
330
1
100
AcDbSymbolTableRecord
100
AcDbBlockTableRecord
  2
Block_8
340
0
102
{BLKREFS
331
C8
102
}
 70
     0
280
     1
281
     0
  0
BLOCK_RECORD
  5
D7
330
1
100
AcDbSymbolTableRecord
100
AcDbBlockTableRecord
  2
Block_9
340
0
102
{BLKREFS
331
D8
102
}
 70
     0
280
     1
281
     0
  0
BLOCK_RECORD
  5
DD
330
1
100
AcDbSymbolTableRecord
100
AcDbBlockTableRecord
  2
Block_10
340
0
102
{BLKREFS
331
DE
102
}
 70
     0
280
     1
281
     0
  0
BLOCK_RECORD
  5
E1
330
1
100
AcDbSymbolTableRecord
100
AcDbBlockTableRecord
  2
Block_11
340
0
102
{BLKREFS
331
E2
102
}
 70
     0
280
     1
281
     0
  0
ENDTAB
  0
ENDSEC
  0
SECTION
  2
BLOCKS
  0
BLOCK
  5
71
330
70
100
AcDbEntity
  8
0
100
AcDbBlockBegin
  2
*Model_Space
 70
     0
 10
0.0
 20
0.0
 30
0.0
  3
*Model_Space
  1

  0
ENDBLK
  5
72
330
70
100
AcDbEntity
  8
0
100
AcDbBlockEnd
  0
BLOCK
  5
6D
330
6C
100
AcDbEntity
 67
     1
  8
0
100
AcDbBlockBegin
  2
*Paper_Space
 70
     0
 10
0.0
 20
0.0
 30
0.0
  3
*Paper_Space
  1

  0
ENDBLK
  5
6E
330
6C
100
AcDbEntity
 67
     1
  8
0
100
AcDbBlockEnd
  0
BLOCK
  5
75
330
74
100
AcDbEntity
 67
     1
  8
0
100
AcDbBlockBegin
  2
*Paper_Space0
 70
     0
 10
0.0
 20
0.0
 30
0.0
  3
*Paper_Space0
  1

  0
ENDBLK
  5
76
330
74
100
AcDbEntity
 67
     1
  8
0
100
AcDbBlockEnd
  0
BLOCK
  5
7B
330
79
100
AcDbEntity
  8
0
100
AcDbBlockBegin
  2
Block_0
 70
     0
 10
0.0
 20
0.0
 30
0.0
  3
Block_0
  1

  0
LINE
  5
7D
330
79
100
AcDbEntity
  8
レイヤー 1
 62
   250
420
  2299925
370
    25
100
AcDbLine
 10
117.3483120987533
 20
-135.8468604650079
 30
0.0
 11
117.3483120987533
 21
-138.8468473329163
 31
0.0
  0
LINE
  5
7E
330
79
100
AcDbEntity
  8
レイヤー 1
 62
   250
420
  2299925
370
    25
100
AcDbLine
 10
93.54819922706402
 20
-135.8468604650079
 30
0.0
 11
93.54819922706402
 21
-160.8469156605367
 31
0.0
  0
LINE
  5
7F
330
79
100
AcDbEntity
  8
レイヤー 1
 62
   250
420
  2299925
370
    25
100
AcDbLine
 10
93.54819922706402
 20
-135.8468604650079
 30
0.0
 11
117.3483120987533
 21
-135.8468604650079
 31
0.0
  0
LINE
  5
80
330
79
100
AcDbEntity
  8
レイヤー 1
 62
   250
420
  2299925
370
    25
100
AcDbLine
 10
93.54819922706402
 20
-160.8469156605367
 30
0.0
 11
94.54832422681368
 21
-160.8469156605367
 31
0.0
  0
LINE
  5
81
330
79
100
AcDbEntity
  8
レイヤー 1
 62
   250
420
  2299925
370
    25
100
AcDbLine
 10
94.54832422681368
 20
-136.8469854394926
 30
0.0
 11
94.54832422681368
 21
-160.8469156605367
 31
0.0
  0
LINE
  5
82
330
79
100
AcDbEntity
  8
レイヤー 1
 62
   250
420
  2299925
370
    25
100
AcDbLine
 10
94.54832422681368
 20
-136.8469854394926
 30
0.0
 11
116.3481871242686
 21
-136.8469854394926
 31
0.0
  0
LINE
  5
83
330
79
100
AcDbEntity
  8
レイヤー 1
 62
   250
420
  2299925
370
    25
100
AcDbLine
 10
107.3482265205434
 20
-138.8468473329163
 30
0.0
 11
117.3483120987533
 21
-138.8468473329163
 31
0.0
  0
LINE
  5
84
330
79
100
AcDbEntity
  8
レイヤー 1
 62
   250
420
  2299925
370
    25
100
AcDbLine
 10
116.3481871242686
 20
-136.8469854394926
 30
0.0
 11
116.3481871242686
 21
-137.8467576362085
 31
0.0
  0
LINE
  5
85
330
79
100
AcDbEntity
  8
レイヤー 1
 62
   250
420
  2299925
370
    25
100
AcDbLine
 10
107.3482265205434
 20
-137.8467576362085
 30
0.0
 11
116.3481871242686
 21
-137.8467576362085
 31
0.0
  0
LINE
  5
86
330
79
100
AcDbEntity
  8
レイヤー 1
 62
   250
420
  2299925
370
    25
100
AcDbLine
 10
107.3482265205434
 20
-137.8467576362085
 30
0.0
 11
107.3482265205434
 21
-138.8468473329163
 31
0.0
  0
SPLINE
  5
87
330
79
100
AcDbEntity
  8
レイヤー 1
 62
   250
420
  2299925
370
     9
100
AcDbSpline
210
0.0
220
0.0
230
1.0
 70
     9
 71
     3
 72
    17
 73
    13
 74
     0
 42
0.0000000001
 43
0.0000000001
 40
0.0
 40
0.0
 40
0.0
 40
0.0
 40
1.0
 40
1.0
 40
1.0
 40
2.0
 40
2.0
 40
2.0
 40
3.0
 40
3.0
 40
3.0
 40
4.0
 40
4.0
 40
4.0
 40
4.0
 10
89.64834280543842
 20
-135.8468604650079
 30
0.0
 10
89.64834280543842
 20
-135.7914037997561
 30
0.0
 10
89.60357530658054
 20
-135.7466363008982
 30
0.0
 10
89.54843614132057
 20
-135.7466363008982
 30
0.0
 10
89.49297947606874
 20
-135.7466363008982
 30
0.0
 10
89.44852947720276
 20
-135.7914037997561
 30
0.0
 10
89.44852947720276
 20
-135.8468604650079
 30
0.0
 10
89.44852947720276
 20
-135.9023524080366
 30
0.0
 10
89.49297947606874
 20
-135.9467671291258
 30
0.0
 10
89.54843614132057
 20
-135.9467671291258
 30
0.0
 10
89.60357530658054
 20
-135.9467671291258
 30
0.0
 10
89.64834280543842
 20
-135.9023524080366
 30
0.0
 10
89.64834280543842
 20
-135.8468604650079
 30
0.0
  0
SPLINE
  5
88
330
79
100
AcDbEntity
  8
レイヤー 1
 62
   250
420
  2299925
370
     9
100
AcDbSpline
210
0.0
220
0.0
230
1.0
 70
     9
 71
     3
 72
    17
 73
    13
 74
     0
 42
0.0000000001
 43
0.0000000001
 40
0.0
 40
0.0
 40
0.0
 40
0.0
 40
1.0
 40
1.0
 40
1.0
 40
2.0
 40
2.0
 40
2.0
 40
3.0
 40
3.0
 40
3.0
 40
4.0
 40
4.0
 40
4.0
 40
4.0
 10
89.64834280543842
 20
-160.8469156605367
 30
0.0
 10
89.64834280543842
 20
-160.7917764952768
 30
0.0
 10
89.60357530658054
 20
-160.746973718642
 30
0.0
 10
89.54843614132057
 20
-160.746973718642
 30
0.0
 10
89.49297947606874
 20
-160.746973718642
 30
0.0
 10
89.44852947720276
 20
-160.7917764952768
 30
0.0
 10
89.44852947720276
 20
-160.8469156605367
 30
0.0
 10
89.44852947720276
 20
-160.9020195480198
 30
0.0
 10
89.49297947606874
 20
-160.9468223246545
 30
0.0
 10
89.54843614132057
 20
-160.9468223246545
 30
0.0
 10
89.60357530658054
 20
-160.9468223246545
 30
0.0
 10
89.64834280543842
 20
-160.9020195480198
 30
0.0
 10
89.64834280543842
 20
-160.8469156605367
 30
0.0
  0
SPLINE
  5
89
330
79
100
AcDbEntity
  8
レイヤー 1
 62
   250
420
  2299925
370
     9
100
AcDbSpline
210
0.0
220
0.0
230
1.0
 70
     9
 71
     3
 72
    17
 73
    13
 74
     0
 42
0.0000000001
 43
0.0000000001
 40
0.0
 40
0.0
 40
0.0
 40
0.0
 40
1.0
 40
1.0
 40
1.0
 40
2.0
 40
2.0
 40
2.0
 40
3.0
 40
3.0
 40
3.0
 40
4.0
 40
4.0
 40
4.0
 40
4.0
 10
93.64810187006273
 20
-164.8469922251529
 30
0.0
 10
93.64810187006273
 20
-164.7915355599011
 30
0.0
 10
93.60333437120486
 20
-164.7467327832663
 30
0.0
 10
93.54819922706402
 20
-164.7467327832663
 30
0.0
 10
93.49309131846181
 20
-164.7467327832663
 30
0.0
 10
93.44828854182706
 20
-164.7915355599011
 30
0.0
 10
93.44828854182706
 20
-164.8469922251529
 30
0.0
 10
93.44828854182706
 20
-164.9021313904129
 30
0.0
 10
93.49309131846181
 20
-164.9468988892708
 30
0.0
 10
93.54819922706402
 20
-164.9468988892708
 30
0.0
 10
93.60333437120486
 20
-164.9468988892708
 30
0.0
 10
93.64810187006273
 20
-164.9021313904129
 30
0.0
 10
93.64810187006273
 20
-164.8469922251529
 30
0.0
  0
SPLINE
  5
8A
330
79
100
AcDbEntity
  8
レイヤー 1
 62
   250
420
  2299925
370
     9
100
AcDbSpline
210
0.0
220
0.0
230
1.0
 70
     9
 71
     3
 72
    17
 73
    13
 74
     0
 42
0.0000000001
 43
0.0000000001
 40
0.0
 40
0.0
 40
0.0
 40
0.0
 40
1.0
 40
1.0
 40
1.0
 40
2.0
 40
2.0
 40
2.0
 40
3.0
 40
3.0
 40
3.0
 40
4.0
 40
4.0
 40
4.0
 40
4.0
 10
94.64822684454743
 20
-164.8469922251529
 30
0.0
 10
94.64822684454743
 20
-164.7915355599011
 30
0.0
 10
94.60342406791266
 20
-164.7467327832663
 30
0.0
 10
94.54832422681368
 20
-164.7467327832663
 30
0.0
 10
94.49318101516963
 20
-164.7467327832663
 30
0.0
 10
94.44841351631174
 20
-164.7915355599011
 30
0.0
 10
94.44841351631174
 20
-164.8469922251529
 30
0.0
 10
94.44841351631174
 20
-164.9021313904129
 30
0.0
 10
94.49318101516963
 20
-164.9468988892708
 30
0.0
 10
94.54832422681368
 20
-164.9468988892708
 30
0.0
 10
94.60342406791266
 20
-164.9468988892708
 30
0.0
 10
94.64822684454743
 20
-164.9021313904129
 30
0.0
 10
94.64822684454743
 20
-164.8469922251529
 30
0.0
  0
SPLINE
  5
8B
330
79
100
AcDbEntity
  8
レイヤー 1
 62
   250
420
  2299925
370
     9
100
AcDbSpline
210
0.0
220
0.0
230
1.0
 70
     9
 71
     3
 72
    17
 73
    13
 74
     0
 42
0.0000000001
 43
0.0000000001
 40
0.0
 40
0.0
 40
0.0
 40
0.0
 40
1.0
 40
1.0
 40
1.0
 40
2.0
 40
2.0
 40
2.0
 40
3.0
 40
3.0
 40
3.0
 40
4.0
 40
4.0
 40
4.0
 40
4.0
 10
117.4482187628711
 20
-142.8466063975406
 30
0.0
 10
117.4482187628711
 20
-142.7915025100576
 30
0.0
 10
117.4034159862364
 20
-142.7466997334228
 30
0.0
 10
117.3483120987533
 20
-142.7466997334228
 30
0.0
 10
117.2931729334933
 20
-142.7466997334228
 30
0.0
 10
117.2484054346355
 20
-142.7915025100576
 30
0.0
 10
117.2484054346355
 20
-142.8466063975406
 30
0.0
 10
117.2484054346355
 20
-142.9020983405694
 30
0.0
 10
117.2931729334933
 20
-142.9468658394272
 30
0.0
 10
117.3483120987533
 20
-142.9468658394272
 30
0.0
 10
117.4034159862364
 20
-142.9468658394272
 30
0.0
 10
117.4482187628711
 20
-142.9020983405694
 30
0.0
 10
117.4482187628711
 20
-142.8466063975406
 30
0.0
  0
SPLINE
  5
8C
330
79
100
AcDbEntity
  8
レイヤー 1
 62
   250
420
  2299925
370
     9
100
AcDbSpline
210
0.0
220
0.0
230
1.0
 70
     9
 71
     3
 72
    17
 73
    13
 74
     0
 42
0.0000000001
 43
0.0000000001
 40
0.0
 40
0.0
 40
0.0
 40
0.0
 40
1.0
 40
1.0
 40
1.0
 40
2.0
 40
2.0
 40
2.0
 40
3.0
 40
3.0
 40
3.0
 40
4.0
 40
4.0
 40
4.0
 40
4.0
 10
107.4481331846612
 20
-142.8466063975406
 30
0.0
 10
107.4481331846612
 20
-142.7915025100576
 30
0.0
 10
107.4033304080265
 20
-142.7466997334228
 30
0.0
 10
107.3482265205434
 20
-142.7466997334228
 30
0.0
 10
107.2930873552835
 20
-142.7466997334228
 30
0.0
 10
107.2483242236387
 20
-142.7915025100576
 30
0.0
 10
107.2483242236387
 20
-142.8466063975406
 30
0.0
 10
107.2483242236387
 20
-142.9020983405694
 30
0.0
 10
107.2930873552835
 20
-142.9468658394272
 30
0.0
 10
107.3482265205434
 20
-142.9468658394272
 30
0.0
 10
107.4033304080265
 20
-142.9468658394272
 30
0.0
 10
107.4481331846612
 20
-142.9020983405694
 30
0.0
 10
107.4481331846612
 20
-142.8466063975406
 30
0.0
  0
SPLINE
  5
8D
330
79
100
AcDbEntity
  8
レイヤー 1
 62
   250
420
  2299925
370
     9
100
AcDbSpline
210
0.0
220
0.0
230
1.0
 70
     9
 71
     3
 72
    17
 73
    13
 74
     0
 42
0.0000000001
 43
0.0000000001
 40
0.0
 40
0.0
 40
0.0
 40
0.0
 40
1.0
 40
1.0
 40
1.0
 40
2.0
 40
2.0
 40
2.0
 40
3.0
 40
3.0
 40
3.0
 40
4.0
 40
4.0
 40
4.0
 40
4.0
 10
121.4486481052561
 20
-138.8468473329163
 30
0.0
 10
121.4486481052561
 20
-138.7913855902786
 30
0.0
 10
121.403885331211
 20
-138.7469355902896
 30
0.0
 10
121.3487414411383
 20
-138.7469355902896
 30
0.0
 10
121.2929319981177
 20
-138.7469355902896
 30
0.0
 10
121.2481644992598
 20
-138.7913855902786
 30
0.0
 10
121.2481644992598
 20
-138.8468473329163
 30
0.0
 10
121.2481644992598
 20
-138.9023392759451
 30
0.0
 10
121.2929319981177
 20
-138.9471067748029
 30
0.0
 10
121.3487414411383
 20
-138.9471067748029
 30
0.0
 10
121.403885331211
 20
-138.9471067748029
 30
0.0
 10
121.4486481052561
 20
-138.9023392759451
 30
0.0
 10
121.4486481052561
 20
-138.8468473329163
 30
0.0
  0
SPLINE
  5
8E
330
79
100
AcDbEntity
  8
レイヤー 1
 62
   250
420
  2299925
370
     9
100
AcDbSpline
210
0.0
220
0.0
230
1.0
 70
     9
 71
     3
 72
    17
 73
    13
 74
     0
 42
0.0000000001
 43
0.0000000001
 40
0.0
 40
0.0
 40
0.0
 40
0.0
 40
1.0
 40
1.0
 40
1.0
 40
2.0
 40
2.0
 40
2.0
 40
3.0
 40
3.0
 40
3.0
 40
4.0
 40
4.0
 40
4.0
 40
4.0
 10
121.4486481052561
 20
-135.8468604650079
 30
0.0
 10
121.4486481052561
 20
-135.7914037997561
 30
0.0
 10
121.403885331211
 20
-135.7466363008982
 30
0.0
 10
121.3487414411383
 20
-135.7466363008982
 30
0.0
 10
121.2929319981177
 20
-135.7466363008982
 30
0.0
 10
121.2481644992598
 20
-135.7914037997561
 30
0.0
 10
121.2481644992598
 20
-135.8468604650079
 30
0.0
 10
121.2481644992598
 20
-135.9023524080366
 30
0.0
 10
121.2929319981177
 20
-135.9467671291258
 30
0.0
 10
121.3487414411383
 20
-135.9467671291258
 30
0.0
 10
121.403885331211
 20
-135.9467671291258
 30
0.0
 10
121.4486481052561
 20
-135.9023524080366
 30
0.0
 10
121.4486481052561
 20
-135.8468604650079
 30
0.0
  0
SPLINE
  5
8F
330
79
100
AcDbEntity
  8
レイヤー 1
 62
   250
420
  2299925
370
     9
100
AcDbSpline
210
0.0
220
0.0
230
1.0
 70
     9
 71
     3
 72
    17
 73
    13
 74
     0
 42
0.0000000001
 43
0.0000000001
 40
0.0
 40
0.0
 40
0.0
 40
0.0
 40
1.0
 40
1.0
 40
1.0
 40
2.0
 40
2.0
 40
2.0
 40
3.0
 40
3.0
 40
3.0
 40
4.0
 40
4.0
 40
4.0
 40
4.0
 10
94.64822684454743
 20
-142.8466063975406
 30
0.0
 10
94.64822684454743
 20
-142.7915025100576
 30
0.0
 10
94.60342406791266
 20
-142.7466997334228
 30
0.0
 10
94.54832422681368
 20
-142.7466997334228
 30
0.0
 10
94.49318101516963
 20
-142.7466997334228
 30
0.0
 10
94.44841351631174
 20
-142.7915025100576
 30
0.0
 10
94.44841351631174
 20
-142.8466063975406
 30
0.0
 10
94.44841351631174
 20
-142.9020983405694
 30
0.0
 10
94.49318101516963
 20
-142.9468658394272
 30
0.0
 10
94.54832422681368
 20
-142.9468658394272
 30
0.0
 10
94.60342406791266
 20
-142.9468658394272
 30
0.0
 10
94.64822684454743
 20
-142.9020983405694
 30
0.0
 10
94.64822684454743
 20
-142.8466063975406
 30
0.0
  0
LINE
  5
90
330
79
100
AcDbEntity
  8
レイヤー 1
 62
   250
420
  2299925
370
     9
100
AcDbLine
 10
121.3487414411383
 20
-135.8468604650079
 30
0.0
 11
121.3487414411383
 21
-138.8468473329163
 31
0.0
  0
LINE
  5
91
330
79
100
AcDbEntity
  8
レイヤー 1
 62
   250
420
  2299925
370
     9
100
AcDbLine
 10
119.8887047760342
 20
-135.8468604650079
 30
0.0
 11
122.3485136378542
 21
-135.8468604650079
 31
0.0
  0
LINE
  5
92
330
79
100
AcDbEntity
  8
レイヤー 1
 62
   250
420
  2299925
370
     9
100
AcDbLine
 10
119.8887047760342
 20
-138.8468473329163
 30
0.0
 11
122.3485136378542
 21
-138.8468473329163
 31
0.0
  0
INSERT
  5
94
330
79
100
AcDbEntity
  8
レイヤー 1
100
AcDbBlockReference
  2
Block_1
 10
0.0
 20
0.0
 30
0.0
  0
LINE
  5
99
330
79
100
AcDbEntity
  8
レイヤー 1
 62
   250
420
  2299925
370
     9
100
AcDbLine
 10
89.54843614132057
 20
-135.8468604650079
 30
0.0
 11
89.54843614132057
 21
-160.8469156605367
 31
0.0
  0
LINE
  5
9A
330
79
100
AcDbEntity
  8
レイヤー 1
 62
   250
420
  2299925
370
     9
100
AcDbLine
 10
91.00847749296072
 20
-135.8468604650079
 30
0.0
 11
88.54834644461311
 21
-135.8468604650079
 31
0.0
  0
LINE
  5
9B
330
79
100
AcDbEntity
  8
レイヤー 1
 62
   250
420
  2299925
370
     9
100
AcDbLine
 10
91.00847749296072
 20
-160.8469156605367
 30
0.0
 11
88.54834644461311
 21
-160.8469156605367
 31
0.0
  0
INSERT
  5
9D
330
79
100
AcDbEntity
  8
レイヤー 1
100
AcDbBlockReference
  2
Block_2
 10
0.0
 20
0.0
 30
0.0
  0
LINE
  5
A8
330
79
100
AcDbEntity
  8
レイヤー 1
 62
   250
420
  2299925
370
     9
100
AcDbLine
 10
107.3482265205434
 20
-142.8466063975406
 30
0.0
 11
117.3483120987533
 21
-142.8466063975406
 31
0.0
  0
LINE
  5
A9
330
79
100
AcDbEntity
  8
レイヤー 1
 62
   250
420
  2299925
370
     9
100
AcDbLine
 10
107.3482265205434
 20
-141.3869178236693
 30
0.0
 11
107.3482265205434
 21
-143.8470841497941
 31
0.0
  0
LINE
  5
AA
330
79
100
AcDbEntity
  8
レイヤー 1
 62
   250
420
  2299925
370
     9
100
AcDbLine
 10
117.3483120987533
 20
-141.3869178236693
 30
0.0
 11
117.3483120987533
 21
-143.8470841497941
 31
0.0
  0
INSERT
  5
AC
330
79
100
AcDbEntity
  8
レイヤー 1
100
AcDbBlockReference
  2
Block_4
 10
0.0
 20
0.0
 30
0.0
  0
LINE
  5
B8
330
79
100
AcDbEntity
  8
レイヤー 1
 62
   250
420
  2299925
370
     9
100
AcDbLine
 10
94.54832422681368
 20
-164.8469922251529
 30
0.0
 11
98.31863258424091
 21
-164.8469922251529
 31
0.0
  0
LINE
  5
B9
330
79
100
AcDbEntity
  8
レイヤー 1
 62
   250
420
  2299925
370
     9
100
AcDbLine
 10
94.54832422681368
 20
-164.8469922251529
 30
0.0
 11
92.54842700509147
 21
-164.8469922251529
 31
0.0
  0
LINE
  5
BA
330
79
100
AcDbEntity
  8
レイヤー 1
 62
   250
420
  2299925
370
     9
100
AcDbLine
 10
94.54832422681368
 20
-163.3869508735128
 30
0.0
 11
94.54832422681368
 21
-165.8467644218688
 31
0.0
  0
LINE
  5
BB
330
79
100
AcDbEntity
  8
レイヤー 1
 62
   250
420
  2299925
370
     9
100
AcDbLine
 10
93.54819922706402
 20
-163.3869508735128
 30
0.0
 11
93.54819922706402
 21
-165.8467644218688
 31
0.0
  0
INSERT
  5
BD
330
79
100
AcDbEntity
  8
レイヤー 1
100
AcDbBlockReference
  2
Block_6
 10
0.0
 20
0.0
 30
0.0
  0
LINE
  5
C2
330
79
100
AcDbEntity
  8
レイヤー 1
 62
   250
420
  2299925
370
     9
100
AcDbLine
 10
107.3482265205434
 20
-142.8466063975406
 30
0.0
 11
94.54832422681368
 21
-142.8466063975406
 31
0.0
  0
INSERT
  5
C4
330
79
100
AcDbEntity
  8
レイヤー 1
100
AcDbBlockReference
  2
Block_7
 10
0.0
 20
0.0
 30
0.0
  0
ENDBLK
  5
7C
330
79
100
AcDbEntity
  8
0
100
AcDbBlockEnd
  0
BLOCK
  5
95
330
93
100
AcDbEntity
  8
0
100
AcDbBlockBegin
  2
Block_1
 70
     0
 10
0.0
 20
0.0
 30
0.0
  3
Block_1
  1

  0
SPLINE
  5
97
330
93
100
AcDbEntity
  8
レイヤー 1
100
AcDbSpline
210
0.0
220
0.0
230
1.0
 70
     9
 71
     3
 72
    62
 73
    58
 74
     0
 42
0.0000000001
 43
0.0000000001
 40
0.0
 40
0.0
 40
0.0
 40
0.0
 40
1.0
 40
1.0
 40
1.0
 40
2.0
 40
2.0
 40
2.0
 40
3.0
 40
3.0
 40
3.0
 40
4.0
 40
4.0
 40
4.0
 40
5.0
 40
5.0
 40
5.0
 40
6.0
 40
6.0
 40
6.0
 40
7.0
 40
7.0
 40
7.0
 40
8.0
 40
8.0
 40
8.0
 40
9.0
 40
9.0
 40
9.0
 40
10.0
 40
10.0
 40
10.0
 40
11.0
 40
11.0
 40
11.0
 40
12.0
 40
12.0
 40
12.0
 40
13.0
 40
13.0
 40
13.0
 40
14.0
 40
14.0
 40
14.0
 40
15.0
 40
15.0
 40
15.0
 40
16.0
 40
16.0
 40
16.0
 40
17.0
 40
17.0
 40
17.0
 40
18.0
 40
18.0
 40
18.0
 40
19.0
 40
19.0
 40
19.0
 40
19.0
 10
120.0974066540034
 20
-137.3135823224424
 30
0.0
 10
120.0974066540034
 20
-137.4152126392573
 30
0.0
 10
120.0763915715434
 20
-137.6481010940602
 30
0.0
 10
119.8903564153399
 20
-137.7815985441136
 30
0.0
 10
119.7780463025208
 20
-137.8606634855001
 30
0.0
 10
119.6788275525455
 20
-137.8651421096309
 30
0.0
 10
119.5940782036084
 20
-137.8696207337617
 30
0.0
 10
119.5940782036084
 20
-137.8696207337617
 30
0.0
 10
119.5940782036084
 20
-137.6346652216677
 30
0.0
 10
119.5940782036084
 20
-137.6346652216677
 30
0.0
 10
119.6681477565413
 20
-137.632253654828
 30
0.0
 10
119.9027587590868
 20
-137.621057094501
 30
0.0
 10
119.9027587590868
 20
-137.3180609465732
 30
0.0
 10
119.9027587590868
 20
-137.1711276241273
 30
0.0
 10
119.8331678302847
 20
-137.0083468624493
 30
0.0
 10
119.6047579996127
 20
-137.0083468624493
 30
0.0
 10
119.4883137722112
 20
-137.0083468624493
 30
0.0
 10
119.4397379258692
 20
-137.0489989891752
 30
0.0
 10
119.4080430474049
 20
-137.082933179705
 30
0.0
 10
119.333973494472
 20
-137.1619981210914
 30
0.0
 10
119.3212266411766
 20
-137.286366068109
 30
0.0
 10
119.3212266411766
 20
-137.3452772009067
 30
0.0
 10
119.3212266411766
 20
-137.3656032642697
 30
0.0
 10
119.3232936984678
 20
-137.4040160789302
 30
0.0
 10
119.3274278130501
 20
-137.4332993905549
 30
0.0
 10
119.3274278130501
 20
-137.4332993905549
 30
0.0
 10
119.1327799181335
 20
-137.4332993905549
 30
0.0
 10
119.1327799181335
 20
-137.4332993905549
 30
0.0
 10
119.1393255995554
 20
-137.3926472638289
 30
0.0
 10
119.1413926568466
 20
-137.3475165129721
 30
0.0
 10
119.1413926568466
 20
-137.3406263220017
 30
0.0
 10
119.1413926568466
 20
-137.2705186288768
 30
0.0
 10
119.120033064838
 20
-137.0581284922112
 30
0.0
 10
118.8833550050014
 20
-137.0581284922112
 30
0.0
 10
118.7055880779625
 20
-137.0581284922112
 30
0.0
 10
118.6504665501985
 20
-137.1981716236865
 30
0.0
 10
118.6504665501985
 20
-137.3158216345078
 30
0.0
 10
118.6504665501985
 20
-137.5984917190726
 30
0.0
 10
118.8833550050014
 20
-137.6074489673342
 30
0.0
 10
118.9550129910946
 20
-137.611927591465
 30
0.0
 10
118.9550129910946
 20
-137.611927591465
 30
0.0
 10
118.9550129910946
 20
-137.8289686070358
 30
0.0
 10
118.9550129910946
 20
-137.8289686070358
 30
0.0
 10
118.8303005345285
 20
-137.8200113587741
 30
0.0
 10
118.4537515979907
 20
-137.7905557923752
 30
0.0
 10
118.4537515979907
 20
-137.3022135073411
 30
0.0
 10
118.4537515979907
 20
-137.0626071163419
 30
0.0
 10
118.5808756213964
 20
-136.8049139740453
 30
0.0
 10
118.8768093235794
 20
-136.8049139740453
 30
0.0
 10
119.0631889893314
 20
-136.8049139740453
 30
0.0
 10
119.1455267714289
 20
-136.9065442908601
 30
0.0
 10
119.2068494710663
 20
-137.0128254865801
 30
0.0
 10
119.2344102349483
 20
-136.9473686723604
 30
0.0
 10
119.3146809597546
 20
-136.752893032218
 30
0.0
 10
119.5920111463173
 20
-136.752893032218
 30
0.0
 10
119.9303195229688
 20
-136.752893032218
 30
0.0
 10
120.0974066540034
 20
-137.017304110711
 30
0.0
 10
120.0974066540034
 20
-137.3135823224424
 30
0.0
  0
HATCH
  5
98
330
93
100
AcDbEntity
  8
レイヤー 1
 62
   250
420
  2299925
440
 33554687
100
AcDbHatch
 10
0.0
 20
0.0
 30
0.0
210
0.0
220
0.0
230
1.0
  2
SOLID
 70
     1
 71
     1
 91
        1
 92
        1
 93
        1
 72
     4
 94
        3
 73
     0
 74
     0
 95
       62
 96
       58
 40
0.0
 40
0.0
 40
0.0
 40
0.0
 40
1.0
 40
1.0
 40
1.0
 40
2.0
 40
2.0
 40
2.0
 40
3.0
 40
3.0
 40
3.0
 40
4.0
 40
4.0
 40
4.0
 40
5.0
 40
5.0
 40
5.0
 40
6.0
 40
6.0
 40
6.0
 40
7.0
 40
7.0
 40
7.0
 40
8.0
 40
8.0
 40
8.0
 40
9.0
 40
9.0
 40
9.0
 40
10.0
 40
10.0
 40
10.0
 40
11.0
 40
11.0
 40
11.0
 40
12.0
 40
12.0
 40
12.0
 40
13.0
 40
13.0
 40
13.0
 40
14.0
 40
14.0
 40
14.0
 40
15.0
 40
15.0
 40
15.0
 40
16.0
 40
16.0
 40
16.0
 40
17.0
 40
17.0
 40
17.0
 40
18.0
 40
18.0
 40
18.0
 40
19.0
 40
19.0
 40
19.0
 40
19.0
 10
120.0974066540034
 20
-137.3135823224424
 10
120.0974066540034
 20
-137.4152126392573
 10
120.0763915715434
 20
-137.6481010940602
 10
119.8903564153399
 20
-137.7815985441136
 10
119.7780463025208
 20
-137.8606634855001
 10
119.6788275525455
 20
-137.8651421096309
 10
119.5940782036084
 20
-137.8696207337617
 10
119.5940782036084
 20
-137.8696207337617
 10
119.5940782036084
 20
-137.6346652216677
 10
119.5940782036084
 20
-137.6346652216677
 10
119.6681477565413
 20
-137.632253654828
 10
119.9027587590868
 20
-137.621057094501
 10
119.9027587590868
 20
-137.3180609465732
 10
119.9027587590868
 20
-137.1711276241273
 10
119.8331678302847
 20
-137.0083468624493
 10
119.6047579996127
 20
-137.0083468624493
 10
119.4883137722112
 20
-137.0083468624493
 10
119.4397379258692
 20
-137.0489989891752
 10
119.4080430474049
 20
-137.082933179705
 10
119.333973494472
 20
-137.1619981210914
 10
119.3212266411766
 20
-137.286366068109
 10
119.3212266411766
 20
-137.3452772009067
 10
119.3212266411766
 20
-137.3656032642697
 10
119.3232936984678
 20
-137.4040160789302
 10
119.3274278130501
 20
-137.4332993905549
 10
119.3274278130501
 20
-137.4332993905549
 10
119.1327799181335
 20
-137.4332993905549
 10
119.1327799181335
 20
-137.4332993905549
 10
119.1393255995554
 20
-137.3926472638289
 10
119.1413926568466
 20
-137.3475165129721
 10
119.1413926568466
 20
-137.3406263220017
 10
119.1413926568466
 20
-137.2705186288768
 10
119.120033064838
 20
-137.0581284922112
 10
118.8833550050014
 20
-137.0581284922112
 10
118.7055880779625
 20
-137.0581284922112
 10
118.6504665501985
 20
-137.1981716236865
 10
118.6504665501985
 20
-137.3158216345078
 10
118.6504665501985
 20
-137.5984917190726
 10
118.8833550050014
 20
-137.6074489673342
 10
118.9550129910946
 20
-137.611927591465
 10
118.9550129910946
 20
-137.611927591465
 10
118.9550129910946
 20
-137.8289686070358
 10
118.9550129910946
 20
-137.8289686070358
 10
118.8303005345285
 20
-137.8200113587741
 10
118.4537515979907
 20
-137.7905557923752
 10
118.4537515979907
 20
-137.3022135073411
 10
118.4537515979907
 20
-137.0626071163419
 10
118.5808756213964
 20
-136.8049139740453
 10
118.8768093235794
 20
-136.8049139740453
 10
119.0631889893314
 20
-136.8049139740453
 10
119.1455267714289
 20
-136.9065442908601
 10
119.2068494710663
 20
-137.0128254865801
 10
119.2344102349483
 20
-136.9473686723604
 10
119.3146809597546
 20
-136.752893032218
 10
119.5920111463173
 20
-136.752893032218
 10
119.9303195229688
 20
-136.752893032218
 10
120.0974066540034
 20
-137.017304110711
 10
120.0974066540034
 20
-137.3135823224424
 97
        0
 97
        1
330
97
 75
     2
 76
     1
 98
        1
 10
0.0
 20
0.0
450
        0
451
        0
460
0.0
461
0.0
452
        0
462
0.0
453
        0
470

  0
ENDBLK
  5
96
330
93
100
AcDbEntity
  8
0
100
AcDbBlockEnd
  0
BLOCK
  5
9E
330
9C
100
AcDbEntity
  8
0
100
AcDbBlockBegin
  2
Block_2
 70
     0
 10
0.0
 20
0.0
 30
0.0
  3
Block_2
  1

  0
INSERT
  5
A1
330
9C
100
AcDbEntity
  8
レイヤー 1
100
AcDbBlockReference
  2
Block_3
 10
0.0
 20
0.0
 30
0.0
  0
ENDBLK
  5
9F
330
9C
100
AcDbEntity
  8
0
100
AcDbBlockEnd
  0
BLOCK
  5
A2
330
A0
100
AcDbEntity
  8
0
100
AcDbBlockBegin
  2
Block_3
 70
     0
 10
0.0
 20
0.0
 30
0.0
  3
Block_3
  1

  0
SPLINE
  5
A4
330
A0
100
AcDbEntity
  8
レイヤー 1
100
AcDbSpline
210
0.0
220
0.0
230
1.0
 70
     9
 71
     3
 72
    44
 73
    40
 74
     0
 42
0.0000000001
 43
0.0000000001
 40
0.0
 40
0.0
 40
0.0
 40
0.0
 40
1.0
 40
1.0
 40
1.0
 40
2.0
 40
2.0
 40
2.0
 40
3.0
 40
3.0
 40
3.0
 40
4.0
 40
4.0
 40
4.0
 40
5.0
 40
5.0
 40
5.0
 40
6.0
 40
6.0
 40
6.0
 40
7.0
 40
7.0
 40
7.0
 40
8.0
 40
8.0
 40
8.0
 40
9.0
 40
9.0
 40
9.0
 40
10.0
 40
10.0
 40
10.0
 40
11.0
 40
11.0
 40
11.0
 40
12.0
 40
12.0
 40
12.0
 40
13.0
 40
13.0
 40
13.0
 40
13.0
 10
87.66424422721589
 20
-148.8732557136497
 30
0.0
 10
87.82289087431164
 20
-149.1061441684526
 30
0.0
 10
87.8969604272445
 20
-149.2057074279763
 30
0.0
 10
88.0407931637537
 20
-149.2577283698036
 30
0.0
 10
88.0407931637537
 20
-149.2577283698036
 30
0.0
 10
88.0407931637537
 20
-148.4253933005672
 30
0.0
 10
88.0407931637537
 20
-148.4253933005672
 30
0.0
 10
88.0407931637537
 20
-148.4253933005672
 30
0.0
 10
88.24594859990032
 20
-148.4253933005672
 30
0.0
 10
88.24594859990032
 20
-148.4253933005672
 30
0.0
 10
88.24594859990032
 20
-148.4253933005672
 30
0.0
 10
88.24594859990032
 20
-149.5243787603619
 30
0.0
 10
88.24594859990032
 20
-149.5243787603619
 30
0.0
 10
87.88834768853138
 20
-149.490272315058
 30
0.0
 10
87.81014402101622
 20
-149.4203368767074
 30
0.0
 10
87.51179875199358
 20
-149.0089924757686
 30
0.0
 10
87.31301674249467
 20
-148.7354518942397
 30
0.0
 10
87.24532061620951
 20
-148.6651719463406
 30
0.0
 10
87.10786130634804
 20
-148.6651719463406
 30
0.0
 10
86.98935002165544
 20
-148.6651719463406
 30
0.0
 10
86.85826413844168
 20
-148.7419975756617
 30
0.0
 10
86.85826413844168
 20
-148.9524929098105
 30
0.0
 10
86.85826413844168
 20
-149.2305121154701
 30
0.0
 10
87.08874102640491
 20
-149.2394693637318
 30
0.0
 10
87.20518525380635
 20
-149.2439479878626
 30
0.0
 10
87.20518525380635
 20
-149.2439479878626
 30
0.0
 10
87.20518525380635
 20
-149.483726633636
 30
0.0
 10
87.20518525380635
 20
-149.483726633636
 30
0.0
 10
87.07823348517489
 20
-149.4747693853744
 30
0.0
 10
86.96609562713
 20
-149.463400570273
 30
0.0
 10
86.84758434243741
 20
-149.3772731831418
 30
0.0
 10
86.6868706380505
 20
-149.2597954270948
 30
0.0
 10
86.65293644752081
 20
-149.0610134175958
 30
0.0
 10
86.65293644752081
 20
-148.9366454705783
 30
0.0
 10
86.65293644752081
 20
-148.6403672588468
 30
0.0
 10
86.8370768012074
 20
-148.4188476191452
 30
0.0
 10
87.10992836363919
 20
-148.4188476191452
 30
0.0
 10
87.33833819431124
 20
-148.4188476191452
 30
0.0
 10
87.43790145383497
 20
-148.5432155661628
 30
0.0
 10
87.66424422721589
 20
-148.8732557136497
 30
0.0
  0
HATCH
  5
A5
330
A0
100
AcDbEntity
  8
レイヤー 1
 62
   250
420
  2299925
440
 33554687
100
AcDbHatch
 10
0.0
 20
0.0
 30
0.0
210
0.0
220
0.0
230
1.0
  2
SOLID
 70
     1
 71
     1
 91
        1
 92
        1
 93
        1
 72
     4
 94
        3
 73
     0
 74
     0
 95
       44
 96
       40
 40
0.0
 40
0.0
 40
0.0
 40
0.0
 40
1.0
 40
1.0
 40
1.0
 40
2.0
 40
2.0
 40
2.0
 40
3.0
 40
3.0
 40
3.0
 40
4.0
 40
4.0
 40
4.0
 40
5.0
 40
5.0
 40
5.0
 40
6.0
 40
6.0
 40
6.0
 40
7.0
 40
7.0
 40
7.0
 40
8.0
 40
8.0
 40
8.0
 40
9.0
 40
9.0
 40
9.0
 40
10.0
 40
10.0
 40
10.0
 40
11.0
 40
11.0
 40
11.0
 40
12.0
 40
12.0
 40
12.0
 40
13.0
 40
13.0
 40
13.0
 40
13.0
 10
87.66424422721589
 20
-148.8732557136497
 10
87.82289087431164
 20
-149.1061441684526
 10
87.8969604272445
 20
-149.2057074279763
 10
88.0407931637537
 20
-149.2577283698036
 10
88.0407931637537
 20
-149.2577283698036
 10
88.0407931637537
 20
-148.4253933005672
 10
88.0407931637537
 20
-148.4253933005672
 10
88.0407931637537
 20
-148.4253933005672
 10
88.24594859990032
 20
-148.4253933005672
 10
88.24594859990032
 20
-148.4253933005672
 10
88.24594859990032
 20
-148.4253933005672
 10
88.24594859990032
 20
-149.5243787603619
 10
88.24594859990032
 20
-149.5243787603619
 10
87.88834768853138
 20
-149.490272315058
 10
87.81014402101622
 20
-149.4203368767074
 10
87.51179875199358
 20
-149.0089924757686
 10
87.31301674249467
 20
-148.7354518942397
 10
87.24532061620951
 20
-148.6651719463406
 10
87.10786130634804
 20
-148.6651719463406
 10
86.98935002165544
 20
-148.6651719463406
 10
86.85826413844168
 20
-148.7419975756617
 10
86.85826413844168
 20
-148.9524929098105
 10
86.85826413844168
 20
-149.2305121154701
 10
87.08874102640491
 20
-149.2394693637318
 10
87.20518525380635
 20
-149.2439479878626
 10
87.20518525380635
 20
-149.2439479878626
 10
87.20518525380635
 20
-149.483726633636
 10
87.20518525380635
 20
-149.483726633636
 10
87.07823348517489
 20
-149.4747693853744
 10
86.96609562713
 20
-149.463400570273
 10
86.84758434243741
 20
-149.3772731831418
 10
86.6868706380505
 20
-149.2597954270948
 10
86.65293644752081
 20
-149.0610134175958
 10
86.65293644752081
 20
-148.9366454705783
 10
86.65293644752081
 20
-148.6403672588468
 10
86.8370768012074
 20
-148.4188476191452
 10
87.10992836363919
 20
-148.4188476191452
 10
87.33833819431124
 20
-148.4188476191452
 10
87.43790145383497
 20
-148.5432155661628
 10
87.66424422721589
 20
-148.8732557136497
 97
        0
 97
        1
330
A4
 75
     2
 76
     1
 98
        1
 10
0.0
 20
0.0
450
        0
451
        0
460
0.0
461
0.0
452
        0
462
0.0
453
        0
470

  0
SPLINE
  5
A6
330
A0
100
AcDbEntity
  8
レイヤー 1
100
AcDbSpline
210
0.0
220
0.0
230
1.0
 70
     9
 71
     3
 72
    53
 73
    49
 74
     0
 42
0.0000000001
 43
0.0000000001
 40
0.0
 40
0.0
 40
0.0
 40
0.0
 40
1.0
 40
1.0
 40
1.0
 40
2.0
 40
2.0
 40
2.0
 40
3.0
 40
3.0
 40
3.0
 40
4.0
 40
4.0
 40
4.0
 40
5.0
 40
5.0
 40
5.0
 40
6.0
 40
6.0
 40
6.0
 40
7.0
 40
7.0
 40
7.0
 40
8.0
 40
8.0
 40
8.0
 40
9.0
 40
9.0
 40
9.0
 40
10.0
 40
10.0
 40
10.0
 40
11.0
 40
11.0
 40
11.0
 40
12.0
 40
12.0
 40
12.0
 40
13.0
 40
13.0
 40
13.0
 40
14.0
 40
14.0
 40
14.0
 40
15.0
 40
15.0
 40
15.0
 40
16.0
 40
16.0
 40
16.0
 40
16.0
 10
88.29676375830777
 20
-147.7353406748717
 30
0.0
 10
88.29676375830777
 20
-147.8190564951633
 30
0.0
 10
88.27971053565576
 20
-147.9272324934001
 30
0.0
 10
88.21632077872719
 20
-148.036097510734
 30
0.0
 10
88.10624997797345
 20
-148.2214436478405
 30
0.0
 10
87.97516409475969
 20
-148.2438367684946
 30
0.0
 10
87.86733260607137
 20
-148.2641628318576
 30
0.0
 10
87.86733260607137
 20
-148.2641628318576
 30
0.0
 10
87.86733260607137
 20
-148.0267957529239
 30
0.0
 10
87.86733260607137
 20
-148.0267957529239
 30
0.0
 10
88.06611461557029
 20
-147.9682291296746
 30
0.0
 10
88.09574243674344
 20
-147.8324923675558
 30
0.0
 10
88.09574243674344
 20
-147.732929108032
 30
0.0
 10
88.09574243674344
 20
-147.5837564735207
 30
0.0
 10
87.99635143199397
 20
-147.4208034570684
 30
0.0
 10
87.76363523196534
 20
-147.4208034570684
 30
0.0
 10
87.50766463741127
 20
-147.4208034570684
 30
0.0
 10
87.43790145383497
 20
-147.6130397851453
 30
0.0
 10
87.43790145383497
 20
-147.7418863562937
 30
0.0
 10
87.43790145383497
 20
-147.7759928015976
 30
0.0
 10
87.43790145383497
 20
-147.9272324934001
 30
0.0
 10
87.56692027975757
 20
-148.022317128793
 30
0.0
 10
87.56692027975757
 20
-148.022317128793
 30
0.0
 10
87.54779999981444
 20
-148.2100748327392
 30
0.0
 10
87.54779999981444
 20
-148.2100748327392
 30
0.0
 10
87.54779999981444
 20
-148.2100748327392
 30
0.0
 10
86.70168454863709
 20
-148.0812282615908
 30
0.0
 10
86.70168454863709
 20
-148.0812282615908
 30
0.0
 10
86.70168454863709
 20
-148.0812282615908
 30
0.0
 10
86.70168454863709
 20
-147.249237701903
 30
0.0
 10
86.70168454863709
 20
-147.249237701903
 30
0.0
 10
86.70168454863709
 20
-147.249237701903
 30
0.0
 10
86.8963324435537
 20
-147.249237701903
 30
0.0
 10
86.8963324435537
 20
-147.249237701903
 30
0.0
 10
86.8963324435537
 20
-147.249237701903
 30
0.0
 10
86.8963324435537
 20
-147.9069064300371
 30
0.0
 10
86.8963324435537
 20
-147.9069064300371
 30
0.0
 10
86.8963324435537
 20
-147.9069064300371
 30
0.0
 10
87.31939016914237
 20
-147.9771863779363
 30
0.0
 10
87.31939016914237
 20
-147.9771863779363
 30
0.0
 10
87.28545597861268
 20
-147.9117295637165
 30
0.0
 10
87.24532061620951
 20
-147.8235351192941
 30
0.0
 10
87.24532061620951
 20
-147.6967556054369
 30
0.0
 10
87.24532061620951
 20
-147.4256265907477
 30
0.0
 10
87.43152802718725
 20
-147.1724120725819
 30
0.0
 10
87.74451495202221
 20
-147.1724120725819
 30
0.0
 10
88.06198050098798
 20
-147.1724120725819
 30
0.0
 10
88.29676375830777
 20
-147.4118462088067
 30
0.0
 10
88.29676375830777
 20
-147.7353406748717
 30
0.0
  0
HATCH
  5
A7
330
A0
100
AcDbEntity
  8
レイヤー 1
 62
   250
420
  2299925
440
 33554687
100
AcDbHatch
 10
0.0
 20
0.0
 30
0.0
210
0.0
220
0.0
230
1.0
  2
SOLID
 70
     1
 71
     1
 91
        1
 92
        1
 93
        1
 72
     4
 94
        3
 73
     0
 74
     0
 95
       53
 96
       49
 40
0.0
 40
0.0
 40
0.0
 40
0.0
 40
1.0
 40
1.0
 40
1.0
 40
2.0
 40
2.0
 40
2.0
 40
3.0
 40
3.0
 40
3.0
 40
4.0
 40
4.0
 40
4.0
 40
5.0
 40
5.0
 40
5.0
 40
6.0
 40
6.0
 40
6.0
 40
7.0
 40
7.0
 40
7.0
 40
8.0
 40
8.0
 40
8.0
 40
9.0
 40
9.0
 40
9.0
 40
10.0
 40
10.0
 40
10.0
 40
11.0
 40
11.0
 40
11.0
 40
12.0
 40
12.0
 40
12.0
 40
13.0
 40
13.0
 40
13.0
 40
14.0
 40
14.0
 40
14.0
 40
15.0
 40
15.0
 40
15.0
 40
16.0
 40
16.0
 40
16.0
 40
16.0
 10
88.29676375830777
 20
-147.7353406748717
 10
88.29676375830777
 20
-147.8190564951633
 10
88.27971053565576
 20
-147.9272324934001
 10
88.21632077872719
 20
-148.036097510734
 10
88.10624997797345
 20
-148.2214436478405
 10
87.97516409475969
 20
-148.2438367684946
 10
87.86733260607137
 20
-148.2641628318576
 10
87.86733260607137
 20
-148.2641628318576
 10
87.86733260607137
 20
-148.0267957529239
 10
87.86733260607137
 20
-148.0267957529239
 10
88.06611461557029
 20
-147.9682291296746
 10
88.09574243674344
 20
-147.8324923675558
 10
88.09574243674344
 20
-147.732929108032
 10
88.09574243674344
 20
-147.5837564735207
 10
87.99635143199397
 20
-147.4208034570684
 10
87.76363523196534
 20
-147.4208034570684
 10
87.50766463741127
 20
-147.4208034570684
 10
87.43790145383497
 20
-147.6130397851453
 10
87.43790145383497
 20
-147.7418863562937
 10
87.43790145383497
 20
-147.7759928015976
 10
87.43790145383497
 20
-147.9272324934001
 10
87.56692027975757
 20
-148.022317128793
 10
87.56692027975757
 20
-148.022317128793
 10
87.54779999981444
 20
-148.2100748327392
 10
87.54779999981444
 20
-148.2100748327392
 10
87.54779999981444
 20
-148.2100748327392
 10
86.70168454863709
 20
-148.0812282615908
 10
86.70168454863709
 20
-148.0812282615908
 10
86.70168454863709
 20
-148.0812282615908
 10
86.70168454863709
 20
-147.249237701903
 10
86.70168454863709
 20
-147.249237701903
 10
86.70168454863709
 20
-147.249237701903
 10
86.8963324435537
 20
-147.249237701903
 10
86.8963324435537
 20
-147.249237701903
 10
86.8963324435537
 20
-147.249237701903
 10
86.8963324435537
 20
-147.9069064300371
 10
86.8963324435537
 20
-147.9069064300371
 10
86.8963324435537
 20
-147.9069064300371
 10
87.31939016914237
 20
-147.9771863779363
 10
87.31939016914237
 20
-147.9771863779363
 10
87.28545597861268
 20
-147.9117295637165
 10
87.24532061620951
 20
-147.8235351192941
 10
87.24532061620951
 20
-147.6967556054369
 10
87.24532061620951
 20
-147.4256265907477
 10
87.43152802718725
 20
-147.1724120725819
 10
87.74451495202221
 20
-147.1724120725819
 10
88.06198050098798
 20
-147.1724120725819
 10
88.29676375830777
 20
-147.4118462088067
 10
88.29676375830777
 20
-147.7353406748717
 97
        0
 97
        1
330
A6
 75
     2
 76
     1
 98
        1
 10
0.0
 20
0.0
450
        0
451
        0
460
0.0
461
0.0
452
        0
462
0.0
453
        0
470

  0
ENDBLK
  5
A3
330
A0
100
AcDbEntity
  8
0
100
AcDbBlockEnd
  0
BLOCK
  5
AD
330
AB
100
AcDbEntity
  8
0
100
AcDbBlockBegin
  2
Block_4
 70
     0
 10
0.0
 20
0.0
 30
0.0
  3
Block_4
  1

  0
INSERT
  5
B0
330
AB
100
AcDbEntity
  8
レイヤー 1
100
AcDbBlockReference
  2
Block_5
 10
0.0
 20
0.0
 30
0.0
  0
ENDBLK
  5
AE
330
AB
100
AcDbEntity
  8
0
100
AcDbBlockEnd
  0
BLOCK
  5
B1
330
AF
100
AcDbEntity
  8
0
100
AcDbBlockBegin
  2
Block_5
 70
     0
 10
0.0
 20
0.0
 30
0.0
  3
Block_5
  1

  0
SPLINE
  5
B3
330
AF
100
AcDbEntity
  8
レイヤー 1
100
AcDbSpline
210
0.0
220
0.0
230
1.0
 70
    11
 71
     3
 72
    26
 73
    22
 74
     0
 42
0.0000000001
 43
0.0000000001
 40
0.0
 40
0.0
 40
0.0
 40
0.0
 40
1.0
 40
1.0
 40
1.0
 40
2.0
 40
2.0
 40
2.0
 40
3.0
 40
3.0
 40
3.0
 40
4.0
 40
4.0
 40
4.0
 40
5.0
 40
5.0
 40
5.0
 40
6.0
 40
6.0
 40
6.0
 40
7.0
 40
7.0
 40
7.0
 40
7.0
 10
111.6717366257279
 20
-141.5469156547174
 30
0.0
 10
111.6717366257279
 20
-141.5469156547174
 30
0.0
 10
111.6717366257279
 20
-140.4425902969206
 30
0.0
 10
111.6717366257279
 20
-140.4425902969206
 30
0.0
 10
111.6717366257279
 20
-140.4425902969206
 30
0.0
 10
111.3193033575868
 20
-140.4425902969206
 30
0.0
 10
111.3193033575868
 20
-140.4425902969206
 30
0.0
 10
111.3193033575868
 20
-140.4425902969206
 30
0.0
 10
111.3193033575868
 20
-140.2946234458291
 30
0.0
 10
111.3193033575868
 20
-140.2946234458291
 30
0.0
 10
111.6741481925676
 20
-140.2798095352425
 30
0.0
 10
111.7237575675552
 20
-140.1168565187902
 30
0.0
 10
111.7554524460194
 20
-140.0026516034542
 30
0.0
 10
111.7554524460194
 20
-140.0026516034542
 30
0.0
 10
111.9115152715013
 20
-140.0026516034542
 30
0.0
 10
111.9115152715013
 20
-140.0026516034542
 30
0.0
 10
111.9115152715013
 20
-140.0026516034542
 30
0.0
 10
111.9115152715013
 20
-141.5469156547174
 30
0.0
 10
111.9115152715013
 20
-141.5469156547174
 30
0.0
 10
111.9115152715013
 20
-141.5469156547174
 30
0.0
 10
111.6717366257279
 20
-141.5469156547174
 30
0.0
 10
111.6717366257279
 20
-141.5469156547174
 30
0.0
  0
HATCH
  5
B4
330
AF
100
AcDbEntity
  8
レイヤー 1
 62
   250
420
  2299925
440
 33554687
100
AcDbHatch
 10
0.0
 20
0.0
 30
0.0
210
0.0
220
0.0
230
1.0
  2
SOLID
 70
     1
 71
     1
 91
        1
 92
        1
 93
        1
 72
     4
 94
        3
 73
     0
 74
     0
 95
       26
 96
       22
 40
0.0
 40
0.0
 40
0.0
 40
0.0
 40
1.0
 40
1.0
 40
1.0
 40
2.0
 40
2.0
 40
2.0
 40
3.0
 40
3.0
 40
3.0
 40
4.0
 40
4.0
 40
4.0
 40
5.0
 40
5.0
 40
5.0
 40
6.0
 40
6.0
 40
6.0
 40
7.0
 40
7.0
 40
7.0
 40
7.0
 10
111.6717366257279
 20
-141.5469156547174
 10
111.6717366257279
 20
-141.5469156547174
 10
111.6717366257279
 20
-140.4425902969206
 10
111.6717366257279
 20
-140.4425902969206
 10
111.6717366257279
 20
-140.4425902969206
 10
111.3193033575868
 20
-140.4425902969206
 10
111.3193033575868
 20
-140.4425902969206
 10
111.3193033575868
 20
-140.4425902969206
 10
111.3193033575868
 20
-140.2946234458291
 10
111.3193033575868
 20
-140.2946234458291
 10
111.6741481925676
 20
-140.2798095352425
 10
111.7237575675552
 20
-140.1168565187902
 10
111.7554524460194
 20
-140.0026516034542
 10
111.7554524460194
 20
-140.0026516034542
 10
111.9115152715013
 20
-140.0026516034542
 10
111.9115152715013
 20
-140.0026516034542
 10
111.9115152715013
 20
-140.0026516034542
 10
111.9115152715013
 20
-141.5469156547174
 10
111.9115152715013
 20
-141.5469156547174
 10
111.9115152715013
 20
-141.5469156547174
 10
111.6717366257279
 20
-141.5469156547174
 10
111.6717366257279
 20
-141.5469156547174
 97
        0
 97
        1
330
B3
 75
     2
 76
     1
 98
        1
 10
0.0
 20
0.0
450
        0
451
        0
460
0.0
461
0.0
452
        0
462
0.0
453
        0
470

  0
SPLINE
  5
B5
330
AF
100
AcDbEntity
  8
レイヤー 1
100
AcDbSpline
210
0.0
220
0.0
230
1.0
 70
     9
 71
     3
 72
    17
 73
    13
 74
     0
 42
0.0000000001
 43
0.0000000001
 40
0.0
 40
0.0
 40
0.0
 40
0.0
 40
1.0
 40
1.0
 40
1.0
 40
2.0
 40
2.0
 40
2.0
 40
3.0
 40
3.0
 40
3.0
 40
4.0
 40
4.0
 40
4.0
 40
4.0
 10
112.9815619292199
 20
-140.1464843399634
 30
0.0
 10
112.7149115386615
 20
-140.1464843399634
 30
0.0
 10
112.6653021636739
 20
-140.4300156983994
 30
0.0
 10
112.6653021636739
 20
-140.7748697564729
 30
0.0
 10
112.6653021636739
 20
-141.0942301079556
 30
0.0
 10
112.7035427235602
 20
-141.402910663434
 30
0.0
 10
112.9815619292199
 20
-141.402910663434
 30
0.0
 10
113.2461452624871
 20
-141.402910663434
 30
0.0
 10
113.2981662043143
 20
-141.1217908718376
 30
0.0
 10
113.2981662043143
 20
-140.7748697564729
 30
0.0
 10
113.2981662043143
 20
-140.455337150216
 30
0.0
 10
113.2575140775884
 20
-140.1464843399634
 30
0.0
 10
112.9815619292199
 20
-140.1464843399634
 30
0.0
  0
SPLINE
  5
B6
330
AF
100
AcDbEntity
  8
レイヤー 1
100
AcDbSpline
210
0.0
220
0.0
230
1.0
 70
     9
 71
     3
 72
    29
 73
    25
 74
     0
 42
0.0000000001
 43
0.0000000001
 40
0.0
 40
0.0
 40
0.0
 40
0.0
 40
1.0
 40
1.0
 40
1.0
 40
2.0
 40
2.0
 40
2.0
 40
3.0
 40
3.0
 40
3.0
 40
4.0
 40
4.0
 40
4.0
 40
5.0
 40
5.0
 40
5.0
 40
6.0
 40
6.0
 40
6.0
 40
7.0
 40
7.0
 40
7.0
 40
8.0
 40
8.0
 40
8.0
 40
8.0
 10
113.4066867120997
 20
-141.3691487276785
 30
0.0
 10
113.2912760133438
 20
-141.5786105331817
 30
0.0
 10
113.1059298762374
 20
-141.5975585583506
 30
0.0
 10
112.9815619292199
 20
-141.5975585583506
 30
0.0
 10
112.8099961740544
 20
-141.5975585583506
 30
0.0
 10
112.6584119727034
 20
-141.5510497692997
 30
0.0
 10
112.5567816558886
 20
-141.3691487276785
 30
0.0
 10
112.4458495812635
 20
-141.1745008327619
 30
0.0
 10
112.4255235179006
 20
-140.9378227729253
 30
0.0
 10
112.4255235179006
 20
-140.7748697564729
 30
0.0
 10
112.4255235179006
 20
-140.6308647651895
 30
0.0
 10
112.4434380144238
 20
-140.379200539992
 30
0.0
 10
112.5567816558886
 20
-140.1802462757188
 30
0.0
 10
112.6718478450959
 20
-139.9771578968633
 30
0.0
 10
112.8437581098099
 20
-139.9539035023379
 30
0.0
 10
112.9815619292199
 20
-139.9539035023379
 30
0.0
 10
113.1514051366427
 20
-139.9539035023379
 30
0.0
 10
113.3050563952848
 20
-139.9983452340976
 30
0.0
 10
113.4066867120997
 20
-140.1802462757188
 30
0.0
 10
113.5131401625939
 20
-140.3728271133443
 30
0.0
 10
113.5379448500877
 20
-140.6012369440163
 30
0.0
 10
113.5379448500877
 20
-140.7748697564729
 30
0.0
 10
113.5379448500877
 20
-140.9460910020898
 30
0.0
 10
113.5152072198851
 20
-141.1765678900531
 30
0.0
 10
113.4066867120997
 20
-141.3691487276785
 30
0.0
  0
HATCH
  5
B7
330
AF
100
AcDbEntity
  8
レイヤー 1
 62
   250
420
  2299925
440
 33554687
100
AcDbHatch
 10
0.0
 20
0.0
 30
0.0
210
0.0
220
0.0
230
1.0
  2
SOLID
 70
     1
 71
     1
 91
        2
 92
        1
 93
        1
 72
     4
 94
        3
 73
     0
 74
     0
 95
       17
 96
       13
 40
0.0
 40
0.0
 40
0.0
 40
0.0
 40
1.0
 40
1.0
 40
1.0
 40
2.0
 40
2.0
 40
2.0
 40
3.0
 40
3.0
 40
3.0
 40
4.0
 40
4.0
 40
4.0
 40
4.0
 10
112.9815619292199
 20
-140.1464843399634
 10
112.7149115386615
 20
-140.1464843399634
 10
112.6653021636739
 20
-140.4300156983994
 10
112.6653021636739
 20
-140.7748697564729
 10
112.6653021636739
 20
-141.0942301079556
 10
112.7035427235602
 20
-141.402910663434
 10
112.9815619292199
 20
-141.402910663434
 10
113.2461452624871
 20
-141.402910663434
 10
113.2981662043143
 20
-141.1217908718376
 10
113.2981662043143
 20
-140.7748697564729
 10
113.2981662043143
 20
-140.455337150216
 10
113.2575140775884
 20
-140.1464843399634
 10
112.9815619292199
 20
-140.1464843399634
 97
        0
 97
        1
330
B5
 92
        1
 93
        1
 72
     4
 94
        3
 73
     0
 74
     0
 95
       29
 96
       25
 40
0.0
 40
0.0
 40
0.0
 40
0.0
 40
1.0
 40
1.0
 40
1.0
 40
2.0
 40
2.0
 40
2.0
 40
3.0
 40
3.0
 40
3.0
 40
4.0
 40
4.0
 40
4.0
 40
5.0
 40
5.0
 40
5.0
 40
6.0
 40
6.0
 40
6.0
 40
7.0
 40
7.0
 40
7.0
 40
8.0
 40
8.0
 40
8.0
 40
8.0
 10
113.4066867120997
 20
-141.3691487276785
 10
113.2912760133438
 20
-141.5786105331817
 10
113.1059298762374
 20
-141.5975585583506
 10
112.9815619292199
 20
-141.5975585583506
 10
112.8099961740544
 20
-141.5975585583506
 10
112.6584119727034
 20
-141.5510497692997
 10
112.5567816558886
 20
-141.3691487276785
 10
112.4458495812635
 20
-141.1745008327619
 10
112.4255235179006
 20
-140.9378227729253
 10
112.4255235179006
 20
-140.7748697564729
 10
112.4255235179006
 20
-140.6308647651895
 10
112.4434380144238
 20
-140.379200539992
 10
112.5567816558886
 20
-140.1802462757188
 10
112.6718478450959
 20
-139.9771578968633
 10
112.8437581098099
 20
-139.9539035023379
 10
112.9815619292199
 20
-139.9539035023379
 10
113.1514051366427
 20
-139.9539035023379
 10
113.3050563952848
 20
-139.9983452340976
 10
113.4066867120997
 20
-140.1802462757188
 10
113.5131401625939
 20
-140.3728271133443
 10
113.5379448500877
 20
-140.6012369440163
 10
113.5379448500877
 20
-140.7748697564729
 10
113.5379448500877
 20
-140.9460910020898
 10
113.5152072198851
 20
-141.1765678900531
 10
113.4066867120997
 20
-141.3691487276785
 97
        0
 97
        1
330
B6
 75
     2
 76
     1
 98
        1
 10
0.0
 20
0.0
450
        0
451
        0
460
0.0
461
0.0
452
        0
462
0.0
453
        0
470

  0
ENDBLK
  5
B2
330
AF
100
AcDbEntity
  8
0
100
AcDbBlockEnd
  0
BLOCK
  5
BE
330
BC
100
AcDbEntity
  8
0
100
AcDbBlockBegin
  2
Block_6
 70
     0
 10
0.0
 20
0.0
 30
0.0
  3
Block_6
  1

  0
SPLINE
  5
C0
330
BC
100
AcDbEntity
  8
レイヤー 1
100
AcDbSpline
210
0.0
220
0.0
230
1.0
 70
    11
 71
     3
 72
    26
 73
    22
 74
     0
 42
0.0000000001
 43
0.0000000001
 40
0.0
 40
0.0
 40
0.0
 40
0.0
 40
1.0
 40
1.0
 40
1.0
 40
2.0
 40
2.0
 40
2.0
 40
3.0
 40
3.0
 40
3.0
 40
4.0
 40
4.0
 40
4.0
 40
5.0
 40
5.0
 40
5.0
 40
6.0
 40
6.0
 40
6.0
 40
7.0
 40
7.0
 40
7.0
 40
7.0
 10
97.53857690703897
 20
-163.5448838566832
 30
0.0
 10
97.53857690703897
 20
-163.5448838566832
 30
0.0
 10
97.53857690703897
 20
-162.4407307536606
 30
0.0
 10
97.53857690703897
 20
-162.4407307536606
 30
0.0
 10
97.53857690703897
 20
-162.4407307536606
 30
0.0
 10
97.1857991293494
 20
-162.4407307536606
 30
0.0
 10
97.1857991293494
 20
-162.4407307536606
 30
0.0
 10
97.1857991293494
 20
-162.4407307536606
 30
0.0
 10
97.1857991293494
 20
-162.2925916477949
 30
0.0
 10
97.1857991293494
 20
-162.2925916477949
 30
0.0
 10
97.54081621910438
 20
-162.2777777372083
 30
0.0
 10
97.59059784886623
 20
-162.114824720756
 30
0.0
 10
97.62229272733055
 20
-162.0004475506457
 30
0.0
 10
97.62229272733055
 20
-162.0004475506457
 30
0.0
 10
97.7781832980381
 20
-162.0004475506457
 30
0.0
 10
97.7781832980381
 20
-162.0004475506457
 30
0.0
 10
97.7781832980381
 20
-162.0004475506457
 30
0.0
 10
97.7781832980381
 20
-163.5448838566832
 30
0.0
 10
97.7781832980381
 20
-163.5448838566832
 30
0.0
 10
97.7781832980381
 20
-163.5448838566832
 30
0.0
 10
97.53857690703897
 20
-163.5448838566832
 30
0.0
 10
97.53857690703897
 20
-163.5448838566832
 30
0.0
  0
HATCH
  5
C1
330
BC
100
AcDbEntity
  8
レイヤー 1
 62
   250
420
  2299925
440
 33554687
100
AcDbHatch
 10
0.0
 20
0.0
 30
0.0
210
0.0
220
0.0
230
1.0
  2
SOLID
 70
     1
 71
     1
 91
        1
 92
        1
 93
        1
 72
     4
 94
        3
 73
     0
 74
     0
 95
       26
 96
       22
 40
0.0
 40
0.0
 40
0.0
 40
0.0
 40
1.0
 40
1.0
 40
1.0
 40
2.0
 40
2.0
 40
2.0
 40
3.0
 40
3.0
 40
3.0
 40
4.0
 40
4.0
 40
4.0
 40
5.0
 40
5.0
 40
5.0
 40
6.0
 40
6.0
 40
6.0
 40
7.0
 40
7.0
 40
7.0
 40
7.0
 10
97.53857690703897
 20
-163.5448838566832
 10
97.53857690703897
 20
-163.5448838566832
 10
97.53857690703897
 20
-162.4407307536606
 10
97.53857690703897
 20
-162.4407307536606
 10
97.53857690703897
 20
-162.4407307536606
 10
97.1857991293494
 20
-162.4407307536606
 10
97.1857991293494
 20
-162.4407307536606
 10
97.1857991293494
 20
-162.4407307536606
 10
97.1857991293494
 20
-162.2925916477949
 10
97.1857991293494
 20
-162.2925916477949
 10
97.54081621910438
 20
-162.2777777372083
 10
97.59059784886623
 20
-162.114824720756
 10
97.62229272733055
 20
-162.0004475506457
 10
97.62229272733055
 20
-162.0004475506457
 10
97.7781832980381
 20
-162.0004475506457
 10
97.7781832980381
 20
-162.0004475506457
 10
97.7781832980381
 20
-162.0004475506457
 10
97.7781832980381
 20
-163.5448838566832
 10
97.7781832980381
 20
-163.5448838566832
 10
97.7781832980381
 20
-163.5448838566832
 10
97.53857690703897
 20
-163.5448838566832
 10
97.53857690703897
 20
-163.5448838566832
 97
        0
 97
        1
330
C0
 75
     2
 76
     1
 98
        1
 10
0.0
 20
0.0
450
        0
451
        0
460
0.0
461
0.0
452
        0
462
0.0
453
        0
470

  0
ENDBLK
  5
BF
330
BC
100
AcDbEntity
  8
0
100
AcDbBlockEnd
  0
BLOCK
  5
C5
330
C3
100
AcDbEntity
  8
0
100
AcDbBlockBegin
  2
Block_7
 70
     0
 10
0.0
 20
0.0
 30
0.0
  3
Block_7
  1

  0
INSERT
  5
C8
330
C3
100
AcDbEntity
  8
レイヤー 1
100
AcDbBlockReference
  2
Block_8
 10
0.0
 20
0.0
 30
0.0
  0
ENDBLK
  5
C6
330
C3
100
AcDbEntity
  8
0
100
AcDbBlockEnd
  0
BLOCK
  5
C9
330
C7
100
AcDbEntity
  8
0
100
AcDbBlockBegin
  2
Block_8
 70
     0
 10
0.0
 20
0.0
 30
0.0
  3
Block_8
  1

  0
SPLINE
  5
CB
330
C7
100
AcDbEntity
  8
レイヤー 1
100
AcDbSpline
210
0.0
220
0.0
230
1.0
 70
    11
 71
     3
 72
    26
 73
    22
 74
     0
 42
0.0000000001
 43
0.0000000001
 40
0.0
 40
0.0
 40
0.0
 40
0.0
 40
1.0
 40
1.0
 40
1.0
 40
2.0
 40
2.0
 40
2.0
 40
3.0
 40
3.0
 40
3.0
 40
4.0
 40
4.0
 40
4.0
 40
5.0
 40
5.0
 40
5.0
 40
6.0
 40
6.0
 40
6.0
 40
7.0
 40
7.0
 40
7.0
 40
7.0
 10
99.60391165044626
 20
-141.5469156547174
 30
0.0
 10
99.60391165044626
 20
-141.5469156547174
 30
0.0
 10
99.60391165044626
 20
-140.4425902969206
 30
0.0
 10
99.60391165044626
 20
-140.4425902969206
 30
0.0
 10
99.60391165044626
 20
-140.4425902969206
 30
0.0
 10
99.2514783823052
 20
-140.4425902969206
 30
0.0
 10
99.2514783823052
 20
-140.4425902969206
 30
0.0
 10
99.2514783823052
 20
-140.4425902969206
 30
0.0
 10
99.2514783823052
 20
-140.2946234458291
 30
0.0
 10
99.2514783823052
 20
-140.2946234458291
 30
0.0
 10
99.60632321728592
 20
-140.2798095352425
 30
0.0
 10
99.65593259227352
 20
-140.1168565187902
 30
0.0
 10
99.68762747073782
 20
-140.0026516034542
 30
0.0
 10
99.68762747073782
 20
-140.0026516034542
 30
0.0
 10
99.84369029621964
 20
-140.0026516034542
 30
0.0
 10
99.84369029621964
 20
-140.0026516034542
 30
0.0
 10
99.84369029621964
 20
-140.0026516034542
 30
0.0
 10
99.84369029621964
 20
-141.5469156547174
 30
0.0
 10
99.84369029621964
 20
-141.5469156547174
 30
0.0
 10
99.84369029621964
 20
-141.5469156547174
 30
0.0
 10
99.60391165044626
 20
-141.5469156547174
 30
0.0
 10
99.60391165044626
 20
-141.5469156547174
 30
0.0
  0
HATCH
  5
CC
330
C7
100
AcDbEntity
  8
レイヤー 1
 62
   250
420
  2299925
440
 33554687
100
AcDbHatch
 10
0.0
 20
0.0
 30
0.0
210
0.0
220
0.0
230
1.0
  2
SOLID
 70
     1
 71
     1
 91
        1
 92
        1
 93
        1
 72
     4
 94
        3
 73
     0
 74
     0
 95
       26
 96
       22
 40
0.0
 40
0.0
 40
0.0
 40
0.0
 40
1.0
 40
1.0
 40
1.0
 40
2.0
 40
2.0
 40
2.0
 40
3.0
 40
3.0
 40
3.0
 40
4.0
 40
4.0
 40
4.0
 40
5.0
 40
5.0
 40
5.0
 40
6.0
 40
6.0
 40
6.0
 40
7.0
 40
7.0
 40
7.0
 40
7.0
 10
99.60391165044626
 20
-141.5469156547174
 10
99.60391165044626
 20
-141.5469156547174
 10
99.60391165044626
 20
-140.4425902969206
 10
99.60391165044626
 20
-140.4425902969206
 10
99.60391165044626
 20
-140.4425902969206
 10
99.2514783823052
 20
-140.4425902969206
 10
99.2514783823052
 20
-140.4425902969206
 10
99.2514783823052
 20
-140.4425902969206
 10
99.2514783823052
 20
-140.2946234458291
 10
99.2514783823052
 20
-140.2946234458291
 10
99.60632321728592
 20
-140.2798095352425
 10
99.65593259227352
 20
-140.1168565187902
 10
99.68762747073782
 20
-140.0026516034542
 10
99.68762747073782
 20
-140.0026516034542
 10
99.84369029621964
 20
-140.0026516034542
 10
99.84369029621964
 20
-140.0026516034542
 10
99.84369029621964
 20
-140.0026516034542
 10
99.84369029621964
 20
-141.5469156547174
 10
99.84369029621964
 20
-141.5469156547174
 10
99.84369029621964
 20
-141.5469156547174
 10
99.60391165044626
 20
-141.5469156547174
 10
99.60391165044626
 20
-141.5469156547174
 97
        0
 97
        1
330
CB
 75
     2
 76
     1
 98
        1
 10
0.0
 20
0.0
450
        0
451
        0
460
0.0
461
0.0
452
        0
462
0.0
453
        0
470

  0
SPLINE
  5
CD
330
C7
100
AcDbEntity
  8
レイヤー 1
100
AcDbSpline
210
0.0
220
0.0
230
1.0
 70
     9
 71
     3
 72
    44
 73
    40
 74
     0
 42
0.0000000001
 43
0.0000000001
 40
0.0
 40
0.0
 40
0.0
 40
0.0
 40
1.0
 40
1.0
 40
1.0
 40
2.0
 40
2.0
 40
2.0
 40
3.0
 40
3.0
 40
3.0
 40
4.0
 40
4.0
 40
4.0
 40
5.0
 40
5.0
 40
5.0
 40
6.0
 40
6.0
 40
6.0
 40
7.0
 40
7.0
 40
7.0
 40
8.0
 40
8.0
 40
8.0
 40
9.0
 40
9.0
 40
9.0
 40
10.0
 40
10.0
 40
10.0
 40
11.0
 40
11.0
 40
11.0
 40
12.0
 40
12.0
 40
12.0
 40
13.0
 40
13.0
 40
13.0
 40
13.0
 10
101.0133002134619
 20
-140.9650390272587
 30
0.0
 10
100.7804117586591
 20
-141.1238579291287
 30
0.0
 10
100.6808484991353
 20
-141.1979274820616
 30
0.0
 10
100.628827557308
 20
-141.3415879637965
 30
0.0
 10
100.628827557308
 20
-141.3415879637965
 30
0.0
 10
101.4611626265444
 20
-141.3415879637965
 30
0.0
 10
101.4611626265444
 20
-141.3415879637965
 30
0.0
 10
101.4611626265444
 20
-141.3415879637965
 30
0.0
 10
101.4611626265444
 20
-141.5469156547174
 30
0.0
 10
101.4611626265444
 20
-141.5469156547174
 30
0.0
 10
101.4611626265444
 20
-141.5469156547174
 30
0.0
 10
100.3621771667497
 20
-141.5469156547174
 30
0.0
 10
100.3621771667497
 20
-141.5469156547174
 30
0.0
 10
100.3962836120537
 20
-141.1893147433485
 30
0.0
 10
100.4662190504042
 20
-141.1111110758333
 30
0.0
 10
100.8775634513431
 20
-140.8127658068107
 30
0.0
 10
101.1511040328719
 20
-140.6139837973118
 30
0.0
 10
101.221383980771
 20
-140.5462876710266
 30
0.0
 10
101.221383980771
 20
-140.4088283611651
 30
0.0
 10
101.221383980771
 20
-140.2903170764725
 30
0.0
 10
101.1445583514499
 20
-140.1592311932588
 30
0.0
 10
100.9340630173012
 20
-140.1592311932588
 30
0.0
 10
100.6560438116415
 20
-140.1592311932588
 30
0.0
 10
100.6470865633799
 20
-140.389708081222
 30
0.0
 10
100.6426079392491
 20
-140.5061523086234
 30
0.0
 10
100.6426079392491
 20
-140.5061523086234
 30
0.0
 10
100.4028292934757
 20
-140.5061523086234
 30
0.0
 10
100.4028292934757
 20
-140.5061523086234
 30
0.0
 10
100.4117865417373
 20
-140.379200539992
 30
0.0
 10
100.4231553568386
 20
-140.2670626819471
 30
0.0
 10
100.5092827439699
 20
-140.1485513972545
 30
0.0
 10
100.6267605000169
 20
-139.9878376928676
 30
0.0
 10
100.8255425095158
 20
-139.9539035023379
 30
0.0
 10
100.9499104565333
 20
-139.9539035023379
 30
0.0
 10
101.2461886682648
 20
-139.9539035023379
 30
0.0
 10
101.4677083079664
 20
-140.1380438560245
 30
0.0
 10
101.4677083079664
 20
-140.4108954184563
 30
0.0
 10
101.4677083079664
 20
-140.6393052491283
 30
0.0
 10
101.3433403609489
 20
-140.7386962538778
 30
0.0
 10
101.0133002134619
 20
-140.9650390272587
 30
0.0
  0
HATCH
  5
CE
330
C7
100
AcDbEntity
  8
レイヤー 1
 62
   250
420
  2299925
440
 33554687
100
AcDbHatch
 10
0.0
 20
0.0
 30
0.0
210
0.0
220
0.0
230
1.0
  2
SOLID
 70
     1
 71
     1
 91
        1
 92
        1
 93
        1
 72
     4
 94
        3
 73
     0
 74
     0
 95
       44
 96
       40
 40
0.0
 40
0.0
 40
0.0
 40
0.0
 40
1.0
 40
1.0
 40
1.0
 40
2.0
 40
2.0
 40
2.0
 40
3.0
 40
3.0
 40
3.0
 40
4.0
 40
4.0
 40
4.0
 40
5.0
 40
5.0
 40
5.0
 40
6.0
 40
6.0
 40
6.0
 40
7.0
 40
7.0
 40
7.0
 40
8.0
 40
8.0
 40
8.0
 40
9.0
 40
9.0
 40
9.0
 40
10.0
 40
10.0
 40
10.0
 40
11.0
 40
11.0
 40
11.0
 40
12.0
 40
12.0
 40
12.0
 40
13.0
 40
13.0
 40
13.0
 40
13.0
 10
101.0133002134619
 20
-140.9650390272587
 10
100.7804117586591
 20
-141.1238579291287
 10
100.6808484991353
 20
-141.1979274820616
 10
100.628827557308
 20
-141.3415879637965
 10
100.628827557308
 20
-141.3415879637965
 10
101.4611626265444
 20
-141.3415879637965
 10
101.4611626265444
 20
-141.3415879637965
 10
101.4611626265444
 20
-141.3415879637965
 10
101.4611626265444
 20
-141.5469156547174
 10
101.4611626265444
 20
-141.5469156547174
 10
101.4611626265444
 20
-141.5469156547174
 10
100.3621771667497
 20
-141.5469156547174
 10
100.3621771667497
 20
-141.5469156547174
 10
100.3962836120537
 20
-141.1893147433485
 10
100.4662190504042
 20
-141.1111110758333
 10
100.8775634513431
 20
-140.8127658068107
 10
101.1511040328719
 20
-140.6139837973118
 10
101.221383980771
 20
-140.5462876710266
 10
101.221383980771
 20
-140.4088283611651
 10
101.221383980771
 20
-140.2903170764725
 10
101.1445583514499
 20
-140.1592311932588
 10
100.9340630173012
 20
-140.1592311932588
 10
100.6560438116415
 20
-140.1592311932588
 10
100.6470865633799
 20
-140.389708081222
 10
100.6426079392491
 20
-140.5061523086234
 10
100.6426079392491
 20
-140.5061523086234
 10
100.4028292934757
 20
-140.5061523086234
 10
100.4028292934757
 20
-140.5061523086234
 10
100.4117865417373
 20
-140.379200539992
 10
100.4231553568386
 20
-140.2670626819471
 10
100.5092827439699
 20
-140.1485513972545
 10
100.6267605000169
 20
-139.9878376928676
 10
100.8255425095158
 20
-139.9539035023379
 10
100.9499104565333
 20
-139.9539035023379
 10
101.2461886682648
 20
-139.9539035023379
 10
101.4677083079664
 20
-140.1380438560245
 10
101.4677083079664
 20
-140.4108954184563
 10
101.4677083079664
 20
-140.6393052491283
 10
101.3433403609489
 20
-140.7386962538778
 10
101.0133002134619
 20
-140.9650390272587
 97
        0
 97
        1
330
CD
 75
     2
 76
     1
 98
        1
 10
0.0
 20
0.0
450
        0
451
        0
460
0.0
461
0.0
452
        0
462
0.0
453
        0
470

  0
SPLINE
  5
CF
330
C7
100
AcDbEntity
  8
レイヤー 1
100
AcDbSpline
210
0.0
220
0.0
230
1.0
 70
    11
 71
     3
 72
    17
 73
    13
 74
     0
 42
0.0000000001
 43
0.0000000001
 40
0.0
 40
0.0
 40
0.0
 40
0.0
 40
1.0
 40
1.0
 40
1.0
 40
2.0
 40
2.0
 40
2.0
 40
3.0
 40
3.0
 40
3.0
 40
4.0
 40
4.0
 40
4.0
 40
4.0
 10
101.7012857818663
 20
-141.5469156547174
 30
0.0
 10
101.7012857818663
 20
-141.5469156547174
 30
0.0
 10
101.7012857818663
 20
-141.2950791747457
 30
0.0
 10
101.7012857818663
 20
-141.2950791747457
 30
0.0
 10
101.7012857818663
 20
-141.2950791747457
 30
0.0
 10
101.9703477392643
 20
-141.2950791747457
 30
0.0
 10
101.9703477392643
 20
-141.2950791747457
 30
0.0
 10
101.9703477392643
 20
-141.2950791747457
 30
0.0
 10
101.9703477392643
 20
-141.5469156547174
 30
0.0
 10
101.9703477392643
 20
-141.5469156547174
 30
0.0
 10
101.9703477392643
 20
-141.5469156547174
 30
0.0
 10
101.7012857818663
 20
-141.5469156547174
 30
0.0
 10
101.7012857818663
 20
-141.5469156547174
 30
0.0
  0
HATCH
  5
D0
330
C7
100
AcDbEntity
  8
レイヤー 1
 62
   250
420
  2299925
440
 33554687
100
AcDbHatch
 10
0.0
 20
0.0
 30
0.0
210
0.0
220
0.0
230
1.0
  2
SOLID
 70
     1
 71
     1
 91
        1
 92
        1
 93
        1
 72
     4
 94
        3
 73
     0
 74
     0
 95
       17
 96
       13
 40
0.0
 40
0.0
 40
0.0
 40
0.0
 40
1.0
 40
1.0
 40
1.0
 40
2.0
 40
2.0
 40
2.0
 40
3.0
 40
3.0
 40
3.0
 40
4.0
 40
4.0
 40
4.0
 40
4.0
 10
101.7012857818663
 20
-141.5469156547174
 10
101.7012857818663
 20
-141.5469156547174
 10
101.7012857818663
 20
-141.2950791747457
 10
101.7012857818663
 20
-141.2950791747457
 10
101.7012857818663
 20
-141.2950791747457
 10
101.9703477392643
 20
-141.2950791747457
 10
101.9703477392643
 20
-141.2950791747457
 10
101.9703477392643
 20
-141.2950791747457
 10
101.9703477392643
 20
-141.5469156547174
 10
101.9703477392643
 20
-141.5469156547174
 10
101.9703477392643
 20
-141.5469156547174
 10
101.7012857818663
 20
-141.5469156547174
 10
101.7012857818663
 20
-141.5469156547174
 97
        0
 97
        1
330
CF
 75
     2
 76
     1
 98
        1
 10
0.0
 20
0.0
450
        0
451
        0
460
0.0
461
0.0
452
        0
462
0.0
453
        0
470

  0
SPLINE
  5
D1
330
C7
100
AcDbEntity
  8
レイヤー 1
100
AcDbSpline
210
0.0
220
0.0
230
1.0
 70
     9
 71
     3
 72
    17
 73
    13
 74
     0
 42
0.0000000001
 43
0.0000000001
 40
0.0
 40
0.0
 40
0.0
 40
0.0
 40
1.0
 40
1.0
 40
1.0
 40
2.0
 40
2.0
 40
2.0
 40
3.0
 40
3.0
 40
3.0
 40
4.0
 40
4.0
 40
4.0
 40
4.0
 10
102.7572075480954
 20
-140.1464843399634
 30
0.0
 10
102.5808186592506
 20
-140.1464843399634
 30
0.0
 10
102.490557157537
 20
-140.2415689753562
 30
0.0
 10
102.490557157537
 20
-140.3769612279265
 30
0.0
 10
102.490557157537
 20
-140.4997788819757
 30
0.0
 10
102.5673827868581
 20
-140.6182901666683
 30
0.0
 10
102.7572075480954
 20
-140.6182901666683
 30
0.0
 10
102.9473768188812
 20
-140.6182901666683
 30
0.0
 10
103.0242024482023
 20
-140.4997788819757
 30
0.0
 10
103.0242024482023
 20
-140.3769612279265
 30
0.0
 10
103.0242024482023
 20
-140.2415689753562
 30
0.0
 10
102.931529379649
 20
-140.1464843399634
 30
0.0
 10
102.7572075480954
 20
-140.1464843399634
 30
0.0
  0
SPLINE
  5
D2
330
C7
100
AcDbEntity
  8
レイヤー 1
100
AcDbSpline
210
0.0
220
0.0
230
1.0
 70
     9
 71
     3
 72
    17
 73
    13
 74
     0
 42
0.0000000001
 43
0.0000000001
 40
0.0
 40
0.0
 40
0.0
 40
0.0
 40
1.0
 40
1.0
 40
1.0
 40
2.0
 40
2.0
 40
2.0
 40
3.0
 40
3.0
 40
3.0
 40
4.0
 40
4.0
 40
4.0
 40
4.0
 10
102.7572075480954
 20
-140.8065646349372
 30
0.0
 10
102.6035562894533
 20
-140.8065646349372
 30
0.0
 10
102.4409477825495
 20
-140.8933810411655
 30
0.0
 10
102.4409477825495
 20
-141.0962971652467
 30
0.0
 10
102.4409477825495
 20
-141.3016248561676
 30
0.0
 10
102.5763400351198
 20
-141.402910663434
 30
0.0
 10
102.7572075480954
 20
-141.402910663434
 30
0.0
 10
102.9563340671428
 20
-141.402910663434
 30
0.0
 10
103.0738118231899
 20
-141.2802652641591
 30
0.0
 10
103.0738118231899
 20
-141.1024983371202
 30
0.0
 10
103.0738118231899
 20
-140.8806341878701
 30
0.0
 10
102.8998345011847
 20
-140.8065646349372
 30
0.0
 10
102.7572075480954
 20
-140.8065646349372
 30
0.0
  0
SPLINE
  5
D3
330
C7
100
AcDbEntity
  8
レイヤー 1
100
AcDbSpline
210
0.0
220
0.0
230
1.0
 70
     9
 71
     3
 72
    29
 73
    25
 74
     0
 42
0.0000000001
 43
0.0000000001
 40
0.0
 40
0.0
 40
0.0
 40
0.0
 40
1.0
 40
1.0
 40
1.0
 40
2.0
 40
2.0
 40
2.0
 40
3.0
 40
3.0
 40
3.0
 40
4.0
 40
4.0
 40
4.0
 40
5.0
 40
5.0
 40
5.0
 40
6.0
 40
6.0
 40
6.0
 40
7.0
 40
7.0
 40
7.0
 40
8.0
 40
8.0
 40
8.0
 40
8.0
 10
102.7572075480954
 20
-141.5975585583506
 30
0.0
 10
102.4726426610138
 20
-141.5975585583506
 30
0.0
 10
102.2011691367761
 20
-141.4600992484891
 30
0.0
 10
102.2011691367761
 20
-141.1111110758333
 30
0.0
 10
102.2011691367761
 20
-140.8551404812792
 30
0.0
 10
102.3527533381271
 20
-140.7600558458864
 30
0.0
 10
102.4657524700433
 20
-140.6985608914746
 30
0.0
 10
102.3324272747641
 20
-140.6393052491283
 30
0.0
 10
102.2507785117637
 20
-140.5251003337923
 30
0.0
 10
102.2507785117637
 20
-140.3643866294054
 30
0.0
 10
102.2507785117637
 20
-140.0892957549082
 30
0.0
 10
102.4633409032036
 20
-139.9539035023379
 30
0.0
 10
102.7572075480954
 20
-139.9539035023379
 30
0.0
 10
103.0603759507974
 20
-139.9539035023379
 30
0.0
 10
103.2636365844271
 20
-140.0977362388471
 30
0.0
 10
103.2636365844271
 20
-140.3643866294054
 30
0.0
 10
103.2636365844271
 20
-140.5251003337923
 30
0.0
 10
103.1802652736841
 20
-140.6393052491283
 30
0.0
 10
103.0465955688564
 20
-140.6985608914746
 30
0.0
 10
103.1416802042493
 20
-140.7493760498821
 30
0.0
 10
103.3111789021236
 20
-140.844460685275
 30
0.0
 10
103.3111789021236
 20
-141.106976961251
 30
0.0
 10
103.3111789021236
 20
-141.4814588404977
 30
0.0
 10
103.0128336331009
 20
-141.5975585583506
 30
0.0
 10
102.7572075480954
 20
-141.5975585583506
 30
0.0
  0
HATCH
  5
D4
330
C7
100
AcDbEntity
  8
レイヤー 1
 62
   250
420
  2299925
440
 33554687
100
AcDbHatch
 10
0.0
 20
0.0
 30
0.0
210
0.0
220
0.0
230
1.0
  2
SOLID
 70
     1
 71
     1
 91
        3
 92
        1
 93
        1
 72
     4
 94
        3
 73
     0
 74
     0
 95
       17
 96
       13
 40
0.0
 40
0.0
 40
0.0
 40
0.0
 40
1.0
 40
1.0
 40
1.0
 40
2.0
 40
2.0
 40
2.0
 40
3.0
 40
3.0
 40
3.0
 40
4.0
 40
4.0
 40
4.0
 40
4.0
 10
102.7572075480954
 20
-140.1464843399634
 10
102.5808186592506
 20
-140.1464843399634
 10
102.490557157537
 20
-140.2415689753562
 10
102.490557157537
 20
-140.3769612279265
 10
102.490557157537
 20
-140.4997788819757
 10
102.5673827868581
 20
-140.6182901666683
 10
102.7572075480954
 20
-140.6182901666683
 10
102.9473768188812
 20
-140.6182901666683
 10
103.0242024482023
 20
-140.4997788819757
 10
103.0242024482023
 20
-140.3769612279265
 10
103.0242024482023
 20
-140.2415689753562
 10
102.931529379649
 20
-140.1464843399634
 10
102.7572075480954
 20
-140.1464843399634
 97
        0
 97
        1
330
D1
 92
        1
 93
        1
 72
     4
 94
        3
 73
     0
 74
     0
 95
       17
 96
       13
 40
0.0
 40
0.0
 40
0.0
 40
0.0
 40
1.0
 40
1.0
 40
1.0
 40
2.0
 40
2.0
 40
2.0
 40
3.0
 40
3.0
 40
3.0
 40
4.0
 40
4.0
 40
4.0
 40
4.0
 10
102.7572075480954
 20
-140.8065646349372
 10
102.6035562894533
 20
-140.8065646349372
 10
102.4409477825495
 20
-140.8933810411655
 10
102.4409477825495
 20
-141.0962971652467
 10
102.4409477825495
 20
-141.3016248561676
 10
102.5763400351198
 20
-141.402910663434
 10
102.7572075480954
 20
-141.402910663434
 10
102.9563340671428
 20
-141.402910663434
 10
103.0738118231899
 20
-141.2802652641591
 10
103.0738118231899
 20
-141.1024983371202
 10
103.0738118231899
 20
-140.8806341878701
 10
102.8998345011847
 20
-140.8065646349372
 10
102.7572075480954
 20
-140.8065646349372
 97
        0
 97
        1
330
D2
 92
        1
 93
        1
 72
     4
 94
        3
 73
     0
 74
     0
 95
       29
 96
       25
 40
0.0
 40
0.0
 40
0.0
 40
0.0
 40
1.0
 40
1.0
 40
1.0
 40
2.0
 40
2.0
 40
2.0
 40
3.0
 40
3.0
 40
3.0
 40
4.0
 40
4.0
 40
4.0
 40
5.0
 40
5.0
 40
5.0
 40
6.0
 40
6.0
 40
6.0
 40
7.0
 40
7.0
 40
7.0
 40
8.0
 40
8.0
 40
8.0
 40
8.0
 10
102.7572075480954
 20
-141.5975585583506
 10
102.4726426610138
 20
-141.5975585583506
 10
102.2011691367761
 20
-141.4600992484891
 10
102.2011691367761
 20
-141.1111110758333
 10
102.2011691367761
 20
-140.8551404812792
 10
102.3527533381271
 20
-140.7600558458864
 10
102.4657524700433
 20
-140.6985608914746
 10
102.3324272747641
 20
-140.6393052491283
 10
102.2507785117637
 20
-140.5251003337923
 10
102.2507785117637
 20
-140.3643866294054
 10
102.2507785117637
 20
-140.0892957549082
 10
102.4633409032036
 20
-139.9539035023379
 10
102.7572075480954
 20
-139.9539035023379
 10
103.0603759507974
 20
-139.9539035023379
 10
103.2636365844271
 20
-140.0977362388471
 10
103.2636365844271
 20
-140.3643866294054
 10
103.2636365844271
 20
-140.5251003337923
 10
103.1802652736841
 20
-140.6393052491283
 10
103.0465955688564
 20
-140.6985608914746
 10
103.1416802042493
 20
-140.7493760498821
 10
103.3111789021236
 20
-140.844460685275
 10
103.3111789021236
 20
-141.106976961251
 10
103.3111789021236
 20
-141.4814588404977
 10
103.0128336331009
 20
-141.5975585583506
 10
102.7572075480954
 20
-141.5975585583506
 97
        0
 97
        1
330
D3
 75
     2
 76
     1
 98
        1
 10
0.0
 20
0.0
450
        0
451
        0
460
0.0
461
0.0
452
        0
462
0.0
453
        0
470

  0
ENDBLK
  5
CA
330
C7
100
AcDbEntity
  8
0
100
AcDbBlockEnd
  0
BLOCK
  5
D9
330
D7
100
AcDbEntity
  8
0
100
AcDbBlockBegin
  2
Block_9
 70
     0
 10
0.0
 20
0.0
 30
0.0
  3
Block_9
  1

  0
LINE
  5
DB
330
D7
100
AcDbEntity
  8
レイヤー 1
 62
   250
420
  2299925
370
     9
100
AcDbLine
 10
109.4275125001032
 20
-135.0431828067907
 30
0.0
 11
112.263341925546
 21
-132.8095017865864
 31
0.0
  0
LWPOLYLINE
  5
DC
330
D7
100
AcDbEntity
  8
レイヤー 1
 62
   250
420
  2299925
370
     9
100
AcDbPolyline
 90
        3
 70
     0
 43
0.0
 10
110.0198453937166
 20
-134.2372559937908
 10
109.4275125001032
 20
-135.0431828067907
 10
110.3433186886711
 20
-134.6410901096329
  0
ENDBLK
  5
DA
330
D7
100
AcDbEntity
  8
0
100
AcDbBlockEnd
  0
BLOCK
  5
DF
330
DD
100
AcDbEntity
  8
0
100
AcDbBlockBegin
  2
Block_10
 70
     0
 10
0.0
 20
0.0
 30
0.0
  3
Block_10
  1

  0
INSERT
  5
E2
330
DD
100
AcDbEntity
  8
レイヤー 1
100
AcDbBlockReference
  2
Block_11
 10
0.0
 20
0.0
 30
0.0
  0
ENDBLK
  5
E0
330
DD
100
AcDbEntity
  8
0
100
AcDbBlockEnd
  0
BLOCK
  5
E3
330
E1
100
AcDbEntity
  8
0
100
AcDbBlockBegin
  2
Block_11
 70
     0
 10
0.0
 20
0.0
 30
0.0
  3
Block_11
  1

  0
SPLINE
  5
E5
330
E1
100
AcDbEntity
  8
レイヤー 1
100
AcDbSpline
210
0.0
220
0.0
230
1.0
 70
     9
 71
     3
 72
    17
 73
    13
 74
     0
 42
0.0000000001
 43
0.0000000001
 40
0.0
 40
0.0
 40
0.0
 40
0.0
 40
1.0
 40
1.0
 40
1.0
 40
2.0
 40
2.0
 40
2.0
 40
3.0
 40
3.0
 40
3.0
 40
4.0
 40
4.0
 40
4.0
 40
4.0
 10
113.8359456095618
 20
-133.0690524298404
 30
0.0
 10
113.8190646416841
 20
-133.0985079962393
 30
0.0
 10
113.7684217380509
 20
-133.1916978291152
 30
0.0
 10
113.7577419420467
 20
-133.2106458542841
 30
0.0
 10
113.948255722381
 20
-133.2699014966304
 30
0.0
 10
113.969270804841
 20
-133.2762749232781
 30
0.0
 10
114.0412733004827
 20
-133.3038356871601
 30
0.0
 10
114.0963948282467
 20
-133.2170192809318
 30
0.0
 10
114.1194769679979
 20
-133.142949727999
 30
0.0
 10
114.1342908785845
 20
-133.0690524298404
 30
0.0
 10
114.1342908785845
 20
-133.0690524298404
 30
0.0
 10
113.8359456095618
 20
-133.0690524298404
 30
0.0
 10
113.8359456095618
 20
-133.0690524298404
 30
0.0
  0
SPLINE
  5
E6
330
E1
100
AcDbEntity
  8
レイヤー 1
100
AcDbSpline
210
0.0
220
0.0
230
1.0
 70
    11
 71
     3
 72
    20
 73
    16
 74
     0
 42
0.0000000001
 43
0.0000000001
 40
0.0
 40
0.0
 40
0.0
 40
0.0
 40
1.0
 40
1.0
 40
1.0
 40
2.0
 40
2.0
 40
2.0
 40
3.0
 40
3.0
 40
3.0
 40
4.0
 40
4.0
 40
4.0
 40
5.0
 40
5.0
 40
5.0
 40
5.0
 10
113.7725558526332
 20
-132.2186306093064
 30
0.0
 10
113.7725558526332
 20
-132.2186306093064
 30
0.0
 10
113.7408609741689
 20
-132.2186306093064
 30
0.0
 10
113.7408609741689
 20
-132.2186306093064
 30
0.0
 10
113.7873697632198
 20
-132.3180216140559
 30
0.0
 10
113.8190646416841
 20
-132.3982923388622
 30
0.0
 10
113.8528265774396
 20
-132.5252441074937
 30
0.0
 10
113.8528265774396
 20
-132.5252441074937
 30
0.0
 10
114.0602213256516
 20
-132.5252441074937
 30
0.0
 10
114.0602213256516
 20
-132.5252441074937
 30
0.0
 10
114.0919162041159
 20
-132.4322265293919
 30
0.0
 10
114.1153428534156
 20
-132.347649435229
 30
0.0
 10
114.1384249931668
 20
-132.2186306093064
 30
0.0
 10
114.1384249931668
 20
-132.2186306093064
 30
0.0
 10
113.7725558526332
 20
-132.2186306093064
 30
0.0
 10
113.7725558526332
 20
-132.2186306093064
 30
0.0
  0
SPLINE
  5
E7
330
E1
100
AcDbEntity
  8
レイヤー 1
100
AcDbSpline
210
0.0
220
0.0
230
1.0
 70
     9
 71
     3
 72
   242
 73
   238
 74
     0
 42
0.0000000001
 43
0.0000000001
 40
0.0
 40
0.0
 40
0.0
 40
0.0
 40
1.0
 40
1.0
 40
1.0
 40
2.0
 40
2.0
 40
2.0
 40
3.0
 40
3.0
 40
3.0
 40
4.0
 40
4.0
 40
4.0
 40
5.0
 40
5.0
 40
5.0
 40
6.0
 40
6.0
 40
6.0
 40
7.0
 40
7.0
 40
7.0
 40
8.0
 40
8.0
 40
8.0
 40
9.0
 40
9.0
 40
9.0
 40
10.0
 40
10.0
 40
10.0
 40
11.0
 40
11.0
 40
11.0
 40
12.0
 40
12.0
 40
12.0
 40
13.0
 40
13.0
 40
13.0
 40
14.0
 40
14.0
 40
14.0
 40
15.0
 40
15.0
 40
15.0
 40
16.0
 40
16.0
 40
16.0
 40
17.0
 40
17.0
 40
17.0
 40
18.0
 40
18.0
 40
18.0
 40
19.0
 40
19.0
 40
19.0
 40
20.0
 40
20.0
 40
20.0
 40
21.0
 40
21.0
 40
21.0
 40
22.0
 40
22.0
 40
22.0
 40
23.0
 40
23.0
 40
23.0
 40
24.0
 40
24.0
 40
24.0
 40
25.0
 40
25.0
 40
25.0
 40
26.0
 40
26.0
 40
26.0
 40
27.0
 40
27.0
 40
27.0
 40
28.0
 40
28.0
 40
28.0
 40
29.0
 40
29.0
 40
29.0
 40
30.0
 40
30.0
 40
30.0
 40
31.0
 40
31.0
 40
31.0
 40
32.0
 40
32.0
 40
32.0
 40
33.0
 40
33.0
 40
33.0
 40
34.0
 40
34.0
 40
34.0
 40
35.0
 40
35.0
 40
35.0
 40
36.0
 40
36.0
 40
36.0
 40
37.0
 40
37.0
 40
37.0
 40
38.0
 40
38.0
 40
38.0
 40
39.0
 40
39.0
 40
39.0
 40
40.0
 40
40.0
 40
40.0
 40
41.0
 40
41.0
 40
41.0
 40
42.0
 40
42.0
 40
42.0
 40
43.0
 40
43.0
 40
43.0
 40
44.0
 40
44.0
 40
44.0
 40
45.0
 40
45.0
 40
45.0
 40
46.0
 40
46.0
 40
46.0
 40
47.0
 40
47.0
 40
47.0
 40
48.0
 40
48.0
 40
48.0
 40
49.0
 40
49.0
 40
49.0
 40
50.0
 40
50.0
 40
50.0
 40
51.0
 40
51.0
 40
51.0
 40
52.0
 40
52.0
 40
52.0
 40
53.0
 40
53.0
 40
53.0
 40
54.0
 40
54.0
 40
54.0
 40
55.0
 40
55.0
 40
55.0
 40
56.0
 40
56.0
 40
56.0
 40
57.0
 40
57.0
 40
57.0
 40
58.0
 40
58.0
 40
58.0
 40
59.0
 40
59.0
 40
59.0
 40
60.0
 40
60.0
 40
60.0
 40
61.0
 40
61.0
 40
61.0
 40
62.0
 40
62.0
 40
62.0
 40
63.0
 40
63.0
 40
63.0
 40
64.0
 40
64.0
 40
64.0
 40
65.0
 40
65.0
 40
65.0
 40
66.0
 40
66.0
 40
66.0
 40
67.0
 40
67.0
 40
67.0
 40
68.0
 40
68.0
 40
68.0
 40
69.0
 40
69.0
 40
69.0
 40
70.0
 40
70.0
 40
70.0
 40
71.0
 40
71.0
 40
71.0
 40
72.0
 40
72.0
 40
72.0
 40
73.0
 40
73.0
 40
73.0
 40
74.0
 40
74.0
 40
74.0
 40
75.0
 40
75.0
 40
75.0
 40
76.0
 40
76.0
 40
76.0
 40
77.0
 40
77.0
 40
77.0
 40
78.0
 40
78.0
 40
78.0
 40
79.0
 40
79.0
 40
79.0
 40
79.0
 10
114.4009412691428
 20
-132.6838907545894
 30
0.0
 10
114.4009412691428
 20
-132.6838907545894
 30
0.0
 10
114.1470377318799
 20
-132.6838907545894
 30
0.0
 10
114.1470377318799
 20
-132.6838907545894
 30
0.0
 10
114.1470377318799
 20
-132.6838907545894
 30
0.0
 10
113.8700520548658
 20
-132.6838907545894
 30
0.0
 10
113.8700520548658
 20
-132.6838907545894
 30
0.0
 10
113.8700520548658
 20
-132.6838907545894
 30
0.0
 10
113.996831568723
 20
-132.726265429058
 30
0.0
 10
113.996831568723
 20
-132.726265429058
 30
0.0
 10
114.0075113647273
 20
-132.7305717984146
 30
0.0
 10
114.0202582180227
 20
-132.736772970288
 30
0.0
 10
114.0202582180227
 20
-132.7495198235834
 30
0.0
 10
114.0202582180227
 20
-132.7707071608177
 30
0.0
 10
113.9882188300099
 20
-132.7770805874654
 30
0.0
 10
113.9672037475498
 20
-132.7812147020477
 30
0.0
 10
113.9565239515456
 20
-132.8044690965732
 30
0.0
 10
113.9268961303724
 20
-132.8700981655672
 30
0.0
 10
113.9079481052035
 20
-132.9145398973269
 30
0.0
 10
113.9079481052035
 20
-132.9145398973269
 30
0.0
 10
114.1787326103442
 20
-132.9145398973269
 30
0.0
 10
114.1787326103442
 20
-132.9145398973269
 30
0.0
 10
114.2696831311548
 20
-132.9145398973269
 30
0.0
 10
114.4663980833626
 20
-132.9102335279704
 30
0.0
 10
114.6083360173548
 20
-132.9017930440315
 30
0.0
 10
114.6083360173548
 20
-132.9017930440315
 30
0.0
 10
114.6083360173548
 20
-133.0795599710704
 30
0.0
 10
114.6083360173548
 20
-133.0795599710704
 30
0.0
 10
114.5256537257088
 20
-133.0752536017138
 30
0.0
 10
114.5046386432488
 20
-133.0752536017138
 30
0.0
 10
114.3248046589188
 20
-133.0711194871315
 30
0.0
 10
114.2931097804545
 20
-133.2254597648707
 30
0.0
 10
114.2486680486948
 20
-133.3059027444513
 30
0.0
 10
114.204226316935
 20
-133.3756659280276
 30
0.0
 10
114.3248046589188
 20
-133.4349215703739
 30
0.0
 10
114.4305690903159
 20
-133.5026176966591
 30
0.0
 10
114.534266464422
 20
-133.5851277335308
 30
0.0
 10
114.534266464422
 20
-133.5851277335308
 30
0.0
 10
114.4157551797294
 20
-133.7522148645654
 30
0.0
 10
114.4157551797294
 20
-133.7522148645654
 30
0.0
 10
114.3923285304297
 20
-133.7332668393965
 30
0.0
 10
114.3795816771343
 20
-133.7248263554577
 30
0.0
 10
114.2676160738636
 20
-133.6400770065205
 30
0.0
 10
114.2190402275216
 20
-133.6020087014085
 30
0.0
 10
114.1597845851753
 20
-133.5661797083619
 30
0.0
 10
114.0791693508205
 20
-133.5217379766022
 30
0.0
 10
113.8676404880261
 20
-133.7079453875799
 30
0.0
 10
113.6626573066538
 20
-133.7311997821054
 30
0.0
 10
113.3725802667957
 20
-133.7608276032785
 30
0.0
 10
113.3725802667957
 20
-133.7608276032785
 30
0.0
 10
113.2692274022382
 20
-133.5809936189485
 30
0.0
 10
113.2692274022382
 20
-133.5809936189485
 30
0.0
 10
113.5865206964297
 20
-133.5766872495919
 30
0.0
 10
113.7618760566289
 20
-133.5513657977753
 30
0.0
 10
113.914149277077
 20
-133.4412949970216
 30
0.0
 10
113.7959825019329
 20
-133.3904798386142
 30
0.0
 10
113.7070990384135
 20
-133.3630913295064
 30
0.0
 10
113.6709255358184
 20
-133.350344476211
 30
0.0
 10
113.6519775106495
 20
-133.377905240093
 30
0.0
 10
113.6371636000629
 20
-133.3968532652619
 30
0.0
 10
113.6096028361809
 20
-133.4307874557916
 30
0.0
 10
113.6096028361809
 20
-133.4307874557916
 30
0.0
 10
113.4128878839731
 20
-133.3482774189199
 30
0.0
 10
113.4128878839731
 20
-133.3482774189199
 30
0.0
 10
113.4955701756191
 20
-133.2678344393393
 30
0.0
 10
113.5568928752566
 20
-133.1725775491721
 30
0.0
 10
113.6137369507632
 20
-133.0711194871315
 30
0.0
 10
113.4235676799774
 20
-133.0752536017138
 30
0.0
 10
113.4022080879689
 20
-133.0752536017138
 30
0.0
 10
113.3198703058714
 20
-133.0795599710704
 30
0.0
 10
113.3198703058714
 20
-133.0795599710704
 30
0.0
 10
113.3198703058714
 20
-132.9017930440315
 30
0.0
 10
113.3198703058714
 20
-132.9017930440315
 30
0.0
 10
113.459396673024
 20
-132.9081664706792
 30
0.0
 10
113.6688584785272
 20
-132.9124728400358
 30
0.0
 10
113.694352185118
 20
-132.9124728400358
 30
0.0
 10
113.7112331529958
 20
-132.878538649506
 30
0.0
 10
113.7663546807598
 20
-132.7579603075223
 30
0.0
 10
113.7853027059287
 20
-132.6838907545894
 30
0.0
 10
113.7663546807598
 20
-132.6838907545894
 30
0.0
 10
113.5885877537209
 20
-132.6902641812371
 30
0.0
 10
113.3939398588043
 20
-132.7030110345326
 30
0.0
 10
113.3939398588043
 20
-132.7030110345326
 30
0.0
 10
113.3939398588043
 20
-132.8363362298117
 30
0.0
 10
113.3939398588043
 20
-132.8363362298117
 30
0.0
 10
113.3453640124622
 20
-132.8616576816283
 30
0.0
 10
113.286108370116
 20
-132.8933525600926
 30
0.0
 10
113.1527831748368
 20
-132.9589816290866
 30
0.0
 10
113.1527831748368
 20
-132.9589816290866
 30
0.0
 10
113.1527831748368
 20
-133.104881422887
 30
0.0
 10
113.1527831748368
 20
-133.104881422887
 30
0.0
 10
113.1527831748368
 20
-133.104881422887
 30
0.0
 10
113.1527831748368
 20
-133.5725531350096
 30
0.0
 10
113.1527831748368
 20
-133.5725531350096
 30
0.0
 10
113.1527831748368
 20
-133.6993326488668
 30
0.0
 10
113.1166096722417
 20
-133.7585882912131
 30
0.0
 10
112.8334228233541
 20
-133.7501478072743
 30
0.0
 10
112.8334228233541
 20
-133.7501478072743
 30
0.0
 10
112.7297254492481
 20
-133.5429253138365
 30
0.0
 10
112.7297254492481
 20
-133.5429253138365
 30
0.0
 10
112.7931152061767
 20
-133.5554999123576
 30
0.0
 10
112.8416910525187
 20
-133.5598062817142
 30
0.0
 10
112.8819986696961
 20
-133.5598062817142
 30
0.0
 10
112.9581352799202
 20
-133.5598062817142
 30
0.0
 10
112.9688150759244
 20
-133.5365518871888
 30
0.0
 10
112.9688150759244
 20
-133.4709228181947
 30
0.0
 10
112.9688150759244
 20
-133.4709228181947
 30
0.0
 10
112.9688150759244
 20
-133.0414916659584
 30
0.0
 10
112.9688150759244
 20
-133.0414916659584
 30
0.0
 10
112.8713188736919
 20
-133.0816270283615
 30
0.0
 10
112.8544379058141
 20
-133.0880004550092
 30
0.0
 10
112.8079291167633
 20
-133.1071207349524
 30
0.0
 10
112.803795002181
 20
-133.1281358174124
 30
0.0
 10
112.7993163780502
 20
-133.1577636385856
 30
0.0
 10
112.7803683528813
 20
-133.1577636385856
 30
0.0
 10
112.7721001237167
 20
-133.1577636385856
 30
0.0
 10
112.7614203277124
 20
-133.1536295240032
 30
0.0
 10
112.7548746462904
 20
-133.1303751294778
 30
0.0
 10
112.7548746462904
 20
-133.1303751294778
 30
0.0
 10
112.7021646853661
 20
-132.9377942918523
 30
0.0
 10
112.7021646853661
 20
-132.9377942918523
 30
0.0
 10
112.8482367339407
 20
-132.8912855028015
 30
0.0
 10
112.9136935481604
 20
-132.868031108276
 30
0.0
 10
112.9688150759244
 20
-132.8468437710417
 30
0.0
 10
112.9688150759244
 20
-132.8468437710417
 30
0.0
 10
112.9688150759244
 20
-132.4342935866831
 30
0.0
 10
112.9688150759244
 20
-132.4342935866831
 30
0.0
 10
112.9688150759244
 20
-132.4342935866831
 30
0.0
 10
112.9157606054516
 20
-132.4342935866831
 30
0.0
 10
112.9157606054516
 20
-132.4342935866831
 30
0.0
 10
112.9157606054516
 20
-132.4342935866831
 30
0.0
 10
112.8375569379364
 20
-132.4342935866831
 30
0.0
 10
112.8375569379364
 20
-132.4342935866831
 30
0.0
 10
112.769688556877
 20
-132.4342935866831
 30
0.0
 10
112.7614203277124
 20
-132.4342935866831
 30
0.0
 10
112.7252468251173
 20
-132.4406670133308
 30
0.0
 10
112.7252468251173
 20
-132.4406670133308
 30
0.0
 10
112.7252468251173
 20
-132.2460191184142
 30
0.0
 10
112.7252468251173
 20
-132.2460191184142
 30
0.0
 10
112.7528075889993
 20
-132.2523925450619
 30
0.0
 10
112.7614203277124
 20
-132.2523925450619
 30
0.0
 10
112.8310112565144
 20
-132.2523925450619
 30
0.0
 10
112.8310112565144
 20
-132.2523925450619
 30
0.0
 10
112.9643364517936
 20
-132.2523925450619
 30
0.0
 10
112.9643364517936
 20
-132.2523925450619
 30
0.0
 10
112.9643364517936
 20
-132.1826293614856
 30
0.0
 10
112.9643364517936
 20
-132.1001193246138
 30
0.0
 10
112.9622693945025
 20
-132.0958129552573
 30
0.0
 10
112.9540011653379
 20
-131.9159789709272
 30
0.0
 10
112.9540011653379
 20
-131.8970309457584
 30
0.0
 10
112.9515895984982
 20
-131.8505221567075
 30
0.0
 10
112.9515895984982
 20
-131.8505221567075
 30
0.0
 10
113.1675970854234
 20
-131.8589626406464
 30
0.0
 10
113.1675970854234
 20
-131.8589626406464
 30
0.0
 10
113.1782768814276
 20
-131.8589626406464
 30
0.0
 10
113.1992919638877
 20
-131.8610296979375
 30
0.0
 10
113.1992919638877
 20
-131.8779106658152
 30
0.0
 10
113.1992919638877
 20
-131.8970309457584
 30
0.0
 10
113.1844780533011
 20
-131.9075384869884
 30
0.0
 10
113.1589843467102
 20
-131.9266587669315
 30
0.0
 10
113.1589843467102
 20
-131.9773016705647
 30
0.0
 10
113.1527831748368
 20
-132.205883756011
 30
0.0
 10
113.1548502321279
 20
-132.2523925450619
 30
0.0
 10
113.2840413128248
 20
-132.2523925450619
 30
0.0
 10
113.2964436565717
 20
-132.2523925450619
 30
0.0
 10
113.3939398588043
 20
-132.243952061123
 30
0.0
 10
113.3939398588043
 20
-132.243952061123
 30
0.0
 10
113.3939398588043
 20
-132.4385999560396
 30
0.0
 10
113.3939398588043
 20
-132.4385999560396
 30
0.0
 10
113.355699298918
 20
-132.4363606439742
 30
0.0
 10
113.2881754274071
 20
-132.4322265293919
 30
0.0
 10
113.1527831748368
 20
-132.4342935866831
 30
0.0
 10
113.1527831748368
 20
-132.4342935866831
 30
0.0
 10
113.1527831748368
 20
-132.7727742181089
 30
0.0
 10
113.1527831748368
 20
-132.7727742181089
 30
0.0
 10
113.2079047026008
 20
-132.7495198235834
 30
0.0
 10
113.2733615168205
 20
-132.7219590597014
 30
0.0
 10
113.3219373631626
 20
-132.698704665176
 30
0.0
 10
113.3219373631626
 20
-132.698704665176
 30
0.0
 10
113.3219373631626
 20
-132.5211099929114
 30
0.0
 10
113.3219373631626
 20
-132.5211099929114
 30
0.0
 10
113.4363145332728
 20
-132.5336845914325
 30
0.0
 10
113.5548258179654
 20
-132.5336845914325
 30
0.0
 10
113.6709255358184
 20
-132.5336845914325
 30
0.0
 10
113.6478433960672
 20
-132.4385999560396
 30
0.0
 10
113.6202826321852
 20
-132.3560899191679
 30
0.0
 10
113.5568928752566
 20
-132.2227647238887
 30
0.0
 10
113.5124511434969
 20
-132.2248317811799
 30
0.0
 10
113.4297688518509
 20
-132.2291381505364
 30
0.0
 10
113.3918728015131
 20
-132.2312052078276
 30
0.0
 10
113.3918728015131
 20
-132.2312052078276
 30
0.0
 10
113.3918728015131
 20
-132.0513712234975
 30
0.0
 10
113.3918728015131
 20
-132.0513712234975
 30
0.0
 10
113.5165852580792
 20
-132.0598117074364
 30
0.0
 10
113.6902180705358
 20
-132.064118076793
 30
0.0
 10
113.7725558526332
 20
-132.064118076793
 30
0.0
 10
113.7725558526332
 20
-132.064118076793
 30
0.0
 10
113.8552381442792
 20
-132.064118076793
 30
0.0
 10
113.8552381442792
 20
-132.064118076793
 30
0.0
 10
113.8552381442792
 20
-131.9011650603407
 30
0.0
 10
113.8552381442792
 20
-131.8906575191107
 30
0.0
 10
113.8528265774396
 20
-131.8357082461209
 30
0.0
 10
113.8528265774396
 20
-131.8357082461209
 30
0.0
 10
114.0771022935293
 20
-131.8610296979375
 30
0.0
 10
114.0771022935293
 20
-131.8610296979375
 30
0.0
 10
114.0815809176601
 20
-131.8610296979375
 30
0.0
 10
114.1025960001202
 20
-131.8630967552286
 30
0.0
 10
114.1025960001202
 20
-131.8799777231064
 30
0.0
 10
114.1025960001202
 20
-131.8947916336929
 30
0.0
 10
114.0919162041159
 20
-131.9034043724061
 30
0.0
 10
114.0643554402339
 20
-131.9182182829927
 30
0.0
 10
114.0581542683605
 20
-131.9836750972124
 30
0.0
 10
114.0560872110693
 20
-132.0048624344467
 30
0.0
 10
114.0560872110693
 20
-132.064118076793
 30
0.0
 10
114.0560872110693
 20
-132.064118076793
 30
0.0
 10
114.1511718464622
 20
-132.064118076793
 30
0.0
 10
114.1511718464622
 20
-132.064118076793
 30
0.0
 10
114.2338541381082
 20
-132.064118076793
 30
0.0
 10
114.4071424410163
 20
-132.0598117074364
 30
0.0
 10
114.5321994071308
 20
-132.0513712234975
 30
0.0
 10
114.5321994071308
 20
-132.0513712234975
 30
0.0
 10
114.5321994071308
 20
-132.2312052078276
 30
0.0
 10
114.5321994071308
 20
-132.2312052078276
 30
0.0
 10
114.5025715859577
 20
-132.2291381505364
 30
0.0
 10
114.3840603012651
 20
-132.2248317811799
 30
0.0
 10
114.3437526840876
 20
-132.2227647238887
 30
0.0
 10
114.3289387735011
 20
-132.2735798822962
 30
0.0
 10
114.2951768377456
 20
-132.3857177403411
 30
0.0
 10
114.2293755139774
 20
-132.5252441074937
 30
0.0
 10
114.2717501884459
 20
-132.5252441074937
 30
0.0
 10
114.5490803750085
 20
-132.5062960823248
 30
0.0
 10
114.610403074646
 20
-132.5040567702594
 30
0.0
 10
114.610403074646
 20
-132.5040567702594
 30
0.0
 10
114.610403074646
 20
-132.688197123946
 30
0.0
 10
114.610403074646
 20
-132.688197123946
 30
0.0
 10
114.5807752534728
 20
-132.688197123946
 30
0.0
 10
114.5638942855951
 20
-132.6838907545894
 30
0.0
 10
114.4009412691428
 20
-132.6838907545894
 30
0.0
  0
HATCH
  5
E8
330
E1
100
AcDbEntity
  8
レイヤー 1
 62
   250
420
  2299925
440
 33554687
100
AcDbHatch
 10
0.0
 20
0.0
 30
0.0
210
0.0
220
0.0
230
1.0
  2
SOLID
 70
     1
 71
     1
 91
        3
 92
        1
 93
        1
 72
     4
 94
        3
 73
     0
 74
     0
 95
       17
 96
       13
 40
0.0
 40
0.0
 40
0.0
 40
0.0
 40
1.0
 40
1.0
 40
1.0
 40
2.0
 40
2.0
 40
2.0
 40
3.0
 40
3.0
 40
3.0
 40
4.0
 40
4.0
 40
4.0
 40
4.0
 10
113.8359456095618
 20
-133.0690524298404
 10
113.8190646416841
 20
-133.0985079962393
 10
113.7684217380509
 20
-133.1916978291152
 10
113.7577419420467
 20
-133.2106458542841
 10
113.948255722381
 20
-133.2699014966304
 10
113.969270804841
 20
-133.2762749232781
 10
114.0412733004827
 20
-133.3038356871601
 10
114.0963948282467
 20
-133.2170192809318
 10
114.1194769679979
 20
-133.142949727999
 10
114.1342908785845
 20
-133.0690524298404
 10
114.1342908785845
 20
-133.0690524298404
 10
113.8359456095618
 20
-133.0690524298404
 10
113.8359456095618
 20
-133.0690524298404
 97
        0
 97
        1
330
E5
 92
        1
 93
        1
 72
     4
 94
        3
 73
     0
 74
     0
 95
       20
 96
       16
 40
0.0
 40
0.0
 40
0.0
 40
0.0
 40
1.0
 40
1.0
 40
1.0
 40
2.0
 40
2.0
 40
2.0
 40
3.0
 40
3.0
 40
3.0
 40
4.0
 40
4.0
 40
4.0
 40
5.0
 40
5.0
 40
5.0
 40
5.0
 10
113.7725558526332
 20
-132.2186306093064
 10
113.7725558526332
 20
-132.2186306093064
 10
113.7408609741689
 20
-132.2186306093064
 10
113.7408609741689
 20
-132.2186306093064
 10
113.7873697632198
 20
-132.3180216140559
 10
113.8190646416841
 20
-132.3982923388622
 10
113.8528265774396
 20
-132.5252441074937
 10
113.8528265774396
 20
-132.5252441074937
 10
114.0602213256516
 20
-132.5252441074937
 10
114.0602213256516
 20
-132.5252441074937
 10
114.0919162041159
 20
-132.4322265293919
 10
114.1153428534156
 20
-132.347649435229
 10
114.1384249931668
 20
-132.2186306093064
 10
114.1384249931668
 20
-132.2186306093064
 10
113.7725558526332
 20
-132.2186306093064
 10
113.7725558526332
 20
-132.2186306093064
 97
        0
 97
        1
330
E6
 92
        1
 93
        1
 72
     4
 94
        3
 73
     0
 74
     0
 95
      242
 96
      238
 40
0.0
 40
0.0
 40
0.0
 40
0.0
 40
1.0
 40
1.0
 40
1.0
 40
2.0
 40
2.0
 40
2.0
 40
3.0
 40
3.0
 40
3.0
 40
4.0
 40
4.0
 40
4.0
 40
5.0
 40
5.0
 40
5.0
 40
6.0
 40
6.0
 40
6.0
 40
7.0
 40
7.0
 40
7.0
 40
8.0
 40
8.0
 40
8.0
 40
9.0
 40
9.0
 40
9.0
 40
10.0
 40
10.0
 40
10.0
 40
11.0
 40
11.0
 40
11.0
 40
12.0
 40
12.0
 40
12.0
 40
13.0
 40
13.0
 40
13.0
 40
14.0
 40
14.0
 40
14.0
 40
15.0
 40
15.0
 40
15.0
 40
16.0
 40
16.0
 40
16.0
 40
17.0
 40
17.0
 40
17.0
 40
18.0
 40
18.0
 40
18.0
 40
19.0
 40
19.0
 40
19.0
 40
20.0
 40
20.0
 40
20.0
 40
21.0
 40
21.0
 40
21.0
 40
22.0
 40
22.0
 40
22.0
 40
23.0
 40
23.0
 40
23.0
 40
24.0
 40
24.0
 40
24.0
 40
25.0
 40
25.0
 40
25.0
 40
26.0
 40
26.0
 40
26.0
 40
27.0
 40
27.0
 40
27.0
 40
28.0
 40
28.0
 40
28.0
 40
29.0
 40
29.0
 40
29.0
 40
30.0
 40
30.0
 40
30.0
 40
31.0
 40
31.0
 40
31.0
 40
32.0
 40
32.0
 40
32.0
 40
33.0
 40
33.0
 40
33.0
 40
34.0
 40
34.0
 40
34.0
 40
35.0
 40
35.0
 40
35.0
 40
36.0
 40
36.0
 40
36.0
 40
37.0
 40
37.0
 40
37.0
 40
38.0
 40
38.0
 40
38.0
 40
39.0
 40
39.0
 40
39.0
 40
40.0
 40
40.0
 40
40.0
 40
41.0
 40
41.0
 40
41.0
 40
42.0
 40
42.0
 40
42.0
 40
43.0
 40
43.0
 40
43.0
 40
44.0
 40
44.0
 40
44.0
 40
45.0
 40
45.0
 40
45.0
 40
46.0
 40
46.0
 40
46.0
 40
47.0
 40
47.0
 40
47.0
 40
48.0
 40
48.0
 40
48.0
 40
49.0
 40
49.0
 40
49.0
 40
50.0
 40
50.0
 40
50.0
 40
51.0
 40
51.0
 40
51.0
 40
52.0
 40
52.0
 40
52.0
 40
53.0
 40
53.0
 40
53.0
 40
54.0
 40
54.0
 40
54.0
 40
55.0
 40
55.0
 40
55.0
 40
56.0
 40
56.0
 40
56.0
 40
57.0
 40
57.0
 40
57.0
 40
58.0
 40
58.0
 40
58.0
 40
59.0
 40
59.0
 40
59.0
 40
60.0
 40
60.0
 40
60.0
 40
61.0
 40
61.0
 40
61.0
 40
62.0
 40
62.0
 40
62.0
 40
63.0
 40
63.0
 40
63.0
 40
64.0
 40
64.0
 40
64.0
 40
65.0
 40
65.0
 40
65.0
 40
66.0
 40
66.0
 40
66.0
 40
67.0
 40
67.0
 40
67.0
 40
68.0
 40
68.0
 40
68.0
 40
69.0
 40
69.0
 40
69.0
 40
70.0
 40
70.0
 40
70.0
 40
71.0
 40
71.0
 40
71.0
 40
72.0
 40
72.0
 40
72.0
 40
73.0
 40
73.0
 40
73.0
 40
74.0
 40
74.0
 40
74.0
 40
75.0
 40
75.0
 40
75.0
 40
76.0
 40
76.0
 40
76.0
 40
77.0
 40
77.0
 40
77.0
 40
78.0
 40
78.0
 40
78.0
 40
79.0
 40
79.0
 40
79.0
 40
79.0
 10
114.4009412691428
 20
-132.6838907545894
 10
114.4009412691428
 20
-132.6838907545894
 10
114.1470377318799
 20
-132.6838907545894
 10
114.1470377318799
 20
-132.6838907545894
 10
114.1470377318799
 20
-132.6838907545894
 10
113.8700520548658
 20
-132.6838907545894
 10
113.8700520548658
 20
-132.6838907545894
 10
113.8700520548658
 20
-132.6838907545894
 10
113.996831568723
 20
-132.726265429058
 10
113.996831568723
 20
-132.726265429058
 10
114.0075113647273
 20
-132.7305717984146
 10
114.0202582180227
 20
-132.736772970288
 10
114.0202582180227
 20
-132.7495198235834
 10
114.0202582180227
 20
-132.7707071608177
 10
113.9882188300099
 20
-132.7770805874654
 10
113.9672037475498
 20
-132.7812147020477
 10
113.9565239515456
 20
-132.8044690965732
 10
113.9268961303724
 20
-132.8700981655672
 10
113.9079481052035
 20
-132.9145398973269
 10
113.9079481052035
 20
-132.9145398973269
 10
114.1787326103442
 20
-132.9145398973269
 10
114.1787326103442
 20
-132.9145398973269
 10
114.2696831311548
 20
-132.9145398973269
 10
114.4663980833626
 20
-132.9102335279704
 10
114.6083360173548
 20
-132.9017930440315
 10
114.6083360173548
 20
-132.9017930440315
 10
114.6083360173548
 20
-133.0795599710704
 10
114.6083360173548
 20
-133.0795599710704
 10
114.5256537257088
 20
-133.0752536017138
 10
114.5046386432488
 20
-133.0752536017138
 10
114.3248046589188
 20
-133.0711194871315
 10
114.2931097804545
 20
-133.2254597648707
 10
114.2486680486948
 20
-133.3059027444513
 10
114.204226316935
 20
-133.3756659280276
 10
114.3248046589188
 20
-133.4349215703739
 10
114.4305690903159
 20
-133.5026176966591
 10
114.534266464422
 20
-133.5851277335308
 10
114.534266464422
 20
-133.5851277335308
 10
114.4157551797294
 20
-133.7522148645654
 10
114.4157551797294
 20
-133.7522148645654
 10
114.3923285304297
 20
-133.7332668393965
 10
114.3795816771343
 20
-133.7248263554577
 10
114.2676160738636
 20
-133.6400770065205
 10
114.2190402275216
 20
-133.6020087014085
 10
114.1597845851753
 20
-133.5661797083619
 10
114.0791693508205
 20
-133.5217379766022
 10
113.8676404880261
 20
-133.7079453875799
 10
113.6626573066538
 20
-133.7311997821054
 10
113.3725802667957
 20
-133.7608276032785
 10
113.3725802667957
 20
-133.7608276032785
 10
113.2692274022382
 20
-133.5809936189485
 10
113.2692274022382
 20
-133.5809936189485
 10
113.5865206964297
 20
-133.5766872495919
 10
113.7618760566289
 20
-133.5513657977753
 10
113.914149277077
 20
-133.4412949970216
 10
113.7959825019329
 20
-133.3904798386142
 10
113.7070990384135
 20
-133.3630913295064
 10
113.6709255358184
 20
-133.350344476211
 10
113.6519775106495
 20
-133.377905240093
 10
113.6371636000629
 20
-133.3968532652619
 10
113.6096028361809
 20
-133.4307874557916
 10
113.6096028361809
 20
-133.4307874557916
 10
113.4128878839731
 20
-133.3482774189199
 10
113.4128878839731
 20
-133.3482774189199
 10
113.4955701756191
 20
-133.2678344393393
 10
113.5568928752566
 20
-133.1725775491721
 10
113.6137369507632
 20
-133.0711194871315
 10
113.4235676799774
 20
-133.0752536017138
 10
113.4022080879689
 20
-133.0752536017138
 10
113.3198703058714
 20
-133.0795599710704
 10
113.3198703058714
 20
-133.0795599710704
 10
113.3198703058714
 20
-132.9017930440315
 10
113.3198703058714
 20
-132.9017930440315
 10
113.459396673024
 20
-132.9081664706792
 10
113.6688584785272
 20
-132.9124728400358
 10
113.694352185118
 20
-132.9124728400358
 10
113.7112331529958
 20
-132.878538649506
 10
113.7663546807598
 20
-132.7579603075223
 10
113.7853027059287
 20
-132.6838907545894
 10
113.7663546807598
 20
-132.6838907545894
 10
113.5885877537209
 20
-132.6902641812371
 10
113.3939398588043
 20
-132.7030110345326
 10
113.3939398588043
 20
-132.7030110345326
 10
113.3939398588043
 20
-132.8363362298117
 10
113.3939398588043
 20
-132.8363362298117
 10
113.3453640124622
 20
-132.8616576816283
 10
113.286108370116
 20
-132.8933525600926
 10
113.1527831748368
 20
-132.9589816290866
 10
113.1527831748368
 20
-132.9589816290866
 10
113.1527831748368
 20
-133.104881422887
 10
113.1527831748368
 20
-133.104881422887
 10
113.1527831748368
 20
-133.104881422887
 10
113.1527831748368
 20
-133.5725531350096
 10
113.1527831748368
 20
-133.5725531350096
 10
113.1527831748368
 20
-133.6993326488668
 10
113.1166096722417
 20
-133.7585882912131
 10
112.8334228233541
 20
-133.7501478072743
 10
112.8334228233541
 20
-133.7501478072743
 10
112.7297254492481
 20
-133.5429253138365
 10
112.7297254492481
 20
-133.5429253138365
 10
112.7931152061767
 20
-133.5554999123576
 10
112.8416910525187
 20
-133.5598062817142
 10
112.8819986696961
 20
-133.5598062817142
 10
112.9581352799202
 20
-133.5598062817142
 10
112.9688150759244
 20
-133.5365518871888
 10
112.9688150759244
 20
-133.4709228181947
 10
112.9688150759244
 20
-133.4709228181947
 10
112.9688150759244
 20
-133.0414916659584
 10
112.9688150759244
 20
-133.0414916659584
 10
112.8713188736919
 20
-133.0816270283615
 10
112.8544379058141
 20
-133.0880004550092
 10
112.8079291167633
 20
-133.1071207349524
 10
112.803795002181
 20
-133.1281358174124
 10
112.7993163780502
 20
-133.1577636385856
 10
112.7803683528813
 20
-133.1577636385856
 10
112.7721001237167
 20
-133.1577636385856
 10
112.7614203277124
 20
-133.1536295240032
 10
112.7548746462904
 20
-133.1303751294778
 10
112.7548746462904
 20
-133.1303751294778
 10
112.7021646853661
 20
-132.9377942918523
 10
112.7021646853661
 20
-132.9377942918523
 10
112.8482367339407
 20
-132.8912855028015
 10
112.9136935481604
 20
-132.868031108276
 10
112.9688150759244
 20
-132.8468437710417
 10
112.9688150759244
 20
-132.8468437710417
 10
112.9688150759244
 20
-132.4342935866831
 10
112.9688150759244
 20
-132.4342935866831
 10
112.9688150759244
 20
-132.4342935866831
 10
112.9157606054516
 20
-132.4342935866831
 10
112.9157606054516
 20
-132.4342935866831
 10
112.9157606054516
 20
-132.4342935866831
 10
112.8375569379364
 20
-132.4342935866831
 10
112.8375569379364
 20
-132.4342935866831
 10
112.769688556877
 20
-132.4342935866831
 10
112.7614203277124
 20
-132.4342935866831
 10
112.7252468251173
 20
-132.4406670133308
 10
112.7252468251173
 20
-132.4406670133308
 10
112.7252468251173
 20
-132.2460191184142
 10
112.7252468251173
 20
-132.2460191184142
 10
112.7528075889993
 20
-132.2523925450619
 10
112.7614203277124
 20
-132.2523925450619
 10
112.8310112565144
 20
-132.2523925450619
 10
112.8310112565144
 20
-132.2523925450619
 10
112.9643364517936
 20
-132.2523925450619
 10
112.9643364517936
 20
-132.2523925450619
 10
112.9643364517936
 20
-132.1826293614856
 10
112.9643364517936
 20
-132.1001193246138
 10
112.9622693945025
 20
-132.0958129552573
 10
112.9540011653379
 20
-131.9159789709272
 10
112.9540011653379
 20
-131.8970309457584
 10
112.9515895984982
 20
-131.8505221567075
 10
112.9515895984982
 20
-131.8505221567075
 10
113.1675970854234
 20
-131.8589626406464
 10
113.1675970854234
 20
-131.8589626406464
 10
113.1782768814276
 20
-131.8589626406464
 10
113.1992919638877
 20
-131.8610296979375
 10
113.1992919638877
 20
-131.8779106658152
 10
113.1992919638877
 20
-131.8970309457584
 10
113.1844780533011
 20
-131.9075384869884
 10
113.1589843467102
 20
-131.9266587669315
 10
113.1589843467102
 20
-131.9773016705647
 10
113.1527831748368
 20
-132.205883756011
 10
113.1548502321279
 20
-132.2523925450619
 10
113.2840413128248
 20
-132.2523925450619
 10
113.2964436565717
 20
-132.2523925450619
 10
113.3939398588043
 20
-132.243952061123
 10
113.3939398588043
 20
-132.243952061123
 10
113.3939398588043
 20
-132.4385999560396
 10
113.3939398588043
 20
-132.4385999560396
 10
113.355699298918
 20
-132.4363606439742
 10
113.2881754274071
 20
-132.4322265293919
 10
113.1527831748368
 20
-132.4342935866831
 10
113.1527831748368
 20
-132.4342935866831
 10
113.1527831748368
 20
-132.7727742181089
 10
113.1527831748368
 20
-132.7727742181089
 10
113.2079047026008
 20
-132.7495198235834
 10
113.2733615168205
 20
-132.7219590597014
 10
113.3219373631626
 20
-132.698704665176
 10
113.3219373631626
 20
-132.698704665176
 10
113.3219373631626
 20
-132.5211099929114
 10
113.3219373631626
 20
-132.5211099929114
 10
113.4363145332728
 20
-132.5336845914325
 10
113.5548258179654
 20
-132.5336845914325
 10
113.6709255358184
 20
-132.5336845914325
 10
113.6478433960672
 20
-132.4385999560396
 10
113.6202826321852
 20
-132.3560899191679
 10
113.5568928752566
 20
-132.2227647238887
 10
113.5124511434969
 20
-132.2248317811799
 10
113.4297688518509
 20
-132.2291381505364
 10
113.3918728015131
 20
-132.2312052078276
 10
113.3918728015131
 20
-132.2312052078276
 10
113.3918728015131
 20
-132.0513712234975
 10
113.3918728015131
 20
-132.0513712234975
 10
113.5165852580792
 20
-132.0598117074364
 10
113.6902180705358
 20
-132.064118076793
 10
113.7725558526332
 20
-132.064118076793
 10
113.7725558526332
 20
-132.064118076793
 10
113.8552381442792
 20
-132.064118076793
 10
113.8552381442792
 20
-132.064118076793
 10
113.8552381442792
 20
-131.9011650603407
 10
113.8552381442792
 20
-131.8906575191107
 10
113.8528265774396
 20
-131.8357082461209
 10
113.8528265774396
 20
-131.8357082461209
 10
114.0771022935293
 20
-131.8610296979375
 10
114.0771022935293
 20
-131.8610296979375
 10
114.0815809176601
 20
-131.8610296979375
 10
114.1025960001202
 20
-131.8630967552286
 10
114.1025960001202
 20
-131.8799777231064
 10
114.1025960001202
 20
-131.8947916336929
 10
114.0919162041159
 20
-131.9034043724061
 10
114.0643554402339
 20
-131.9182182829927
 10
114.0581542683605
 20
-131.9836750972124
 10
114.0560872110693
 20
-132.0048624344467
 10
114.0560872110693
 20
-132.064118076793
 10
114.0560872110693
 20
-132.064118076793
 10
114.1511718464622
 20
-132.064118076793
 10
114.1511718464622
 20
-132.064118076793
 10
114.2338541381082
 20
-132.064118076793
 10
114.4071424410163
 20
-132.0598117074364
 10
114.5321994071308
 20
-132.0513712234975
 10
114.5321994071308
 20
-132.0513712234975
 10
114.5321994071308
 20
-132.2312052078276
 10
114.5321994071308
 20
-132.2312052078276
 10
114.5025715859577
 20
-132.2291381505364
 10
114.3840603012651
 20
-132.2248317811799
 10
114.3437526840876
 20
-132.2227647238887
 10
114.3289387735011
 20
-132.2735798822962
 10
114.2951768377456
 20
-132.3857177403411
 10
114.2293755139774
 20
-132.5252441074937
 10
114.2717501884459
 20
-132.5252441074937
 10
114.5490803750085
 20
-132.5062960823248
 10
114.610403074646
 20
-132.5040567702594
 10
114.610403074646
 20
-132.5040567702594
 10
114.610403074646
 20
-132.688197123946
 10
114.610403074646
 20
-132.688197123946
 10
114.5807752534728
 20
-132.688197123946
 10
114.5638942855951
 20
-132.6838907545894
 10
114.4009412691428
 20
-132.6838907545894
 97
        0
 97
        1
330
E7
 75
     2
 76
     1
 98
        1
 10
0.0
 20
0.0
450
        0
451
        0
460
0.0
461
0.0
452
        0
462
0.0
453
        0
470

  0
SPLINE
  5
E9
330
E1
100
AcDbEntity
  8
レイヤー 1
100
AcDbSpline
210
0.0
220
0.0
230
1.0
 70
    11
 71
     3
 72
    17
 73
    13
 74
     0
 42
0.0000000001
 43
0.0000000001
 40
0.0
 40
0.0
 40
0.0
 40
0.0
 40
1.0
 40
1.0
 40
1.0
 40
2.0
 40
2.0
 40
2.0
 40
3.0
 40
3.0
 40
3.0
 40
4.0
 40
4.0
 40
4.0
 40
4.0
 10
116.2575032261439
 20
-133.4836696714902
 30
0.0
 10
116.2575032261439
 20
-133.4836696714902
 30
0.0
 10
115.5509141421192
 20
-133.4836696714902
 30
0.0
 10
115.5509141421192
 20
-133.4836696714902
 30
0.0
 10
115.5509141421192
 20
-133.4836696714902
 30
0.0
 10
115.5509141421192
 20
-133.5978745868262
 30
0.0
 10
115.5509141421192
 20
-133.5978745868262
 30
0.0
 10
115.5509141421192
 20
-133.5978745868262
 30
0.0
 10
116.2575032261439
 20
-133.5978745868262
 30
0.0
 10
116.2575032261439
 20
-133.5978745868262
 30
0.0
 10
116.2575032261439
 20
-133.5978745868262
 30
0.0
 10
116.2575032261439
 20
-133.4836696714902
 30
0.0
 10
116.2575032261439
 20
-133.4836696714902
 30
0.0
  0
SPLINE
  5
EA
330
E1
100
AcDbEntity
  8
レイヤー 1
100
AcDbSpline
210
0.0
220
0.0
230
1.0
 70
    11
 71
     3
 72
    17
 73
    13
 74
     0
 42
0.0000000001
 43
0.0000000001
 40
0.0
 40
0.0
 40
0.0
 40
0.0
 40
1.0
 40
1.0
 40
1.0
 40
2.0
 40
2.0
 40
2.0
 40
3.0
 40
3.0
 40
3.0
 40
4.0
 40
4.0
 40
4.0
 40
4.0
 10
116.2575032261439
 20
-133.2402736754573
 30
0.0
 10
116.2575032261439
 20
-133.2402736754573
 30
0.0
 10
115.5509141421192
 20
-133.2402736754573
 30
0.0
 10
115.5509141421192
 20
-133.2402736754573
 30
0.0
 10
115.5509141421192
 20
-133.2402736754573
 30
0.0
 10
115.5509141421192
 20
-133.3546508455676
 30
0.0
 10
115.5509141421192
 20
-133.3546508455676
 30
0.0
 10
115.5509141421192
 20
-133.3546508455676
 30
0.0
 10
116.2575032261439
 20
-133.3546508455676
 30
0.0
 10
116.2575032261439
 20
-133.3546508455676
 30
0.0
 10
116.2575032261439
 20
-133.3546508455676
 30
0.0
 10
116.2575032261439
 20
-133.2402736754573
 30
0.0
 10
116.2575032261439
 20
-133.2402736754573
 30
0.0
  0
SPLINE
  5
EB
330
E1
100
AcDbEntity
  8
レイヤー 1
100
AcDbSpline
210
0.0
220
0.0
230
1.0
 70
    11
 71
     3
 72
    17
 73
    13
 74
     0
 42
0.0000000001
 43
0.0000000001
 40
0.0
 40
0.0
 40
0.0
 40
0.0
 40
1.0
 40
1.0
 40
1.0
 40
2.0
 40
2.0
 40
2.0
 40
3.0
 40
3.0
 40
3.0
 40
4.0
 40
4.0
 40
4.0
 40
4.0
 10
116.2575032261439
 20
-133.0075574754287
 30
0.0
 10
116.2575032261439
 20
-133.0075574754287
 30
0.0
 10
115.5509141421192
 20
-133.0075574754287
 30
0.0
 10
115.5509141421192
 20
-133.0075574754287
 30
0.0
 10
115.5509141421192
 20
-133.0075574754287
 30
0.0
 10
115.5509141421192
 20
-133.1155612188912
 30
0.0
 10
115.5509141421192
 20
-133.1155612188912
 30
0.0
 10
115.5509141421192
 20
-133.1155612188912
 30
0.0
 10
116.2575032261439
 20
-133.1155612188912
 30
0.0
 10
116.2575032261439
 20
-133.1155612188912
 30
0.0
 10
116.2575032261439
 20
-133.1155612188912
 30
0.0
 10
116.2575032261439
 20
-133.0075574754287
 30
0.0
 10
116.2575032261439
 20
-133.0075574754287
 30
0.0
  0
SPLINE
  5
EC
330
E1
100
AcDbEntity
  8
レイヤー 1
100
AcDbSpline
210
0.0
220
0.0
230
1.0
 70
     9
 71
     3
 72
   203
 73
   199
 74
     0
 42
0.0000000001
 43
0.0000000001
 40
0.0
 40
0.0
 40
0.0
 40
0.0
 40
1.0
 40
1.0
 40
1.0
 40
2.0
 40
2.0
 40
2.0
 40
3.0
 40
3.0
 40
3.0
 40
4.0
 40
4.0
 40
4.0
 40
5.0
 40
5.0
 40
5.0
 40
6.0
 40
6.0
 40
6.0
 40
7.0
 40
7.0
 40
7.0
 40
8.0
 40
8.0
 40
8.0
 40
9.0
 40
9.0
 40
9.0
 40
10.0
 40
10.0
 40
10.0
 40
11.0
 40
11.0
 40
11.0
 40
12.0
 40
12.0
 40
12.0
 40
13.0
 40
13.0
 40
13.0
 40
14.0
 40
14.0
 40
14.0
 40
15.0
 40
15.0
 40
15.0
 40
16.0
 40
16.0
 40
16.0
 40
17.0
 40
17.0
 40
17.0
 40
18.0
 40
18.0
 40
18.0
 40
19.0
 40
19.0
 40
19.0
 40
20.0
 40
20.0
 40
20.0
 40
21.0
 40
21.0
 40
21.0
 40
22.0
 40
22.0
 40
22.0
 40
23.0
 40
23.0
 40
23.0
 40
24.0
 40
24.0
 40
24.0
 40
25.0
 40
25.0
 40
25.0
 40
26.0
 40
26.0
 40
26.0
 40
27.0
 40
27.0
 40
27.0
 40
28.0
 40
28.0
 40
28.0
 40
29.0
 40
29.0
 40
29.0
 40
30.0
 40
30.0
 40
30.0
 40
31.0
 40
31.0
 40
31.0
 40
32.0
 40
32.0
 40
32.0
 40
33.0
 40
33.0
 40
33.0
 40
34.0
 40
34.0
 40
34.0
 40
35.0
 40
35.0
 40
35.0
 40
36.0
 40
36.0
 40
36.0
 40
37.0
 40
37.0
 40
37.0
 40
38.0
 40
38.0
 40
38.0
 40
39.0
 40
39.0
 40
39.0
 40
40.0
 40
40.0
 40
40.0
 40
41.0
 40
41.0
 40
41.0
 40
42.0
 40
42.0
 40
42.0
 40
43.0
 40
43.0
 40
43.0
 40
44.0
 40
44.0
 40
44.0
 40
45.0
 40
45.0
 40
45.0
 40
46.0
 40
46.0
 40
46.0
 40
47.0
 40
47.0
 40
47.0
 40
48.0
 40
48.0
 40
48.0
 40
49.0
 40
49.0
 40
49.0
 40
50.0
 40
50.0
 40
50.0
 40
51.0
 40
51.0
 40
51.0
 40
52.0
 40
52.0
 40
52.0
 40
53.0
 40
53.0
 40
53.0
 40
54.0
 40
54.0
 40
54.0
 40
55.0
 40
55.0
 40
55.0
 40
56.0
 40
56.0
 40
56.0
 40
57.0
 40
57.0
 40
57.0
 40
58.0
 40
58.0
 40
58.0
 40
59.0
 40
59.0
 40
59.0
 40
60.0
 40
60.0
 40
60.0
 40
61.0
 40
61.0
 40
61.0
 40
62.0
 40
62.0
 40
62.0
 40
63.0
 40
63.0
 40
63.0
 40
64.0
 40
64.0
 40
64.0
 40
65.0
 40
65.0
 40
65.0
 40
66.0
 40
66.0
 40
66.0
 40
66.0
 10
116.0924831524005
 20
-132.7515868808746
 30
0.0
 10
116.0924831524005
 20
-132.7515868808746
 30
0.0
 10
115.533688664693
 20
-132.7515868808746
 30
0.0
 10
115.533688664693
 20
-132.7515868808746
 30
0.0
 10
115.5233533782372
 20
-132.7960286126343
 30
0.0
 10
115.5147406395241
 20
-132.8277234910986
 30
0.0
 10
115.5019937862286
 20
-132.8659640509849
 30
0.0
 10
115.5274874928195
 20
-132.8659640509849
 30
0.0
 10
115.5423014034061
 20
-132.868031108276
 30
0.0
 10
115.5485025752795
 20
-132.868031108276
 30
0.0
 10
115.5485025752795
 20
-132.868031108276
 30
0.0
 10
115.7369492983227
 20
-132.868031108276
 30
0.0
 10
115.7369492983227
 20
-132.868031108276
 30
0.0
 10
115.7369492983227
 20
-132.868031108276
 30
0.0
 10
116.1114311775693
 20
-132.868031108276
 30
0.0
 10
116.1114311775693
 20
-132.868031108276
 30
0.0
 10
116.1620740812025
 20
-132.868031108276
 30
0.0
 10
116.4456054396386
 20
-132.8552842549806
 30
0.0
 10
116.4773003181029
 20
-132.8552842549806
 30
0.0
 10
116.4752332608117
 20
-132.8828450188626
 30
0.0
 10
116.4731662035206
 20
-132.9017930440315
 30
0.0
 10
116.4731662035206
 20
-132.9314208652046
 30
0.0
 10
116.4710991462294
 20
-132.9631157436689
 30
0.0
 10
116.4710991462294
 20
-133.0985079962393
 30
0.0
 10
116.4710991462294
 20
-133.1260687601212
 30
0.0
 10
116.4710991462294
 20
-133.1260687601212
 30
0.0
 10
116.4710991462294
 20
-133.3715318134453
 30
0.0
 10
116.4710991462294
 20
-133.3715318134453
 30
0.0
 10
116.4710991462294
 20
-133.415973545205
 30
0.0
 10
116.4752332608117
 20
-133.6126884974128
 30
0.0
 10
116.479367375394
 20
-133.7649617178608
 30
0.0
 10
116.479367375394
 20
-133.7649617178608
 30
0.0
 10
116.2530246020131
 20
-133.7649617178608
 30
0.0
 10
116.2530246020131
 20
-133.7649617178608
 30
0.0
 10
116.2530246020131
 20
-133.7649617178608
 30
0.0
 10
116.2550916593042
 20
-133.7311997821054
 30
0.0
 10
116.2550916593042
 20
-133.7311997821054
 30
0.0
 10
116.2550916593042
 20
-133.7311997821054
 30
0.0
 10
115.5529811994103
 20
-133.7311997821054
 30
0.0
 10
115.5529811994103
 20
-133.7311997821054
 30
0.0
 10
115.5529811994103
 20
-133.7311997821054
 30
0.0
 10
115.5550482567015
 20
-133.7649617178608
 30
0.0
 10
115.5550482567015
 20
-133.7649617178608
 30
0.0
 10
115.5550482567015
 20
-133.7649617178608
 30
0.0
 10
115.3369737124852
 20
-133.7649617178608
 30
0.0
 10
115.3369737124852
 20
-133.7649617178608
 30
0.0
 10
115.341452336616
 20
-133.7100124448711
 30
0.0
 10
115.341452336616
 20
-133.6972655915757
 30
0.0
 10
115.3476535084895
 20
-133.5830606762396
 30
0.0
 10
115.3497205657806
 20
-133.5554999123576
 30
0.0
 10
115.3517876230718
 20
-133.4223469718527
 30
0.0
 10
115.3517876230718
 20
-133.4032266919096
 30
0.0
 10
115.3517876230718
 20
-133.4032266919096
 30
0.0
 10
115.3517876230718
 20
-133.2001383130541
 30
0.0
 10
115.3517876230718
 20
-133.2001383130541
 30
0.0
 10
115.2122612559191
 20
-133.4497354809605
 30
0.0
 10
115.0431070675934
 20
-133.5809936189485
 30
0.0
 10
114.9373426361962
 20
-133.6464504331682
 30
0.0
 10
114.9373426361962
 20
-133.6464504331682
 30
0.0
 10
114.7637098237396
 20
-133.5069240660156
 30
0.0
 10
114.7637098237396
 20
-133.5069240660156
 30
0.0
 10
114.852593287259
 20
-133.4561089076082
 30
0.0
 10
114.9965982785425
 20
-133.3692925013799
 30
0.0
 10
115.134057588404
 20
-133.1748168612375
 30
0.0
 10
115.2250081092146
 20
-133.0478650926061
 30
0.0
 10
115.2904649234343
 20
-132.9040323560969
 30
0.0
 10
115.3245713687383
 20
-132.7515868808746
 30
0.0
 10
115.0958170285177
 20
-132.75382619294
 30
0.0
 10
114.9159830441876
 20
-132.7601996195877
 30
0.0
 10
114.8208984087947
 20
-132.7622666768789
 30
0.0
 10
114.8208984087947
 20
-132.7622666768789
 30
0.0
 10
114.8208984087947
 20
-132.58449974984
 30
0.0
 10
114.8208984087947
 20
-132.58449974984
 30
0.0
 10
115.0176133610025
 20
-132.5908731764877
 30
0.0
 10
115.3011447194386
 20
-132.5951795458442
 30
0.0
 10
115.4513508825955
 20
-132.5951795458442
 30
0.0
 10
115.4513508825955
 20
-132.5951795458442
 30
0.0
 10
115.664946802681
 20
-132.5951795458442
 30
0.0
 10
115.664946802681
 20
-132.5951795458442
 30
0.0
 10
115.664946802681
 20
-132.5951795458442
 30
0.0
 10
115.664946802681
 20
-132.4871758023816
 30
0.0
 10
115.664946802681
 20
-132.4871758023816
 30
0.0
 10
115.664946802681
 20
-132.4871758023816
 30
0.0
 10
115.5188747541064
 20
-132.4871758023816
 30
0.0
 10
115.5188747541064
 20
-132.4871758023816
 30
0.0
 10
115.3497205657806
 20
-132.4871758023816
 30
0.0
 10
115.1805663774548
 20
-132.4914821717382
 30
0.0
 10
115.0134792464202
 20
-132.4978555983859
 30
0.0
 10
115.0134792464202
 20
-132.4978555983859
 30
0.0
 10
115.0134792464202
 20
-132.3264620979948
 30
0.0
 10
115.0134792464202
 20
-132.3264620979948
 30
0.0
 10
115.1678195241594
 20
-132.3369696392248
 30
0.0
 10
115.3538546803629
 20
-132.3369696392248
 30
0.0
 10
115.5188747541064
 20
-132.3369696392248
 30
0.0
 10
115.5188747541064
 20
-132.3369696392248
 30
0.0
 10
115.664946802681
 20
-132.3369696392248
 30
0.0
 10
115.664946802681
 20
-132.3369696392248
 30
0.0
 10
115.664946802681
 20
-132.3369696392248
 30
0.0
 10
115.664946802681
 20
-132.2186306093064
 30
0.0
 10
115.664946802681
 20
-132.2186306093064
 30
0.0
 10
115.664946802681
 20
-132.2186306093064
 30
0.0
 10
115.533688664693
 20
-132.2186306093064
 30
0.0
 10
115.533688664693
 20
-132.2186306093064
 30
0.0
 10
115.4871798756421
 20
-132.2186306093064
 30
0.0
 10
115.2842637515609
 20
-132.2270710932453
 30
0.0
 10
115.2418890770923
 20
-132.2270710932453
 30
0.0
 10
115.0389729530111
 20
-132.2312052078276
 30
0.0
 10
114.9624918332385
 20
-132.2332722651188
 30
0.0
 10
114.8842881657234
 20
-132.2355115771842
 30
0.0
 10
114.8842881657234
 20
-132.2355115771842
 30
0.0
 10
114.8842881657234
 20
-132.0513712234975
 30
0.0
 10
114.8842881657234
 20
-132.0513712234975
 30
0.0
 10
114.9986653358336
 20
-132.0598117074364
 30
0.0
 10
115.0431070675934
 20
-132.0598117074364
 30
0.0
 10
115.4258571760046
 20
-132.0684244461496
 30
0.0
 10
115.362467419076
 20
-131.9731675559824
 30
0.0
 10
115.334906655194
 20
-131.9456067921004
 30
0.0
 10
115.2990776621474
 20
-131.9096055442795
 30
0.0
 10
115.2990776621474
 20
-131.9096055442795
 30
0.0
 10
115.4744330223467
 20
-131.8270955074078
 30
0.0
 10
115.4744330223467
 20
-131.8270955074078
 30
0.0
 10
115.5147406395241
 20
-131.8630967552286
 30
0.0
 10
115.5591823712838
 20
-131.9054714296972
 30
0.0
 10
115.6332519242167
 20
-132.0153699756767
 30
0.0
 10
115.6332519242167
 20
-132.0153699756767
 30
0.0
 10
115.5188747541064
 20
-132.0704915034407
 30
0.0
 10
115.5188747541064
 20
-132.0704915034407
 30
0.0
 10
115.5188747541064
 20
-132.0704915034407
 30
0.0
 10
115.5295545501106
 20
-132.0704915034407
 30
0.0
 10
115.5295545501106
 20
-132.0704915034407
 30
0.0
 10
115.5295545501106
 20
-132.0704915034407
 30
0.0
 10
116.052175535223
 20
-132.0704915034407
 30
0.0
 10
116.052175535223
 20
-132.0704915034407
 30
0.0
 10
116.052175535223
 20
-132.0704915034407
 30
0.0
 10
115.9570908998301
 20
-132.026049771681
 30
0.0
 10
115.9570908998301
 20
-132.026049771681
 30
0.0
 10
115.9843071541636
 20
-131.987981466569
 30
0.0
 10
116.0414957392188
 20
-131.9075384869884
 30
0.0
 10
116.0563096498054
 20
-131.8334689340555
 30
0.0
 10
116.0563096498054
 20
-131.8334689340555
 30
0.0
 10
116.2699055698908
 20
-131.8970309457584
 30
0.0
 10
116.2699055698908
 20
-131.8970309457584
 30
0.0
 10
116.278518308604
 20
-131.8990980030495
 30
0.0
 10
116.299533391064
 20
-131.9096055442795
 30
0.0
 10
116.299533391064
 20
-131.9307928815138
 30
0.0
 10
116.299533391064
 20
-131.9688611866258
 30
0.0
 10
116.2340765768442
 20
-131.9688611866258
 30
0.0
 10
116.2151285516754
 20
-131.9688611866258
 30
0.0
 10
116.2044487556711
 20
-131.987981466569
 30
0.0
 10
116.1810221063714
 20
-132.0281168289721
 30
0.0
 10
116.1513942851982
 20
-132.0684244461496
 30
0.0
 10
116.5513698710358
 20
-132.0620510195018
 30
0.0
 10
116.5809976922089
 20
-132.0598117074364
 30
0.0
 10
116.6571343024329
 20
-132.053610535563
 30
0.0
 10
116.6571343024329
 20
-132.053610535563
 30
0.0
 10
116.6571343024329
 20
-132.2355115771842
 30
0.0
 10
116.6571343024329
 20
-132.2355115771842
 30
0.0
 10
116.638186277264
 20
-132.2355115771842
 30
0.0
 10
116.6126925706732
 20
-132.2332722651188
 30
0.0
 10
116.3928954787142
 20
-132.2248317811799
 30
0.0
 10
116.3419080655325
 20
-132.2227647238887
 30
0.0
 10
116.1221109735736
 20
-132.2186306093064
 30
0.0
 10
116.0776692418139
 20
-132.2186306093064
 30
0.0
 10
116.0776692418139
 20
-132.2186306093064
 30
0.0
 10
115.8616617548887
 20
-132.2186306093064
 30
0.0
 10
115.8616617548887
 20
-132.2186306093064
 30
0.0
 10
115.8616617548887
 20
-132.2186306093064
 30
0.0
 10
115.8616617548887
 20
-132.3369696392248
 30
0.0
 10
115.8616617548887
 20
-132.3369696392248
 30
0.0
 10
115.8616617548887
 20
-132.3369696392248
 30
0.0
 10
116.0352945673453
 20
-132.3369696392248
 30
0.0
 10
116.0352945673453
 20
-132.3369696392248
 30
0.0
 10
116.1982475837976
 20
-132.3369696392248
 30
0.0
 10
116.3884168545834
 20
-132.3369696392248
 30
0.0
 10
116.5451686991623
 20
-132.3264620979948
 30
0.0
 10
116.5451686991623
 20
-132.3264620979948
 30
0.0
 10
116.5451686991623
 20
-132.4978555983859
 30
0.0
 10
116.5451686991623
 20
-132.4978555983859
 30
0.0
 10
116.3357068936591
 20
-132.4894151144471
 30
0.0
 10
116.1389919414513
 20
-132.4871758023816
 30
0.0
 10
116.0352945673453
 20
-132.4871758023816
 30
0.0
 10
116.0352945673453
 20
-132.4871758023816
 30
0.0
 10
115.8616617548887
 20
-132.4871758023816
 30
0.0
 10
115.8616617548887
 20
-132.4871758023816
 30
0.0
 10
115.8616617548887
 20
-132.4871758023816
 30
0.0
 10
115.8616617548887
 20
-132.5951795458442
 30
0.0
 10
115.8616617548887
 20
-132.5951795458442
 30
0.0
 10
115.8616617548887
 20
-132.5951795458442
 30
0.0
 10
116.0924831524005
 20
-132.5951795458442
 30
0.0
 10
116.0924831524005
 20
-132.5951795458442
 30
0.0
 10
116.2254638381311
 20
-132.5951795458442
 30
0.0
 10
116.513473820698
 20
-132.5908731764877
 30
0.0
 10
116.7225911166527
 20
-132.58449974984
 30
0.0
 10
116.7225911166527
 20
-132.58449974984
 30
0.0
 10
116.7225911166527
 20
-132.7622666768789
 30
0.0
 10
116.7225911166527
 20
-132.7622666768789
 30
0.0
 10
116.5303547885757
 20
-132.7558932502311
 30
0.0
 10
116.2171956089665
 20
-132.7515868808746
 30
0.0
 10
116.0924831524005
 20
-132.7515868808746
 30
0.0
  0
HATCH
  5
ED
330
E1
100
AcDbEntity
  8
レイヤー 1
 62
   250
420
  2299925
440
 33554687
100
AcDbHatch
 10
0.0
 20
0.0
 30
0.0
210
0.0
220
0.0
230
1.0
  2
SOLID
 70
     1
 71
     1
 91
        4
 92
        1
 93
        1
 72
     4
 94
        3
 73
     0
 74
     0
 95
       17
 96
       13
 40
0.0
 40
0.0
 40
0.0
 40
0.0
 40
1.0
 40
1.0
 40
1.0
 40
2.0
 40
2.0
 40
2.0
 40
3.0
 40
3.0
 40
3.0
 40
4.0
 40
4.0
 40
4.0
 40
4.0
 10
116.2575032261439
 20
-133.4836696714902
 10
116.2575032261439
 20
-133.4836696714902
 10
115.5509141421192
 20
-133.4836696714902
 10
115.5509141421192
 20
-133.4836696714902
 10
115.5509141421192
 20
-133.4836696714902
 10
115.5509141421192
 20
-133.5978745868262
 10
115.5509141421192
 20
-133.5978745868262
 10
115.5509141421192
 20
-133.5978745868262
 10
116.2575032261439
 20
-133.5978745868262
 10
116.2575032261439
 20
-133.5978745868262
 10
116.2575032261439
 20
-133.5978745868262
 10
116.2575032261439
 20
-133.4836696714902
 10
116.2575032261439
 20
-133.4836696714902
 97
        0
 97
        1
330
E9
 92
        1
 93
        1
 72
     4
 94
        3
 73
     0
 74
     0
 95
       17
 96
       13
 40
0.0
 40
0.0
 40
0.0
 40
0.0
 40
1.0
 40
1.0
 40
1.0
 40
2.0
 40
2.0
 40
2.0
 40
3.0
 40
3.0
 40
3.0
 40
4.0
 40
4.0
 40
4.0
 40
4.0
 10
116.2575032261439
 20
-133.2402736754573
 10
116.2575032261439
 20
-133.2402736754573
 10
115.5509141421192
 20
-133.2402736754573
 10
115.5509141421192
 20
-133.2402736754573
 10
115.5509141421192
 20
-133.2402736754573
 10
115.5509141421192
 20
-133.3546508455676
 10
115.5509141421192
 20
-133.3546508455676
 10
115.5509141421192
 20
-133.3546508455676
 10
116.2575032261439
 20
-133.3546508455676
 10
116.2575032261439
 20
-133.3546508455676
 10
116.2575032261439
 20
-133.3546508455676
 10
116.2575032261439
 20
-133.2402736754573
 10
116.2575032261439
 20
-133.2402736754573
 97
        0
 97
        1
330
EA
 92
        1
 93
        1
 72
     4
 94
        3
 73
     0
 74
     0
 95
       17
 96
       13
 40
0.0
 40
0.0
 40
0.0
 40
0.0
 40
1.0
 40
1.0
 40
1.0
 40
2.0
 40
2.0
 40
2.0
 40
3.0
 40
3.0
 40
3.0
 40
4.0
 40
4.0
 40
4.0
 40
4.0
 10
116.2575032261439
 20
-133.0075574754287
 10
116.2575032261439
 20
-133.0075574754287
 10
115.5509141421192
 20
-133.0075574754287
 10
115.5509141421192
 20
-133.0075574754287
 10
115.5509141421192
 20
-133.0075574754287
 10
115.5509141421192
 20
-133.1155612188912
 10
115.5509141421192
 20
-133.1155612188912
 10
115.5509141421192
 20
-133.1155612188912
 10
116.2575032261439
 20
-133.1155612188912
 10
116.2575032261439
 20
-133.1155612188912
 10
116.2575032261439
 20
-133.1155612188912
 10
116.2575032261439
 20
-133.0075574754287
 10
116.2575032261439
 20
-133.0075574754287
 97
        0
 97
        1
330
EB
 92
        1
 93
        1
 72
     4
 94
        3
 73
     0
 74
     0
 95
      203
 96
      199
 40
0.0
 40
0.0
 40
0.0
 40
0.0
 40
1.0
 40
1.0
 40
1.0
 40
2.0
 40
2.0
 40
2.0
 40
3.0
 40
3.0
 40
3.0
 40
4.0
 40
4.0
 40
4.0
 40
5.0
 40
5.0
 40
5.0
 40
6.0
 40
6.0
 40
6.0
 40
7.0
 40
7.0
 40
7.0
 40
8.0
 40
8.0
 40
8.0
 40
9.0
 40
9.0
 40
9.0
 40
10.0
 40
10.0
 40
10.0
 40
11.0
 40
11.0
 40
11.0
 40
12.0
 40
12.0
 40
12.0
 40
13.0
 40
13.0
 40
13.0
 40
14.0
 40
14.0
 40
14.0
 40
15.0
 40
15.0
 40
15.0
 40
16.0
 40
16.0
 40
16.0
 40
17.0
 40
17.0
 40
17.0
 40
18.0
 40
18.0
 40
18.0
 40
19.0
 40
19.0
 40
19.0
 40
20.0
 40
20.0
 40
20.0
 40
21.0
 40
21.0
 40
21.0
 40
22.0
 40
22.0
 40
22.0
 40
23.0
 40
23.0
 40
23.0
 40
24.0
 40
24.0
 40
24.0
 40
25.0
 40
25.0
 40
25.0
 40
26.0
 40
26.0
 40
26.0
 40
27.0
 40
27.0
 40
27.0
 40
28.0
 40
28.0
 40
28.0
 40
29.0
 40
29.0
 40
29.0
 40
30.0
 40
30.0
 40
30.0
 40
31.0
 40
31.0
 40
31.0
 40
32.0
 40
32.0
 40
32.0
 40
33.0
 40
33.0
 40
33.0
 40
34.0
 40
34.0
 40
34.0
 40
35.0
 40
35.0
 40
35.0
 40
36.0
 40
36.0
 40
36.0
 40
37.0
 40
37.0
 40
37.0
 40
38.0
 40
38.0
 40
38.0
 40
39.0
 40
39.0
 40
39.0
 40
40.0
 40
40.0
 40
40.0
 40
41.0
 40
41.0
 40
41.0
 40
42.0
 40
42.0
 40
42.0
 40
43.0
 40
43.0
 40
43.0
 40
44.0
 40
44.0
 40
44.0
 40
45.0
 40
45.0
 40
45.0
 40
46.0
 40
46.0
 40
46.0
 40
47.0
 40
47.0
 40
47.0
 40
48.0
 40
48.0
 40
48.0
 40
49.0
 40
49.0
 40
49.0
 40
50.0
 40
50.0
 40
50.0
 40
51.0
 40
51.0
 40
51.0
 40
52.0
 40
52.0
 40
52.0
 40
53.0
 40
53.0
 40
53.0
 40
54.0
 40
54.0
 40
54.0
 40
55.0
 40
55.0
 40
55.0
 40
56.0
 40
56.0
 40
56.0
 40
57.0
 40
57.0
 40
57.0
 40
58.0
 40
58.0
 40
58.0
 40
59.0
 40
59.0
 40
59.0
 40
60.0
 40
60.0
 40
60.0
 40
61.0
 40
61.0
 40
61.0
 40
62.0
 40
62.0
 40
62.0
 40
63.0
 40
63.0
 40
63.0
 40
64.0
 40
64.0
 40
64.0
 40
65.0
 40
65.0
 40
65.0
 40
66.0
 40
66.0
 40
66.0
 40
66.0
 10
116.0924831524005
 20
-132.7515868808746
 10
116.0924831524005
 20
-132.7515868808746
 10
115.533688664693
 20
-132.7515868808746
 10
115.533688664693
 20
-132.7515868808746
 10
115.5233533782372
 20
-132.7960286126343
 10
115.5147406395241
 20
-132.8277234910986
 10
115.5019937862286
 20
-132.8659640509849
 10
115.5274874928195
 20
-132.8659640509849
 10
115.5423014034061
 20
-132.868031108276
 10
115.5485025752795
 20
-132.868031108276
 10
115.5485025752795
 20
-132.868031108276
 10
115.7369492983227
 20
-132.868031108276
 10
115.7369492983227
 20
-132.868031108276
 10
115.7369492983227
 20
-132.868031108276
 10
116.1114311775693
 20
-132.868031108276
 10
116.1114311775693
 20
-132.868031108276
 10
116.1620740812025
 20
-132.868031108276
 10
116.4456054396386
 20
-132.8552842549806
 10
116.4773003181029
 20
-132.8552842549806
 10
116.4752332608117
 20
-132.8828450188626
 10
116.4731662035206
 20
-132.9017930440315
 10
116.4731662035206
 20
-132.9314208652046
 10
116.4710991462294
 20
-132.9631157436689
 10
116.4710991462294
 20
-133.0985079962393
 10
116.4710991462294
 20
-133.1260687601212
 10
116.4710991462294
 20
-133.1260687601212
 10
116.4710991462294
 20
-133.3715318134453
 10
116.4710991462294
 20
-133.3715318134453
 10
116.4710991462294
 20
-133.415973545205
 10
116.4752332608117
 20
-133.6126884974128
 10
116.479367375394
 20
-133.7649617178608
 10
116.479367375394
 20
-133.7649617178608
 10
116.2530246020131
 20
-133.7649617178608
 10
116.2530246020131
 20
-133.7649617178608
 10
116.2530246020131
 20
-133.7649617178608
 10
116.2550916593042
 20
-133.7311997821054
 10
116.2550916593042
 20
-133.7311997821054
 10
116.2550916593042
 20
-133.7311997821054
 10
115.5529811994103
 20
-133.7311997821054
 10
115.5529811994103
 20
-133.7311997821054
 10
115.5529811994103
 20
-133.7311997821054
 10
115.5550482567015
 20
-133.7649617178608
 10
115.5550482567015
 20
-133.7649617178608
 10
115.5550482567015
 20
-133.7649617178608
 10
115.3369737124852
 20
-133.7649617178608
 10
115.3369737124852
 20
-133.7649617178608
 10
115.341452336616
 20
-133.7100124448711
 10
115.341452336616
 20
-133.6972655915757
 10
115.3476535084895
 20
-133.5830606762396
 10
115.3497205657806
 20
-133.5554999123576
 10
115.3517876230718
 20
-133.4223469718527
 10
115.3517876230718
 20
-133.4032266919096
 10
115.3517876230718
 20
-133.4032266919096
 10
115.3517876230718
 20
-133.2001383130541
 10
115.3517876230718
 20
-133.2001383130541
 10
115.2122612559191
 20
-133.4497354809605
 10
115.0431070675934
 20
-133.5809936189485
 10
114.9373426361962
 20
-133.6464504331682
 10
114.9373426361962
 20
-133.6464504331682
 10
114.7637098237396
 20
-133.5069240660156
 10
114.7637098237396
 20
-133.5069240660156
 10
114.852593287259
 20
-133.4561089076082
 10
114.9965982785425
 20
-133.3692925013799
 10
115.134057588404
 20
-133.1748168612375
 10
115.2250081092146
 20
-133.0478650926061
 10
115.2904649234343
 20
-132.9040323560969
 10
115.3245713687383
 20
-132.7515868808746
 10
115.0958170285177
 20
-132.75382619294
 10
114.9159830441876
 20
-132.7601996195877
 10
114.8208984087947
 20
-132.7622666768789
 10
114.8208984087947
 20
-132.7622666768789
 10
114.8208984087947
 20
-132.58449974984
 10
114.8208984087947
 20
-132.58449974984
 10
115.0176133610025
 20
-132.5908731764877
 10
115.3011447194386
 20
-132.5951795458442
 10
115.4513508825955
 20
-132.5951795458442
 10
115.4513508825955
 20
-132.5951795458442
 10
115.664946802681
 20
-132.5951795458442
 10
115.664946802681
 20
-132.5951795458442
 10
115.664946802681
 20
-132.5951795458442
 10
115.664946802681
 20
-132.4871758023816
 10
115.664946802681
 20
-132.4871758023816
 10
115.664946802681
 20
-132.4871758023816
 10
115.5188747541064
 20
-132.4871758023816
 10
115.5188747541064
 20
-132.4871758023816
 10
115.3497205657806
 20
-132.4871758023816
 10
115.1805663774548
 20
-132.4914821717382
 10
115.0134792464202
 20
-132.4978555983859
 10
115.0134792464202
 20
-132.4978555983859
 10
115.0134792464202
 20
-132.3264620979948
 10
115.0134792464202
 20
-132.3264620979948
 10
115.1678195241594
 20
-132.3369696392248
 10
115.3538546803629
 20
-132.3369696392248
 10
115.5188747541064
 20
-132.3369696392248
 10
115.5188747541064
 20
-132.3369696392248
 10
115.664946802681
 20
-132.3369696392248
 10
115.664946802681
 20
-132.3369696392248
 10
115.664946802681
 20
-132.3369696392248
 10
115.664946802681
 20
-132.2186306093064
 10
115.664946802681
 20
-132.2186306093064
 10
115.664946802681
 20
-132.2186306093064
 10
115.533688664693
 20
-132.2186306093064
 10
115.533688664693
 20
-132.2186306093064
 10
115.4871798756421
 20
-132.2186306093064
 10
115.2842637515609
 20
-132.2270710932453
 10
115.2418890770923
 20
-132.2270710932453
 10
115.0389729530111
 20
-132.2312052078276
 10
114.9624918332385
 20
-132.2332722651188
 10
114.8842881657234
 20
-132.2355115771842
 10
114.8842881657234
 20
-132.2355115771842
 10
114.8842881657234
 20
-132.0513712234975
 10
114.8842881657234
 20
-132.0513712234975
 10
114.9986653358336
 20
-132.0598117074364
 10
115.0431070675934
 20
-132.0598117074364
 10
115.4258571760046
 20
-132.0684244461496
 10
115.362467419076
 20
-131.9731675559824
 10
115.334906655194
 20
-131.9456067921004
 10
115.2990776621474
 20
-131.9096055442795
 10
115.2990776621474
 20
-131.9096055442795
 10
115.4744330223467
 20
-131.8270955074078
 10
115.4744330223467
 20
-131.8270955074078
 10
115.5147406395241
 20
-131.8630967552286
 10
115.5591823712838
 20
-131.9054714296972
 10
115.6332519242167
 20
-132.0153699756767
 10
115.6332519242167
 20
-132.0153699756767
 10
115.5188747541064
 20
-132.0704915034407
 10
115.5188747541064
 20
-132.0704915034407
 10
115.5188747541064
 20
-132.0704915034407
 10
115.5295545501106
 20
-132.0704915034407
 10
115.5295545501106
 20
-132.0704915034407
 10
115.5295545501106
 20
-132.0704915034407
 10
116.052175535223
 20
-132.0704915034407
 10
116.052175535223
 20
-132.0704915034407
 10
116.052175535223
 20
-132.0704915034407
 10
115.9570908998301
 20
-132.026049771681
 10
115.9570908998301
 20
-132.026049771681
 10
115.9843071541636
 20
-131.987981466569
 10
116.0414957392188
 20
-131.9075384869884
 10
116.0563096498054
 20
-131.8334689340555
 10
116.0563096498054
 20
-131.8334689340555
 10
116.2699055698908
 20
-131.8970309457584
 10
116.2699055698908
 20
-131.8970309457584
 10
116.278518308604
 20
-131.8990980030495
 10
116.299533391064
 20
-131.9096055442795
 10
116.299533391064
 20
-131.9307928815138
 10
116.299533391064
 20
-131.9688611866258
 10
116.2340765768442
 20
-131.9688611866258
 10
116.2151285516754
 20
-131.9688611866258
 10
116.2044487556711
 20
-131.987981466569
 10
116.1810221063714
 20
-132.0281168289721
 10
116.1513942851982
 20
-132.0684244461496
 10
116.5513698710358
 20
-132.0620510195018
 10
116.5809976922089
 20
-132.0598117074364
 10
116.6571343024329
 20
-132.053610535563
 10
116.6571343024329
 20
-132.053610535563
 10
116.6571343024329
 20
-132.2355115771842
 10
116.6571343024329
 20
-132.2355115771842
 10
116.638186277264
 20
-132.2355115771842
 10
116.6126925706732
 20
-132.2332722651188
 10
116.3928954787142
 20
-132.2248317811799
 10
116.3419080655325
 20
-132.2227647238887
 10
116.1221109735736
 20
-132.2186306093064
 10
116.0776692418139
 20
-132.2186306093064
 10
116.0776692418139
 20
-132.2186306093064
 10
115.8616617548887
 20
-132.2186306093064
 10
115.8616617548887
 20
-132.2186306093064
 10
115.8616617548887
 20
-132.2186306093064
 10
115.8616617548887
 20
-132.3369696392248
 10
115.8616617548887
 20
-132.3369696392248
 10
115.8616617548887
 20
-132.3369696392248
 10
116.0352945673453
 20
-132.3369696392248
 10
116.0352945673453
 20
-132.3369696392248
 10
116.1982475837976
 20
-132.3369696392248
 10
116.3884168545834
 20
-132.3369696392248
 10
116.5451686991623
 20
-132.3264620979948
 10
116.5451686991623
 20
-132.3264620979948
 10
116.5451686991623
 20
-132.4978555983859
 10
116.5451686991623
 20
-132.4978555983859
 10
116.3357068936591
 20
-132.4894151144471
 10
116.1389919414513
 20
-132.4871758023816
 10
116.0352945673453
 20
-132.4871758023816
 10
116.0352945673453
 20
-132.4871758023816
 10
115.8616617548887
 20
-132.4871758023816
 10
115.8616617548887
 20
-132.4871758023816
 10
115.8616617548887
 20
-132.4871758023816
 10
115.8616617548887
 20
-132.5951795458442
 10
115.8616617548887
 20
-132.5951795458442
 10
115.8616617548887
 20
-132.5951795458442
 10
116.0924831524005
 20
-132.5951795458442
 10
116.0924831524005
 20
-132.5951795458442
 10
116.2254638381311
 20
-132.5951795458442
 10
116.513473820698
 20
-132.5908731764877
 10
116.7225911166527
 20
-132.58449974984
 10
116.7225911166527
 20
-132.58449974984
 10
116.7225911166527
 20
-132.7622666768789
 10
116.7225911166527
 20
-132.7622666768789
 10
116.5303547885757
 20
-132.7558932502311
 10
116.2171956089665
 20
-132.7515868808746
 10
116.0924831524005
 20
-132.7515868808746
 97
        0
 97
        1
330
EC
 75
     2
 76
     1
 98
        1
 10
0.0
 20
0.0
450
        0
451
        0
460
0.0
461
0.0
452
        0
462
0.0
453
        0
470

  0
SPLINE
  5
EE
330
E1
100
AcDbEntity
  8
レイヤー 1
100
AcDbSpline
210
0.0
220
0.0
230
1.0
 70
     9
 71
     3
 72
    29
 73
    25
 74
     0
 42
0.0000000001
 43
0.0000000001
 40
0.0
 40
0.0
 40
0.0
 40
0.0
 40
1.0
 40
1.0
 40
1.0
 40
2.0
 40
2.0
 40
2.0
 40
3.0
 40
3.0
 40
3.0
 40
4.0
 40
4.0
 40
4.0
 40
5.0
 40
5.0
 40
5.0
 40
6.0
 40
6.0
 40
6.0
 40
7.0
 40
7.0
 40
7.0
 40
8.0
 40
8.0
 40
8.0
 40
8.0
 10
117.967648625022
 20
-132.1995103293633
 30
0.0
 10
117.967648625022
 20
-132.1995103293633
 30
0.0
 10
117.6141818282353
 20
-132.1995103293633
 30
0.0
 10
117.6141818282353
 20
-132.1995103293633
 30
0.0
 10
117.5022162249647
 20
-132.1995103293633
 30
0.0
 10
117.3626898578121
 20
-132.205883756011
 30
0.0
 10
117.2548583691238
 20
-132.2186306093064
 30
0.0
 10
117.2548583691238
 20
-132.2186306093064
 30
0.0
 10
117.2548583691238
 20
-131.9836750972124
 30
0.0
 10
117.2548583691238
 20
-131.9836750972124
 30
0.0
 10
117.3730251442678
 20
-131.998489007799
 30
0.0
 10
117.5573377527287
 20
-132.0027953771555
 30
0.0
 10
117.6141818282353
 20
-132.0027953771555
 30
0.0
 10
117.6141818282353
 20
-132.0027953771555
 30
0.0
 10
117.967648625022
 20
-132.0027953771555
 30
0.0
 10
117.967648625022
 20
-132.0027953771555
 30
0.0
 10
117.9865966501908
 20
-132.0027953771555
 30
0.0
 10
118.1898572838206
 20
-132.0027953771555
 30
0.0
 10
118.3314507082643
 20
-131.9836750972124
 30
0.0
 10
118.3314507082643
 20
-131.9836750972124
 30
0.0
 10
118.3314507082643
 20
-132.2186306093064
 30
0.0
 10
118.3314507082643
 20
-132.2186306093064
 30
0.0
 10
118.175043373234
 20
-132.1995103293633
 30
0.0
 10
117.9845295928997
 20
-132.1995103293633
 30
0.0
 10
117.967648625022
 20
-132.1995103293633
 30
0.0
  0
SPLINE
  5
EF
330
E1
100
AcDbEntity
  8
レイヤー 1
100
AcDbSpline
210
0.0
220
0.0
230
1.0
 70
     9
 71
     3
 72
    47
 73
    43
 74
     0
 42
0.0000000001
 43
0.0000000001
 40
0.0
 40
0.0
 40
0.0
 40
0.0
 40
1.0
 40
1.0
 40
1.0
 40
2.0
 40
2.0
 40
2.0
 40
3.0
 40
3.0
 40
3.0
 40
4.0
 40
4.0
 40
4.0
 40
5.0
 40
5.0
 40
5.0
 40
6.0
 40
6.0
 40
6.0
 40
7.0
 40
7.0
 40
7.0
 40
8.0
 40
8.0
 40
8.0
 40
9.0
 40
9.0
 40
9.0
 40
10.0
 40
10.0
 40
10.0
 40
11.0
 40
11.0
 40
11.0
 40
12.0
 40
12.0
 40
12.0
 40
13.0
 40
13.0
 40
13.0
 40
14.0
 40
14.0
 40
14.0
 40
14.0
 10
118.0692789418368
 20
-132.7283324863491
 30
0.0
 10
118.0692789418368
 20
-132.7283324863491
 30
0.0
 10
117.967648625022
 20
-132.7283324863491
 30
0.0
 10
117.967648625022
 20
-132.7283324863491
 30
0.0
 10
117.967648625022
 20
-132.8151488925774
 30
0.0
 10
117.9466335425619
 20
-133.2044446824107
 30
0.0
 10
117.7499185903542
 20
-133.4244140291439
 30
0.0
 10
117.5973008603576
 20
-133.5935682174697
 30
0.0
 10
117.3902506216941
 20
-133.6635036558202
 30
0.0
 10
117.3055012727569
 20
-133.690892164928
 30
0.0
 10
117.3055012727569
 20
-133.690892164928
 30
0.0
 10
117.1108533778403
 20
-133.5238050338933
 30
0.0
 10
117.1108533778403
 20
-133.5238050338933
 30
0.0
 10
117.2083495800729
 20
-133.5110581805979
 30
0.0
 10
117.3837049402721
 20
-133.4878037860725
 30
0.0
 10
117.5721516633153
 20
-133.2995293178036
 30
0.0
 10
117.6462212162482
 20
-133.2276990769361
 30
0.0
 10
117.7499185903542
 20
-133.0880004550092
 30
0.0
 10
117.7499185903542
 20
-132.7283324863491
 30
0.0
 10
117.7499185903542
 20
-132.7283324863491
 30
0.0
 10
117.5190971928424
 20
-132.7283324863491
 30
0.0
 10
117.5190971928424
 20
-132.7283324863491
 30
0.0
 10
117.3330620366389
 20
-132.7283324863491
 30
0.0
 10
117.1466823708869
 20
-132.7326388557057
 30
0.0
 10
116.9606472146834
 20
-132.7474527662923
 30
0.0
 10
116.9606472146834
 20
-132.7474527662923
 30
0.0
 10
116.9606472146834
 20
-132.5274834195591
 30
0.0
 10
116.9606472146834
 20
-132.5274834195591
 30
0.0
 10
117.1490939377266
 20
-132.5422973301457
 30
0.0
 10
117.4346923534538
 20
-132.5464314447279
 30
0.0
 10
117.5190971928424
 20
-132.5464314447279
 30
0.0
 10
117.5190971928424
 20
-132.5464314447279
 30
0.0
 10
118.0692789418368
 20
-132.5464314447279
 30
0.0
 10
118.0692789418368
 20
-132.5464314447279
 30
0.0
 10
118.0882269670057
 20
-132.5464314447279
 30
0.0
 10
118.4055202611972
 20
-132.5464314447279
 30
0.0
 10
118.6339300918693
 20
-132.5274834195591
 30
0.0
 10
118.6339300918693
 20
-132.5274834195591
 30
0.0
 10
118.6339300918693
 20
-132.7474527662923
 30
0.0
 10
118.6339300918693
 20
-132.7474527662923
 30
0.0
 10
118.4458278783746
 20
-132.7326388557057
 30
0.0
 10
118.2573811553315
 20
-132.7283324863491
 30
0.0
 10
118.0692789418368
 20
-132.7283324863491
 30
0.0
  0
HATCH
  5
F0
330
E1
100
AcDbEntity
  8
レイヤー 1
 62
   250
420
  2299925
440
 33554687
100
AcDbHatch
 10
0.0
 20
0.0
 30
0.0
210
0.0
220
0.0
230
1.0
  2
SOLID
 70
     1
 71
     1
 91
        2
 92
        1
 93
        1
 72
     4
 94
        3
 73
     0
 74
     0
 95
       29
 96
       25
 40
0.0
 40
0.0
 40
0.0
 40
0.0
 40
1.0
 40
1.0
 40
1.0
 40
2.0
 40
2.0
 40
2.0
 40
3.0
 40
3.0
 40
3.0
 40
4.0
 40
4.0
 40
4.0
 40
5.0
 40
5.0
 40
5.0
 40
6.0
 40
6.0
 40
6.0
 40
7.0
 40
7.0
 40
7.0
 40
8.0
 40
8.0
 40
8.0
 40
8.0
 10
117.967648625022
 20
-132.1995103293633
 10
117.967648625022
 20
-132.1995103293633
 10
117.6141818282353
 20
-132.1995103293633
 10
117.6141818282353
 20
-132.1995103293633
 10
117.5022162249647
 20
-132.1995103293633
 10
117.3626898578121
 20
-132.205883756011
 10
117.2548583691238
 20
-132.2186306093064
 10
117.2548583691238
 20
-132.2186306093064
 10
117.2548583691238
 20
-131.9836750972124
 10
117.2548583691238
 20
-131.9836750972124
 10
117.3730251442678
 20
-131.998489007799
 10
117.5573377527287
 20
-132.0027953771555
 10
117.6141818282353
 20
-132.0027953771555
 10
117.6141818282353
 20
-132.0027953771555
 10
117.967648625022
 20
-132.0027953771555
 10
117.967648625022
 20
-132.0027953771555
 10
117.9865966501908
 20
-132.0027953771555
 10
118.1898572838206
 20
-132.0027953771555
 10
118.3314507082643
 20
-131.9836750972124
 10
118.3314507082643
 20
-131.9836750972124
 10
118.3314507082643
 20
-132.2186306093064
 10
118.3314507082643
 20
-132.2186306093064
 10
118.175043373234
 20
-132.1995103293633
 10
117.9845295928997
 20
-132.1995103293633
 10
117.967648625022
 20
-132.1995103293633
 97
        0
 97
        1
330
EE
 92
        1
 93
        1
 72
     4
 94
        3
 73
     0
 74
     0
 95
       47
 96
       43
 40
0.0
 40
0.0
 40
0.0
 40
0.0
 40
1.0
 40
1.0
 40
1.0
 40
2.0
 40
2.0
 40
2.0
 40
3.0
 40
3.0
 40
3.0
 40
4.0
 40
4.0
 40
4.0
 40
5.0
 40
5.0
 40
5.0
 40
6.0
 40
6.0
 40
6.0
 40
7.0
 40
7.0
 40
7.0
 40
8.0
 40
8.0
 40
8.0
 40
9.0
 40
9.0
 40
9.0
 40
10.0
 40
10.0
 40
10.0
 40
11.0
 40
11.0
 40
11.0
 40
12.0
 40
12.0
 40
12.0
 40
13.0
 40
13.0
 40
13.0
 40
14.0
 40
14.0
 40
14.0
 40
14.0
 10
118.0692789418368
 20
-132.7283324863491
 10
118.0692789418368
 20
-132.7283324863491
 10
117.967648625022
 20
-132.7283324863491
 10
117.967648625022
 20
-132.7283324863491
 10
117.967648625022
 20
-132.8151488925774
 10
117.9466335425619
 20
-133.2044446824107
 10
117.7499185903542
 20
-133.4244140291439
 10
117.5973008603576
 20
-133.5935682174697
 10
117.3902506216941
 20
-133.6635036558202
 10
117.3055012727569
 20
-133.690892164928
 10
117.3055012727569
 20
-133.690892164928
 10
117.1108533778403
 20
-133.5238050338933
 10
117.1108533778403
 20
-133.5238050338933
 10
117.2083495800729
 20
-133.5110581805979
 10
117.3837049402721
 20
-133.4878037860725
 10
117.5721516633153
 20
-133.2995293178036
 10
117.6462212162482
 20
-133.2276990769361
 10
117.7499185903542
 20
-133.0880004550092
 10
117.7499185903542
 20
-132.7283324863491
 10
117.7499185903542
 20
-132.7283324863491
 10
117.5190971928424
 20
-132.7283324863491
 10
117.5190971928424
 20
-132.7283324863491
 10
117.3330620366389
 20
-132.7283324863491
 10
117.1466823708869
 20
-132.7326388557057
 10
116.9606472146834
 20
-132.7474527662923
 10
116.9606472146834
 20
-132.7474527662923
 10
116.9606472146834
 20
-132.5274834195591
 10
116.9606472146834
 20
-132.5274834195591
 10
117.1490939377266
 20
-132.5422973301457
 10
117.4346923534538
 20
-132.5464314447279
 10
117.5190971928424
 20
-132.5464314447279
 10
117.5190971928424
 20
-132.5464314447279
 10
118.0692789418368
 20
-132.5464314447279
 10
118.0692789418368
 20
-132.5464314447279
 10
118.0882269670057
 20
-132.5464314447279
 10
118.4055202611972
 20
-132.5464314447279
 10
118.6339300918693
 20
-132.5274834195591
 10
118.6339300918693
 20
-132.5274834195591
 10
118.6339300918693
 20
-132.7474527662923
 10
118.6339300918693
 20
-132.7474527662923
 10
118.4458278783746
 20
-132.7326388557057
 10
118.2573811553315
 20
-132.7283324863491
 10
118.0692789418368
 20
-132.7283324863491
 97
        0
 97
        1
330
EF
 75
     2
 76
     1
 98
        1
 10
0.0
 20
0.0
450
        0
451
        0
460
0.0
461
0.0
452
        0
462
0.0
453
        0
470

  0
SPLINE
  5
F1
330
E1
100
AcDbEntity
  8
レイヤー 1
100
AcDbSpline
210
0.0
220
0.0
230
1.0
 70
     9
 71
     3
 72
    29
 73
    25
 74
     0
 42
0.0000000001
 43
0.0000000001
 40
0.0
 40
0.0
 40
0.0
 40
0.0
 40
1.0
 40
1.0
 40
1.0
 40
2.0
 40
2.0
 40
2.0
 40
3.0
 40
3.0
 40
3.0
 40
4.0
 40
4.0
 40
4.0
 40
5.0
 40
5.0
 40
5.0
 40
6.0
 40
6.0
 40
6.0
 40
7.0
 40
7.0
 40
7.0
 40
8.0
 40
8.0
 40
8.0
 40
8.0
 10
119.9151611028337
 20
-132.8912855028015
 30
0.0
 10
119.9151611028337
 20
-132.8912855028015
 30
0.0
 10
119.4307806776076
 20
-132.8912855028015
 30
0.0
 10
119.4307806776076
 20
-132.8912855028015
 30
0.0
 10
119.4032199137256
 20
-132.8912855028015
 30
0.0
 10
119.085926619534
 20
-132.8912855028015
 30
0.0
 10
118.8743977567397
 20
-132.9166069546181
 30
0.0
 10
118.8743977567397
 20
-132.9166069546181
 30
0.0
 10
118.8743977567397
 20
-132.6861300666548
 30
0.0
 10
118.8743977567397
 20
-132.6861300666548
 30
0.0
 10
119.0328721490612
 20
-132.7093844611803
 30
0.0
 10
119.2233859293955
 20
-132.7114515184714
 30
0.0
 10
119.4307806776076
 20
-132.7114515184714
 30
0.0
 10
119.4307806776076
 20
-132.7114515184714
 30
0.0
 10
119.9151611028337
 20
-132.7114515184714
 30
0.0
 10
119.9151611028337
 20
-132.7114515184714
 30
0.0
 10
120.1011962590372
 20
-132.7114515184714
 30
0.0
 10
120.2875759247892
 20
-132.7093844611803
 30
0.0
 10
120.4715440237015
 20
-132.6861300666548
 30
0.0
 10
120.4715440237015
 20
-132.6861300666548
 30
0.0
 10
120.4715440237015
 20
-132.9166069546181
 30
0.0
 10
120.4715440237015
 20
-132.9166069546181
 30
0.0
 10
120.2875759247892
 20
-132.8933525600926
 30
0.0
 10
120.0398735593998
 20
-132.8912855028015
 30
0.0
 10
119.9151611028337
 20
-132.8912855028015
 30
0.0
  0
HATCH
  5
F2
330
E1
100
AcDbEntity
  8
レイヤー 1
 62
   250
420
  2299925
440
 33554687
100
AcDbHatch
 10
0.0
 20
0.0
 30
0.0
210
0.0
220
0.0
230
1.0
  2
SOLID
 70
     1
 71
     1
 91
        1
 92
        1
 93
        1
 72
     4
 94
        3
 73
     0
 74
     0
 95
       29
 96
       25
 40
0.0
 40
0.0
 40
0.0
 40
0.0
 40
1.0
 40
1.0
 40
1.0
 40
2.0
 40
2.0
 40
2.0
 40
3.0
 40
3.0
 40
3.0
 40
4.0
 40
4.0
 40
4.0
 40
5.0
 40
5.0
 40
5.0
 40
6.0
 40
6.0
 40
6.0
 40
7.0
 40
7.0
 40
7.0
 40
8.0
 40
8.0
 40
8.0
 40
8.0
 10
119.9151611028337
 20
-132.8912855028015
 10
119.9151611028337
 20
-132.8912855028015
 10
119.4307806776076
 20
-132.8912855028015
 10
119.4307806776076
 20
-132.8912855028015
 10
119.4032199137256
 20
-132.8912855028015
 10
119.085926619534
 20
-132.8912855028015
 10
118.8743977567397
 20
-132.9166069546181
 10
118.8743977567397
 20
-132.9166069546181
 10
118.8743977567397
 20
-132.6861300666548
 10
118.8743977567397
 20
-132.6861300666548
 10
119.0328721490612
 20
-132.7093844611803
 10
119.2233859293955
 20
-132.7114515184714
 10
119.4307806776076
 20
-132.7114515184714
 10
119.4307806776076
 20
-132.7114515184714
 10
119.9151611028337
 20
-132.7114515184714
 10
119.9151611028337
 20
-132.7114515184714
 10
120.1011962590372
 20
-132.7114515184714
 10
120.2875759247892
 20
-132.7093844611803
 10
120.4715440237015
 20
-132.6861300666548
 10
120.4715440237015
 20
-132.6861300666548
 10
120.4715440237015
 20
-132.9166069546181
 10
120.4715440237015
 20
-132.9166069546181
 10
120.2875759247892
 20
-132.8933525600926
 10
120.0398735593998
 20
-132.8912855028015
 10
119.9151611028337
 20
-132.8912855028015
 97
        0
 97
        1
330
F1
 75
     2
 76
     1
 98
        1
 10
0.0
 20
0.0
450
        0
451
        0
460
0.0
461
0.0
452
        0
462
0.0
453
        0
470

  0
SPLINE
  5
F3
330
E1
100
AcDbEntity
  8
レイヤー 1
100
AcDbSpline
210
0.0
220
0.0
230
1.0
 70
     9
 71
     3
 72
    17
 73
    13
 74
     0
 42
0.0000000001
 43
0.0000000001
 40
0.0
 40
0.0
 40
0.0
 40
0.0
 40
1.0
 40
1.0
 40
1.0
 40
2.0
 40
2.0
 40
2.0
 40
3.0
 40
3.0
 40
3.0
 40
4.0
 40
4.0
 40
4.0
 40
4.0
 10
122.3339626430276
 20
-131.9244194548661
 30
0.0
 10
122.2791856248121
 20
-131.9244194548661
 30
0.0
 10
122.2347438930524
 20
-131.9688611866258
 30
0.0
 10
122.2347438930524
 20
-132.0239827143898
 30
0.0
 10
122.2347438930524
 20
-132.0809990446707
 30
0.0
 10
122.2791856248121
 20
-132.129747145787
 30
0.0
 10
122.3380967576099
 20
-132.129747145787
 30
0.0
 10
122.3973523999562
 20
-132.129747145787
 30
0.0
 10
122.4376600171336
 20
-132.0789319873796
 30
0.0
 10
122.4376600171336
 20
-132.026049771681
 30
0.0
 10
122.4376600171336
 20
-131.9688611866258
 30
0.0
 10
122.3911512280827
 20
-131.9244194548661
 30
0.0
 10
122.3339626430276
 20
-131.9244194548661
 30
0.0
  0
SPLINE
  5
F4
330
E1
100
AcDbEntity
  8
レイヤー 1
100
AcDbSpline
210
0.0
220
0.0
230
1.0
 70
     9
 71
     3
 72
    17
 73
    13
 74
     0
 42
0.0000000001
 43
0.0000000001
 40
0.0
 40
0.0
 40
0.0
 40
0.0
 40
1.0
 40
1.0
 40
1.0
 40
2.0
 40
2.0
 40
2.0
 40
3.0
 40
3.0
 40
3.0
 40
4.0
 40
4.0
 40
4.0
 40
4.0
 10
122.3360297003188
 20
-132.254459602353
 30
0.0
 10
122.2092501864616
 20
-132.254459602353
 30
0.0
 10
122.1076198696467
 20
-132.1530015403124
 30
0.0
 10
122.1076198696467
 20
-132.026049771681
 30
0.0
 10
122.1076198696467
 20
-131.8990980030495
 30
0.0
 10
122.2092501864616
 20
-131.7954006289435
 30
0.0
 10
122.3360297003188
 20
-131.7954006289435
 30
0.0
 10
122.4631537237245
 20
-131.7954006289435
 30
0.0
 10
122.5668510978305
 20
-131.8990980030495
 30
0.0
 10
122.5668510978305
 20
-132.026049771681
 30
0.0
 10
122.5668510978305
 20
-132.1530015403124
 30
0.0
 10
122.4631537237245
 20
-132.254459602353
 30
0.0
 10
122.3360297003188
 20
-132.254459602353
 30
0.0
  0
SPLINE
  5
F5
330
E1
100
AcDbEntity
  8
レイヤー 1
100
AcDbSpline
210
0.0
220
0.0
230
1.0
 70
     9
 71
     3
 72
    44
 73
    40
 74
     0
 42
0.0000000001
 43
0.0000000001
 40
0.0
 40
0.0
 40
0.0
 40
0.0
 40
1.0
 40
1.0
 40
1.0
 40
2.0
 40
2.0
 40
2.0
 40
3.0
 40
3.0
 40
3.0
 40
4.0
 40
4.0
 40
4.0
 40
5.0
 40
5.0
 40
5.0
 40
6.0
 40
6.0
 40
6.0
 40
7.0
 40
7.0
 40
7.0
 40
8.0
 40
8.0
 40
8.0
 40
9.0
 40
9.0
 40
9.0
 40
10.0
 40
10.0
 40
10.0
 40
11.0
 40
11.0
 40
11.0
 40
12.0
 40
12.0
 40
12.0
 40
13.0
 40
13.0
 40
13.0
 40
13.0
 10
122.1265678948155
 20
-132.4534138666262
 30
0.0
 10
122.0146022915449
 20
-132.8215223192252
 30
0.0
 10
121.9639593879118
 20
-132.9801689663209
 30
0.0
 10
121.767244435704
 20
-133.2297661342273
 30
0.0
 10
121.5829318272431
 20
-133.4604152769647
 30
0.0
 10
121.3462537674065
 20
-133.6464504331682
 30
0.0
 10
121.0668565235527
 20
-133.7396402660442
 30
0.0
 10
121.0668565235527
 20
-133.7396402660442
 30
0.0
 10
120.8742756859273
 20
-133.5598062817142
 30
0.0
 10
120.8742756859273
 20
-133.5598062817142
 30
0.0
 10
121.5154079557323
 20
-133.4075330612662
 30
0.0
 10
121.8454481032192
 20
-132.8511501403983
 30
0.0
 10
121.9088378601478
 20
-132.4110391921576
 30
0.0
 10
121.9088378601478
 20
-132.4110391921576
 30
0.0
 10
121.1429931337767
 20
-132.4110391921576
 30
0.0
 10
121.1429931337767
 20
-132.4110391921576
 30
0.0
 10
121.049975555675
 20
-132.4110391921576
 30
0.0
 10
120.8660074567627
 20
-132.4153455615142
 30
0.0
 10
120.7092556121838
 20
-132.4342935866831
 30
0.0
 10
120.7092556121838
 20
-132.4342935866831
 30
0.0
 10
120.7092556121838
 20
-132.2143242399499
 30
0.0
 10
120.7092556121838
 20
-132.2143242399499
 30
0.0
 10
120.7960720184121
 20
-132.2355115771842
 30
0.0
 10
121.0479084983838
 20
-132.2355115771842
 30
0.0
 10
121.147127248359
 20
-132.2355115771842
 30
0.0
 10
121.147127248359
 20
-132.2355115771842
 30
0.0
 10
121.5787977126608
 20
-132.2355115771842
 30
0.0
 10
121.5787977126608
 20
-132.2355115771842
 30
0.0
 10
121.6211723871294
 20
-132.2355115771842
 30
0.0
 10
121.8557833896749
 20
-132.2332722651188
 30
0.0
 10
121.8940239495612
 20
-132.2270710932453
 30
0.0
 10
121.9363986240298
 20
-132.2206976665976
 30
0.0
 10
121.9384656813209
 20
-132.2186306093064
 30
0.0
 10
121.9997883809584
 20
-132.178322992129
 30
0.0
 10
121.9997883809584
 20
-132.178322992129
 30
0.0
 10
122.187890594453
 20
-132.3328355246425
 30
0.0
 10
122.187890594453
 20
-132.3328355246425
 30
0.0
 10
122.1586072828284
 20
-132.3624633458156
 30
0.0
 10
122.1437933722418
 20
-132.3941582242799
 30
0.0
 10
122.1265678948155
 20
-132.4534138666262
 30
0.0
  0
HATCH
  5
F6
330
E1
100
AcDbEntity
  8
レイヤー 1
 62
   250
420
  2299925
440
 33554687
100
AcDbHatch
 10
0.0
 20
0.0
 30
0.0
210
0.0
220
0.0
230
1.0
  2
SOLID
 70
     1
 71
     1
 91
        3
 92
        1
 93
        1
 72
     4
 94
        3
 73
     0
 74
     0
 95
       17
 96
       13
 40
0.0
 40
0.0
 40
0.0
 40
0.0
 40
1.0
 40
1.0
 40
1.0
 40
2.0
 40
2.0
 40
2.0
 40
3.0
 40
3.0
 40
3.0
 40
4.0
 40
4.0
 40
4.0
 40
4.0
 10
122.3339626430276
 20
-131.9244194548661
 10
122.2791856248121
 20
-131.9244194548661
 10
122.2347438930524
 20
-131.9688611866258
 10
122.2347438930524
 20
-132.0239827143898
 10
122.2347438930524
 20
-132.0809990446707
 10
122.2791856248121
 20
-132.129747145787
 10
122.3380967576099
 20
-132.129747145787
 10
122.3973523999562
 20
-132.129747145787
 10
122.4376600171336
 20
-132.0789319873796
 10
122.4376600171336
 20
-132.026049771681
 10
122.4376600171336
 20
-131.9688611866258
 10
122.3911512280827
 20
-131.9244194548661
 10
122.3339626430276
 20
-131.9244194548661
 97
        0
 97
        1
330
F3
 92
        1
 93
        1
 72
     4
 94
        3
 73
     0
 74
     0
 95
       17
 96
       13
 40
0.0
 40
0.0
 40
0.0
 40
0.0
 40
1.0
 40
1.0
 40
1.0
 40
2.0
 40
2.0
 40
2.0
 40
3.0
 40
3.0
 40
3.0
 40
4.0
 40
4.0
 40
4.0
 40
4.0
 10
122.3360297003188
 20
-132.254459602353
 10
122.2092501864616
 20
-132.254459602353
 10
122.1076198696467
 20
-132.1530015403124
 10
122.1076198696467
 20
-132.026049771681
 10
122.1076198696467
 20
-131.8990980030495
 10
122.2092501864616
 20
-131.7954006289435
 10
122.3360297003188
 20
-131.7954006289435
 10
122.4631537237245
 20
-131.7954006289435
 10
122.5668510978305
 20
-131.8990980030495
 10
122.5668510978305
 20
-132.026049771681
 10
122.5668510978305
 20
-132.1530015403124
 10
122.4631537237245
 20
-132.254459602353
 10
122.3360297003188
 20
-132.254459602353
 97
        0
 97
        1
330
F4
 92
        1
 93
        1
 72
     4
 94
        3
 73
     0
 74
     0
 95
       44
 96
       40
 40
0.0
 40
0.0
 40
0.0
 40
0.0
 40
1.0
 40
1.0
 40
1.0
 40
2.0
 40
2.0
 40
2.0
 40
3.0
 40
3.0
 40
3.0
 40
4.0
 40
4.0
 40
4.0
 40
5.0
 40
5.0
 40
5.0
 40
6.0
 40
6.0
 40
6.0
 40
7.0
 40
7.0
 40
7.0
 40
8.0
 40
8.0
 40
8.0
 40
9.0
 40
9.0
 40
9.0
 40
10.0
 40
10.0
 40
10.0
 40
11.0
 40
11.0
 40
11.0
 40
12.0
 40
12.0
 40
12.0
 40
13.0
 40
13.0
 40
13.0
 40
13.0
 10
122.1265678948155
 20
-132.4534138666262
 10
122.0146022915449
 20
-132.8215223192252
 10
121.9639593879118
 20
-132.9801689663209
 10
121.767244435704
 20
-133.2297661342273
 10
121.5829318272431
 20
-133.4604152769647
 10
121.3462537674065
 20
-133.6464504331682
 10
121.0668565235527
 20
-133.7396402660442
 10
121.0668565235527
 20
-133.7396402660442
 10
120.8742756859273
 20
-133.5598062817142
 10
120.8742756859273
 20
-133.5598062817142
 10
121.5154079557323
 20
-133.4075330612662
 10
121.8454481032192
 20
-132.8511501403983
 10
121.9088378601478
 20
-132.4110391921576
 10
121.9088378601478
 20
-132.4110391921576
 10
121.1429931337767
 20
-132.4110391921576
 10
121.1429931337767
 20
-132.4110391921576
 10
121.049975555675
 20
-132.4110391921576
 10
120.8660074567627
 20
-132.4153455615142
 10
120.7092556121838
 20
-132.4342935866831
 10
120.7092556121838
 20
-132.4342935866831
 10
120.7092556121838
 20
-132.2143242399499
 10
120.7092556121838
 20
-132.2143242399499
 10
120.7960720184121
 20
-132.2355115771842
 10
121.0479084983838
 20
-132.2355115771842
 10
121.147127248359
 20
-132.2355115771842
 10
121.147127248359
 20
-132.2355115771842
 10
121.5787977126608
 20
-132.2355115771842
 10
121.5787977126608
 20
-132.2355115771842
 10
121.6211723871294
 20
-132.2355115771842
 10
121.8557833896749
 20
-132.2332722651188
 10
121.8940239495612
 20
-132.2270710932453
 10
121.9363986240298
 20
-132.2206976665976
 10
121.9384656813209
 20
-132.2186306093064
 10
121.9997883809584
 20
-132.178322992129
 10
121.9997883809584
 20
-132.178322992129
 10
122.187890594453
 20
-132.3328355246425
 10
122.187890594453
 20
-132.3328355246425
 10
122.1586072828284
 20
-132.3624633458156
 10
122.1437933722418
 20
-132.3941582242799
 10
122.1265678948155
 20
-132.4534138666262
 97
        0
 97
        1
330
F5
 75
     2
 76
     1
 98
        1
 10
0.0
 20
0.0
450
        0
451
        0
460
0.0
461
0.0
452
        0
462
0.0
453
        0
470

  0
ENDBLK
  5
E4
330
E1
100
AcDbEntity
  8
0
100
AcDbBlockEnd
  0
ENDSEC
  0
SECTION
  2
ENTITIES
  0
INSERT
  5
7A
330
70
100
AcDbEntity
  8
レイヤー 1
100
AcDbBlockReference
  2
Block_0
 10
0.0
 20
0.0
 30
0.0
  0
LINE
  5
D5
330
70
100
AcDbEntity
  8
レイヤー 1
  6
AI-Linetype-0
 62
   154
420
    23468
370
    25
100
AcDbLine
 10
117.3042475587888
 20
-135.3633156743075
 30
0.0
 11
102.6042475624646
 21
-135.3633156743075
 31
0.0
  0
INSERT
  5
D8
330
70
100
AcDbEntity
  8
レイヤー 1
100
AcDbBlockReference
  2
Block_9
 10
0.0
 20
0.0
 30
0.0
  0
INSERT
  5
DE
330
70
100
AcDbEntity
  8
レイヤー 1
100
AcDbBlockReference
  2
Block_10
 10
0.0
 20
0.0
 30
0.0
  0
ENDSEC
  0
SECTION
  2
OBJECTS
  0
DICTIONARY
  5
C
330
0
100
AcDbDictionary
281
     1
  3
ACAD_COLOR
350
63
  3
ACAD_DETAILVIEWSTYLE
350
6A
  3
ACAD_GROUP
350
D
  3
ACAD_LAYOUT
350
62
  3
ACAD_MATERIAL
350
10
  3
ACAD_MLEADERSTYLE
350
66
  3
ACAD_MLINESTYLE
350
5F
  3
ACAD_PLOTSETTINGS
350
61
  3
ACAD_PLOTSTYLENAME
350
E
  3
ACAD_SCALELIST
350
42
  3
ACAD_SECTIONVIEWSTYLE
350
68
  3
ACAD_TABLESTYLE
350
64
  3
ACAD_VISUALSTYLE
350
29
  3
ACDB_RECOMPOSE_DATA
350
FF
  3
AcDbVariableDictionary
350
F7
  0
DICTIONARY
  5
63
102
{ACAD_REACTORS
330
C
102
}
330
C
100
AcDbDictionary
281
     1
  0
DICTIONARY
  5
6A
102
{ACAD_REACTORS
330
C
102
}
330
C
100
AcDbDictionary
281
     1
  3
Imperial24
350
6B
  0
DICTIONARY
  5
D
102
{ACAD_REACTORS
330
C
102
}
330
C
100
AcDbDictionary
281
     1
  0
DICTIONARY
  5
62
102
{ACAD_REACTORS
330
C
102
}
330
C
100
AcDbDictionary
281
     1
  3
Layout1
350
6F
  3
Layout2
350
77
  3
Model
350
73
  0
DICTIONARY
  5
10
102
{ACAD_REACTORS
330
C
102
}
330
C
100
AcDbDictionary
281
     1
  3
ByBlock
350
19
  3
ByLayer
350
11
  3
Global
350
21
  0
DICTIONARY
  5
66
102
{ACAD_REACTORS
330
C
102
}
330
C
100
AcDbDictionary
281
     1
  3
Standard
350
67
  0
DICTIONARY
  5
5F
102
{ACAD_REACTORS
330
C
102
}
330
C
100
AcDbDictionary
281
     1
  3
Standard
350
60
  0
DICTIONARY
  5
61
102
{ACAD_REACTORS
330
C
102
}
330
C
100
AcDbDictionary
281
     1
  0
ACDBDICTIONARYWDFLT
  5
E
102
{ACAD_REACTORS
330
C
102
}
330
C
100
AcDbDictionary
281
     1
  3
Normal
350
F
100
AcDbDictionaryWithDefault
340
F
  0
DICTIONARY
  5
42
102
{ACAD_REACTORS
330
C
102
}
330
C
100
AcDbDictionary
281
     1
  3
A0
350
43
  3
A1
350
44
  3
A2
350
45
  3
A3
350
46
  3
A4
350
47
  3
A5
350
48
  3
A6
350
49
  3
A7
350
4A
  3
A8
350
4B
  3
A9
350
4C
  3
B0
350
4D
  3
B1
350
4E
  3
B2
350
4F
  3
B3
350
50
  3
B4
350
51
  3
B5
350
52
  3
B6
350
53
  0
DICTIONARY
  5
68
102
{ACAD_REACTORS
330
C
102
}
330
C
100
AcDbDictionary
281
     1
  3
Imperial24
350
69
  0
DICTIONARY
  5
64
102
{ACAD_REACTORS
330
C
102
}
330
C
100
AcDbDictionary
281
     1
  3
Standard
350
65
  0
DICTIONARY
  5
29
102
{ACAD_REACTORS
330
C
102
}
330
C
100
AcDbDictionary
281
     1
  3
2dWireframe
350
2F
  3
Basic
350
2E
  3
Brighten
350
35
  3
ColorChange
350
39
  3
Conceptual
350
32
  3
Dim
350
34
  3
EdgeColorOff
350
41
  3
Facepattern
350
38
  3
Flat
350
2A
  3
FlatWithEdges
350
2B
  3
Gouraud
350
2C
  3
GouraudWithEdges
350
2D
  3
Hidden
350
31
  3
JitterOff
350
3F
  3
Linepattern
350
37
  3
OverhangOff
350
40
  3
Realistic
350
33
  3
Shaded
350
3E
  3
Shaded with edges
350
3D
  3
Shades of Gray
350
3A
  3
Sketchy
350
3B
  3
Thicken
350
36
  3
Wireframe
350
30
  3
X-Ray
350
3C
  0
XRECORD
  5
FF
102
{ACAD_REACTORS
330
C
102
}
330
C
100
AcDbXrecord
280
     1
 90
        1
330
65
  0
DICTIONARY
  5
F7
102
{ACAD_REACTORS
330
C
102
}
330
C
100
AcDbDictionary
281
     1
  3
CANNOSCALE
350
FC
  3
CMLEADERSTYLE
350
F9
  3
CTABLESTYLE
350
F8
  3
CVIEWDETAILSTYLE
350
FA
  3
CVIEWSECTIONSTYLE
350
FB
  0
ACDBDETAILVIEWSTYLE
  5
6B
102
{ACAD_XDICTIONARY
360
134
102
}
102
{ACAD_REACTORS
330
6A
102
}
330
6A
100
AcDbModelDocViewStyle
 70
     0
  3
Imperial24
290
     0
100
AcDbDetailViewStyle
 70
     0
 71
     0
 90
        3
 71
     1
340
55
 62
   256
 40
0.24
340
0
 62
   256
 40
0.24
300

 40
0.36
280
     3
 71
     2
340
5D
 90
       25
 62
   256
 71
     3
340
55
 62
   256
 40
0.24
 90
        1
 40
0.75
 90
        1
300
%<\AcVar ViewType \f "%tc1">% %<\AcVar ViewDetailId>%\PSCALE %<\AcVar ViewScale \f "%sn">%
 71
     4
340
5D
 90
       25
 62
   256
340
5D
 90
       25
 62
   256
280
     0
  0
LAYOUT
  5
6F
102
{ACAD_REACTORS
330
62
102
}
330
62
100
AcDbPlotSettings
  1

  2

  4

  6

 40
0.0
 41
0.0
 42
0.0
 43
0.0
 44
0.0
 45
0.0
 46
0.0
 47
0.0
 48
0.0
 49
0.0
140
0.0
141
0.0
142
1.0
143
1.0
 70
   688
 72
     0
 73
     0
 74
     5
  7

 75
    16
147
1.0
 76
     0
 77
     2
 78
   300
148
0.0
149
0.0
100
AcDbLayout
  1
Layout1
 70
     1
 71
     1
 10
0.0
 20
0.0
 11
12.0
 21
9.0
 12
0.0
 22
0.0
 32
0.0
 14
0.0
 24
0.0
 34
0.0
 15
0.0
 25
0.0
 35
0.0
146
0.0
 13
0.0
 23
0.0
 33
0.0
 16
1.0
 26
0.0
 36
0.0
 17
0.0
 27
1.0
 37
0.0
 76
     0
330
6C
  0
LAYOUT
  5
77
102
{ACAD_REACTORS
330
62
102
}
330
62
100
AcDbPlotSettings
  1

  2

  4

  6

 40
0.0
 41
0.0
 42
0.0
 43
0.0
 44
0.0
 45
0.0
 46
0.0
 47
0.0
 48
0.0
 49
0.0
140
0.0
141
0.0
142
1.0
143
1.0
 70
   688
 72
     0
 73
     0
 74
     5
  7

 75
    16
147
1.0
 76
     0
 77
     2
 78
   300
148
0.0
149
0.0
100
AcDbLayout
  1
Layout2
 70
     1
 71
     2
 10
0.0
 20
0.0
 11
12.0
 21
9.0
 12
0.0
 22
0.0
 32
0.0
 14
0.0
 24
0.0
 34
0.0
 15
0.0
 25
0.0
 35
0.0
146
0.0
 13
0.0
 23
0.0
 33
0.0
 16
1.0
 26
0.0
 36
0.0
 17
0.0
 27
1.0
 37
0.0
 76
     0
330
74
  0
LAYOUT
  5
73
102
{ACAD_REACTORS
330
62
102
}
330
62
100
AcDbPlotSettings
  1

  2

  4

  6

 40
0.0
 41
0.0
 42
0.0
 43
0.0
 44
0.0
 45
0.0
 46
0.0
 47
0.0
 48
0.0
 49
0.0
140
0.0
141
0.0
142
1.0
143
1.0
 70
  1712
 72
     0
 73
     0
 74
     0
  7

 75
     0
147
1.0
 76
     0
 77
     2
 78
   300
148
0.0
149
0.0
100
AcDbLayout
  1
Model
 70
     1
 71
     0
 10
0.0
 20
0.0
 11
12.0
 21
9.0
 12
0.0
 22
0.0
 32
0.0
 14
0.0
 24
0.0
 34
0.0
 15
0.0
 25
0.0
 35
0.0
146
0.0
 13
0.0
 23
0.0
 33
0.0
 16
1.0
 26
0.0
 36
0.0
 17
0.0
 27
1.0
 37
0.0
 76
     0
330
70
  0
MATERIAL
  5
19
102
{ACAD_XDICTIONARY
360
1A
102
}
102
{ACAD_REACTORS
330
10
102
}
330
10
100
AcDbMaterial
  1
ByBlock
 72
     0
 43
0.0208333333333333
 43
0.0
 43
0.0
 43
0.0
 43
0.0
 43
0.0208333333333333
 43
0.0
 43
0.0
 43
0.0
 43
0.0
 43
1.0
 43
0.0
 43
0.0
 43
0.0
 43
0.0
 43
1.0
 77
     0
 47
0.0208333333333333
 47
0.0
 47
0.0
 47
0.0
 47
0.0
 47
0.0208333333333333
 47
0.0
 47
0.0
 47
0.0
 47
0.0
 47
1.0
 47
0.0
 47
0.0
 47
0.0
 47
0.0
 47
1.0
171
     0
 49
0.0208333333333333
 49
0.0
 49
0.0
 49
0.0
 49
0.0
 49
0.0208333333333333
 49
0.0
 49
0.0
 49
0.0
 49
0.0
 49
1.0
 49
0.0
 49
0.0
 49
0.0
 49
0.0
 49
1.0
175
     0
142
0.0208333333333333
142
0.0
142
0.0
142
0.0
142
0.0
142
0.0208333333333333
142
0.0
142
0.0
142
0.0
142
0.0
142
1.0
142
0.0
142
0.0
142
0.0
142
0.0
142
1.0
179
     0
144
0.0208333333333333
144
0.0
144
0.0
144
0.0
144
0.0
144
0.0208333333333333
144
0.0
144
0.0
144
0.0
144
0.0
144
1.0
144
0.0
144
0.0
144
0.0
144
0.0
144
1.0
147
0.0208333333333333
147
0.0
147
0.0
147
0.0
147
0.0
147
0.0208333333333333
147
0.0
147
0.0
147
0.0
147
0.0
147
1.0
147
0.0
147
0.0
147
0.0
147
0.0
147
1.0
  0
MATERIAL
  5
11
102
{ACAD_XDICTIONARY
360
12
102
}
102
{ACAD_REACTORS
330
10
102
}
330
10
100
AcDbMaterial
  1
ByLayer
 72
     0
 43
0.0208333333333333
 43
0.0
 43
0.0
 43
0.0
 43
0.0
 43
0.0208333333333333
 43
0.0
 43
0.0
 43
0.0
 43
0.0
 43
1.0
 43
0.0
 43
0.0
 43
0.0
 43
0.0
 43
1.0
 77
     0
 47
0.0208333333333333
 47
0.0
 47
0.0
 47
0.0
 47
0.0
 47
0.0208333333333333
 47
0.0
 47
0.0
 47
0.0
 47
0.0
 47
1.0
 47
0.0
 47
0.0
 47
0.0
 47
0.0
 47
1.0
171
     0
 49
0.0208333333333333
 49
0.0
 49
0.0
 49
0.0
 49
0.0
 49
0.0208333333333333
 49
0.0
 49
0.0
 49
0.0
 49
0.0
 49
1.0
 49
0.0
 49
0.0
 49
0.0
 49
0.0
 49
1.0
175
     0
142
0.0208333333333333
142
0.0
142
0.0
142
0.0
142
0.0
142
0.0208333333333333
142
0.0
142
0.0
142
0.0
142
0.0
142
1.0
142
0.0
142
0.0
142
0.0
142
0.0
142
1.0
179
     0
144
0.0208333333333333
144
0.0
144
0.0
144
0.0
144
0.0
144
0.0208333333333333
144
0.0
144
0.0
144
0.0
144
0.0
144
1.0
144
0.0
144
0.0
144
0.0
144
0.0
144
1.0
147
0.0208333333333333
147
0.0
147
0.0
147
0.0
147
0.0
147
0.0208333333333333
147
0.0
147
0.0
147
0.0
147
0.0
147
1.0
147
0.0
147
0.0
147
0.0
147
0.0
147
1.0
  0
MATERIAL
  5
21
102
{ACAD_XDICTIONARY
360
22
102
}
102
{ACAD_REACTORS
330
10
102
}
330
10
100
AcDbMaterial
  1
Global
 72
     0
 43
0.0208333333333333
 43
0.0
 43
0.0
 43
0.0
 43
0.0
 43
0.0208333333333333
 43
0.0
 43
0.0
 43
0.0
 43
0.0
 43
1.0
 43
0.0
 43
0.0
 43
0.0
 43
0.0
 43
1.0
 77
     0
 47
0.0208333333333333
 47
0.0
 47
0.0
 47
0.0
 47
0.0
 47
0.0208333333333333
 47
0.0
 47
0.0
 47
0.0
 47
0.0
 47
1.0
 47
0.0
 47
0.0
 47
0.0
 47
0.0
 47
1.0
171
     0
 49
0.0208333333333333
 49
0.0
 49
0.0
 49
0.0
 49
0.0
 49
0.0208333333333333
 49
0.0
 49
0.0
 49
0.0
 49
0.0
 49
1.0
 49
0.0
 49
0.0
 49
0.0
 49
0.0
 49
1.0
175
     0
142
0.0208333333333333
142
0.0
142
0.0
142
0.0
142
0.0
142
0.0208333333333333
142
0.0
142
0.0
142
0.0
142
0.0
142
1.0
142
0.0
142
0.0
142
0.0
142
0.0
142
1.0
179
     0
144
0.0208333333333333
144
0.0
144
0.0
144
0.0
144
0.0
144
0.0208333333333333
144
0.0
144
0.0
144
0.0
144
0.0
144
1.0
144
0.0
144
0.0
144
0.0
144
0.0
144
1.0
147
0.0208333333333333
147
0.0
147
0.0
147
0.0
147
0.0
147
0.0208333333333333
147
0.0
147
0.0
147
0.0
147
0.0
147
1.0
147
0.0
147
0.0
147
0.0
147
0.0
147
1.0
  0
MLEADERSTYLE
  5
67
102
{ACAD_XDICTIONARY
360
130
102
}
102
{ACAD_REACTORS
330
66
102
}
330
66
100
AcDbMLeaderStyle
179
     2
170
     2
171
     1
172
     0
 90
        2
 40
0.0
 41
0.0
173
     1
 91
-1056964608
340
5B
 92
       -2
290
     1
 42
0.09
291
     1
 43
0.36
  3
Standard
 44
0.18
300

342
55
174
     1
178
     6
175
     1
176
     0
 93
-1056964608
 45
0.18
292
     0
297
     0
 46
0.18
 94
-1056964608
 47
1.0
 49
1.0
140
1.0
293
     1
141
0.0
294
     1
177
     0
142
1.0
295
     0
296
     0
143
0.125
271
     0
272
     9
273
     9
  0
MLINESTYLE
  5
60
102
{ACAD_REACTORS
330
5F
102
}
330
5F
100
AcDbMlineStyle
  2
STANDARD
 70
     0
  3

 62
   256
 51
90.0
 52
90.0
 71
     2
 49
0.5
 62
   256
  6
BYLAYER
 49
-0.5
 62
   256
  6
BYLAYER
  0
ACDBPLACEHOLDER
  5
F
102
{ACAD_REACTORS
330
E
102
}
330
E
  0
SCALE
  5
43
102
{ACAD_REACTORS
330
42
102
}
330
42
100
AcDbScale
 70
     0
300
1:1
140
1.0
141
1.0
290
     1
  0
SCALE
  5
44
102
{ACAD_REACTORS
330
42
102
}
330
42
100
AcDbScale
 70
     0
300
1/128" = 1'-0"
140
0.0078125
141
12.0
290
     0
  0
SCALE
  5
45
102
{ACAD_REACTORS
330
42
102
}
330
42
100
AcDbScale
 70
     0
300
1/64" = 1'-0"
140
0.015625
141
12.0
290
     0
  0
SCALE
  5
46
102
{ACAD_REACTORS
330
42
102
}
330
42
100
AcDbScale
 70
     0
300
1/32" = 1'-0"
140
0.03125
141
12.0
290
     0
  0
SCALE
  5
47
102
{ACAD_REACTORS
330
42
102
}
330
42
100
AcDbScale
 70
     0
300
1/16" = 1'-0"
140
0.0625
141
12.0
290
     0
  0
SCALE
  5
48
102
{ACAD_REACTORS
330
42
102
}
330
42
100
AcDbScale
 70
     0
300
3/32" = 1'-0"
140
0.09375
141
12.0
290
     0
  0
SCALE
  5
49
102
{ACAD_REACTORS
330
42
102
}
330
42
100
AcDbScale
 70
     0
300
1/8" = 1'-0"
140
0.125
141
12.0
290
     0
  0
SCALE
  5
4A
102
{ACAD_REACTORS
330
42
102
}
330
42
100
AcDbScale
 70
     0
300
3/16" = 1'-0"
140
0.1875
141
12.0
290
     0
  0
SCALE
  5
4B
102
{ACAD_REACTORS
330
42
102
}
330
42
100
AcDbScale
 70
     0
300
1/4" = 1'-0"
140
0.25
141
12.0
290
     0
  0
SCALE
  5
4C
102
{ACAD_REACTORS
330
42
102
}
330
42
100
AcDbScale
 70
     0
300
3/8" = 1'-0"
140
0.375
141
12.0
290
     0
  0
SCALE
  5
4D
102
{ACAD_REACTORS
330
42
102
}
330
42
100
AcDbScale
 70
     0
300
1/2" = 1'-0"
140
0.5
141
12.0
290
     0
  0
SCALE
  5
4E
102
{ACAD_REACTORS
330
42
102
}
330
42
100
AcDbScale
 70
     0
300
3/4" = 1'-0"
140
0.75
141
12.0
290
     0
  0
SCALE
  5
4F
102
{ACAD_REACTORS
330
42
102
}
330
42
100
AcDbScale
 70
     0
300
1" = 1'-0"
140
1.0
141
12.0
290
     0
  0
SCALE
  5
50
102
{ACAD_REACTORS
330
42
102
}
330
42
100
AcDbScale
 70
     0
300
1-1/2" = 1'-0"
140
1.5
141
12.0
290
     0
  0
SCALE
  5
51
102
{ACAD_REACTORS
330
42
102
}
330
42
100
AcDbScale
 70
     0
300
3" = 1'-0"
140
3.0
141
12.0
290
     0
  0
SCALE
  5
52
102
{ACAD_REACTORS
330
42
102
}
330
42
100
AcDbScale
 70
     0
300
6" = 1'-0"
140
6.0
141
12.0
290
     0
  0
SCALE
  5
53
102
{ACAD_REACTORS
330
42
102
}
330
42
100
AcDbScale
 70
     0
300
1'-0" = 1'-0"
140
12.0
141
12.0
290
     0
  0
ACDBSECTIONVIEWSTYLE
  5
69
102
{ACAD_XDICTIONARY
360
132
102
}
102
{ACAD_REACTORS
330
68
102
}
330
68
100
AcDbModelDocViewStyle
 70
     0
  3
Imperial24
290
     0
100
AcDbSectionViewStyle
 70
     0
 71
     0
 90
       78
 71
     1
340
55
 62
   256
 40
0.24
340
0
340
0
 62
   256
 40
0.24
300
I, O, Q, S, X, Z
 40
0.48
 90
        3
 40
0.18
 90
        1
 71
     2
340
5D
 90
       25
 62
   256
340
5D
 90
       50
 62
   256
 40
0.24
 40
0.0
 40
0.24
 71
     3
340
55
 62
   256
 40
0.24
 90
        1
 40
0.75
 90
        1
300
%<\AcVar ViewType \f "%tc1">% %<\AcVar ViewSectionStartId>%-%<\AcVar ViewSectionEndId>%\PSCALE %<\AcVar ViewScale \f "%sn">%
 71
     4
 62
   256
 62
   257
300
ANSI31
 40
1.0
 90
        0
290
     0
290
     0
 90
        6
 40
0.0
 40
1.570796326794896
 40
0.2617993877991494
 40
1.308996938995747
 40
-0.2617993877991494
 40
1.832595714594046
  0
TABLESTYLE
  5
65
102
{ACAD_XDICTIONARY
360
FD
102
}
102
{ACAD_REACTORS
330
64
102
}
330
64
100
AcDbTableStyle
280
     0
  3
Standard
 70
     0
 71
     0
 40
0.06
 41
0.06
280
     0
281
     0
  7
Standard
140
0.18
170
     2
 62
     0
 63
     7
283
     0
 90
      512
 91
        0
  1

274
    -2
284
     1
 64
     0
275
    -2
285
     1
 65
     0
276
    -2
286
     1
 66
     0
277
    -2
287
     1
 67
     0
278
    -2
288
     1
 68
     0
279
    -2
289
     1
 69
     0
  7
Standard
140
0.25
170
     5
 62
     0
 63
     7
283
     0
 90
      512
 91
        0
  1

274
    -2
284
     1
 64
     0
275
    -2
285
     1
 65
     0
276
    -2
286
     1
 66
     0
277
    -2
287
     1
 67
     0
278
    -2
288
     1
 68
     0
279
    -2
289
     1
 69
     0
  7
Standard
140
0.18
170
     5
 62
     0
 63
     7
283
     0
 90
      512
 91
        0
  1

274
    -2
284
     1
 64
     0
275
    -2
285
     1
 65
     0
276
    -2
286
     1
 66
     0
277
    -2
287
     1
 67
     0
278
    -2
288
     1
 68
     0
279
    -2
289
     1
 69
     0
  0
VISUALSTYLE
  5
2F
102
{ACAD_XDICTIONARY
360
10A
102
}
102
{ACAD_REACTORS
330
29
102
}
330
29
100
AcDbVisualStyle
  2
2dWireframe
 70
     4
177
     2
291
     0
 71
     0
176
     1
 72
     2
176
     1
 73
     0
176
     1
 90
        0
176
     1
 40
0.6
176
     1
 41
30.0
176
     1
 63
     7
421
 16777215
176
     1
 74
     1
176
     1
 91
        4
176
     1
 64
     7
176
     1
 65
   257
176
     1
 75
     1
176
     1
175
     1
176
     1
 42
1.0
176
     1
 92
        0
176
     1
 66
   257
176
     1
 43
1.0
176
     1
 76
     1
176
     1
 77
     6
176
     1
 78
     2
176
     1
 67
     7
176
     1
 79
     5
176
     1
170
     0
176
     1
171
     0
176
     1
290
     0
176
     1
 93
        1
176
     1
 44
0.0
176
     1
173
     0
176
     1
1001
ACAD
1000
AcDbSavedByObjectVersion
1070
     0
  0
VISUALSTYLE
  5
2E
102
{ACAD_XDICTIONARY
360
108
102
}
102
{ACAD_REACTORS
330
29
102
}
330
29
100
AcDbVisualStyle
  2
Basic
 70
     7
177
     2
291
     1
 71
     1
176
     1
 72
     0
176
     1
 73
     1
176
     1
 90
        0
176
     1
 40
0.6
176
     1
 41
30.0
176
     1
 63
     7
421
 16777215
176
     1
 74
     0
176
     1
 91
        4
176
     1
 64
     7
176
     1
 65
   257
176
     1
 75
     1
176
     1
175
     1
176
     1
 42
1.0
176
     1
 92
        8
176
     1
 66
     7
176
     1
 43
1.0
176
     1
 76
     1
176
     1
 77
     6
176
     1
 78
     2
176
     1
 67
     7
176
     1
 79
     5
176
     1
170
     0
176
     1
171
     0
176
     1
290
     0
176
     1
 93
        1
176
     1
 44
0.0
176
     1
173
     0
176
     1
1001
ACAD
1000
AcDbSavedByObjectVersion
1070
     0
  0
VISUALSTYLE
  5
35
102
{ACAD_XDICTIONARY
360
116
102
}
102
{ACAD_REACTORS
330
29
102
}
330
29
100
AcDbVisualStyle
  2
Brighten
 70
    12
177
     2
291
     1
 71
     2
176
     1
 72
     2
176
     1
 73
     0
176
     1
 90
        0
176
     1
 40
0.6
176
     1
 41
30.0
176
     1
 63
     7
421
 16777215
176
     1
 74
     1
176
     1
 91
        4
176
     1
 64
     7
176
     1
 65
   257
176
     1
 75
     1
176
     1
175
     1
176
     1
 42
1.0
176
     1
 92
        8
176
     1
 66
     7
176
     1
 43
1.0
176
     1
 76
     1
176
     1
 77
     6
176
     1
 78
     2
176
     1
 67
     7
176
     1
 79
     5
176
     1
170
     0
176
     1
171
     0
176
     1
290
     0
176
     1
 93
        1
176
     1
 44
50.0
176
     1
173
     0
176
     1
1001
ACAD
1000
AcDbSavedByObjectVersion
1070
     0
  0
VISUALSTYLE
  5
39
102
{ACAD_XDICTIONARY
360
11E
102
}
102
{ACAD_REACTORS
330
29
102
}
330
29
100
AcDbVisualStyle
  2
ColorChange
 70
    16
177
     2
291
     1
 71
     2
176
     1
 72
     2
176
     1
 73
     3
176
     1
 90
        0
176
     1
 40
0.6
176
     1
 41
30.0
176
     1
 63
     8
421
  8421504
176
     1
 74
     1
176
     1
 91
        4
176
     1
 64
     7
176
     1
 65
   257
176
     1
 75
     1
176
     1
175
     1
176
     1
 42
1.0
176
     1
 92
        8
176
     1
 66
     8
424
  8421504
176
     1
 43
1.0
176
     1
 76
     1
176
     1
 77
     6
176
     1
 78
     2
176
     1
 67
     7
176
     1
 79
     5
176
     1
170
     0
176
     1
171
     0
176
     1
290
     0
176
     1
 93
        1
176
     1
 44
0.0
176
     1
173
     0
176
     1
1001
ACAD
1000
AcDbSavedByObjectVersion
1070
     0
  0
VISUALSTYLE
  5
32
102
{ACAD_XDICTIONARY
360
110
102
}
102
{ACAD_REACTORS
330
29
102
}
330
29
100
AcDbVisualStyle
  2
Conceptual
 70
     9
177
     2
291
     0
 71
     3
176
     1
 72
     2
176
     1
 73
     0
176
     1
 90
        0
176
     1
 40
0.6
176
     1
 41
30.0
176
     1
 63
     7
421
 16777215
176
     1
 74
     2
176
     1
 91
        2
176
     1
 64
     7
176
     1
 65
   257
176
     1
 75
     1
176
     1
175
     1
176
     1
 42
179.0
176
     1
 92
        8
176
     1
 66
     7
176
     1
 43
1.0
176
     1
 76
     1
176
     1
 77
     6
176
     1
 78
     2
176
     1
 67
     7
176
     1
 79
     3
176
     1
170
     0
176
     1
171
     0
176
     1
290
     0
176
     1
 93
        1
176
     1
 44
0.0
176
     1
173
     0
176
     1
1001
ACAD
1000
AcDbSavedByObjectVersion
1070
     0
  0
VISUALSTYLE
  5
34
102
{ACAD_XDICTIONARY
360
114
102
}
102
{ACAD_REACTORS
330
29
102
}
330
29
100
AcDbVisualStyle
  2
Dim
 70
    11
177
     2
291
     1
 71
     2
176
     1
 72
     2
176
     1
 73
     0
176
     1
 90
        0
176
     1
 40
0.6
176
     1
 41
30.0
176
     1
 63
     7
421
 16777215
176
     1
 74
     1
176
     1
 91
        4
176
     1
 64
     7
176
     1
 65
   257
176
     1
 75
     1
176
     1
175
     1
176
     1
 42
1.0
176
     1
 92
        8
176
     1
 66
     7
176
     1
 43
1.0
176
     1
 76
     1
176
     1
 77
     6
176
     1
 78
     2
176
     1
 67
     7
176
     1
 79
     5
176
     1
170
     0
176
     1
171
     0
176
     1
290
     0
176
     1
 93
        1
176
     1
 44
-50.0
176
     1
173
     0
176
     1
1001
ACAD
1000
AcDbSavedByObjectVersion
1070
     0
  0
VISUALSTYLE
  5
41
102
{ACAD_XDICTIONARY
360
12E
102
}
102
{ACAD_REACTORS
330
29
102
}
330
29
100
AcDbVisualStyle
  2
EdgeColorOff
 70
    22
177
     2
291
     1
 71
     2
176
     0
 72
     2
176
     0
 73
     0
176
     0
 90
        0
176
     0
 40
0.6
176
     0
 41
30.0
176
     0
 63
     7
421
 16777215
176
     0
 74
     1
176
     0
 91
        4
176
     0
 64
     7
176
     0
 65
   257
176
     0
 75
     1
176
     0
175
     1
176
     0
 42
1.0
176
     0
 92
        8
176
     2
 66
     7
176
     0
 43
1.0
176
     0
 76
     1
176
     0
 77
     6
176
     0
 78
     2
176
     0
 67
     7
176
     0
 79
     5
176
     0
170
     0
176
     0
171
     0
176
     0
290
     0
176
     0
 93
        1
176
     0
 44
0.0
176
     0
173
     0
176
     0
1001
ACAD
1000
AcDbSavedByObjectVersion
1070
     0
  0
VISUALSTYLE
  5
38
102
{ACAD_XDICTIONARY
360
11C
102
}
102
{ACAD_REACTORS
330
29
102
}
330
29
100
AcDbVisualStyle
  2
Facepattern
 70
    15
177
     2
291
     1
 71
     2
176
     1
 72
     2
176
     1
 73
     0
176
     1
 90
        0
176
     1
 40
0.6
176
     1
 41
30.0
176
     1
 63
     7
421
 16777215
176
     1
 74
     1
176
     1
 91
        4
176
     1
 64
     7
176
     1
 65
   257
176
     1
 75
     1
176
     1
175
     1
176
     1
 42
1.0
176
     1
 92
        8
176
     1
 66
     7
176
     1
 43
1.0
176
     1
 76
     1
176
     1
 77
     6
176
     1
 78
     2
176
     1
 67
     7
176
     1
 79
     5
176
     1
170
     0
176
     1
171
     0
176
     1
290
     0
176
     1
 93
        1
176
     1
 44
0.0
176
     1
173
     0
176
     1
1001
ACAD
1000
AcDbSavedByObjectVersion
1070
     0
  0
VISUALSTYLE
  5
2A
102
{ACAD_XDICTIONARY
360
100
102
}
102
{ACAD_REACTORS
330
29
102
}
330
29
100
AcDbVisualStyle
  2
Flat
 70
     0
177
     2
291
     1
 71
     2
176
     1
 72
     1
176
     1
 73
     1
176
     1
 90
        2
176
     1
 40
0.6
176
     1
 41
30.0
176
     1
 63
     7
421
 16777215
176
     1
 74
     0
176
     1
 91
        0
176
     1
 64
     7
176
     1
 65
   257
176
     1
 75
     1
176
     1
175
     1
176
     1
 42
1.0
176
     1
 92
        8
176
     1
 66
     7
176
     1
 43
1.0
176
     1
 76
     1
176
     1
 77
     6
176
     1
 78
     2
176
     1
 67
     7
176
     1
 79
     5
176
     1
170
     0
176
     1
171
     0
176
     1
290
     0
176
     1
 93
       13
176
     1
 44
0.0
176
     1
173
     0
176
     1
1001
ACAD
1000
AcDbSavedByObjectVersion
1070
     0
  0
VISUALSTYLE
  5
2B
102
{ACAD_XDICTIONARY
360
102
102
}
102
{ACAD_REACTORS
330
29
102
}
330
29
100
AcDbVisualStyle
  2
FlatWithEdges
 70
     1
177
     2
291
     1
 71
     2
176
     1
 72
     1
176
     1
 73
     1
176
     1
 90
        2
176
     1
 40
0.6
176
     1
 41
30.0
176
     1
 63
     7
421
 16777215
176
     1
 74
     1
176
     1
 91
        0
176
     1
 64
     7
176
     1
 65
   257
176
     1
 75
     1
176
     1
175
     1
176
     1
 42
1.0
176
     1
 92
        0
176
     1
 66
   257
176
     1
 43
1.0
176
     1
 76
     1
176
     1
 77
     6
176
     1
 78
     2
176
     1
 67
     7
176
     1
 79
     5
176
     1
170
     0
176
     1
171
     0
176
     1
290
     0
176
     1
 93
       13
176
     1
 44
0.0
176
     1
173
     0
176
     1
1001
ACAD
1000
AcDbSavedByObjectVersion
1070
     0
  0
VISUALSTYLE
  5
2C
102
{ACAD_XDICTIONARY
360
104
102
}
102
{ACAD_REACTORS
330
29
102
}
330
29
100
AcDbVisualStyle
  2
Gouraud
 70
     2
177
     2
291
     1
 71
     2
176
     1
 72
     2
176
     1
 73
     1
176
     1
 90
        2
176
     1
 40
0.6
176
     1
 41
30.0
176
     1
 63
     7
421
 16777215
176
     1
 74
     0
176
     1
 91
        0
176
     1
 64
     7
176
     1
 65
   257
176
     1
 75
     1
176
     1
175
     1
176
     1
 42
1.0
176
     1
 92
        0
176
     1
 66
     7
176
     1
 43
1.0
176
     1
 76
     1
176
     1
 77
     6
176
     1
 78
     2
176
     1
 67
     7
176
     1
 79
     5
176
     1
170
     0
176
     1
171
     0
176
     1
290
     0
176
     1
 93
       13
176
     1
 44
0.0
176
     1
173
     0
176
     1
1001
ACAD
1000
AcDbSavedByObjectVersion
1070
     0
  0
VISUALSTYLE
  5
2D
102
{ACAD_XDICTIONARY
360
106
102
}
102
{ACAD_REACTORS
330
29
102
}
330
29
100
AcDbVisualStyle
  2
GouraudWithEdges
 70
     3
177
     2
291
     1
 71
     2
176
     1
 72
     2
176
     1
 73
     1
176
     1
 90
        2
176
     1
 40
0.6
176
     1
 41
30.0
176
     1
 63
     7
421
 16777215
176
     1
 74
     1
176
     1
 91
        0
176
     1
 64
     7
176
     1
 65
   257
176
     1
 75
     1
176
     1
175
     1
176
     1
 42
1.0
176
     1
 92
        0
176
     1
 66
   257
176
     1
 43
1.0
176
     1
 76
     1
176
     1
 77
     6
176
     1
 78
     2
176
     1
 67
     7
176
     1
 79
     5
176
     1
170
     0
176
     1
171
     0
176
     1
290
     0
176
     1
 93
       13
176
     1
 44
0.0
176
     1
173
     0
176
     1
1001
ACAD
1000
AcDbSavedByObjectVersion
1070
     0
  0
VISUALSTYLE
  5
31
102
{ACAD_XDICTIONARY
360
10E
102
}
102
{ACAD_REACTORS
330
29
102
}
330
29
100
AcDbVisualStyle
  2
Hidden
 70
     6
177
     2
291
     0
 71
     1
176
     1
 72
     2
176
     1
 73
     2
176
     1
 90
        0
176
     1
 40
0.6
176
     1
 41
30.0
176
     1
 63
     7
421
 16777215
176
     1
 74
     2
176
     1
 91
        2
176
     1
 64
     7
176
     1
 65
   257
176
     1
 75
     2
176
     1
175
     1
176
     1
 42
40.0
176
     1
 92
        0
176
     1
 66
   257
176
     1
 43
1.0
176
     1
 76
     1
176
     1
 77
     6
176
     1
 78
     2
176
     1
 67
     7
176
     1
 79
     3
176
     1
170
     0
176
     1
171
     0
176
     1
290
     0
176
     1
 93
        1
176
     1
 44
0.0
176
     1
173
     0
176
     1
1001
ACAD
1000
AcDbSavedByObjectVersion
1070
     0
  0
VISUALSTYLE
  5
3F
102
{ACAD_XDICTIONARY
360
12A
102
}
102
{ACAD_REACTORS
330
29
102
}
330
29
100
AcDbVisualStyle
  2
JitterOff
 70
    20
177
     2
291
     1
 71
     2
176
     0
 72
     2
176
     0
 73
     0
176
     0
 90
        0
176
     0
 40
0.6
176
     0
 41
30.0
176
     0
 63
     7
421
 16777215
176
     0
 74
     1
176
     0
 91
        4
176
     0
 64
     7
176
     0
 65
   257
176
     0
 75
     1
176
     0
175
     1
176
     0
 42
1.0
176
     0
 92
       10
176
     2
 66
     7
176
     0
 43
1.0
176
     0
 76
     1
176
     0
 77
     6
176
     0
 78
     2
176
     0
 67
     7
176
     0
 79
     5
176
     0
170
     0
176
     0
171
     0
176
     0
290
     0
176
     0
 93
        1
176
     0
 44
0.0
176
     0
173
     0
176
     0
1001
ACAD
1000
AcDbSavedByObjectVersion
1070
     0
  0
VISUALSTYLE
  5
37
102
{ACAD_XDICTIONARY
360
11A
102
}
102
{ACAD_REACTORS
330
29
102
}
330
29
100
AcDbVisualStyle
  2
Linepattern
 70
    14
177
     2
291
     1
 71
     2
176
     1
 72
     2
176
     1
 73
     0
176
     1
 90
        0
176
     1
 40
0.6
176
     1
 41
30.0
176
     1
 63
     7
421
 16777215
176
     1
 74
     1
176
     1
 91
        4
176
     1
 64
     7
176
     1
 65
   257
176
     1
 75
     7
176
     1
175
     7
176
     1
 42
1.0
176
     1
 92
        8
176
     1
 66
     7
176
     1
 43
1.0
176
     1
 76
     1
176
     1
 77
     6
176
     1
 78
     2
176
     1
 67
     7
176
     1
 79
     5
176
     1
170
     0
176
     1
171
     0
176
     1
290
     0
176
     1
 93
        1
176
     1
 44
0.0
176
     1
173
     0
176
     1
1001
ACAD
1000
AcDbSavedByObjectVersion
1070
     0
  0
VISUALSTYLE
  5
40
102
{ACAD_XDICTIONARY
360
12C
102
}
102
{ACAD_REACTORS
330
29
102
}
330
29
100
AcDbVisualStyle
  2
OverhangOff
 70
    21
177
     2
291
     1
 71
     2
176
     0
 72
     2
176
     0
 73
     0
176
     0
 90
        0
176
     0
 40
0.6
176
     0
 41
30.0
176
     0
 63
     7
421
 16777215
176
     0
 74
     1
176
     0
 91
        4
176
     0
 64
     7
176
     0
 65
   257
176
     0
 75
     1
176
     0
175
     1
176
     0
 42
1.0
176
     0
 92
        9
176
     2
 66
     7
176
     0
 43
1.0
176
     0
 76
     1
176
     0
 77
     6
176
     0
 78
     2
176
     0
 67
     7
176
     0
 79
     5
176
     0
170
     0
176
     0
171
     0
176
     0
290
     0
176
     0
 93
        1
176
     0
 44
0.0
176
     0
173
     0
176
     0
1001
ACAD
1000
AcDbSavedByObjectVersion
1070
     0
  0
VISUALSTYLE
  5
33
102
{ACAD_XDICTIONARY
360
112
102
}
102
{ACAD_REACTORS
330
29
102
}
330
29
100
AcDbVisualStyle
  2
Realistic
 70
     8
177
     2
291
     0
 71
     2
176
     1
 72
     3
176
     1
 73
     0
176
     1
 90
        2
176
     1
 40
0.6
176
     1
 41
30.0
176
     1
 63
     7
421
 16777215
176
     1
 74
     0
176
     1
 91
        0
176
     1
 64
     7
176
     1
 65
   257
176
     1
 75
     1
176
     1
175
     1
176
     1
 42
1.0
176
     1
 92
        8
176
     1
 66
   257
176
     1
 43
1.0
176
     1
 76
     1
176
     1
 77
     6
176
     1
 78
     2
176
     1
 67
     7
176
     1
 79
     3
176
     1
170
     0
176
     1
171
     0
176
     1
290
     0
176
     1
 93
       13
176
     1
 44
0.0
176
     1
173
     0
176
     1
1001
ACAD
1000
AcDbSavedByObjectVersion
1070
     0
  0
VISUALSTYLE
  5
3E
102
{ACAD_XDICTIONARY
360
128
102
}
102
{ACAD_REACTORS
330
29
102
}
330
29
100
AcDbVisualStyle
  2
Shaded
 70
    27
177
     2
291
     0
 71
     2
176
     1
 72
     2
176
     1
 73
     1
176
     1
 90
        2
176
     1
 40
0.6
176
     1
 41
30.0
176
     1
 63
     7
421
 16777215
176
     1
 74
     0
176
     1
 91
        4
176
     1
 64
     7
176
     1
 65
   257
176
     1
 75
     1
176
     1
175
     1
176
     1
 42
1.0
176
     1
 92
        8
176
     1
 66
   257
176
     1
 43
1.0
176
     1
 76
     1
176
     1
 77
     6
176
     1
 78
     2
176
     1
 67
     8
425
  7895160
176
     1
 79
     3
176
     1
170
     0
176
     1
171
     0
176
     1
290
     0
176
     1
 93
        5
176
     1
 44
0.0
176
     1
173
     0
176
     1
1001
ACAD
1000
AcDbSavedByObjectVersion
1070
     0
  0
VISUALSTYLE
  5
3D
102
{ACAD_XDICTIONARY
360
126
102
}
102
{ACAD_REACTORS
330
29
102
}
330
29
100
AcDbVisualStyle
  2
Shaded with edges
 70
    26
177
     2
291
     0
 71
     2
176
     1
 72
     2
176
     1
 73
     1
176
     1
 90
        2
176
     1
 40
0.6
176
     1
 41
30.0
176
     1
 63
     7
421
 16777215
176
     1
 74
     1
176
     1
 91
        2
176
     1
 64
     7
176
     1
 65
   257
176
     1
 75
     2
176
     1
175
     1
176
     1
 42
1.0
176
     1
 92
        8
176
     1
 66
   257
176
     1
 43
1.0
176
     1
 76
     1
176
     1
 77
     6
176
     1
 78
     2
176
     1
 67
     7
176
     1
 79
     3
176
     1
170
     0
176
     1
171
     0
176
     1
290
     0
176
     1
 93
        5
176
     1
 44
0.0
176
     1
173
     0
176
     1
1001
ACAD
1000
AcDbSavedByObjectVersion
1070
     0
  0
VISUALSTYLE
  5
3A
102
{ACAD_XDICTIONARY
360
120
102
}
102
{ACAD_REACTORS
330
29
102
}
330
29
100
AcDbVisualStyle
  2
Shades of Gray
 70
    23
177
     2
291
     0
 71
     2
176
     1
 72
     2
176
     1
 73
     3
176
     1
 90
        0
176
     1
 40
0.6
176
     1
 41
30.0
176
     1
 63
     7
421
 16777215
176
     1
 74
     2
176
     1
 91
        2
176
     1
 64
     7
176
     1
 65
     7
176
     1
 75
     1
176
     1
175
     1
176
     1
 42
40.0
176
     1
 92
        8
176
     1
 66
     7
176
     1
 43
1.0
176
     1
 76
     1
176
     1
 77
     6
176
     1
 78
     2
176
     1
 67
     7
176
     1
 79
     3
176
     1
170
     0
176
     1
171
     0
176
     1
290
     0
176
     1
 93
        1
176
     1
 44
0.0
176
     1
173
     0
176
     1
1001
ACAD
1000
AcDbSavedByObjectVersion
1070
     0
  0
VISUALSTYLE
  5
3B
102
{ACAD_XDICTIONARY
360
122
102
}
102
{ACAD_REACTORS
330
29
102
}
330
29
100
AcDbVisualStyle
  2
Sketchy
 70
    24
177
     2
291
     0
 71
     1
176
     1
 72
     2
176
     1
 73
     2
176
     1
 90
        0
176
     1
 40
0.6
176
     1
 41
30.0
176
     1
 63
     7
421
 16777215
176
     1
 74
     2
176
     1
 91
        2
176
     1
 64
     7
176
     1
 65
     7
176
     1
 75
     1
176
     1
175
     1
176
     1
 42
40.0
176
     1
 92
       11
176
     1
 66
     7
176
     1
 43
1.0
176
     1
 76
     1
176
     1
 77
     6
176
     1
 78
     2
176
     1
 67
     7
176
     1
 79
     6
176
     1
170
     0
176
     1
171
     0
176
     1
290
     0
176
     1
 93
        1
176
     1
 44
0.0
176
     1
173
     0
176
     1
1001
ACAD
1000
AcDbSavedByObjectVersion
1070
     0
  0
VISUALSTYLE
  5
36
102
{ACAD_XDICTIONARY
360
118
102
}
102
{ACAD_REACTORS
330
29
102
}
330
29
100
AcDbVisualStyle
  2
Thicken
 70
    13
177
     2
291
     1
 71
     2
176
     1
 72
     2
176
     1
 73
     0
176
     1
 90
        0
176
     1
 40
0.6
176
     1
 41
30.0
176
     1
 63
     7
421
 16777215
176
     1
 74
     1
176
     1
 91
        4
176
     1
 64
     7
176
     1
 65
   257
176
     1
 75
     1
176
     1
175
     1
176
     1
 42
1.0
176
     1
 92
       12
176
     1
 66
     7
176
     1
 43
1.0
176
     1
 76
     1
176
     1
 77
     6
176
     1
 78
     2
176
     1
 67
     7
176
     1
 79
     5
176
     1
170
     0
176
     1
171
     0
176
     1
290
     0
176
     1
 93
        1
176
     1
 44
0.0
176
     1
173
     0
176
     1
1001
ACAD
1000
AcDbSavedByObjectVersion
1070
     0
  0
VISUALSTYLE
  5
30
102
{ACAD_XDICTIONARY
360
10C
102
}
102
{ACAD_REACTORS
330
29
102
}
330
29
100
AcDbVisualStyle
  2
Wireframe
 70
     5
177
     2
291
     0
 71
     0
176
     1
 72
     2
176
     1
 73
     0
176
     1
 90
        0
176
     1
 40
0.6
176
     1
 41
30.0
176
     1
 63
     7
421
 16777215
176
     1
 74
     1
176
     1
 91
        4
176
     1
 64
     7
176
     1
 65
   257
176
     1
 75
     1
176
     1
175
     1
176
     1
 42
1.0
176
     1
 92
        0
176
     1
 66
   257
176
     1
 43
1.0
176
     1
 76
     1
176
     1
 77
     6
176
     1
 78
     2
176
     1
 67
     7
176
     1
 79
     3
176
     1
170
     0
176
     1
171
     0
176
     1
290
     0
176
     1
 93
        1
176
     1
 44
0.0
176
     1
173
     0
176
     1
1001
ACAD
1000
AcDbSavedByObjectVersion
1070
     0
  0
VISUALSTYLE
  5
3C
102
{ACAD_XDICTIONARY
360
124
102
}
102
{ACAD_REACTORS
330
29
102
}
330
29
100
AcDbVisualStyle
  2
X-Ray
 70
    25
177
     2
291
     0
 71
     2
176
     1
 72
     2
176
     1
 73
     1
176
     1
 90
        1
176
     1
 40
0.5
176
     1
 41
30.0
176
     1
 63
     7
421
 16777215
176
     1
 74
     1
176
     1
 91
        0
176
     1
 64
     7
176
     1
 65
   257
176
     1
 75
     1
176
     1
175
     1
176
     1
 42
1.0
176
     1
 92
        8
176
     1
 66
     7
176
     1
 43
1.0
176
     1
 76
     1
176
     1
 77
     6
176
     1
 78
     2
176
     1
 67
     7
176
     1
 79
     3
176
     1
170
     0
176
     1
171
     0
176
     1
290
     0
176
     1
 93
       13
176
     1
 44
0.0
176
     1
173
     0
176
     1
1001
ACAD
1000
AcDbSavedByObjectVersion
1070
     0
  0
DICTIONARYVAR
  5
FC
102
{ACAD_REACTORS
330
F7
102
}
330
F7
100
DictionaryVariables
280
     0
  1
1:1
  0
DICTIONARYVAR
  5
F9
102
{ACAD_REACTORS
330
F7
102
}
330
F7
100
DictionaryVariables
280
     0
  1
STANDARD
  0
DICTIONARYVAR
  5
F8
102
{ACAD_REACTORS
330
F7
102
}
330
F7
100
DictionaryVariables
280
     0
  1
STANDARD
  0
DICTIONARYVAR
  5
FA
102
{ACAD_REACTORS
330
F7
102
}
330
F7
100
DictionaryVariables
280
     0
  1
Imperial24
  0
DICTIONARYVAR
  5
FB
102
{ACAD_REACTORS
330
F7
102
}
330
F7
100
DictionaryVariables
280
     0
  1
Imperial24
  0
DICTIONARY
  5
134
330
6B
100
AcDbDictionary
280
     1
281
     1
  3
ACAD_XREC_ROUNDTRIP
360
135
  0
DICTIONARY
  5
1A
330
19
100
AcDbDictionary
280
     1
281
     1
  3
BUMPTILE
360
1C
  3
DIFFUSETILE
360
1B
  3
OPACITYTILE
360
1F
  3
REFLECTIONTILE
360
1E
  3
REFRACTIONTILE
360
20
  3
SPECULARTILE
360
1D
  0
DICTIONARY
  5
12
330
11
100
AcDbDictionary
280
     1
281
     1
  3
BUMPTILE
360
14
  3
DIFFUSETILE
360
13
  3
OPACITYTILE
360
17
  3
REFLECTIONTILE
360
16
  3
REFRACTIONTILE
360
18
  3
SPECULARTILE
360
15
  0
DICTIONARY
  5
22
330
21
100
AcDbDictionary
280
     1
281
     1
  3
BUMPTILE
360
24
  3
DIFFUSETILE
360
23
  3
OPACITYTILE
360
27
  3
REFLECTIONTILE
360
26
  3
REFRACTIONTILE
360
28
  3
SPECULARTILE
360
25
  0
DICTIONARY
  5
130
330
67
100
AcDbDictionary
280
     1
281
     1
  3
ACAD_XREC_ROUNDTRIP
360
131
  0
DICTIONARY
  5
132
330
69
100
AcDbDictionary
280
     1
281
     1
  3
ACAD_XREC_ROUNDTRIP
360
133
  0
DICTIONARY
  5
FD
330
65
100
AcDbDictionary
280
     1
281
     1
  3
ACAD_ROUNDTRIP_2008_TABLESTYLE_CELLSTYLEMAP
360
FE
  0
DICTIONARY
  5
10A
330
2F
100
AcDbDictionary
280
     1
281
     1
  3
ACAD_XREC_ROUNDTRIP
360
10B
  0
DICTIONARY
  5
108
330
2E
100
AcDbDictionary
280
     1
281
     1
  3
ACAD_XREC_ROUNDTRIP
360
109
  0
DICTIONARY
  5
116
330
35
100
AcDbDictionary
280
     1
281
     1
  3
ACAD_XREC_ROUNDTRIP
360
117
  0
DICTIONARY
  5
11E
330
39
100
AcDbDictionary
280
     1
281
     1
  3
ACAD_XREC_ROUNDTRIP
360
11F
  0
DICTIONARY
  5
110
330
32
100
AcDbDictionary
280
     1
281
     1
  3
ACAD_XREC_ROUNDTRIP
360
111
  0
DICTIONARY
  5
114
330
34
100
AcDbDictionary
280
     1
281
     1
  3
ACAD_XREC_ROUNDTRIP
360
115
  0
DICTIONARY
  5
12E
330
41
100
AcDbDictionary
280
     1
281
     1
  3
ACAD_XREC_ROUNDTRIP
360
12F
  0
DICTIONARY
  5
11C
330
38
100
AcDbDictionary
280
     1
281
     1
  3
ACAD_XREC_ROUNDTRIP
360
11D
  0
DICTIONARY
  5
100
330
2A
100
AcDbDictionary
280
     1
281
     1
  3
ACAD_XREC_ROUNDTRIP
360
101
  0
DICTIONARY
  5
102
330
2B
100
AcDbDictionary
280
     1
281
     1
  3
ACAD_XREC_ROUNDTRIP
360
103
  0
DICTIONARY
  5
104
330
2C
100
AcDbDictionary
280
     1
281
     1
  3
ACAD_XREC_ROUNDTRIP
360
105
  0
DICTIONARY
  5
106
330
2D
100
AcDbDictionary
280
     1
281
     1
  3
ACAD_XREC_ROUNDTRIP
360
107
  0
DICTIONARY
  5
10E
330
31
100
AcDbDictionary
280
     1
281
     1
  3
ACAD_XREC_ROUNDTRIP
360
10F
  0
DICTIONARY
  5
12A
330
3F
100
AcDbDictionary
280
     1
281
     1
  3
ACAD_XREC_ROUNDTRIP
360
12B
  0
DICTIONARY
  5
11A
330
37
100
AcDbDictionary
280
     1
281
     1
  3
ACAD_XREC_ROUNDTRIP
360
11B
  0
DICTIONARY
  5
12C
330
40
100
AcDbDictionary
280
     1
281
     1
  3
ACAD_XREC_ROUNDTRIP
360
12D
  0
DICTIONARY
  5
112
330
33
100
AcDbDictionary
280
     1
281
     1
  3
ACAD_XREC_ROUNDTRIP
360
113
  0
DICTIONARY
  5
128
330
3E
100
AcDbDictionary
280
     1
281
     1
  3
ACAD_XREC_ROUNDTRIP
360
129
  0
DICTIONARY
  5
126
330
3D
100
AcDbDictionary
280
     1
281
     1
  3
ACAD_XREC_ROUNDTRIP
360
127
  0
DICTIONARY
  5
120
330
3A
100
AcDbDictionary
280
     1
281
     1
  3
ACAD_XREC_ROUNDTRIP
360
121
  0
DICTIONARY
  5
122
330
3B
100
AcDbDictionary
280
     1
281
     1
  3
ACAD_XREC_ROUNDTRIP
360
123
  0
DICTIONARY
  5
118
330
36
100
AcDbDictionary
280
     1
281
     1
  3
ACAD_XREC_ROUNDTRIP
360
119
  0
DICTIONARY
  5
10C
330
30
100
AcDbDictionary
280
     1
281
     1
  3
ACAD_XREC_ROUNDTRIP
360
10D
  0
DICTIONARY
  5
124
330
3C
100
AcDbDictionary
280
     1
281
     1
  3
ACAD_XREC_ROUNDTRIP
360
125
  0
XRECORD
  5
135
102
{ACAD_REACTORS
330
134
102
}
330
134
100
AcDbXrecord
280
     1
102
DISPLAYNAME
  1
Imperial24
102
FLAGS
 90
        0
  0
XRECORD
  5
1C
102
{ACAD_REACTORS
330
1A
102
}
330
1A
100
AcDbXrecord
280
     1
270
     1
271
     1
  0
XRECORD
  5
1B
102
{ACAD_REACTORS
330
1A
102
}
330
1A
100
AcDbXrecord
280
     1
270
     1
271
     1
  0
XRECORD
  5
1F
102
{ACAD_REACTORS
330
1A
102
}
330
1A
100
AcDbXrecord
280
     1
270
     1
271
     1
  0
XRECORD
  5
1E
102
{ACAD_REACTORS
330
1A
102
}
330
1A
100
AcDbXrecord
280
     1
270
     1
271
     1
  0
XRECORD
  5
20
102
{ACAD_REACTORS
330
1A
102
}
330
1A
100
AcDbXrecord
280
     1
270
     1
271
     1
  0
XRECORD
  5
1D
102
{ACAD_REACTORS
330
1A
102
}
330
1A
100
AcDbXrecord
280
     1
270
     1
271
     1
  0
XRECORD
  5
14
102
{ACAD_REACTORS
330
12
102
}
330
12
100
AcDbXrecord
280
     1
270
     1
271
     1
  0
XRECORD
  5
13
102
{ACAD_REACTORS
330
12
102
}
330
12
100
AcDbXrecord
280
     1
270
     1
271
     1
  0
XRECORD
  5
17
102
{ACAD_REACTORS
330
12
102
}
330
12
100
AcDbXrecord
280
     1
270
     1
271
     1
  0
XRECORD
  5
16
102
{ACAD_REACTORS
330
12
102
}
330
12
100
AcDbXrecord
280
     1
270
     1
271
     1
  0
XRECORD
  5
18
102
{ACAD_REACTORS
330
12
102
}
330
12
100
AcDbXrecord
280
     1
270
     1
271
     1
  0
XRECORD
  5
15
102
{ACAD_REACTORS
330
12
102
}
330
12
100
AcDbXrecord
280
     1
270
     1
271
     1
  0
XRECORD
  5
24
102
{ACAD_REACTORS
330
22
102
}
330
22
100
AcDbXrecord
280
     1
270
     1
271
     1
  0
XRECORD
  5
23
102
{ACAD_REACTORS
330
22
102
}
330
22
100
AcDbXrecord
280
     1
270
     1
271
     1
  0
XRECORD
  5
27
102
{ACAD_REACTORS
330
22
102
}
330
22
100
AcDbXrecord
280
     1
270
     1
271
     1
  0
XRECORD
  5
26
102
{ACAD_REACTORS
330
22
102
}
330
22
100
AcDbXrecord
280
     1
270
     1
271
     1
  0
XRECORD
  5
28
102
{ACAD_REACTORS
330
22
102
}
330
22
100
AcDbXrecord
280
     1
270
     1
271
     1
  0
XRECORD
  5
25
102
{ACAD_REACTORS
330
22
102
}
330
22
100
AcDbXrecord
280
     1
270
     1
271
     1
  0
XRECORD
  5
131
102
{ACAD_REACTORS
330
130
102
}
330
130
100
AcDbXrecord
280
     1
102
ACAD_ROUNDTRIP_2012_MLEADER_STYLE
298
     1
  0
XRECORD
  5
133
102
{ACAD_REACTORS
330
132
102
}
330
132
100
AcDbXrecord
280
     1
102
DISPLAYNAME
  1
Imperial24
102
FLAGS
 90
        0
  0
CELLSTYLEMAP
  5
FE
102
{ACAD_REACTORS
330
FD
102
}
330
FD
100
AcDbCellStyleMap
 90
        3
300
CELLSTYLE
  1
TABLEFORMAT_BEGIN
 90
        5
170
     1
 91
        0
 92
    32768
 62
   257
 93
        1
300
CONTENTFORMAT
  1
CONTENTFORMAT_BEGIN
 90
        0
 91
        0
 92
      512
 93
        0
300

 40
0.0
140
1.0
 94
        5
 62
     0
340
55
144
0.25
309
CONTENTFORMAT_END
171
     0
 94
        0
309
TABLEFORMAT_END
  1
CELLSTYLE_BEGIN
 90
        1
 91
        1
300
_TITLE
309
CELLSTYLE_END
300
CELLSTYLE
  1
TABLEFORMAT_BEGIN
 90
        5
170
     1
 91
        0
 92
        0
 62
   257
 93
        1
300
CONTENTFORMAT
  1
CONTENTFORMAT_BEGIN
 90
        0
 91
        0
 92
      512
 93
        0
300

 40
0.0
140
1.0
 94
        5
 62
     0
340
55
144
0.18
309
CONTENTFORMAT_END
171
     0
 94
        0
309
TABLEFORMAT_END
  1
CELLSTYLE_BEGIN
 90
        2
 91
        1
300
_HEADER
309
CELLSTYLE_END
300
CELLSTYLE
  1
TABLEFORMAT_BEGIN
 90
        5
170
     1
 91
        0
 92
        0
 62
   257
 93
        1
300
CONTENTFORMAT
  1
CONTENTFORMAT_BEGIN
 90
        0
 91
        0
 92
      512
 93
        0
300

 40
0.0
140
1.0
 94
        2
 62
     0
340
55
144
0.18
309
CONTENTFORMAT_END
171
     0
 94
        0
309
TABLEFORMAT_END
  1
CELLSTYLE_BEGIN
 90
        3
 91
        2
300
_DATA
309
CELLSTYLE_END
  0
XRECORD
  5
10B
102
{ACAD_REACTORS
330
10A
102
}
330
10A
100
AcDbXrecord
280
     1
102
RTVSPost2010Prop28
280
     1
102
RTVSPost2010PropOp28
 70
     1
102
RTVSPost2010Prop29
280
     1
102
RTVSPost2010PropOp29
 70
     1
102
RTVSPost2010Prop30
280
     0
102
RTVSPost2010PropOp30
 70
     1
102
RTVSPost2010Prop31
280
     0
102
RTVSPost2010PropOp31
 70
     1
102
RTVSPost2010Prop32
280
     0
102
RTVSPost2010PropOp32
 70
     1
102
RTVSPost2010Prop33
280
     0
102
RTVSPost2010PropOp33
 70
     1
102
RTVSPost2010Prop34
280
     0
102
RTVSPost2010PropOp34
 70
     1
102
RTVSPost2010Prop35
280
     0
102
RTVSPost2010PropOp35
 70
     1
102
RTVSPost2010Prop36
280
     0
102
RTVSPost2010PropOp36
 70
     1
102
RTVSPost2010Prop37
 90
       50
102
RTVSPost2010PropOp37
 70
     1
102
RTVSPost2010Prop38
140
0.0
102
RTVSPost2010PropOp38
 70
     1
102
RTVSPost2010Prop39
140
1.0
102
RTVSPost2010PropOp39
 70
     1
102
RTVSPost2010Prop40
 90
        0
102
RTVSPost2010PropOp40
 70
     1
102
RTVSPost2010Prop41ColorIndex
 90
       18
102
RTVSPost2010Prop41ColorRGB
 90
        0
102
RTVSPost2010PropOp41
 70
     1
102
RTVSPost2010Prop42
 90
       50
102
RTVSPost2010PropOp42
 70
     1
102
RTVSPost2010Prop43
 90
        3
102
RTVSPost2010PropOp43
 70
     1
102
RTVSPost2010Prop44ColorIndex
 90
        5
102
RTVSPost2010Prop44ColorRGB
 90
      255
102
RTVSPost2010PropOp44
 70
     1
102
RTVSPost2010Prop45
280
     0
102
RTVSPost2010PropOp45
 70
     1
102
RTVSPost2010Prop46
 90
       50
102
RTVSPost2010PropOp46
 70
     1
102
RTVSPost2010Prop47
 90
       50
102
RTVSPost2010PropOp47
 70
     1
102
RTVSPost2010Prop48
 90
       50
102
RTVSPost2010PropOp48
 70
     1
102
RTVSPost2010Prop49
280
     0
102
RTVSPost2010PropOp49
 70
     1
102
RTVSPost2010Prop50
 90
       50
102
RTVSPost2010PropOp50
 70
     1
102
RTVSPost2010Prop51ColorIndex
 90
      256
102
RTVSPost2010Prop51ColorRGB
 90
-16777216
102
RTVSPost2010PropOp51
 70
     0
102
RTVSPost2010Prop52
140
1.0
102
RTVSPost2010PropOp52
 70
     0
102
RTVSPost2010Prop53
 90
        2
102
RTVSPost2010PropOp53
 70
     1
102
RTVSPost2010Prop54
  1
strokes_ogs.tif
102
RTVSPost2010PropOp54
 70
     1
102
RTVSPost2010Prop55
280
     0
102
RTVSPost2010PropOp55
 70
     1
102
RTVSPost2010Prop56
140
1.0
102
RTVSPost2010PropOp56
 70
     1
102
RTVSPost2010Prop57
140
1.0
102
RTVSPost2010PropOp57
 70
     1
  0
XRECORD
  5
109
102
{ACAD_REACTORS
330
108
102
}
330
108
100
AcDbXrecord
280
     1
102
RTVSPost2010Prop28
280
     0
102
RTVSPost2010PropOp28
 70
     1
102
RTVSPost2010Prop29
280
     1
102
RTVSPost2010PropOp29
 70
     1
102
RTVSPost2010Prop30
280
     1
102
RTVSPost2010PropOp30
 70
     1
102
RTVSPost2010Prop31
280
     0
102
RTVSPost2010PropOp31
 70
     1
102
RTVSPost2010Prop32
280
     0
102
RTVSPost2010PropOp32
 70
     1
102
RTVSPost2010Prop33
280
     0
102
RTVSPost2010PropOp33
 70
     1
102
RTVSPost2010Prop34
280
     0
102
RTVSPost2010PropOp34
 70
     1
102
RTVSPost2010Prop35
280
     0
102
RTVSPost2010PropOp35
 70
     1
102
RTVSPost2010Prop36
280
     0
102
RTVSPost2010PropOp36
 70
     1
102
RTVSPost2010Prop37
 90
       50
102
RTVSPost2010PropOp37
 70
     1
102
RTVSPost2010Prop38
140
0.0
102
RTVSPost2010PropOp38
 70
     1
102
RTVSPost2010Prop39
140
1.0
102
RTVSPost2010PropOp39
 70
     1
102
RTVSPost2010Prop40
 90
        0
102
RTVSPost2010PropOp40
 70
     1
102
RTVSPost2010Prop41ColorIndex
 90
       18
102
RTVSPost2010Prop41ColorRGB
 90
        0
102
RTVSPost2010PropOp41
 70
     1
102
RTVSPost2010Prop42
 90
       50
102
RTVSPost2010PropOp42
 70
     1
102
RTVSPost2010Prop43
 90
        3
102
RTVSPost2010PropOp43
 70
     1
102
RTVSPost2010Prop44ColorIndex
 90
        5
102
RTVSPost2010Prop44ColorRGB
 90
      255
102
RTVSPost2010PropOp44
 70
     1
102
RTVSPost2010Prop45
280
     0
102
RTVSPost2010PropOp45
 70
     1
102
RTVSPost2010Prop46
 90
       50
102
RTVSPost2010PropOp46
 70
     1
102
RTVSPost2010Prop47
 90
       50
102
RTVSPost2010PropOp47
 70
     1
102
RTVSPost2010Prop48
 90
       50
102
RTVSPost2010PropOp48
 70
     1
102
RTVSPost2010Prop49
280
     0
102
RTVSPost2010PropOp49
 70
     1
102
RTVSPost2010Prop50
 90
       50
102
RTVSPost2010PropOp50
 70
     1
102
RTVSPost2010Prop51ColorIndex
 90
      256
102
RTVSPost2010Prop51ColorRGB
 90
-16777216
102
RTVSPost2010PropOp51
 70
     0
102
RTVSPost2010Prop52
140
1.0
102
RTVSPost2010PropOp52
 70
     0
102
RTVSPost2010Prop53
 90
        2
102
RTVSPost2010PropOp53
 70
     1
102
RTVSPost2010Prop54
  1
strokes_ogs.tif
102
RTVSPost2010PropOp54
 70
     1
102
RTVSPost2010Prop55
280
     0
102
RTVSPost2010PropOp55
 70
     1
102
RTVSPost2010Prop56
140
1.0
102
RTVSPost2010PropOp56
 70
     1
102
RTVSPost2010Prop57
140
1.0
102
RTVSPost2010PropOp57
 70
     1
  0
XRECORD
  5
117
102
{ACAD_REACTORS
330
116
102
}
330
116
100
AcDbXrecord
280
     1
102
RTVSPost2010Prop28
280
     0
102
RTVSPost2010PropOp28
 70
     1
102
RTVSPost2010Prop29
280
     1
102
RTVSPost2010PropOp29
 70
     1
102
RTVSPost2010Prop30
280
     1
102
RTVSPost2010PropOp30
 70
     1
102
RTVSPost2010Prop31
280
     0
102
RTVSPost2010PropOp31
 70
     1
102
RTVSPost2010Prop32
280
     0
102
RTVSPost2010PropOp32
 70
     1
102
RTVSPost2010Prop33
280
     0
102
RTVSPost2010PropOp33
 70
     1
102
RTVSPost2010Prop34
280
     0
102
RTVSPost2010PropOp34
 70
     1
102
RTVSPost2010Prop35
280
     0
102
RTVSPost2010PropOp35
 70
     1
102
RTVSPost2010Prop36
280
     0
102
RTVSPost2010PropOp36
 70
     1
102
RTVSPost2010Prop37
 90
       50
102
RTVSPost2010PropOp37
 70
     1
102
RTVSPost2010Prop38
140
0.0
102
RTVSPost2010PropOp38
 70
     1
102
RTVSPost2010Prop39
140
1.0
102
RTVSPost2010PropOp39
 70
     1
102
RTVSPost2010Prop40
 90
        0
102
RTVSPost2010PropOp40
 70
     1
102
RTVSPost2010Prop41ColorIndex
 90
       18
102
RTVSPost2010Prop41ColorRGB
 90
        0
102
RTVSPost2010PropOp41
 70
     1
102
RTVSPost2010Prop42
 90
       50
102
RTVSPost2010PropOp42
 70
     1
102
RTVSPost2010Prop43
 90
        3
102
RTVSPost2010PropOp43
 70
     1
102
RTVSPost2010Prop44ColorIndex
 90
        5
102
RTVSPost2010Prop44ColorRGB
 90
      255
102
RTVSPost2010PropOp44
 70
     1
102
RTVSPost2010Prop45
280
     0
102
RTVSPost2010PropOp45
 70
     1
102
RTVSPost2010Prop46
 90
       50
102
RTVSPost2010PropOp46
 70
     1
102
RTVSPost2010Prop47
 90
       50
102
RTVSPost2010PropOp47
 70
     1
102
RTVSPost2010Prop48
 90
       50
102
RTVSPost2010PropOp48
 70
     1
102
RTVSPost2010Prop49
280
     0
102
RTVSPost2010PropOp49
 70
     1
102
RTVSPost2010Prop50
 90
       50
102
RTVSPost2010PropOp50
 70
     1
102
RTVSPost2010Prop51ColorIndex
 90
      256
102
RTVSPost2010Prop51ColorRGB
 90
-16777216
102
RTVSPost2010PropOp51
 70
     0
102
RTVSPost2010Prop52
140
1.0
102
RTVSPost2010PropOp52
 70
     0
102
RTVSPost2010Prop53
 90
        2
102
RTVSPost2010PropOp53
 70
     1
102
RTVSPost2010Prop54
  1
strokes_ogs.tif
102
RTVSPost2010PropOp54
 70
     1
102
RTVSPost2010Prop55
280
     0
102
RTVSPost2010PropOp55
 70
     1
102
RTVSPost2010Prop56
140
1.0
102
RTVSPost2010PropOp56
 70
     1
102
RTVSPost2010Prop57
140
1.0
102
RTVSPost2010PropOp57
 70
     1
  0
XRECORD
  5
11F
102
{ACAD_REACTORS
330
11E
102
}
330
11E
100
AcDbXrecord
280
     1
102
RTVSPost2010Prop28
280
     0
102
RTVSPost2010PropOp28
 70
     1
102
RTVSPost2010Prop29
280
     1
102
RTVSPost2010PropOp29
 70
     1
102
RTVSPost2010Prop30
280
     1
102
RTVSPost2010PropOp30
 70
     1
102
RTVSPost2010Prop31
280
     0
102
RTVSPost2010PropOp31
 70
     1
102
RTVSPost2010Prop32
280
     0
102
RTVSPost2010PropOp32
 70
     1
102
RTVSPost2010Prop33
280
     0
102
RTVSPost2010PropOp33
 70
     1
102
RTVSPost2010Prop34
280
     0
102
RTVSPost2010PropOp34
 70
     1
102
RTVSPost2010Prop35
280
     0
102
RTVSPost2010PropOp35
 70
     1
102
RTVSPost2010Prop36
280
     0
102
RTVSPost2010PropOp36
 70
     1
102
RTVSPost2010Prop37
 90
       50
102
RTVSPost2010PropOp37
 70
     1
102
RTVSPost2010Prop38
140
0.0
102
RTVSPost2010PropOp38
 70
     1
102
RTVSPost2010Prop39
140
1.0
102
RTVSPost2010PropOp39
 70
     1
102
RTVSPost2010Prop40
 90
        0
102
RTVSPost2010PropOp40
 70
     1
102
RTVSPost2010Prop41ColorIndex
 90
       18
102
RTVSPost2010Prop41ColorRGB
 90
        0
102
RTVSPost2010PropOp41
 70
     1
102
RTVSPost2010Prop42
 90
       50
102
RTVSPost2010PropOp42
 70
     1
102
RTVSPost2010Prop43
 90
        3
102
RTVSPost2010PropOp43
 70
     1
102
RTVSPost2010Prop44ColorIndex
 90
        5
102
RTVSPost2010Prop44ColorRGB
 90
      255
102
RTVSPost2010PropOp44
 70
     1
102
RTVSPost2010Prop45
280
     0
102
RTVSPost2010PropOp45
 70
     1
102
RTVSPost2010Prop46
 90
       50
102
RTVSPost2010PropOp46
 70
     1
102
RTVSPost2010Prop47
 90
       50
102
RTVSPost2010PropOp47
 70
     1
102
RTVSPost2010Prop48
 90
       50
102
RTVSPost2010PropOp48
 70
     1
102
RTVSPost2010Prop49
280
     0
102
RTVSPost2010PropOp49
 70
     1
102
RTVSPost2010Prop50
 90
       50
102
RTVSPost2010PropOp50
 70
     1
102
RTVSPost2010Prop51ColorIndex
 90
      256
102
RTVSPost2010Prop51ColorRGB
 90
-16777216
102
RTVSPost2010PropOp51
 70
     0
102
RTVSPost2010Prop52
140
1.0
102
RTVSPost2010PropOp52
 70
     0
102
RTVSPost2010Prop53
 90
        2
102
RTVSPost2010PropOp53
 70
     1
102
RTVSPost2010Prop54
  1
strokes_ogs.tif
102
RTVSPost2010PropOp54
 70
     1
102
RTVSPost2010Prop55
280
     0
102
RTVSPost2010PropOp55
 70
     1
102
RTVSPost2010Prop56
140
1.0
102
RTVSPost2010PropOp56
 70
     1
102
RTVSPost2010Prop57
140
1.0
102
RTVSPost2010PropOp57
 70
     1
  0
XRECORD
  5
111
102
{ACAD_REACTORS
330
110
102
}
330
110
100
AcDbXrecord
280
     1
102
RTVSPost2010Prop28
280
     0
102
RTVSPost2010PropOp28
 70
     1
102
RTVSPost2010Prop29
280
     1
102
RTVSPost2010PropOp29
 70
     1
102
RTVSPost2010Prop30
280
     1
102
RTVSPost2010PropOp30
 70
     1
102
RTVSPost2010Prop31
280
     0
102
RTVSPost2010PropOp31
 70
     1
102
RTVSPost2010Prop32
280
     0
102
RTVSPost2010PropOp32
 70
     1
102
RTVSPost2010Prop33
280
     0
102
RTVSPost2010PropOp33
 70
     1
102
RTVSPost2010Prop34
280
     0
102
RTVSPost2010PropOp34
 70
     1
102
RTVSPost2010Prop35
280
     0
102
RTVSPost2010PropOp35
 70
     1
102
RTVSPost2010Prop36
280
     0
102
RTVSPost2010PropOp36
 70
     1
102
RTVSPost2010Prop37
 90
       50
102
RTVSPost2010PropOp37
 70
     1
102
RTVSPost2010Prop38
140
0.0
102
RTVSPost2010PropOp38
 70
     1
102
RTVSPost2010Prop39
140
1.0
102
RTVSPost2010PropOp39
 70
     1
102
RTVSPost2010Prop40
 90
        0
102
RTVSPost2010PropOp40
 70
     1
102
RTVSPost2010Prop41ColorIndex
 90
       18
102
RTVSPost2010Prop41ColorRGB
 90
        0
102
RTVSPost2010PropOp41
 70
     1
102
RTVSPost2010Prop42
 90
       50
102
RTVSPost2010PropOp42
 70
     1
102
RTVSPost2010Prop43
 90
        3
102
RTVSPost2010PropOp43
 70
     1
102
RTVSPost2010Prop44ColorIndex
 90
        5
102
RTVSPost2010Prop44ColorRGB
 90
      255
102
RTVSPost2010PropOp44
 70
     1
102
RTVSPost2010Prop45
280
     0
102
RTVSPost2010PropOp45
 70
     1
102
RTVSPost2010Prop46
 90
       50
102
RTVSPost2010PropOp46
 70
     1
102
RTVSPost2010Prop47
 90
       50
102
RTVSPost2010PropOp47
 70
     1
102
RTVSPost2010Prop48
 90
       50
102
RTVSPost2010PropOp48
 70
     1
102
RTVSPost2010Prop49
280
     0
102
RTVSPost2010PropOp49
 70
     1
102
RTVSPost2010Prop50
 90
       50
102
RTVSPost2010PropOp50
 70
     1
102
RTVSPost2010Prop51ColorIndex
 90
      256
102
RTVSPost2010Prop51ColorRGB
 90
-16777216
102
RTVSPost2010PropOp51
 70
     0
102
RTVSPost2010Prop52
140
1.0
102
RTVSPost2010PropOp52
 70
     0
102
RTVSPost2010Prop53
 90
        2
102
RTVSPost2010PropOp53
 70
     1
102
RTVSPost2010Prop54
  1
strokes_ogs.tif
102
RTVSPost2010PropOp54
 70
     1
102
RTVSPost2010Prop55
280
     0
102
RTVSPost2010PropOp55
 70
     1
102
RTVSPost2010Prop56
140
1.0
102
RTVSPost2010PropOp56
 70
     1
102
RTVSPost2010Prop57
140
1.0
102
RTVSPost2010PropOp57
 70
     1
  0
XRECORD
  5
115
102
{ACAD_REACTORS
330
114
102
}
330
114
100
AcDbXrecord
280
     1
102
RTVSPost2010Prop28
280
     0
102
RTVSPost2010PropOp28
 70
     1
102
RTVSPost2010Prop29
280
     1
102
RTVSPost2010PropOp29
 70
     1
102
RTVSPost2010Prop30
280
     1
102
RTVSPost2010PropOp30
 70
     1
102
RTVSPost2010Prop31
280
     0
102
RTVSPost2010PropOp31
 70
     1
102
RTVSPost2010Prop32
280
     0
102
RTVSPost2010PropOp32
 70
     1
102
RTVSPost2010Prop33
280
     0
102
RTVSPost2010PropOp33
 70
     1
102
RTVSPost2010Prop34
280
     0
102
RTVSPost2010PropOp34
 70
     1
102
RTVSPost2010Prop35
280
     0
102
RTVSPost2010PropOp35
 70
     1
102
RTVSPost2010Prop36
280
     0
102
RTVSPost2010PropOp36
 70
     1
102
RTVSPost2010Prop37
 90
       50
102
RTVSPost2010PropOp37
 70
     1
102
RTVSPost2010Prop38
140
0.0
102
RTVSPost2010PropOp38
 70
     1
102
RTVSPost2010Prop39
140
1.0
102
RTVSPost2010PropOp39
 70
     1
102
RTVSPost2010Prop40
 90
        0
102
RTVSPost2010PropOp40
 70
     1
102
RTVSPost2010Prop41ColorIndex
 90
       18
102
RTVSPost2010Prop41ColorRGB
 90
        0
102
RTVSPost2010PropOp41
 70
     1
102
RTVSPost2010Prop42
 90
       50
102
RTVSPost2010PropOp42
 70
     1
102
RTVSPost2010Prop43
 90
        3
102
RTVSPost2010PropOp43
 70
     1
102
RTVSPost2010Prop44ColorIndex
 90
        5
102
RTVSPost2010Prop44ColorRGB
 90
      255
102
RTVSPost2010PropOp44
 70
     1
102
RTVSPost2010Prop45
280
     0
102
RTVSPost2010PropOp45
 70
     1
102
RTVSPost2010Prop46
 90
       50
102
RTVSPost2010PropOp46
 70
     1
102
RTVSPost2010Prop47
 90
       50
102
RTVSPost2010PropOp47
 70
     1
102
RTVSPost2010Prop48
 90
       50
102
RTVSPost2010PropOp48
 70
     1
102
RTVSPost2010Prop49
280
     0
102
RTVSPost2010PropOp49
 70
     1
102
RTVSPost2010Prop50
 90
       50
102
RTVSPost2010PropOp50
 70
     1
102
RTVSPost2010Prop51ColorIndex
 90
      256
102
RTVSPost2010Prop51ColorRGB
 90
-16777216
102
RTVSPost2010PropOp51
 70
     0
102
RTVSPost2010Prop52
140
1.0
102
RTVSPost2010PropOp52
 70
     0
102
RTVSPost2010Prop53
 90
        2
102
RTVSPost2010PropOp53
 70
     1
102
RTVSPost2010Prop54
  1
strokes_ogs.tif
102
RTVSPost2010PropOp54
 70
     1
102
RTVSPost2010Prop55
280
     0
102
RTVSPost2010PropOp55
 70
     1
102
RTVSPost2010Prop56
140
1.0
102
RTVSPost2010PropOp56
 70
     1
102
RTVSPost2010Prop57
140
1.0
102
RTVSPost2010PropOp57
 70
     1
  0
XRECORD
  5
12F
102
{ACAD_REACTORS
330
12E
102
}
330
12E
100
AcDbXrecord
280
     1
102
RTVSPost2010Prop28
280
     0
102
RTVSPost2010PropOp28
 70
     0
102
RTVSPost2010Prop29
280
     1
102
RTVSPost2010PropOp29
 70
     0
102
RTVSPost2010Prop30
280
     1
102
RTVSPost2010PropOp30
 70
     0
102
RTVSPost2010Prop31
280
     0
102
RTVSPost2010PropOp31
 70
     0
102
RTVSPost2010Prop32
280
     0
102
RTVSPost2010PropOp32
 70
     0
102
RTVSPost2010Prop33
280
     0
102
RTVSPost2010PropOp33
 70
     0
102
RTVSPost2010Prop34
280
     0
102
RTVSPost2010PropOp34
 70
     0
102
RTVSPost2010Prop35
280
     0
102
RTVSPost2010PropOp35
 70
     0
102
RTVSPost2010Prop36
280
     0
102
RTVSPost2010PropOp36
 70
     0
102
RTVSPost2010Prop37
 90
       50
102
RTVSPost2010PropOp37
 70
     0
102
RTVSPost2010Prop38
140
0.0
102
RTVSPost2010PropOp38
 70
     0
102
RTVSPost2010Prop39
140
1.0
102
RTVSPost2010PropOp39
 70
     0
102
RTVSPost2010Prop40
 90
        0
102
RTVSPost2010PropOp40
 70
     0
102
RTVSPost2010Prop41ColorIndex
 90
       18
102
RTVSPost2010Prop41ColorRGB
 90
        0
102
RTVSPost2010PropOp41
 70
     0
102
RTVSPost2010Prop42
 90
       50
102
RTVSPost2010PropOp42
 70
     0
102
RTVSPost2010Prop43
 90
        3
102
RTVSPost2010PropOp43
 70
     0
102
RTVSPost2010Prop44ColorIndex
 90
        5
102
RTVSPost2010Prop44ColorRGB
 90
      255
102
RTVSPost2010PropOp44
 70
     0
102
RTVSPost2010Prop45
280
     0
102
RTVSPost2010PropOp45
 70
     0
102
RTVSPost2010Prop46
 90
       50
102
RTVSPost2010PropOp46
 70
     0
102
RTVSPost2010Prop47
 90
       50
102
RTVSPost2010PropOp47
 70
     0
102
RTVSPost2010Prop48
 90
       50
102
RTVSPost2010PropOp48
 70
     0
102
RTVSPost2010Prop49
280
     0
102
RTVSPost2010PropOp49
 70
     0
102
RTVSPost2010Prop50
 90
       50
102
RTVSPost2010PropOp50
 70
     0
102
RTVSPost2010Prop51ColorIndex
 90
      256
102
RTVSPost2010Prop51ColorRGB
 90
-16777216
102
RTVSPost2010PropOp51
 70
     0
102
RTVSPost2010Prop52
140
1.0
102
RTVSPost2010PropOp52
 70
     0
102
RTVSPost2010Prop53
 90
        2
102
RTVSPost2010PropOp53
 70
     0
102
RTVSPost2010Prop54
  1
strokes_ogs.tif
102
RTVSPost2010PropOp54
 70
     0
102
RTVSPost2010Prop55
280
     0
102
RTVSPost2010PropOp55
 70
     0
102
RTVSPost2010Prop56
140
1.0
102
RTVSPost2010PropOp56
 70
     0
102
RTVSPost2010Prop57
140
1.0
102
RTVSPost2010PropOp57
 70
     0
  0
XRECORD
  5
11D
102
{ACAD_REACTORS
330
11C
102
}
330
11C
100
AcDbXrecord
280
     1
102
RTVSPost2010Prop28
280
     0
102
RTVSPost2010PropOp28
 70
     1
102
RTVSPost2010Prop29
280
     1
102
RTVSPost2010PropOp29
 70
     1
102
RTVSPost2010Prop30
280
     1
102
RTVSPost2010PropOp30
 70
     1
102
RTVSPost2010Prop31
280
     0
102
RTVSPost2010PropOp31
 70
     1
102
RTVSPost2010Prop32
280
     0
102
RTVSPost2010PropOp32
 70
     1
102
RTVSPost2010Prop33
280
     0
102
RTVSPost2010PropOp33
 70
     1
102
RTVSPost2010Prop34
280
     0
102
RTVSPost2010PropOp34
 70
     1
102
RTVSPost2010Prop35
280
     0
102
RTVSPost2010PropOp35
 70
     1
102
RTVSPost2010Prop36
280
     0
102
RTVSPost2010PropOp36
 70
     1
102
RTVSPost2010Prop37
 90
       50
102
RTVSPost2010PropOp37
 70
     1
102
RTVSPost2010Prop38
140
0.0
102
RTVSPost2010PropOp38
 70
     1
102
RTVSPost2010Prop39
140
1.0
102
RTVSPost2010PropOp39
 70
     1
102
RTVSPost2010Prop40
 90
        0
102
RTVSPost2010PropOp40
 70
     1
102
RTVSPost2010Prop41ColorIndex
 90
       18
102
RTVSPost2010Prop41ColorRGB
 90
        0
102
RTVSPost2010PropOp41
 70
     1
102
RTVSPost2010Prop42
 90
       50
102
RTVSPost2010PropOp42
 70
     1
102
RTVSPost2010Prop43
 90
        3
102
RTVSPost2010PropOp43
 70
     1
102
RTVSPost2010Prop44ColorIndex
 90
        5
102
RTVSPost2010Prop44ColorRGB
 90
      255
102
RTVSPost2010PropOp44
 70
     1
102
RTVSPost2010Prop45
280
     0
102
RTVSPost2010PropOp45
 70
     1
102
RTVSPost2010Prop46
 90
       50
102
RTVSPost2010PropOp46
 70
     1
102
RTVSPost2010Prop47
 90
       50
102
RTVSPost2010PropOp47
 70
     1
102
RTVSPost2010Prop48
 90
       50
102
RTVSPost2010PropOp48
 70
     1
102
RTVSPost2010Prop49
280
     0
102
RTVSPost2010PropOp49
 70
     1
102
RTVSPost2010Prop50
 90
       50
102
RTVSPost2010PropOp50
 70
     1
102
RTVSPost2010Prop51ColorIndex
 90
      256
102
RTVSPost2010Prop51ColorRGB
 90
-16777216
102
RTVSPost2010PropOp51
 70
     0
102
RTVSPost2010Prop52
140
1.0
102
RTVSPost2010PropOp52
 70
     0
102
RTVSPost2010Prop53
 90
        2
102
RTVSPost2010PropOp53
 70
     1
102
RTVSPost2010Prop54
  1
strokes_ogs.tif
102
RTVSPost2010PropOp54
 70
     1
102
RTVSPost2010Prop55
280
     0
102
RTVSPost2010PropOp55
 70
     1
102
RTVSPost2010Prop56
140
1.0
102
RTVSPost2010PropOp56
 70
     1
102
RTVSPost2010Prop57
140
1.0
102
RTVSPost2010PropOp57
 70
     1
  0
XRECORD
  5
101
102
{ACAD_REACTORS
330
100
102
}
330
100
100
AcDbXrecord
280
     1
102
RTVSPost2010Prop28
280
     0
102
RTVSPost2010PropOp28
 70
     1
102
RTVSPost2010Prop29
280
     1
102
RTVSPost2010PropOp29
 70
     1
102
RTVSPost2010Prop30
280
     1
102
RTVSPost2010PropOp30
 70
     1
102
RTVSPost2010Prop31
280
     0
102
RTVSPost2010PropOp31
 70
     1
102
RTVSPost2010Prop32
280
     0
102
RTVSPost2010PropOp32
 70
     1
102
RTVSPost2010Prop33
280
     0
102
RTVSPost2010PropOp33
 70
     1
102
RTVSPost2010Prop34
280
     0
102
RTVSPost2010PropOp34
 70
     1
102
RTVSPost2010Prop35
280
     0
102
RTVSPost2010PropOp35
 70
     1
102
RTVSPost2010Prop36
280
     0
102
RTVSPost2010PropOp36
 70
     1
102
RTVSPost2010Prop37
 90
       50
102
RTVSPost2010PropOp37
 70
     1
102
RTVSPost2010Prop38
140
0.0
102
RTVSPost2010PropOp38
 70
     1
102
RTVSPost2010Prop39
140
1.0
102
RTVSPost2010PropOp39
 70
     1
102
RTVSPost2010Prop40
 90
        0
102
RTVSPost2010PropOp40
 70
     1
102
RTVSPost2010Prop41ColorIndex
 90
       18
102
RTVSPost2010Prop41ColorRGB
 90
        0
102
RTVSPost2010PropOp41
 70
     1
102
RTVSPost2010Prop42
 90
       50
102
RTVSPost2010PropOp42
 70
     1
102
RTVSPost2010Prop43
 90
        3
102
RTVSPost2010PropOp43
 70
     1
102
RTVSPost2010Prop44ColorIndex
 90
        5
102
RTVSPost2010Prop44ColorRGB
 90
      255
102
RTVSPost2010PropOp44
 70
     1
102
RTVSPost2010Prop45
280
     0
102
RTVSPost2010PropOp45
 70
     1
102
RTVSPost2010Prop46
 90
       50
102
RTVSPost2010PropOp46
 70
     1
102
RTVSPost2010Prop47
 90
       50
102
RTVSPost2010PropOp47
 70
     1
102
RTVSPost2010Prop48
 90
       50
102
RTVSPost2010PropOp48
 70
     1
102
RTVSPost2010Prop49
280
     0
102
RTVSPost2010PropOp49
 70
     1
102
RTVSPost2010Prop50
 90
       50
102
RTVSPost2010PropOp50
 70
     1
102
RTVSPost2010Prop51ColorIndex
 90
      256
102
RTVSPost2010Prop51ColorRGB
 90
-16777216
102
RTVSPost2010PropOp51
 70
     0
102
RTVSPost2010Prop52
140
1.0
102
RTVSPost2010PropOp52
 70
     0
102
RTVSPost2010Prop53
 90
        2
102
RTVSPost2010PropOp53
 70
     1
102
RTVSPost2010Prop54
  1
strokes_ogs.tif
102
RTVSPost2010PropOp54
 70
     1
102
RTVSPost2010Prop55
280
     0
102
RTVSPost2010PropOp55
 70
     1
102
RTVSPost2010Prop56
140
1.0
102
RTVSPost2010PropOp56
 70
     1
102
RTVSPost2010Prop57
140
1.0
102
RTVSPost2010PropOp57
 70
     1
  0
XRECORD
  5
103
102
{ACAD_REACTORS
330
102
102
}
330
102
100
AcDbXrecord
280
     1
102
RTVSPost2010Prop28
280
     0
102
RTVSPost2010PropOp28
 70
     1
102
RTVSPost2010Prop29
280
     1
102
RTVSPost2010PropOp29
 70
     1
102
RTVSPost2010Prop30
280
     1
102
RTVSPost2010PropOp30
 70
     1
102
RTVSPost2010Prop31
280
     0
102
RTVSPost2010PropOp31
 70
     1
102
RTVSPost2010Prop32
280
     0
102
RTVSPost2010PropOp32
 70
     1
102
RTVSPost2010Prop33
280
     0
102
RTVSPost2010PropOp33
 70
     1
102
RTVSPost2010Prop34
280
     0
102
RTVSPost2010PropOp34
 70
     1
102
RTVSPost2010Prop35
280
     0
102
RTVSPost2010PropOp35
 70
     1
102
RTVSPost2010Prop36
280
     0
102
RTVSPost2010PropOp36
 70
     1
102
RTVSPost2010Prop37
 90
       50
102
RTVSPost2010PropOp37
 70
     1
102
RTVSPost2010Prop38
140
0.0
102
RTVSPost2010PropOp38
 70
     1
102
RTVSPost2010Prop39
140
1.0
102
RTVSPost2010PropOp39
 70
     1
102
RTVSPost2010Prop40
 90
        0
102
RTVSPost2010PropOp40
 70
     1
102
RTVSPost2010Prop41ColorIndex
 90
       18
102
RTVSPost2010Prop41ColorRGB
 90
        0
102
RTVSPost2010PropOp41
 70
     1
102
RTVSPost2010Prop42
 90
       50
102
RTVSPost2010PropOp42
 70
     1
102
RTVSPost2010Prop43
 90
        3
102
RTVSPost2010PropOp43
 70
     1
102
RTVSPost2010Prop44ColorIndex
 90
        5
102
RTVSPost2010Prop44ColorRGB
 90
      255
102
RTVSPost2010PropOp44
 70
     1
102
RTVSPost2010Prop45
280
     0
102
RTVSPost2010PropOp45
 70
     1
102
RTVSPost2010Prop46
 90
       50
102
RTVSPost2010PropOp46
 70
     1
102
RTVSPost2010Prop47
 90
       50
102
RTVSPost2010PropOp47
 70
     1
102
RTVSPost2010Prop48
 90
       50
102
RTVSPost2010PropOp48
 70
     1
102
RTVSPost2010Prop49
280
     0
102
RTVSPost2010PropOp49
 70
     1
102
RTVSPost2010Prop50
 90
       50
102
RTVSPost2010PropOp50
 70
     1
102
RTVSPost2010Prop51ColorIndex
 90
      256
102
RTVSPost2010Prop51ColorRGB
 90
-16777216
102
RTVSPost2010PropOp51
 70
     0
102
RTVSPost2010Prop52
140
1.0
102
RTVSPost2010PropOp52
 70
     0
102
RTVSPost2010Prop53
 90
        2
102
RTVSPost2010PropOp53
 70
     1
102
RTVSPost2010Prop54
  1
strokes_ogs.tif
102
RTVSPost2010PropOp54
 70
     1
102
RTVSPost2010Prop55
280
     0
102
RTVSPost2010PropOp55
 70
     1
102
RTVSPost2010Prop56
140
1.0
102
RTVSPost2010PropOp56
 70
     1
102
RTVSPost2010Prop57
140
1.0
102
RTVSPost2010PropOp57
 70
     1
  0
XRECORD
  5
105
102
{ACAD_REACTORS
330
104
102
}
330
104
100
AcDbXrecord
280
     1
102
RTVSPost2010Prop28
280
     0
102
RTVSPost2010PropOp28
 70
     1
102
RTVSPost2010Prop29
280
     1
102
RTVSPost2010PropOp29
 70
     1
102
RTVSPost2010Prop30
280
     1
102
RTVSPost2010PropOp30
 70
     1
102
RTVSPost2010Prop31
280
     0
102
RTVSPost2010PropOp31
 70
     1
102
RTVSPost2010Prop32
280
     0
102
RTVSPost2010PropOp32
 70
     1
102
RTVSPost2010Prop33
280
     0
102
RTVSPost2010PropOp33
 70
     1
102
RTVSPost2010Prop34
280
     0
102
RTVSPost2010PropOp34
 70
     1
102
RTVSPost2010Prop35
280
     0
102
RTVSPost2010PropOp35
 70
     1
102
RTVSPost2010Prop36
280
     0
102
RTVSPost2010PropOp36
 70
     1
102
RTVSPost2010Prop37
 90
       50
102
RTVSPost2010PropOp37
 70
     1
102
RTVSPost2010Prop38
140
0.0
102
RTVSPost2010PropOp38
 70
     1
102
RTVSPost2010Prop39
140
1.0
102
RTVSPost2010PropOp39
 70
     1
102
RTVSPost2010Prop40
 90
        0
102
RTVSPost2010PropOp40
 70
     1
102
RTVSPost2010Prop41ColorIndex
 90
       18
102
RTVSPost2010Prop41ColorRGB
 90
        0
102
RTVSPost2010PropOp41
 70
     1
102
RTVSPost2010Prop42
 90
       50
102
RTVSPost2010PropOp42
 70
     1
102
RTVSPost2010Prop43
 90
        3
102
RTVSPost2010PropOp43
 70
     1
102
RTVSPost2010Prop44ColorIndex
 90
        5
102
RTVSPost2010Prop44ColorRGB
 90
      255
102
RTVSPost2010PropOp44
 70
     1
102
RTVSPost2010Prop45
280
     0
102
RTVSPost2010PropOp45
 70
     1
102
RTVSPost2010Prop46
 90
       50
102
RTVSPost2010PropOp46
 70
     1
102
RTVSPost2010Prop47
 90
       50
102
RTVSPost2010PropOp47
 70
     1
102
RTVSPost2010Prop48
 90
       50
102
RTVSPost2010PropOp48
 70
     1
102
RTVSPost2010Prop49
280
     0
102
RTVSPost2010PropOp49
 70
     1
102
RTVSPost2010Prop50
 90
       50
102
RTVSPost2010PropOp50
 70
     1
102
RTVSPost2010Prop51ColorIndex
 90
      256
102
RTVSPost2010Prop51ColorRGB
 90
-16777216
102
RTVSPost2010PropOp51
 70
     0
102
RTVSPost2010Prop52
140
1.0
102
RTVSPost2010PropOp52
 70
     0
102
RTVSPost2010Prop53
 90
        2
102
RTVSPost2010PropOp53
 70
     1
102
RTVSPost2010Prop54
  1
strokes_ogs.tif
102
RTVSPost2010PropOp54
 70
     1
102
RTVSPost2010Prop55
280
     0
102
RTVSPost2010PropOp55
 70
     1
102
RTVSPost2010Prop56
140
1.0
102
RTVSPost2010PropOp56
 70
     1
102
RTVSPost2010Prop57
140
1.0
102
RTVSPost2010PropOp57
 70
     1
  0
XRECORD
  5
107
102
{ACAD_REACTORS
330
106
102
}
330
106
100
AcDbXrecord
280
     1
102
RTVSPost2010Prop28
280
     0
102
RTVSPost2010PropOp28
 70
     1
102
RTVSPost2010Prop29
280
     1
102
RTVSPost2010PropOp29
 70
     1
102
RTVSPost2010Prop30
280
     1
102
RTVSPost2010PropOp30
 70
     1
102
RTVSPost2010Prop31
280
     0
102
RTVSPost2010PropOp31
 70
     1
102
RTVSPost2010Prop32
280
     0
102
RTVSPost2010PropOp32
 70
     1
102
RTVSPost2010Prop33
280
     0
102
RTVSPost2010PropOp33
 70
     1
102
RTVSPost2010Prop34
280
     0
102
RTVSPost2010PropOp34
 70
     1
102
RTVSPost2010Prop35
280
     0
102
RTVSPost2010PropOp35
 70
     1
102
RTVSPost2010Prop36
280
     0
102
RTVSPost2010PropOp36
 70
     1
102
RTVSPost2010Prop37
 90
       50
102
RTVSPost2010PropOp37
 70
     1
102
RTVSPost2010Prop38
140
0.0
102
RTVSPost2010PropOp38
 70
     1
102
RTVSPost2010Prop39
140
1.0
102
RTVSPost2010PropOp39
 70
     1
102
RTVSPost2010Prop40
 90
        0
102
RTVSPost2010PropOp40
 70
     1
102
RTVSPost2010Prop41ColorIndex
 90
       18
102
RTVSPost2010Prop41ColorRGB
 90
        0
102
RTVSPost2010PropOp41
 70
     1
102
RTVSPost2010Prop42
 90
       50
102
RTVSPost2010PropOp42
 70
     1
102
RTVSPost2010Prop43
 90
        3
102
RTVSPost2010PropOp43
 70
     1
102
RTVSPost2010Prop44ColorIndex
 90
        5
102
RTVSPost2010Prop44ColorRGB
 90
      255
102
RTVSPost2010PropOp44
 70
     1
102
RTVSPost2010Prop45
280
     0
102
RTVSPost2010PropOp45
 70
     1
102
RTVSPost2010Prop46
 90
       50
102
RTVSPost2010PropOp46
 70
     1
102
RTVSPost2010Prop47
 90
       50
102
RTVSPost2010PropOp47
 70
     1
102
RTVSPost2010Prop48
 90
       50
102
RTVSPost2010PropOp48
 70
     1
102
RTVSPost2010Prop49
280
     0
102
RTVSPost2010PropOp49
 70
     1
102
RTVSPost2010Prop50
 90
       50
102
RTVSPost2010PropOp50
 70
     1
102
RTVSPost2010Prop51ColorIndex
 90
      256
102
RTVSPost2010Prop51ColorRGB
 90
-16777216
102
RTVSPost2010PropOp51
 70
     0
102
RTVSPost2010Prop52
140
1.0
102
RTVSPost2010PropOp52
 70
     0
102
RTVSPost2010Prop53
 90
        2
102
RTVSPost2010PropOp53
 70
     1
102
RTVSPost2010Prop54
  1
strokes_ogs.tif
102
RTVSPost2010PropOp54
 70
     1
102
RTVSPost2010Prop55
280
     0
102
RTVSPost2010PropOp55
 70
     1
102
RTVSPost2010Prop56
140
1.0
102
RTVSPost2010PropOp56
 70
     1
102
RTVSPost2010Prop57
140
1.0
102
RTVSPost2010PropOp57
 70
     1
  0
XRECORD
  5
10F
102
{ACAD_REACTORS
330
10E
102
}
330
10E
100
AcDbXrecord
280
     1
102
RTVSPost2010Prop28
280
     0
102
RTVSPost2010PropOp28
 70
     1
102
RTVSPost2010Prop29
280
     1
102
RTVSPost2010PropOp29
 70
     1
102
RTVSPost2010Prop30
280
     1
102
RTVSPost2010PropOp30
 70
     1
102
RTVSPost2010Prop31
280
     0
102
RTVSPost2010PropOp31
 70
     1
102
RTVSPost2010Prop32
280
     0
102
RTVSPost2010PropOp32
 70
     1
102
RTVSPost2010Prop33
280
     0
102
RTVSPost2010PropOp33
 70
     1
102
RTVSPost2010Prop34
280
     0
102
RTVSPost2010PropOp34
 70
     1
102
RTVSPost2010Prop35
280
     0
102
RTVSPost2010PropOp35
 70
     1
102
RTVSPost2010Prop36
280
     0
102
RTVSPost2010PropOp36
 70
     1
102
RTVSPost2010Prop37
 90
       50
102
RTVSPost2010PropOp37
 70
     1
102
RTVSPost2010Prop38
140
0.0
102
RTVSPost2010PropOp38
 70
     1
102
RTVSPost2010Prop39
140
1.0
102
RTVSPost2010PropOp39
 70
     1
102
RTVSPost2010Prop40
 90
        0
102
RTVSPost2010PropOp40
 70
     1
102
RTVSPost2010Prop41ColorIndex
 90
       18
102
RTVSPost2010Prop41ColorRGB
 90
        0
102
RTVSPost2010PropOp41
 70
     1
102
RTVSPost2010Prop42
 90
       50
102
RTVSPost2010PropOp42
 70
     1
102
RTVSPost2010Prop43
 90
        3
102
RTVSPost2010PropOp43
 70
     1
102
RTVSPost2010Prop44ColorIndex
 90
        5
102
RTVSPost2010Prop44ColorRGB
 90
      255
102
RTVSPost2010PropOp44
 70
     1
102
RTVSPost2010Prop45
280
     0
102
RTVSPost2010PropOp45
 70
     1
102
RTVSPost2010Prop46
 90
       50
102
RTVSPost2010PropOp46
 70
     1
102
RTVSPost2010Prop47
 90
       50
102
RTVSPost2010PropOp47
 70
     1
102
RTVSPost2010Prop48
 90
       50
102
RTVSPost2010PropOp48
 70
     1
102
RTVSPost2010Prop49
280
     0
102
RTVSPost2010PropOp49
 70
     1
102
RTVSPost2010Prop50
 90
       50
102
RTVSPost2010PropOp50
 70
     1
102
RTVSPost2010Prop51ColorIndex
 90
      256
102
RTVSPost2010Prop51ColorRGB
 90
-16777216
102
RTVSPost2010PropOp51
 70
     0
102
RTVSPost2010Prop52
140
1.0
102
RTVSPost2010PropOp52
 70
     0
102
RTVSPost2010Prop53
 90
        2
102
RTVSPost2010PropOp53
 70
     1
102
RTVSPost2010Prop54
  1
strokes_ogs.tif
102
RTVSPost2010PropOp54
 70
     1
102
RTVSPost2010Prop55
280
     0
102
RTVSPost2010PropOp55
 70
     1
102
RTVSPost2010Prop56
140
1.0
102
RTVSPost2010PropOp56
 70
     1
102
RTVSPost2010Prop57
140
1.0
102
RTVSPost2010PropOp57
 70
     1
  0
XRECORD
  5
12B
102
{ACAD_REACTORS
330
12A
102
}
330
12A
100
AcDbXrecord
280
     1
102
RTVSPost2010Prop28
280
     0
102
RTVSPost2010PropOp28
 70
     0
102
RTVSPost2010Prop29
280
     1
102
RTVSPost2010PropOp29
 70
     0
102
RTVSPost2010Prop30
280
     1
102
RTVSPost2010PropOp30
 70
     0
102
RTVSPost2010Prop31
280
     0
102
RTVSPost2010PropOp31
 70
     0
102
RTVSPost2010Prop32
280
     0
102
RTVSPost2010PropOp32
 70
     0
102
RTVSPost2010Prop33
280
     0
102
RTVSPost2010PropOp33
 70
     0
102
RTVSPost2010Prop34
280
     0
102
RTVSPost2010PropOp34
 70
     0
102
RTVSPost2010Prop35
280
     0
102
RTVSPost2010PropOp35
 70
     0
102
RTVSPost2010Prop36
280
     0
102
RTVSPost2010PropOp36
 70
     0
102
RTVSPost2010Prop37
 90
       50
102
RTVSPost2010PropOp37
 70
     0
102
RTVSPost2010Prop38
140
0.0
102
RTVSPost2010PropOp38
 70
     0
102
RTVSPost2010Prop39
140
1.0
102
RTVSPost2010PropOp39
 70
     0
102
RTVSPost2010Prop40
 90
        0
102
RTVSPost2010PropOp40
 70
     0
102
RTVSPost2010Prop41ColorIndex
 90
       18
102
RTVSPost2010Prop41ColorRGB
 90
        0
102
RTVSPost2010PropOp41
 70
     0
102
RTVSPost2010Prop42
 90
       50
102
RTVSPost2010PropOp42
 70
     0
102
RTVSPost2010Prop43
 90
        3
102
RTVSPost2010PropOp43
 70
     0
102
RTVSPost2010Prop44ColorIndex
 90
        5
102
RTVSPost2010Prop44ColorRGB
 90
      255
102
RTVSPost2010PropOp44
 70
     0
102
RTVSPost2010Prop45
280
     0
102
RTVSPost2010PropOp45
 70
     0
102
RTVSPost2010Prop46
 90
       50
102
RTVSPost2010PropOp46
 70
     0
102
RTVSPost2010Prop47
 90
       50
102
RTVSPost2010PropOp47
 70
     0
102
RTVSPost2010Prop48
 90
       50
102
RTVSPost2010PropOp48
 70
     0
102
RTVSPost2010Prop49
280
     0
102
RTVSPost2010PropOp49
 70
     0
102
RTVSPost2010Prop50
 90
       50
102
RTVSPost2010PropOp50
 70
     0
102
RTVSPost2010Prop51ColorIndex
 90
      256
102
RTVSPost2010Prop51ColorRGB
 90
-16777216
102
RTVSPost2010PropOp51
 70
     0
102
RTVSPost2010Prop52
140
1.0
102
RTVSPost2010PropOp52
 70
     0
102
RTVSPost2010Prop53
 90
        2
102
RTVSPost2010PropOp53
 70
     0
102
RTVSPost2010Prop54
  1
strokes_ogs.tif
102
RTVSPost2010PropOp54
 70
     0
102
RTVSPost2010Prop55
280
     0
102
RTVSPost2010PropOp55
 70
     0
102
RTVSPost2010Prop56
140
1.0
102
RTVSPost2010PropOp56
 70
     0
102
RTVSPost2010Prop57
140
1.0
102
RTVSPost2010PropOp57
 70
     0
  0
XRECORD
  5
11B
102
{ACAD_REACTORS
330
11A
102
}
330
11A
100
AcDbXrecord
280
     1
102
RTVSPost2010Prop28
280
     0
102
RTVSPost2010PropOp28
 70
     1
102
RTVSPost2010Prop29
280
     1
102
RTVSPost2010PropOp29
 70
     1
102
RTVSPost2010Prop30
280
     1
102
RTVSPost2010PropOp30
 70
     1
102
RTVSPost2010Prop31
280
     0
102
RTVSPost2010PropOp31
 70
     1
102
RTVSPost2010Prop32
280
     0
102
RTVSPost2010PropOp32
 70
     1
102
RTVSPost2010Prop33
280
     0
102
RTVSPost2010PropOp33
 70
     1
102
RTVSPost2010Prop34
280
     0
102
RTVSPost2010PropOp34
 70
     1
102
RTVSPost2010Prop35
280
     0
102
RTVSPost2010PropOp35
 70
     1
102
RTVSPost2010Prop36
280
     0
102
RTVSPost2010PropOp36
 70
     1
102
RTVSPost2010Prop37
 90
       50
102
RTVSPost2010PropOp37
 70
     1
102
RTVSPost2010Prop38
140
0.0
102
RTVSPost2010PropOp38
 70
     1
102
RTVSPost2010Prop39
140
1.0
102
RTVSPost2010PropOp39
 70
     1
102
RTVSPost2010Prop40
 90
        0
102
RTVSPost2010PropOp40
 70
     1
102
RTVSPost2010Prop41ColorIndex
 90
       18
102
RTVSPost2010Prop41ColorRGB
 90
        0
102
RTVSPost2010PropOp41
 70
     1
102
RTVSPost2010Prop42
 90
       50
102
RTVSPost2010PropOp42
 70
     1
102
RTVSPost2010Prop43
 90
        3
102
RTVSPost2010PropOp43
 70
     1
102
RTVSPost2010Prop44ColorIndex
 90
        5
102
RTVSPost2010Prop44ColorRGB
 90
      255
102
RTVSPost2010PropOp44
 70
     1
102
RTVSPost2010Prop45
280
     0
102
RTVSPost2010PropOp45
 70
     1
102
RTVSPost2010Prop46
 90
       50
102
RTVSPost2010PropOp46
 70
     1
102
RTVSPost2010Prop47
 90
       50
102
RTVSPost2010PropOp47
 70
     1
102
RTVSPost2010Prop48
 90
       50
102
RTVSPost2010PropOp48
 70
     1
102
RTVSPost2010Prop49
280
     0
102
RTVSPost2010PropOp49
 70
     1
102
RTVSPost2010Prop50
 90
       50
102
RTVSPost2010PropOp50
 70
     1
102
RTVSPost2010Prop51ColorIndex
 90
      256
102
RTVSPost2010Prop51ColorRGB
 90
-16777216
102
RTVSPost2010PropOp51
 70
     0
102
RTVSPost2010Prop52
140
1.0
102
RTVSPost2010PropOp52
 70
     0
102
RTVSPost2010Prop53
 90
        2
102
RTVSPost2010PropOp53
 70
     1
102
RTVSPost2010Prop54
  1
strokes_ogs.tif
102
RTVSPost2010PropOp54
 70
     1
102
RTVSPost2010Prop55
280
     0
102
RTVSPost2010PropOp55
 70
     1
102
RTVSPost2010Prop56
140
1.0
102
RTVSPost2010PropOp56
 70
     1
102
RTVSPost2010Prop57
140
1.0
102
RTVSPost2010PropOp57
 70
     1
  0
XRECORD
  5
12D
102
{ACAD_REACTORS
330
12C
102
}
330
12C
100
AcDbXrecord
280
     1
102
RTVSPost2010Prop28
280
     0
102
RTVSPost2010PropOp28
 70
     0
102
RTVSPost2010Prop29
280
     1
102
RTVSPost2010PropOp29
 70
     0
102
RTVSPost2010Prop30
280
     1
102
RTVSPost2010PropOp30
 70
     0
102
RTVSPost2010Prop31
280
     0
102
RTVSPost2010PropOp31
 70
     0
102
RTVSPost2010Prop32
280
     0
102
RTVSPost2010PropOp32
 70
     0
102
RTVSPost2010Prop33
280
     0
102
RTVSPost2010PropOp33
 70
     0
102
RTVSPost2010Prop34
280
     0
102
RTVSPost2010PropOp34
 70
     0
102
RTVSPost2010Prop35
280
     0
102
RTVSPost2010PropOp35
 70
     0
102
RTVSPost2010Prop36
280
     0
102
RTVSPost2010PropOp36
 70
     0
102
RTVSPost2010Prop37
 90
       50
102
RTVSPost2010PropOp37
 70
     0
102
RTVSPost2010Prop38
140
0.0
102
RTVSPost2010PropOp38
 70
     0
102
RTVSPost2010Prop39
140
1.0
102
RTVSPost2010PropOp39
 70
     0
102
RTVSPost2010Prop40
 90
        0
102
RTVSPost2010PropOp40
 70
     0
102
RTVSPost2010Prop41ColorIndex
 90
       18
102
RTVSPost2010Prop41ColorRGB
 90
        0
102
RTVSPost2010PropOp41
 70
     0
102
RTVSPost2010Prop42
 90
       50
102
RTVSPost2010PropOp42
 70
     0
102
RTVSPost2010Prop43
 90
        3
102
RTVSPost2010PropOp43
 70
     0
102
RTVSPost2010Prop44ColorIndex
 90
        5
102
RTVSPost2010Prop44ColorRGB
 90
      255
102
RTVSPost2010PropOp44
 70
     0
102
RTVSPost2010Prop45
280
     0
102
RTVSPost2010PropOp45
 70
     0
102
RTVSPost2010Prop46
 90
       50
102
RTVSPost2010PropOp46
 70
     0
102
RTVSPost2010Prop47
 90
       50
102
RTVSPost2010PropOp47
 70
     0
102
RTVSPost2010Prop48
 90
       50
102
RTVSPost2010PropOp48
 70
     0
102
RTVSPost2010Prop49
280
     0
102
RTVSPost2010PropOp49
 70
     0
102
RTVSPost2010Prop50
 90
       50
102
RTVSPost2010PropOp50
 70
     0
102
RTVSPost2010Prop51ColorIndex
 90
      256
102
RTVSPost2010Prop51ColorRGB
 90
-16777216
102
RTVSPost2010PropOp51
 70
     0
102
RTVSPost2010Prop52
140
1.0
102
RTVSPost2010PropOp52
 70
     0
102
RTVSPost2010Prop53
 90
        2
102
RTVSPost2010PropOp53
 70
     0
102
RTVSPost2010Prop54
  1
strokes_ogs.tif
102
RTVSPost2010PropOp54
 70
     0
102
RTVSPost2010Prop55
280
     0
102
RTVSPost2010PropOp55
 70
     0
102
RTVSPost2010Prop56
140
1.0
102
RTVSPost2010PropOp56
 70
     0
102
RTVSPost2010Prop57
140
1.0
102
RTVSPost2010PropOp57
 70
     0
  0
XRECORD
  5
113
102
{ACAD_REACTORS
330
112
102
}
330
112
100
AcDbXrecord
280
     1
102
RTVSPost2010Prop28
280
     0
102
RTVSPost2010PropOp28
 70
     1
102
RTVSPost2010Prop29
280
     1
102
RTVSPost2010PropOp29
 70
     1
102
RTVSPost2010Prop30
280
     1
102
RTVSPost2010PropOp30
 70
     1
102
RTVSPost2010Prop31
280
     0
102
RTVSPost2010PropOp31
 70
     1
102
RTVSPost2010Prop32
280
     0
102
RTVSPost2010PropOp32
 70
     1
102
RTVSPost2010Prop33
280
     0
102
RTVSPost2010PropOp33
 70
     1
102
RTVSPost2010Prop34
280
     0
102
RTVSPost2010PropOp34
 70
     1
102
RTVSPost2010Prop35
280
     0
102
RTVSPost2010PropOp35
 70
     1
102
RTVSPost2010Prop36
280
     0
102
RTVSPost2010PropOp36
 70
     1
102
RTVSPost2010Prop37
 90
       50
102
RTVSPost2010PropOp37
 70
     1
102
RTVSPost2010Prop38
140
0.0
102
RTVSPost2010PropOp38
 70
     1
102
RTVSPost2010Prop39
140
1.0
102
RTVSPost2010PropOp39
 70
     1
102
RTVSPost2010Prop40
 90
        0
102
RTVSPost2010PropOp40
 70
     1
102
RTVSPost2010Prop41ColorIndex
 90
       18
102
RTVSPost2010Prop41ColorRGB
 90
        0
102
RTVSPost2010PropOp41
 70
     1
102
RTVSPost2010Prop42
 90
       50
102
RTVSPost2010PropOp42
 70
     1
102
RTVSPost2010Prop43
 90
        3
102
RTVSPost2010PropOp43
 70
     1
102
RTVSPost2010Prop44ColorIndex
 90
        5
102
RTVSPost2010Prop44ColorRGB
 90
      255
102
RTVSPost2010PropOp44
 70
     1
102
RTVSPost2010Prop45
280
     0
102
RTVSPost2010PropOp45
 70
     1
102
RTVSPost2010Prop46
 90
       50
102
RTVSPost2010PropOp46
 70
     1
102
RTVSPost2010Prop47
 90
       50
102
RTVSPost2010PropOp47
 70
     1
102
RTVSPost2010Prop48
 90
       50
102
RTVSPost2010PropOp48
 70
     1
102
RTVSPost2010Prop49
280
     0
102
RTVSPost2010PropOp49
 70
     1
102
RTVSPost2010Prop50
 90
       50
102
RTVSPost2010PropOp50
 70
     1
102
RTVSPost2010Prop51ColorIndex
 90
      256
102
RTVSPost2010Prop51ColorRGB
 90
-16777216
102
RTVSPost2010PropOp51
 70
     0
102
RTVSPost2010Prop52
140
1.0
102
RTVSPost2010PropOp52
 70
     0
102
RTVSPost2010Prop53
 90
        2
102
RTVSPost2010PropOp53
 70
     1
102
RTVSPost2010Prop54
  1
strokes_ogs.tif
102
RTVSPost2010PropOp54
 70
     1
102
RTVSPost2010Prop55
280
     0
102
RTVSPost2010PropOp55
 70
     1
102
RTVSPost2010Prop56
140
1.0
102
RTVSPost2010PropOp56
 70
     1
102
RTVSPost2010Prop57
140
1.0
102
RTVSPost2010PropOp57
 70
     1
  0
XRECORD
  5
129
102
{ACAD_REACTORS
330
128
102
}
330
128
100
AcDbXrecord
280
     1
102
RTVSPost2010Prop28
280
     0
102
RTVSPost2010PropOp28
 70
     1
102
RTVSPost2010Prop29
280
     1
102
RTVSPost2010PropOp29
 70
     1
102
RTVSPost2010Prop30
280
     1
102
RTVSPost2010PropOp30
 70
     1
102
RTVSPost2010Prop31
280
     0
102
RTVSPost2010PropOp31
 70
     1
102
RTVSPost2010Prop32
280
     0
102
RTVSPost2010PropOp32
 70
     1
102
RTVSPost2010Prop33
280
     0
102
RTVSPost2010PropOp33
 70
     1
102
RTVSPost2010Prop34
280
     0
102
RTVSPost2010PropOp34
 70
     1
102
RTVSPost2010Prop35
280
     0
102
RTVSPost2010PropOp35
 70
     1
102
RTVSPost2010Prop36
280
     0
102
RTVSPost2010PropOp36
 70
     1
102
RTVSPost2010Prop37
 90
       50
102
RTVSPost2010PropOp37
 70
     1
102
RTVSPost2010Prop38
140
0.0
102
RTVSPost2010PropOp38
 70
     1
102
RTVSPost2010Prop39
140
1.0
102
RTVSPost2010PropOp39
 70
     1
102
RTVSPost2010Prop40
 90
        0
102
RTVSPost2010PropOp40
 70
     1
102
RTVSPost2010Prop41ColorIndex
 90
       18
102
RTVSPost2010Prop41ColorRGB
 90
        0
102
RTVSPost2010PropOp41
 70
     1
102
RTVSPost2010Prop42
 90
       50
102
RTVSPost2010PropOp42
 70
     1
102
RTVSPost2010Prop43
 90
        3
102
RTVSPost2010PropOp43
 70
     1
102
RTVSPost2010Prop44ColorIndex
 90
        5
102
RTVSPost2010Prop44ColorRGB
 90
      255
102
RTVSPost2010PropOp44
 70
     1
102
RTVSPost2010Prop45
280
     0
102
RTVSPost2010PropOp45
 70
     1
102
RTVSPost2010Prop46
 90
       50
102
RTVSPost2010PropOp46
 70
     1
102
RTVSPost2010Prop47
 90
       50
102
RTVSPost2010PropOp47
 70
     1
102
RTVSPost2010Prop48
 90
       50
102
RTVSPost2010PropOp48
 70
     1
102
RTVSPost2010Prop49
280
     0
102
RTVSPost2010PropOp49
 70
     1
102
RTVSPost2010Prop50
 90
       50
102
RTVSPost2010PropOp50
 70
     1
102
RTVSPost2010Prop51ColorIndex
 90
      256
102
RTVSPost2010Prop51ColorRGB
 90
-16777216
102
RTVSPost2010PropOp51
 70
     0
102
RTVSPost2010Prop52
140
1.0
102
RTVSPost2010PropOp52
 70
     0
102
RTVSPost2010Prop53
 90
        2
102
RTVSPost2010PropOp53
 70
     1
102
RTVSPost2010Prop54
  1
strokes_ogs.tif
102
RTVSPost2010PropOp54
 70
     1
102
RTVSPost2010Prop55
280
     0
102
RTVSPost2010PropOp55
 70
     1
102
RTVSPost2010Prop56
140
1.0
102
RTVSPost2010PropOp56
 70
     1
102
RTVSPost2010Prop57
140
1.0
102
RTVSPost2010PropOp57
 70
     1
  0
XRECORD
  5
127
102
{ACAD_REACTORS
330
126
102
}
330
126
100
AcDbXrecord
280
     1
102
RTVSPost2010Prop28
280
     0
102
RTVSPost2010PropOp28
 70
     1
102
RTVSPost2010Prop29
280
     1
102
RTVSPost2010PropOp29
 70
     1
102
RTVSPost2010Prop30
280
     1
102
RTVSPost2010PropOp30
 70
     1
102
RTVSPost2010Prop31
280
     0
102
RTVSPost2010PropOp31
 70
     1
102
RTVSPost2010Prop32
280
     0
102
RTVSPost2010PropOp32
 70
     1
102
RTVSPost2010Prop33
280
     0
102
RTVSPost2010PropOp33
 70
     1
102
RTVSPost2010Prop34
280
     0
102
RTVSPost2010PropOp34
 70
     1
102
RTVSPost2010Prop35
280
     0
102
RTVSPost2010PropOp35
 70
     1
102
RTVSPost2010Prop36
280
     0
102
RTVSPost2010PropOp36
 70
     1
102
RTVSPost2010Prop37
 90
       50
102
RTVSPost2010PropOp37
 70
     1
102
RTVSPost2010Prop38
140
0.0
102
RTVSPost2010PropOp38
 70
     1
102
RTVSPost2010Prop39
140
1.0
102
RTVSPost2010PropOp39
 70
     1
102
RTVSPost2010Prop40
 90
        0
102
RTVSPost2010PropOp40
 70
     1
102
RTVSPost2010Prop41ColorIndex
 90
       18
102
RTVSPost2010Prop41ColorRGB
 90
        0
102
RTVSPost2010PropOp41
 70
     1
102
RTVSPost2010Prop42
 90
       50
102
RTVSPost2010PropOp42
 70
     1
102
RTVSPost2010Prop43
 90
        3
102
RTVSPost2010PropOp43
 70
     1
102
RTVSPost2010Prop44ColorIndex
 90
        5
102
RTVSPost2010Prop44ColorRGB
 90
      255
102
RTVSPost2010PropOp44
 70
     1
102
RTVSPost2010Prop45
280
     0
102
RTVSPost2010PropOp45
 70
     1
102
RTVSPost2010Prop46
 90
       50
102
RTVSPost2010PropOp46
 70
     1
102
RTVSPost2010Prop47
 90
       50
102
RTVSPost2010PropOp47
 70
     1
102
RTVSPost2010Prop48
 90
       50
102
RTVSPost2010PropOp48
 70
     1
102
RTVSPost2010Prop49
280
     0
102
RTVSPost2010PropOp49
 70
     1
102
RTVSPost2010Prop50
 90
       50
102
RTVSPost2010PropOp50
 70
     1
102
RTVSPost2010Prop51ColorIndex
 90
      256
102
RTVSPost2010Prop51ColorRGB
 90
-16777216
102
RTVSPost2010PropOp51
 70
     0
102
RTVSPost2010Prop52
140
1.0
102
RTVSPost2010PropOp52
 70
     0
102
RTVSPost2010Prop53
 90
        2
102
RTVSPost2010PropOp53
 70
     1
102
RTVSPost2010Prop54
  1
strokes_ogs.tif
102
RTVSPost2010PropOp54
 70
     1
102
RTVSPost2010Prop55
280
     0
102
RTVSPost2010PropOp55
 70
     1
102
RTVSPost2010Prop56
140
1.0
102
RTVSPost2010PropOp56
 70
     1
102
RTVSPost2010Prop57
140
1.0
102
RTVSPost2010PropOp57
 70
     1
  0
XRECORD
  5
121
102
{ACAD_REACTORS
330
120
102
}
330
120
100
AcDbXrecord
280
     1
102
RTVSPost2010Prop28
280
     0
102
RTVSPost2010PropOp28
 70
     1
102
RTVSPost2010Prop29
280
     1
102
RTVSPost2010PropOp29
 70
     1
102
RTVSPost2010Prop30
280
     1
102
RTVSPost2010PropOp30
 70
     1
102
RTVSPost2010Prop31
280
     0
102
RTVSPost2010PropOp31
 70
     1
102
RTVSPost2010Prop32
280
     0
102
RTVSPost2010PropOp32
 70
     1
102
RTVSPost2010Prop33
280
     0
102
RTVSPost2010PropOp33
 70
     1
102
RTVSPost2010Prop34
280
     0
102
RTVSPost2010PropOp34
 70
     1
102
RTVSPost2010Prop35
280
     0
102
RTVSPost2010PropOp35
 70
     1
102
RTVSPost2010Prop36
280
     0
102
RTVSPost2010PropOp36
 70
     1
102
RTVSPost2010Prop37
 90
       50
102
RTVSPost2010PropOp37
 70
     1
102
RTVSPost2010Prop38
140
0.0
102
RTVSPost2010PropOp38
 70
     1
102
RTVSPost2010Prop39
140
1.0
102
RTVSPost2010PropOp39
 70
     1
102
RTVSPost2010Prop40
 90
        0
102
RTVSPost2010PropOp40
 70
     1
102
RTVSPost2010Prop41ColorIndex
 90
       18
102
RTVSPost2010Prop41ColorRGB
 90
        0
102
RTVSPost2010PropOp41
 70
     1
102
RTVSPost2010Prop42
 90
       50
102
RTVSPost2010PropOp42
 70
     1
102
RTVSPost2010Prop43
 90
        3
102
RTVSPost2010PropOp43
 70
     1
102
RTVSPost2010Prop44ColorIndex
 90
        5
102
RTVSPost2010Prop44ColorRGB
 90
      255
102
RTVSPost2010PropOp44
 70
     1
102
RTVSPost2010Prop45
280
     0
102
RTVSPost2010PropOp45
 70
     1
102
RTVSPost2010Prop46
 90
       50
102
RTVSPost2010PropOp46
 70
     1
102
RTVSPost2010Prop47
 90
       50
102
RTVSPost2010PropOp47
 70
     1
102
RTVSPost2010Prop48
 90
       50
102
RTVSPost2010PropOp48
 70
     1
102
RTVSPost2010Prop49
280
     0
102
RTVSPost2010PropOp49
 70
     1
102
RTVSPost2010Prop50
 90
       50
102
RTVSPost2010PropOp50
 70
     1
102
RTVSPost2010Prop51ColorIndex
 90
      256
102
RTVSPost2010Prop51ColorRGB
 90
-16777216
102
RTVSPost2010PropOp51
 70
     0
102
RTVSPost2010Prop52
140
1.0
102
RTVSPost2010PropOp52
 70
     0
102
RTVSPost2010Prop53
 90
        2
102
RTVSPost2010PropOp53
 70
     1
102
RTVSPost2010Prop54
  1
strokes_ogs.tif
102
RTVSPost2010PropOp54
 70
     1
102
RTVSPost2010Prop55
280
     0
102
RTVSPost2010PropOp55
 70
     1
102
RTVSPost2010Prop56
140
1.0
102
RTVSPost2010PropOp56
 70
     1
102
RTVSPost2010Prop57
140
1.0
102
RTVSPost2010PropOp57
 70
     1
  0
XRECORD
  5
123
102
{ACAD_REACTORS
330
122
102
}
330
122
100
AcDbXrecord
280
     1
102
RTVSPost2010Prop28
280
     0
102
RTVSPost2010PropOp28
 70
     1
102
RTVSPost2010Prop29
280
     1
102
RTVSPost2010PropOp29
 70
     1
102
RTVSPost2010Prop30
280
     1
102
RTVSPost2010PropOp30
 70
     1
102
RTVSPost2010Prop31
280
     0
102
RTVSPost2010PropOp31
 70
     1
102
RTVSPost2010Prop32
280
     0
102
RTVSPost2010PropOp32
 70
     1
102
RTVSPost2010Prop33
280
     0
102
RTVSPost2010PropOp33
 70
     1
102
RTVSPost2010Prop34
280
     0
102
RTVSPost2010PropOp34
 70
     1
102
RTVSPost2010Prop35
280
     0
102
RTVSPost2010PropOp35
 70
     1
102
RTVSPost2010Prop36
280
     0
102
RTVSPost2010PropOp36
 70
     1
102
RTVSPost2010Prop37
 90
       50
102
RTVSPost2010PropOp37
 70
     1
102
RTVSPost2010Prop38
140
0.0
102
RTVSPost2010PropOp38
 70
     1
102
RTVSPost2010Prop39
140
1.0
102
RTVSPost2010PropOp39
 70
     1
102
RTVSPost2010Prop40
 90
        0
102
RTVSPost2010PropOp40
 70
     1
102
RTVSPost2010Prop41ColorIndex
 90
       18
102
RTVSPost2010Prop41ColorRGB
 90
        0
102
RTVSPost2010PropOp41
 70
     1
102
RTVSPost2010Prop42
 90
       50
102
RTVSPost2010PropOp42
 70
     1
102
RTVSPost2010Prop43
 90
        3
102
RTVSPost2010PropOp43
 70
     1
102
RTVSPost2010Prop44ColorIndex
 90
        5
102
RTVSPost2010Prop44ColorRGB
 90
      255
102
RTVSPost2010PropOp44
 70
     1
102
RTVSPost2010Prop45
280
     0
102
RTVSPost2010PropOp45
 70
     1
102
RTVSPost2010Prop46
 90
       50
102
RTVSPost2010PropOp46
 70
     1
102
RTVSPost2010Prop47
 90
       50
102
RTVSPost2010PropOp47
 70
     1
102
RTVSPost2010Prop48
 90
       50
102
RTVSPost2010PropOp48
 70
     1
102
RTVSPost2010Prop49
280
     0
102
RTVSPost2010PropOp49
 70
     1
102
RTVSPost2010Prop50
 90
       50
102
RTVSPost2010PropOp50
 70
     1
102
RTVSPost2010Prop51ColorIndex
 90
      256
102
RTVSPost2010Prop51ColorRGB
 90
-16777216
102
RTVSPost2010PropOp51
 70
     0
102
RTVSPost2010Prop52
140
1.0
102
RTVSPost2010PropOp52
 70
     0
102
RTVSPost2010Prop53
 90
        2
102
RTVSPost2010PropOp53
 70
     1
102
RTVSPost2010Prop54
  1
strokes_ogs.tif
102
RTVSPost2010PropOp54
 70
     1
102
RTVSPost2010Prop55
280
     0
102
RTVSPost2010PropOp55
 70
     1
102
RTVSPost2010Prop56
140
1.0
102
RTVSPost2010PropOp56
 70
     1
102
RTVSPost2010Prop57
140
1.0
102
RTVSPost2010PropOp57
 70
     1
  0
XRECORD
  5
119
102
{ACAD_REACTORS
330
118
102
}
330
118
100
AcDbXrecord
280
     1
102
RTVSPost2010Prop28
280
     0
102
RTVSPost2010PropOp28
 70
     1
102
RTVSPost2010Prop29
280
     1
102
RTVSPost2010PropOp29
 70
     1
102
RTVSPost2010Prop30
280
     1
102
RTVSPost2010PropOp30
 70
     1
102
RTVSPost2010Prop31
280
     0
102
RTVSPost2010PropOp31
 70
     1
102
RTVSPost2010Prop32
280
     0
102
RTVSPost2010PropOp32
 70
     1
102
RTVSPost2010Prop33
280
     0
102
RTVSPost2010PropOp33
 70
     1
102
RTVSPost2010Prop34
280
     0
102
RTVSPost2010PropOp34
 70
     1
102
RTVSPost2010Prop35
280
     0
102
RTVSPost2010PropOp35
 70
     1
102
RTVSPost2010Prop36
280
     0
102
RTVSPost2010PropOp36
 70
     1
102
RTVSPost2010Prop37
 90
       50
102
RTVSPost2010PropOp37
 70
     1
102
RTVSPost2010Prop38
140
0.0
102
RTVSPost2010PropOp38
 70
     1
102
RTVSPost2010Prop39
140
1.0
102
RTVSPost2010PropOp39
 70
     1
102
RTVSPost2010Prop40
 90
        0
102
RTVSPost2010PropOp40
 70
     1
102
RTVSPost2010Prop41ColorIndex
 90
       18
102
RTVSPost2010Prop41ColorRGB
 90
        0
102
RTVSPost2010PropOp41
 70
     1
102
RTVSPost2010Prop42
 90
       50
102
RTVSPost2010PropOp42
 70
     1
102
RTVSPost2010Prop43
 90
        3
102
RTVSPost2010PropOp43
 70
     1
102
RTVSPost2010Prop44ColorIndex
 90
        5
102
RTVSPost2010Prop44ColorRGB
 90
      255
102
RTVSPost2010PropOp44
 70
     1
102
RTVSPost2010Prop45
280
     0
102
RTVSPost2010PropOp45
 70
     1
102
RTVSPost2010Prop46
 90
       50
102
RTVSPost2010PropOp46
 70
     1
102
RTVSPost2010Prop47
 90
       50
102
RTVSPost2010PropOp47
 70
     1
102
RTVSPost2010Prop48
 90
       50
102
RTVSPost2010PropOp48
 70
     1
102
RTVSPost2010Prop49
280
     0
102
RTVSPost2010PropOp49
 70
     1
102
RTVSPost2010Prop50
 90
       50
102
RTVSPost2010PropOp50
 70
     1
102
RTVSPost2010Prop51ColorIndex
 90
      256
102
RTVSPost2010Prop51ColorRGB
 90
-16777216
102
RTVSPost2010PropOp51
 70
     0
102
RTVSPost2010Prop52
140
1.0
102
RTVSPost2010PropOp52
 70
     0
102
RTVSPost2010Prop53
 90
        2
102
RTVSPost2010PropOp53
 70
     1
102
RTVSPost2010Prop54
  1
strokes_ogs.tif
102
RTVSPost2010PropOp54
 70
     1
102
RTVSPost2010Prop55
280
     0
102
RTVSPost2010PropOp55
 70
     1
102
RTVSPost2010Prop56
140
1.0
102
RTVSPost2010PropOp56
 70
     1
102
RTVSPost2010Prop57
140
1.0
102
RTVSPost2010PropOp57
 70
     1
  0
XRECORD
  5
10D
102
{ACAD_REACTORS
330
10C
102
}
330
10C
100
AcDbXrecord
280
     1
102
RTVSPost2010Prop28
280
     0
102
RTVSPost2010PropOp28
 70
     1
102
RTVSPost2010Prop29
280
     1
102
RTVSPost2010PropOp29
 70
     1
102
RTVSPost2010Prop30
280
     1
102
RTVSPost2010PropOp30
 70
     1
102
RTVSPost2010Prop31
280
     0
102
RTVSPost2010PropOp31
 70
     1
102
RTVSPost2010Prop32
280
     0
102
RTVSPost2010PropOp32
 70
     1
102
RTVSPost2010Prop33
280
     0
102
RTVSPost2010PropOp33
 70
     1
102
RTVSPost2010Prop34
280
     0
102
RTVSPost2010PropOp34
 70
     1
102
RTVSPost2010Prop35
280
     0
102
RTVSPost2010PropOp35
 70
     1
102
RTVSPost2010Prop36
280
     0
102
RTVSPost2010PropOp36
 70
     1
102
RTVSPost2010Prop37
 90
       50
102
RTVSPost2010PropOp37
 70
     1
102
RTVSPost2010Prop38
140
0.0
102
RTVSPost2010PropOp38
 70
     1
102
RTVSPost2010Prop39
140
1.0
102
RTVSPost2010PropOp39
 70
     1
102
RTVSPost2010Prop40
 90
        0
102
RTVSPost2010PropOp40
 70
     1
102
RTVSPost2010Prop41ColorIndex
 90
       18
102
RTVSPost2010Prop41ColorRGB
 90
        0
102
RTVSPost2010PropOp41
 70
     1
102
RTVSPost2010Prop42
 90
       50
102
RTVSPost2010PropOp42
 70
     1
102
RTVSPost2010Prop43
 90
        3
102
RTVSPost2010PropOp43
 70
     1
102
RTVSPost2010Prop44ColorIndex
 90
        5
102
RTVSPost2010Prop44ColorRGB
 90
      255
102
RTVSPost2010PropOp44
 70
     1
102
RTVSPost2010Prop45
280
     0
102
RTVSPost2010PropOp45
 70
     1
102
RTVSPost2010Prop46
 90
       50
102
RTVSPost2010PropOp46
 70
     1
102
RTVSPost2010Prop47
 90
       50
102
RTVSPost2010PropOp47
 70
     1
102
RTVSPost2010Prop48
 90
       50
102
RTVSPost2010PropOp48
 70
     1
102
RTVSPost2010Prop49
280
     0
102
RTVSPost2010PropOp49
 70
     1
102
RTVSPost2010Prop50
 90
       50
102
RTVSPost2010PropOp50
 70
     1
102
RTVSPost2010Prop51ColorIndex
 90
      256
102
RTVSPost2010Prop51ColorRGB
 90
-16777216
102
RTVSPost2010PropOp51
 70
     0
102
RTVSPost2010Prop52
140
1.0
102
RTVSPost2010PropOp52
 70
     0
102
RTVSPost2010Prop53
 90
        2
102
RTVSPost2010PropOp53
 70
     1
102
RTVSPost2010Prop54
  1
strokes_ogs.tif
102
RTVSPost2010PropOp54
 70
     1
102
RTVSPost2010Prop55
280
     0
102
RTVSPost2010PropOp55
 70
     1
102
RTVSPost2010Prop56
140
1.0
102
RTVSPost2010PropOp56
 70
     1
102
RTVSPost2010Prop57
140
1.0
102
RTVSPost2010PropOp57
 70
     1
  0
XRECORD
  5
125
102
{ACAD_REACTORS
330
124
102
}
330
124
100
AcDbXrecord
280
     1
102
RTVSPost2010Prop28
280
     0
102
RTVSPost2010PropOp28
 70
     1
102
RTVSPost2010Prop29
280
     1
102
RTVSPost2010PropOp29
 70
     1
102
RTVSPost2010Prop30
280
     1
102
RTVSPost2010PropOp30
 70
     1
102
RTVSPost2010Prop31
280
     0
102
RTVSPost2010PropOp31
 70
     1
102
RTVSPost2010Prop32
280
     0
102
RTVSPost2010PropOp32
 70
     1
102
RTVSPost2010Prop33
280
     0
102
RTVSPost2010PropOp33
 70
     1
102
RTVSPost2010Prop34
280
     0
102
RTVSPost2010PropOp34
 70
     1
102
RTVSPost2010Prop35
280
     0
102
RTVSPost2010PropOp35
 70
     1
102
RTVSPost2010Prop36
280
     0
102
RTVSPost2010PropOp36
 70
     1
102
RTVSPost2010Prop37
 90
       50
102
RTVSPost2010PropOp37
 70
     1
102
RTVSPost2010Prop38
140
0.0
102
RTVSPost2010PropOp38
 70
     1
102
RTVSPost2010Prop39
140
1.0
102
RTVSPost2010PropOp39
 70
     1
102
RTVSPost2010Prop40
 90
        0
102
RTVSPost2010PropOp40
 70
     1
102
RTVSPost2010Prop41ColorIndex
 90
       18
102
RTVSPost2010Prop41ColorRGB
 90
        0
102
RTVSPost2010PropOp41
 70
     1
102
RTVSPost2010Prop42
 90
       50
102
RTVSPost2010PropOp42
 70
     1
102
RTVSPost2010Prop43
 90
        3
102
RTVSPost2010PropOp43
 70
     1
102
RTVSPost2010Prop44ColorIndex
 90
        5
102
RTVSPost2010Prop44ColorRGB
 90
      255
102
RTVSPost2010PropOp44
 70
     1
102
RTVSPost2010Prop45
280
     0
102
RTVSPost2010PropOp45
 70
     1
102
RTVSPost2010Prop46
 90
       50
102
RTVSPost2010PropOp46
 70
     1
102
RTVSPost2010Prop47
 90
       50
102
RTVSPost2010PropOp47
 70
     1
102
RTVSPost2010Prop48
 90
       50
102
RTVSPost2010PropOp48
 70
     1
102
RTVSPost2010Prop49
280
     0
102
RTVSPost2010PropOp49
 70
     1
102
RTVSPost2010Prop50
 90
       50
102
RTVSPost2010PropOp50
 70
     1
102
RTVSPost2010Prop51ColorIndex
 90
      256
102
RTVSPost2010Prop51ColorRGB
 90
-16777216
102
RTVSPost2010PropOp51
 70
     0
102
RTVSPost2010Prop52
140
1.0
102
RTVSPost2010PropOp52
 70
     0
102
RTVSPost2010Prop53
 90
        2
102
RTVSPost2010PropOp53
 70
     1
102
RTVSPost2010Prop54
  1
strokes_ogs.tif
102
RTVSPost2010PropOp54
 70
     1
102
RTVSPost2010Prop55
280
     0
102
RTVSPost2010PropOp55
 70
     1
102
RTVSPost2010Prop56
140
1.0
102
RTVSPost2010PropOp56
 70
     1
102
RTVSPost2010Prop57
140
1.0
102
RTVSPost2010PropOp57
 70
     1
  0
ENDSEC
  0
EOF
