  0
SECTION
  2
HEADER
  9
$ACADVER
  1
AC1024
  9
$ACADMAINTVER
 70
     6
  9
$DWGCODEPAGE
  3
UNDEFINED
  9
$INSBASE
 10
0.0
 20
0.0
 30
0.0
  9
$EXTMIN
 10
1.000000000000000E+20
 20
1.000000000000000E+20
 30
1.000000000000000E+20
  9
$EXTMAX
 10
-1.000000000000000E+20
 20
-1.000000000000000E+20
 30
-1.000000000000000E+20
  9
$LIMMIN
 10
0.0
 20
0.0
  9
$LIMMAX
 10
12.0
 20
9.0
  9
$ORTHOMODE
 70
     0
  9
$REGENMODE
 70
     1
  9
$FILLMODE
 70
     1
  9
$QTEXTMODE
 70
     0
  9
$MIRRTEXT
 70
     1
  9
$LTSCALE
 40
1.0
  9
$ATTMODE
 70
     1
  9
$TEXTSIZE
 40
0.2
  9
$TRACEWID
 40
0.05
  9
$TEXTSTYLE
  7
Standard
  9
$CLAYER
  8
0
  9
$CELTYPE
  6
ByLayer
  9
$CECOLOR
 62
   256
  9
$CELTSCALE
 40
1.0
  9
$DISPSILH
 70
     0
  9
$DIMSCALE
 40
1.0
  9
$DIMASZ
 40
0.18
  9
$DIMEXO
 40
0.0625
  9
$DIMDLI
 40
0.38
  9
$DIMRND
 40
0.0
  9
$DIMDLE
 40
0.0
  9
$DIMEXE
 40
0.18
  9
$DIMTP
 40
0.0
  9
$DIMTM
 40
0.0
  9
$DIMTXT
 40
0.18
  9
$DIMCEN
 40
0.09
  9
$DIMTSZ
 40
0.0
  9
$DIMTOL
 70
     0
  9
$DIMLIM
 70
     0
  9
$DIMTIH
 70
     1
  9
$DIMTOH
 70
     1
  9
$DIMSE1
 70
     0
  9
$DIMSE2
 70
     0
  9
$DIMTAD
 70
     0
  9
$DIMZIN
 70
     0
  9
$DIMBLK
  1

  9
$DIMASO
 70
     1
  9
$DIMSHO
 70
     1
  9
$DIMPOST
  1

  9
$DIMAPOST
  1

  9
$DIMALT
 70
     0
  9
$DIMALTD
 70
     2
  9
$DIMALTF
 40
25.4
  9
$DIMLFAC
 40
1.0
  9
$DIMTOFL
 70
     0
  9
$DIMTVP
 40
0.0
  9
$DIMTIX
 70
     0
  9
$DIMSOXD
 70
     0
  9
$DIMSAH
 70
     0
  9
$DIMBLK1
  1

  9
$DIMBLK2
  1

  9
$DIMSTYLE
  2
Standard
  9
$DIMCLRD
 70
     0
  9
$DIMCLRE
 70
     0
  9
$DIMCLRT
 70
     0
  9
$DIMTFAC
 40
1.0
  9
$DIMGAP
 40
0.09
  9
$DIMJUST
 70
     0
  9
$DIMSD1
 70
     0
  9
$DIMSD2
 70
     0
  9
$DIMTOLJ
 70
     1
  9
$DIMTZIN
 70
     0
  9
$DIMALTZ
 70
     0
  9
$DIMALTTZ
 70
     0
  9
$DIMUPT
 70
     0
  9
$DIMDEC
 70
     4
  9
$DIMTDEC
 70
     4
  9
$DIMALTU
 70
     2
  9
$DIMALTTD
 70
     2
  9
$DIMTXSTY
  7
Standard
  9
$DIMAUNIT
 70
     0
  9
$DIMADEC
 70
     0
  9
$DIMALTRND
 40
0.0
  9
$DIMAZIN
 70
     0
  9
$DIMDSEP
 70
    46
  9
$DIMATFIT
 70
     3
  9
$DIMFRAC
 70
     0
  9
$DIMLDRBLK
  1

  9
$DIMLUNIT
 70
     2
  9
$DIMLWD
 70
    -2
  9
$DIMLWE
 70
    -2
  9
$DIMTMOVE
 70
     0
  9
$DIMFXL
 40
1.0
  9
$DIMFXLON
 70
     0
  9
$DIMJOGANG
 40
0.7853981633974483
  9
$DIMTFILL
 70
     0
  9
$DIMTFILLCLR
 70
     0
  9
$DIMARCSYM
 70
     0
  9
$DIMLTYPE
  6

  9
$DIMLTEX1
  6

  9
$DIMLTEX2
  6

  9
$DIMTXTDIRECTION
 70
     0
  9
$LUNITS
 70
     2
  9
$LUPREC
 70
     4
  9
$SKETCHINC
 40
0.1
  9
$FILLETRAD
 40
0.5
  9
$AUNITS
 70
     0
  9
$AUPREC
 70
     0
  9
$MENU
  1
.
  9
$ELEVATION
 40
0.0
  9
$PELEVATION
 40
0.0
  9
$THICKNESS
 40
0.0
  9
$LIMCHECK
 70
     0
  9
$CHAMFERA
 40
0.5
  9
$CHAMFERB
 40
0.5
  9
$CHAMFERC
 40
1.0
  9
$CHAMFERD
 40
0.0
  9
$SKPOLY
 70
     0
  9
$TDCREATE
 40
2457917.592372685
  9
$TDUCREATE
 40
2457917.217372685
  9
$TDUPDATE
 40
2457917.592372685
  9
$TDUUPDATE
 40
2457917.217372685
  9
$TDINDWG
 40
0.0000000116
  9
$TDUSRTIMER
 40
0.0000000116
  9
$USRTIMER
 70
     1
  9
$ANGBASE
 50
0.0
  9
$ANGDIR
 70
     0
  9
$PDMODE
 70
     0
  9
$PDSIZE
 40
0.0
  9
$PLINEWID
 40
0.0
  9
$SPLFRAME
 70
     0
  9
$SPLINETYPE
 70
     6
  9
$SPLINESEGS
 70
     8
  9
$HANDSEED
  5
111
  9
$SURFTAB1
 70
     6
  9
$SURFTAB2
 70
     6
  9
$SURFTYPE
 70
     6
  9
$SURFU
 70
     6
  9
$SURFV
 70
     6
  9
$UCSBASE
  2

  9
$UCSNAME
  2

  9
$UCSORG
 10
0.0
 20
0.0
 30
0.0
  9
$UCSXDIR
 10
1.0
 20
0.0
 30
0.0
  9
$UCSYDIR
 10
0.0
 20
1.0
 30
0.0
  9
$UCSORTHOREF
  2

  9
$UCSORTHOVIEW
 70
     0
  9
$UCSORGTOP
 10
0.0
 20
0.0
 30
0.0
  9
$UCSORGBOTTOM
 10
0.0
 20
0.0
 30
0.0
  9
$UCSORGLEFT
 10
0.0
 20
0.0
 30
0.0
  9
$UCSORGRIGHT
 10
0.0
 20
0.0
 30
0.0
  9
$UCSORGFRONT
 10
0.0
 20
0.0
 30
0.0
  9
$UCSORGBACK
 10
0.0
 20
0.0
 30
0.0
  9
$PUCSBASE
  2

  9
$PUCSNAME
  2

  9
$PUCSORG
 10
0.0
 20
0.0
 30
0.0
  9
$PUCSXDIR
 10
1.0
 20
0.0
 30
0.0
  9
$PUCSYDIR
 10
0.0
 20
1.0
 30
0.0
  9
$PUCSORTHOREF
  2

  9
$PUCSORTHOVIEW
 70
     0
  9
$PUCSORGTOP
 10
0.0
 20
0.0
 30
0.0
  9
$PUCSORGBOTTOM
 10
0.0
 20
0.0
 30
0.0
  9
$PUCSORGLEFT
 10
0.0
 20
0.0
 30
0.0
  9
$PUCSORGRIGHT
 10
0.0
 20
0.0
 30
0.0
  9
$PUCSORGFRONT
 10
0.0
 20
0.0
 30
0.0
  9
$PUCSORGBACK
 10
0.0
 20
0.0
 30
0.0
  9
$USERI1
 70
     0
  9
$USERI2
 70
     0
  9
$USERI3
 70
     0
  9
$USERI4
 70
     0
  9
$USERI5
 70
     0
  9
$USERR1
 40
0.0
  9
$USERR2
 40
0.0
  9
$USERR3
 40
0.0
  9
$USERR4
 40
0.0
  9
$USERR5
 40
0.0
  9
$WORLDVIEW
 70
     1
  9
$SHADEDGE
 70
     3
  9
$SHADEDIF
 70
    70
  9
$TILEMODE
 70
     1
  9
$MAXACTVP
 70
    64
  9
$PINSBASE
 10
0.0
 20
0.0
 30
0.0
  9
$PLIMCHECK
 70
     0
  9
$PEXTMIN
 10
1.000000000000000E+20
 20
1.000000000000000E+20
 30
1.000000000000000E+20
  9
$PEXTMAX
 10
-1.000000000000000E+20
 20
-1.000000000000000E+20
 30
-1.000000000000000E+20
  9
$PLIMMIN
 10
0.0
 20
0.0
  9
$PLIMMAX
 10
12.0
 20
9.0
  9
$UNITMODE
 70
     0
  9
$VISRETAIN
 70
     1
  9
$PLINEGEN
 70
     0
  9
$PSLTSCALE
 70
     1
  9
$TREEDEPTH
 70
  3020
  9
$CMLSTYLE
  2
Standard
  9
$CMLJUST
 70
     0
  9
$CMLSCALE
 40
1.0
  9
$PROXYGRAPHICS
 70
     1
  9
$MEASUREMENT
 70
     0
  9
$CELWEIGHT
370
    -1
  9
$ENDCAPS
280
     0
  9
$JOINSTYLE
280
     0
  9
$LWDISPLAY
290
     1
  9
$INSUNITS
 70
     1
  9
$HYPERLINKBASE
  1

  9
$STYLESHEET
  1

  9
$XEDIT
290
     1
  9
$CEPSNTYPE
380
     0
  9
$PSTYLEMODE
290
     1
  9
$FINGERPRINTGUID
  2
{902E408B-51A5-D527-3178-1433EAC3F35E}
  9
$VERSIONGUID
  2
{FAEB1C32-E019-11D5-929B-00C0DF256EC4}
  9
$EXTNAMES
290
     1
  9
$PSVPSCALE
 40
0.0
  9
$OLESTARTUP
290
     0
  9
$SORTENTS
280
   127
  9
$INDEXCTL
280
     0
  9
$HIDETEXT
280
     1
  9
$XCLIPFRAME
280
     2
  9
$HALOGAP
280
     0
  9
$OBSCOLOR
 70
   257
  9
$OBSLTYPE
280
     0
  9
$INTERSECTIONDISPLAY
280
     0
  9
$INTERSECTIONCOLOR
 70
   257
  9
$DIMASSOC
280
     2
  9
$PROJECTNAME
  1

  9
$CAMERADISPLAY
290
     0
  9
$LENSLENGTH
 40
50.0
  9
$CAMERAHEIGHT
 40
0.0
  9
$STEPSPERSEC
 40
2.0
  9
$STEPSIZE
 40
6.0
  9
$3DDWFPREC
 40
2.0
  9
$PSOLWIDTH
 40
0.25
  9
$PSOLHEIGHT
 40
4.0
  9
$LOFTANG1
 40
1.570796326794897
  9
$LOFTANG2
 40
1.570796326794897
  9
$LOFTMAG1
 40
0.0
  9
$LOFTMAG2
 40
0.0
  9
$LOFTPARAM
 70
     7
  9
$LOFTNORMALS
280
     1
  9
$LATITUDE
 40
37.795
  9
$LONGITUDE
 40
-122.394
  9
$NORTHDIRECTION
 40
0.0
  9
$TIMEZONE
 70
 -8000
  9
$LIGHTGLYPHDISPLAY
280
     1
  9
$TILEMODELIGHTSYNCH
280
     1
  9
$CMATERIAL
347
3C
  9
$SOLIDHIST
280
     1
  9
$SHOWHIST
280
     1
  9
$DWFFRAME
280
     2
  9
$DGNFRAME
280
     2
  9
$REALWORLDSCALE
290
     1
  9
$INTERFERECOLOR
 62
   256
  9
$CSHADOW
280
     0
  9
$SHADOWPLANELOCATION
 40
0.0
  0
ENDSEC
  0
SECTION
  2
CLASSES
  0
CLASS
  1
ACDBDICTIONARYWDFLT
  2
AcDbDictionaryWithDefault
  3
ObjectDBX Classes
 90
        0
 91
        4
280
     0
281
     0
  0
CLASS
  1
VISUALSTYLE
  2
AcDbVisualStyle
  3
ObjectDBX Classes
 90
     4095
 91
        4
280
     0
281
     0
  0
CLASS
  1
MATERIAL
  2
AcDbMaterial
  3
ObjectDBX Classes
 90
     1153
 91
        4
280
     0
281
     0
  0
CLASS
  1
SUN
  2
AcDbSun
  3
SCENEOE
 90
     1024
 91
        4
280
     0
281
     0
  0
ENDSEC
  0
SECTION
  2
TABLES
  0
TABLE
  2
VPORT
  5
8
330
0
100
AcDbSymbolTable
 70
     1
  0
VPORT
  5
29
330
8
100
AcDbSymbolTableRecord
100
AcDbViewportTableRecord
  2
*Active
 70
     0
 10
0.0
 20
0.0
 11
1.0
 21
1.0
 12
0.0
 22
0.0
 13
0.0
 23
0.0
 14
0.5
 24
0.5
 15
0.5
 25
0.5
 16
0.0
 26
0.0
 36
1.0
 17
91.00082462281999
 27
-128.4993055234307
 37
0.0
 40
256.9986110468615
 41
0.7081814508812795
 42
50.0
 43
0.0
 44
0.0
 50
0.0
 51
0.0
 71
     0
 72
   100
 73
     1
 74
     3
 75
     0
 76
     0
 77
     0
 78
     0
281
     0
 65
     1
110
0.0
120
0.0
130
0.0
111
1.0
121
0.0
131
0.0
112
0.0
122
1.0
132
0.0
 79
     0
146
0.0
 60
     3
 61
     5
292
     1
282
     1
141
0.0
142
0.0
 63
   250
361
3F
  0
ENDTAB
  0
TABLE
  2
LTYPE
  5
5
330
0
100
AcDbSymbolTable
 70
     1
  0
LTYPE
  5
14
330
5
100
AcDbSymbolTableRecord
100
AcDbLinetypeTableRecord
  2
ByBlock
 70
     0
  3

 72
    65
 73
     0
 40
0.0
  0
LTYPE
  5
15
330
5
100
AcDbSymbolTableRecord
100
AcDbLinetypeTableRecord
  2
ByLayer
 70
     0
  3

 72
    65
 73
     0
 40
0.0
  0
LTYPE
  5
16
330
5
100
AcDbSymbolTableRecord
100
AcDbLinetypeTableRecord
  2
Continuous
 70
     0
  3
Solid line
 72
    65
 73
     0
 40
0.0
  0
ENDTAB
  0
TABLE
  2
LAYER
  5
2
330
0
100
AcDbSymbolTable
 70
     2
  0
LAYER
  5
10
330
2
100
AcDbSymbolTableRecord
100
AcDbLayerTableRecord
  2
0
 70
     0
 62
     7
  6
Continuous
370
    -3
390
F
347
3E
  0
LAYER
  5
40
330
2
100
AcDbSymbolTableRecord
100
AcDbLayerTableRecord
  2
_U+30EC_U+30A4_U+30E4_U+30FC 1
 70
     0
 62
     7
  6
Continuous
370
    -3
390
F
347
3E
  0
ENDTAB
  0
TABLE
  2
STYLE
  5
3
330
0
100
AcDbSymbolTable
 70
     1
  0
STYLE
  5
11
330
3
100
AcDbSymbolTableRecord
100
AcDbTextStyleTableRecord
  2
Standard
 70
     0
 40
0.0
 41
1.0
 50
0.0
 71
     0
 42
0.2
  3
txt
  4

  0
ENDTAB
  0
TABLE
  2
VIEW
  5
6
330
0
100
AcDbSymbolTable
 70
     0
  0
ENDTAB
  0
TABLE
  2
UCS
  5
7
330
0
100
AcDbSymbolTable
 70
     0
  0
ENDTAB
  0
TABLE
  2
APPID
  5
9
330
0
100
AcDbSymbolTable
 70
     1
  0
APPID
  5
12
330
9
100
AcDbSymbolTableRecord
100
AcDbRegAppTableRecord
  2
ACAD
 70
     0
  0
ENDTAB
  0
TABLE
  2
DIMSTYLE
  5
A
330
0
100
AcDbSymbolTable
 70
     1
100
AcDbDimStyleTable
  0
DIMSTYLE
105
27
330
A
100
AcDbSymbolTableRecord
100
AcDbDimStyleTableRecord
  2
Standard
 70
     0
178
     0
340
11
  0
ENDTAB
  0
TABLE
  2
BLOCK_RECORD
  5
1
330
0
100
AcDbSymbolTable
 70
     8
  0
BLOCK_RECORD
  5
1F
330
1
100
AcDbSymbolTableRecord
100
AcDbBlockTableRecord
  2
*Model_Space
340
22
 70
     0
280
     1
281
     0
  0
BLOCK_RECORD
  5
1B
330
1
100
AcDbSymbolTableRecord
100
AcDbBlockTableRecord
  2
*Paper_Space
340
1E
 70
     0
280
     1
281
     0
  0
BLOCK_RECORD
  5
23
330
1
100
AcDbSymbolTableRecord
100
AcDbBlockTableRecord
  2
*Paper_Space0
340
26
 70
     0
280
     1
281
     0
  0
BLOCK_RECORD
  5
A1
330
1
100
AcDbSymbolTableRecord
100
AcDbBlockTableRecord
  2
block 2
340
0
102
{BLKREFS
331
A2
102
}
 70
     0
280
     1
281
     0
  0
BLOCK_RECORD
  5
A7
330
1
100
AcDbSymbolTableRecord
100
AcDbBlockTableRecord
  2
block 3
340
0
102
{BLKREFS
331
A8
102
}
 70
     0
280
     1
281
     0
  0
BLOCK_RECORD
  5
AD
330
1
100
AcDbSymbolTableRecord
100
AcDbBlockTableRecord
  2
block 4
340
0
102
{BLKREFS
331
AE
102
}
 70
     0
280
     1
281
     0
  0
BLOCK_RECORD
  5
B3
330
1
100
AcDbSymbolTableRecord
100
AcDbBlockTableRecord
  2
block 5
340
0
102
{BLKREFS
331
B4
102
}
 70
     0
280
     1
281
     0
  0
BLOCK_RECORD
  5
BC
330
1
100
AcDbSymbolTableRecord
100
AcDbBlockTableRecord
  2
block 6
340
0
102
{BLKREFS
331
BD
102
}
 70
     0
280
     1
281
     0
  0
BLOCK_RECORD
  5
D8
330
1
100
AcDbSymbolTableRecord
100
AcDbBlockTableRecord
  2
block 7
340
0
102
{BLKREFS
331
D9
102
}
 70
     0
280
     1
281
     0
  0
BLOCK_RECORD
  5
E0
330
1
100
AcDbSymbolTableRecord
100
AcDbBlockTableRecord
  2
block 8
340
0
102
{BLKREFS
331
E1
102
}
 70
     0
280
     1
281
     0
  0
ENDTAB
  0
ENDSEC
  0
SECTION
  2
BLOCKS
  0
BLOCK
  5
20
330
1F
100
AcDbEntity
  8
0
100
AcDbBlockBegin
  2
*Model_Space
 70
     0
 10
0.0
 20
0.0
 30
0.0
  3
*Model_Space
  1

  0
ENDBLK
  5
21
330
1F
100
AcDbEntity
  8
0
100
AcDbBlockEnd
  0
BLOCK
  5
1C
330
1B
100
AcDbEntity
 67
     1
  8
0
100
AcDbBlockBegin
  2
*Paper_Space
 70
     0
 10
0.0
 20
0.0
 30
0.0
  3
*Paper_Space
  1

  0
ENDBLK
  5
1D
330
1B
100
AcDbEntity
 67
     1
  8
0
100
AcDbBlockEnd
  0
BLOCK
  5
24
330
23
100
AcDbEntity
  8
0
100
AcDbBlockBegin
  2
*Paper_Space0
 70
     0
 10
0.0
 20
0.0
 30
0.0
  3
*Paper_Space0
  1

  0
ENDBLK
  5
25
330
23
100
AcDbEntity
  8
0
100
AcDbBlockEnd
  0
BLOCK
  5
A3
330
A1
100
AcDbEntity
  8
0
100
AcDbBlockBegin
  2
block 2
 70
     0
 10
0.0
 20
0.0
 30
0.0
  3
block 2
  1

  0
SPLINE
  5
A5
330
A1
100
AcDbEntity
  8
_U+30EC_U+30A4_U+30E4_U+30FC 1
370
     0
100
AcDbSpline
210
0.0
220
0.0
230
1.0
 70
    11
 71
     3
 72
    62
 73
    58
 74
     0
 42
0.0000000001
 43
0.0000000001
 12
1.0
 22
0.0
 32
0.0
 13
1.0
 23
0.0
 33
0.0
 40
0.0
 40
0.0
 40
0.0
 40
0.0
 40
1.0
 40
1.0
 40
1.0
 40
2.0
 40
2.0
 40
2.0
 40
3.0
 40
3.0
 40
3.0
 40
4.0
 40
4.0
 40
4.0
 40
5.0
 40
5.0
 40
5.0
 40
6.0
 40
6.0
 40
6.0
 40
7.0
 40
7.0
 40
7.0
 40
8.0
 40
8.0
 40
8.0
 40
9.0
 40
9.0
 40
9.0
 40
10.0
 40
10.0
 40
10.0
 40
11.0
 40
11.0
 40
11.0
 40
12.0
 40
12.0
 40
12.0
 40
13.0
 40
13.0
 40
13.0
 40
14.0
 40
14.0
 40
14.0
 40
15.0
 40
15.0
 40
15.0
 40
16.0
 40
16.0
 40
16.0
 40
17.0
 40
17.0
 40
17.0
 40
18.0
 40
18.0
 40
18.0
 40
19.0
 40
19.0
 40
19.0
 40
19.0
 10
72.4153903356288
 20
-110.1343627654352
 30
0.0
 10
72.31376001881392
 20
-110.1347072749837
 30
0.0
 10
72.08069930923678
 20
-110.1143812116207
 30
0.0
 10
71.94668509486056
 20
-109.9286905649657
 30
0.0
 10
71.86727564392555
 20
-109.8168972164694
 30
0.0
 10
71.86228025547193
 20
-109.7175062117199
 30
0.0
 10
71.85745712179258
 20
-109.6327568627828
 30
0.0
 10
71.85745712179258
 20
-109.6327568627828
 30
0.0
 10
72.09258488866088
 20
-109.6320678436857
 30
0.0
 10
72.09258488866088
 20
-109.6320678436857
 30
0.0
 10
72.09516871027482
 20
-109.7061373966186
 30
0.0
 10
72.10722654447319
 20
-109.9409206539384
 30
0.0
 10
72.41022269240092
 20
-109.9398871252928
 30
0.0
 10
72.55715601484683
 20
-109.93937036097
 30
0.0
 10
72.71976452175062
 20
-109.8689181582967
 30
0.0
 10
72.71890324787931
 20
-109.6405083276246
 30
0.0
 10
72.71855873833078
 20
-109.5240641002232
 30
0.0
 10
72.67773435683057
 20
-109.4756605086554
 30
0.0
 10
72.6436279115266
 20
-109.4439656301911
 30
0.0
 10
72.56421846059159
 20
-109.3702405868067
 30
0.0
 10
72.43985051357407
 20
-109.3580104978341
 30
0.0
 10
72.38111163555055
 20
-109.3581827526084
 30
0.0
 10
72.36078557218758
 20
-109.3581827526084
 30
0.0
 10
72.32237275752705
 20
-109.3604220646738
 30
0.0
 10
72.29291719112817
 20
-109.3647284340304
 30
0.0
 10
72.29291719112817
 20
-109.3647284340304
 30
0.0
 10
72.29222817203112
 20
-109.170252793888
 30
0.0
 10
72.29222817203112
 20
-109.170252793888
 30
0.0
 10
72.33305255353132
 20
-109.1764539657615
 30
0.0
 10
72.3781833043881
 20
-109.1783487682783
 30
0.0
 10
72.3850734953586
 20
-109.1783487682783
 30
0.0
 10
72.45518118848344
 20
-109.1780042587298
 30
0.0
 10
72.66757132514908
 20
-109.1561279023985
 30
0.0
 10
72.66671005127778
 20
-108.9192775877875
 30
0.0
 10
72.66619328695498
 20
-108.7415106607487
 30
0.0
 10
72.52580564593106
 20
-108.6870781520817
 30
0.0
 10
72.40815563510976
 20
-108.6874226616302
 30
0.0
 10
72.12565780531928
 20
-108.6884561902758
 30
0.0
 10
72.11738957615468
 20
-108.9211723903044
 30
0.0
 10
72.11308320679812
 20
-108.9930026311719
 30
0.0
 10
72.11308320679812
 20
-108.9930026311719
 30
0.0
 10
71.89604219122738
 20
-108.9938639050432
 30
0.0
 10
71.89604219122738
 20
-108.9938639050432
 30
0.0
 10
71.9046549299405
 20
-108.8689791937029
 30
0.0
 10
71.9327324581453
 20
-108.4922580023908
 30
0.0
 10
72.42107474317946
 20
-108.4907077094225
 30
0.0
 10
72.66068113417859
 20
-108.4898464355512
 30
0.0
 10
72.91889104079806
 20
-108.6159369303113
 30
0.0
 10
72.91992456944364
 20
-108.9120428872685
 30
0.0
 10
72.92061358854069
 20
-109.0982502982463
 30
0.0
 10
72.81915552650007
 20
-109.1811048446665
 30
0.0
 10
72.71304658555438
 20
-109.2427720538525
 30
0.0
 10
72.7786756545484
 20
-109.269988308186
 30
0.0
 10
72.97349580423926
 20
-109.3497422686695
 30
0.0
 10
72.97435707811059
 20
-109.6269002004579
 30
0.0
 10
72.97556286153042
 20
-109.9653808318837
 30
0.0
 10
72.71149629258602
 20
-110.1335014915638
 30
0.0
 10
72.4153903356288
 20
-110.1343627654352
 30
0.0
  0
HATCH
  5
A6
330
A1
100
AcDbEntity
  8
_U+30EC_U+30A4_U+30E4_U+30FC 1
 62
   179
420
  2234388
100
AcDbHatch
 10
0.0
 20
0.0
 30
0.0
210
0.0
220
0.0
230
1.0
  2
SOLID
 70
     1
 71
     0
 91
        1
 92
        1
 93
        1
 72
     4
 94
        3
 73
     0
 74
     1
 95
       62
 96
       58
 40
0.0
 40
0.0
 40
0.0
 40
0.0
 40
1.0
 40
1.0
 40
1.0
 40
2.0
 40
2.0
 40
2.0
 40
3.0
 40
3.0
 40
3.0
 40
4.0
 40
4.0
 40
4.0
 40
5.0
 40
5.0
 40
5.0
 40
6.0
 40
6.0
 40
6.0
 40
7.0
 40
7.0
 40
7.0
 40
8.0
 40
8.0
 40
8.0
 40
9.0
 40
9.0
 40
9.0
 40
10.0
 40
10.0
 40
10.0
 40
11.0
 40
11.0
 40
11.0
 40
12.0
 40
12.0
 40
12.0
 40
13.0
 40
13.0
 40
13.0
 40
14.0
 40
14.0
 40
14.0
 40
15.0
 40
15.0
 40
15.0
 40
16.0
 40
16.0
 40
16.0
 40
17.0
 40
17.0
 40
17.0
 40
18.0
 40
18.0
 40
18.0
 40
19.0
 40
19.0
 40
19.0
 40
19.0
 10
72.4153903356288
 20
-110.1343627654352
 10
72.31376001881392
 20
-110.1347072749837
 10
72.08069930923678
 20
-110.1143812116207
 10
71.94668509486056
 20
-109.9286905649657
 10
71.86727564392555
 20
-109.8168972164694
 10
71.86228025547193
 20
-109.7175062117199
 10
71.85745712179258
 20
-109.6327568627828
 10
71.85745712179258
 20
-109.6327568627828
 10
72.09258488866088
 20
-109.6320678436857
 10
72.09258488866088
 20
-109.6320678436857
 10
72.09516871027482
 20
-109.7061373966186
 10
72.10722654447319
 20
-109.9409206539384
 10
72.41022269240092
 20
-109.9398871252928
 10
72.55715601484683
 20
-109.93937036097
 10
72.71976452175062
 20
-109.8689181582967
 10
72.71890324787931
 20
-109.6405083276246
 10
72.71855873833078
 20
-109.5240641002232
 10
72.67773435683057
 20
-109.4756605086554
 10
72.6436279115266
 20
-109.4439656301911
 10
72.56421846059159
 20
-109.3702405868067
 10
72.43985051357407
 20
-109.3580104978341
 10
72.38111163555055
 20
-109.3581827526084
 10
72.36078557218758
 20
-109.3581827526084
 10
72.32237275752705
 20
-109.3604220646738
 10
72.29291719112817
 20
-109.3647284340304
 10
72.29291719112817
 20
-109.3647284340304
 10
72.29222817203112
 20
-109.170252793888
 10
72.29222817203112
 20
-109.170252793888
 10
72.33305255353132
 20
-109.1764539657615
 10
72.3781833043881
 20
-109.1783487682783
 10
72.3850734953586
 20
-109.1783487682783
 10
72.45518118848344
 20
-109.1780042587298
 10
72.66757132514908
 20
-109.1561279023985
 10
72.66671005127778
 20
-108.9192775877875
 10
72.66619328695498
 20
-108.7415106607487
 10
72.52580564593106
 20
-108.6870781520817
 10
72.40815563510976
 20
-108.6874226616302
 10
72.12565780531928
 20
-108.6884561902758
 10
72.11738957615468
 20
-108.9211723903044
 10
72.11308320679812
 20
-108.9930026311719
 10
72.11308320679812
 20
-108.9930026311719
 10
71.89604219122738
 20
-108.9938639050432
 10
71.89604219122738
 20
-108.9938639050432
 10
71.9046549299405
 20
-108.8689791937029
 10
71.9327324581453
 20
-108.4922580023908
 10
72.42107474317946
 20
-108.4907077094225
 10
72.66068113417859
 20
-108.4898464355512
 10
72.91889104079806
 20
-108.6159369303113
 10
72.91992456944364
 20
-108.9120428872685
 10
72.92061358854069
 20
-109.0982502982463
 10
72.81915552650007
 20
-109.1811048446665
 10
72.71304658555438
 20
-109.2427720538525
 10
72.7786756545484
 20
-109.269988308186
 10
72.97349580423926
 20
-109.3497422686695
 10
72.97435707811059
 20
-109.6269002004579
 10
72.97556286153042
 20
-109.9653808318837
 10
72.71149629258602
 20
-110.1335014915638
 10
72.4153903356288
 20
-110.1343627654352
 97
        0
 97
        0
 75
     2
 76
     1
 98
        0
  0
ENDBLK
  5
A4
330
A1
100
AcDbEntity
  8
0
100
AcDbBlockEnd
  0
BLOCK
  5
A9
330
A7
100
AcDbEntity
  8
0
100
AcDbBlockBegin
  2
block 3
 70
     0
 10
0.0
 20
0.0
 30
0.0
  3
block 3
  1

  0
SPLINE
  5
AB
330
A7
100
AcDbEntity
  8
_U+30EC_U+30A4_U+30E4_U+30FC 1
370
     0
100
AcDbSpline
210
0.0
220
0.0
230
1.0
 70
    11
 71
     3
 72
    26
 73
    22
 74
     0
 42
0.0000000001
 43
0.0000000001
 12
1.0
 22
0.0
 32
0.0
 13
1.0
 23
0.0
 33
0.0
 40
0.0
 40
0.0
 40
0.0
 40
0.0
 40
1.0
 40
1.0
 40
1.0
 40
2.0
 40
2.0
 40
2.0
 40
3.0
 40
3.0
 40
3.0
 40
4.0
 40
4.0
 40
4.0
 40
5.0
 40
5.0
 40
5.0
 40
6.0
 40
6.0
 40
6.0
 40
7.0
 40
7.0
 40
7.0
 40
7.0
 10
117.7423393802866
 20
-124.4444281372917
 30
0.0
 10
117.7423393802866
 20
-124.4444281372917
 30
0.0
 10
116.6381862772641
 20
-124.4444281372917
 30
0.0
 10
116.6381862772641
 20
-124.4444281372917
 30
0.0
 10
116.6381862772641
 20
-124.4444281372917
 30
0.0
 10
116.6381862772641
 20
-124.7972059149813
 30
0.0
 10
116.6381862772641
 20
-124.7972059149813
 30
0.0
 10
116.6381862772641
 20
-124.7972059149813
 30
0.0
 10
116.4900471713983
 20
-124.7972059149813
 30
0.0
 10
116.4900471713983
 20
-124.7972059149813
 30
0.0
 10
116.4752332608117
 20
-124.4421888252263
 30
0.0
 10
116.3122802443594
 20
-124.3924071954644
 30
0.0
 10
116.1979030742491
 20
-124.3607123170001
 30
0.0
 10
116.1979030742491
 20
-124.3607123170001
 30
0.0
 10
116.1979030742491
 20
-124.2048217462926
 30
0.0
 10
116.1979030742491
 20
-124.2048217462926
 30
0.0
 10
116.1979030742491
 20
-124.2048217462926
 30
0.0
 10
117.7423393802866
 20
-124.2048217462926
 30
0.0
 10
117.7423393802866
 20
-124.2048217462926
 30
0.0
 10
117.7423393802866
 20
-124.2048217462926
 30
0.0
 10
117.7423393802866
 20
-124.4444281372917
 30
0.0
 10
117.7423393802866
 20
-124.4444281372917
 30
0.0
  0
HATCH
  5
AC
330
A7
100
AcDbEntity
  8
_U+30EC_U+30A4_U+30E4_U+30FC 1
 62
   179
420
  2234388
100
AcDbHatch
 10
0.0
 20
0.0
 30
0.0
210
0.0
220
0.0
230
1.0
  2
SOLID
 70
     1
 71
     0
 91
        1
 92
        1
 93
        1
 72
     4
 94
        3
 73
     0
 74
     1
 95
       26
 96
       22
 40
0.0
 40
0.0
 40
0.0
 40
0.0
 40
1.0
 40
1.0
 40
1.0
 40
2.0
 40
2.0
 40
2.0
 40
3.0
 40
3.0
 40
3.0
 40
4.0
 40
4.0
 40
4.0
 40
5.0
 40
5.0
 40
5.0
 40
6.0
 40
6.0
 40
6.0
 40
7.0
 40
7.0
 40
7.0
 40
7.0
 10
117.7423393802866
 20
-124.4444281372917
 10
117.7423393802866
 20
-124.4444281372917
 10
116.6381862772641
 20
-124.4444281372917
 10
116.6381862772641
 20
-124.4444281372917
 10
116.6381862772641
 20
-124.4444281372917
 10
116.6381862772641
 20
-124.7972059149813
 10
116.6381862772641
 20
-124.7972059149813
 10
116.6381862772641
 20
-124.7972059149813
 10
116.4900471713983
 20
-124.7972059149813
 10
116.4900471713983
 20
-124.7972059149813
 10
116.4752332608117
 20
-124.4421888252263
 10
116.3122802443594
 20
-124.3924071954644
 10
116.1979030742491
 20
-124.3607123170001
 10
116.1979030742491
 20
-124.3607123170001
 10
116.1979030742491
 20
-124.2048217462926
 10
116.1979030742491
 20
-124.2048217462926
 10
116.1979030742491
 20
-124.2048217462926
 10
117.7423393802866
 20
-124.2048217462926
 10
117.7423393802866
 20
-124.2048217462926
 10
117.7423393802866
 20
-124.2048217462926
 10
117.7423393802866
 20
-124.4444281372917
 10
117.7423393802866
 20
-124.4444281372917
 97
        0
 97
        0
 75
     2
 76
     1
 98
        0
  0
ENDBLK
  5
AA
330
A7
100
AcDbEntity
  8
0
100
AcDbBlockEnd
  0
BLOCK
  5
AF
330
AD
100
AcDbEntity
  8
0
100
AcDbBlockBegin
  2
block 4
 70
     0
 10
0.0
 20
0.0
 30
0.0
  3
block 4
  1

  0
SPLINE
  5
B1
330
AD
100
AcDbEntity
  8
_U+30EC_U+30A4_U+30E4_U+30FC 1
370
     0
100
AcDbSpline
210
0.0
220
0.0
230
1.0
 70
    11
 71
     3
 72
    62
 73
    58
 74
     0
 42
0.0000000001
 43
0.0000000001
 12
1.0
 22
0.0
 32
0.0
 13
1.0
 23
0.0
 33
0.0
 40
0.0
 40
0.0
 40
0.0
 40
0.0
 40
1.0
 40
1.0
 40
1.0
 40
2.0
 40
2.0
 40
2.0
 40
3.0
 40
3.0
 40
3.0
 40
4.0
 40
4.0
 40
4.0
 40
5.0
 40
5.0
 40
5.0
 40
6.0
 40
6.0
 40
6.0
 40
7.0
 40
7.0
 40
7.0
 40
8.0
 40
8.0
 40
8.0
 40
9.0
 40
9.0
 40
9.0
 40
10.0
 40
10.0
 40
10.0
 40
11.0
 40
11.0
 40
11.0
 40
12.0
 40
12.0
 40
12.0
 40
13.0
 40
13.0
 40
13.0
 40
14.0
 40
14.0
 40
14.0
 40
15.0
 40
15.0
 40
15.0
 40
16.0
 40
16.0
 40
16.0
 40
17.0
 40
17.0
 40
17.0
 40
18.0
 40
18.0
 40
18.0
 40
19.0
 40
19.0
 40
19.0
 40
19.0
 10
117.4402045062302
 20
-140.7845160238317
 30
0.0
 10
117.4402045062302
 20
-140.8861463406465
 30
0.0
 10
117.4191894237702
 20
-141.1190347954494
 30
0.0
 10
117.2331542675667
 20
-141.2523599907286
 30
0.0
 10
117.1208441547476
 20
-141.3315971868893
 30
0.0
 10
117.0216254047724
 20
-141.3360758110202
 30
0.0
 10
116.9368760558352
 20
-141.340554435151
 30
0.0
 10
116.9368760558352
 20
-141.340554435151
 30
0.0
 10
116.9368760558352
 20
-141.1055989230569
 30
0.0
 10
116.9368760558352
 20
-141.1055989230569
 30
0.0
 10
117.0109456087681
 20
-141.1031873562173
 30
0.0
 10
117.2455566113136
 20
-141.0918185411159
 30
0.0
 10
117.2455566113136
 20
-140.7889946479625
 30
0.0
 10
117.2455566113136
 20
-140.6418890707423
 30
0.0
 10
117.1759656825116
 20
-140.4792805638385
 30
0.0
 10
116.9475558518395
 20
-140.4792805638385
 30
0.0
 10
116.8311116244381
 20
-140.4792805638385
 30
0.0
 10
116.782535778096
 20
-140.5199326905645
 30
0.0
 10
116.7508408996317
 20
-140.5536946263199
 30
0.0
 10
116.6767713466989
 20
-140.6329318224807
 30
0.0
 10
116.6640244934034
 20
-140.7572997694982
 30
0.0
 10
116.6640244934034
 20
-140.8162109022959
 30
0.0
 10
116.6640244934034
 20
-140.8365369656589
 30
0.0
 10
116.6660915506946
 20
-140.8747775255452
 30
0.0
 10
116.6702256652769
 20
-140.9044053467184
 30
0.0
 10
116.6702256652769
 20
-140.9044053467184
 30
0.0
 10
116.4755777703603
 20
-140.9044053467184
 30
0.0
 10
116.4755777703603
 20
-140.9044053467184
 30
0.0
 10
116.4821234517823
 20
-140.8637532199924
 30
0.0
 10
116.4841905090734
 20
-140.8182779595871
 30
0.0
 10
116.4841905090734
 20
-140.8117322781651
 30
0.0
 10
116.4841905090734
 20
-140.741452330266
 30
0.0
 10
116.4628309170648
 20
-140.5288899388261
 30
0.0
 10
116.2261528572282
 20
-140.5288899388261
 30
0.0
 10
116.0483859301893
 20
-140.5288899388261
 30
0.0
 10
115.9932644024253
 20
-140.6691053250758
 30
0.0
 10
115.9932644024253
 20
-140.7865830811228
 30
0.0
 10
115.9932644024253
 20
-141.0694254204618
 30
0.0
 10
116.2261528572282
 20
-141.0783826687235
 30
0.0
 10
116.2978108433214
 20
-141.0828612928543
 30
0.0
 10
116.2978108433214
 20
-141.0828612928543
 30
0.0
 10
116.2978108433214
 20
-141.299902308425
 30
0.0
 10
116.2978108433214
 20
-141.299902308425
 30
0.0
 10
116.1730983867553
 20
-141.2909450601634
 30
0.0
 10
115.7965494502175
 20
-141.2616617485388
 30
0.0
 10
115.7965494502175
 20
-140.7731472087303
 30
0.0
 10
115.7965494502175
 20
-140.533368562957
 30
0.0
 10
115.9236734736233
 20
-140.2756754206603
 30
0.0
 10
116.2196071758062
 20
-140.2756754206603
 30
0.0
 10
116.4059868415582
 20
-140.2756754206603
 30
0.0
 10
116.4883246236557
 20
-140.3776502470236
 30
0.0
 10
116.5496473232931
 20
-140.4837591879694
 30
0.0
 10
116.5772080871752
 20
-140.4183023737496
 30
0.0
 10
116.6574788119815
 20
-140.223654478833
 30
0.0
 10
116.9348089985441
 20
-140.223654478833
 30
0.0
 10
117.2731173751956
 20
-140.223654478833
 30
0.0
 10
117.4402045062302
 20
-140.4882378121002
 30
0.0
 10
117.4402045062302
 20
-140.7845160238317
 30
0.0
  0
HATCH
  5
B2
330
AD
100
AcDbEntity
  8
_U+30EC_U+30A4_U+30E4_U+30FC 1
 62
   179
420
  2234388
100
AcDbHatch
 10
0.0
 20
0.0
 30
0.0
210
0.0
220
0.0
230
1.0
  2
SOLID
 70
     1
 71
     0
 91
        1
 92
        1
 93
        1
 72
     4
 94
        3
 73
     0
 74
     1
 95
       62
 96
       58
 40
0.0
 40
0.0
 40
0.0
 40
0.0
 40
1.0
 40
1.0
 40
1.0
 40
2.0
 40
2.0
 40
2.0
 40
3.0
 40
3.0
 40
3.0
 40
4.0
 40
4.0
 40
4.0
 40
5.0
 40
5.0
 40
5.0
 40
6.0
 40
6.0
 40
6.0
 40
7.0
 40
7.0
 40
7.0
 40
8.0
 40
8.0
 40
8.0
 40
9.0
 40
9.0
 40
9.0
 40
10.0
 40
10.0
 40
10.0
 40
11.0
 40
11.0
 40
11.0
 40
12.0
 40
12.0
 40
12.0
 40
13.0
 40
13.0
 40
13.0
 40
14.0
 40
14.0
 40
14.0
 40
15.0
 40
15.0
 40
15.0
 40
16.0
 40
16.0
 40
16.0
 40
17.0
 40
17.0
 40
17.0
 40
18.0
 40
18.0
 40
18.0
 40
19.0
 40
19.0
 40
19.0
 40
19.0
 10
117.4402045062302
 20
-140.7845160238317
 10
117.4402045062302
 20
-140.8861463406465
 10
117.4191894237702
 20
-141.1190347954494
 10
117.2331542675667
 20
-141.2523599907286
 10
117.1208441547476
 20
-141.3315971868893
 10
117.0216254047724
 20
-141.3360758110202
 10
116.9368760558352
 20
-141.340554435151
 10
116.9368760558352
 20
-141.340554435151
 10
116.9368760558352
 20
-141.1055989230569
 10
116.9368760558352
 20
-141.1055989230569
 10
117.0109456087681
 20
-141.1031873562173
 10
117.2455566113136
 20
-141.0918185411159
 10
117.2455566113136
 20
-140.7889946479625
 10
117.2455566113136
 20
-140.6418890707423
 10
117.1759656825116
 20
-140.4792805638385
 10
116.9475558518395
 20
-140.4792805638385
 10
116.8311116244381
 20
-140.4792805638385
 10
116.782535778096
 20
-140.5199326905645
 10
116.7508408996317
 20
-140.5536946263199
 10
116.6767713466989
 20
-140.6329318224807
 10
116.6640244934034
 20
-140.7572997694982
 10
116.6640244934034
 20
-140.8162109022959
 10
116.6640244934034
 20
-140.8365369656589
 10
116.6660915506946
 20
-140.8747775255452
 10
116.6702256652769
 20
-140.9044053467184
 10
116.6702256652769
 20
-140.9044053467184
 10
116.4755777703603
 20
-140.9044053467184
 10
116.4755777703603
 20
-140.9044053467184
 10
116.4821234517823
 20
-140.8637532199924
 10
116.4841905090734
 20
-140.8182779595871
 10
116.4841905090734
 20
-140.8117322781651
 10
116.4841905090734
 20
-140.741452330266
 10
116.4628309170648
 20
-140.5288899388261
 10
116.2261528572282
 20
-140.5288899388261
 10
116.0483859301893
 20
-140.5288899388261
 10
115.9932644024253
 20
-140.6691053250758
 10
115.9932644024253
 20
-140.7865830811228
 10
115.9932644024253
 20
-141.0694254204618
 10
116.2261528572282
 20
-141.0783826687235
 10
116.2978108433214
 20
-141.0828612928543
 10
116.2978108433214
 20
-141.0828612928543
 10
116.2978108433214
 20
-141.299902308425
 10
116.2978108433214
 20
-141.299902308425
 10
116.1730983867553
 20
-141.2909450601634
 10
115.7965494502175
 20
-141.2616617485388
 10
115.7965494502175
 20
-140.7731472087303
 10
115.7965494502175
 20
-140.533368562957
 10
115.9236734736233
 20
-140.2756754206603
 10
116.2196071758062
 20
-140.2756754206603
 10
116.4059868415582
 20
-140.2756754206603
 10
116.4883246236557
 20
-140.3776502470236
 10
116.5496473232931
 20
-140.4837591879694
 10
116.5772080871752
 20
-140.4183023737496
 10
116.6574788119815
 20
-140.223654478833
 10
116.9348089985441
 20
-140.223654478833
 10
117.2731173751956
 20
-140.223654478833
 10
117.4402045062302
 20
-140.4882378121002
 10
117.4402045062302
 20
-140.7845160238317
 97
        0
 97
        0
 75
     2
 76
     1
 98
        0
  0
ENDBLK
  5
B0
330
AD
100
AcDbEntity
  8
0
100
AcDbBlockEnd
  0
BLOCK
  5
B5
330
B3
100
AcDbEntity
  8
0
100
AcDbBlockBegin
  2
block 5
 70
     0
 10
0.0
 20
0.0
 30
0.0
  3
block 5
  1

  0
SPLINE
  5
B7
330
B3
100
AcDbEntity
  8
_U+30EC_U+30A4_U+30E4_U+30FC 1
370
     0
100
AcDbSpline
210
0.0
220
0.0
230
1.0
 70
    11
 71
     3
 72
    26
 73
    22
 74
     0
 42
0.0000000001
 43
0.0000000001
 12
1.0
 22
0.0
 32
0.0
 13
1.0
 23
0.0
 33
0.0
 40
0.0
 40
0.0
 40
0.0
 40
0.0
 40
1.0
 40
1.0
 40
1.0
 40
2.0
 40
2.0
 40
2.0
 40
3.0
 40
3.0
 40
3.0
 40
4.0
 40
4.0
 40
4.0
 40
5.0
 40
5.0
 40
5.0
 40
6.0
 40
6.0
 40
6.0
 40
7.0
 40
7.0
 40
7.0
 40
7.0
 10
75.24260794559908
 20
-148.6110839472222
 30
0.0
 10
75.24260794559908
 20
-148.6110839472222
 30
0.0
 10
75.24260794559908
 20
-147.5069308441997
 30
0.0
 10
75.24260794559908
 20
-147.5069308441997
 30
0.0
 10
75.24260794559908
 20
-147.5069308441997
 30
0.0
 10
74.89017467745802
 20
-147.5069308441997
 30
0.0
 10
74.89017467745802
 20
-147.5069308441997
 30
0.0
 10
74.89017467745802
 20
-147.5069308441997
 30
0.0
 10
74.89017467745802
 20
-147.3587917383339
 30
0.0
 10
74.89017467745802
 20
-147.3587917383339
 30
0.0
 10
75.24501951243874
 20
-147.3439778277474
 30
0.0
 10
75.29462888742634
 20
-147.181024811295
 30
0.0
 10
75.32632376589065
 20
-147.0669921507333
 30
0.0
 10
75.32632376589065
 20
-147.0669921507333
 30
0.0
 10
75.48238659137246
 20
-147.0669921507333
 30
0.0
 10
75.48238659137246
 20
-147.0669921507333
 30
0.0
 10
75.48238659137246
 20
-147.0669921507333
 30
0.0
 10
75.48238659137246
 20
-148.6110839472222
 30
0.0
 10
75.48238659137246
 20
-148.6110839472222
 30
0.0
 10
75.48238659137246
 20
-148.6110839472222
 30
0.0
 10
75.24260794559908
 20
-148.6110839472222
 30
0.0
 10
75.24260794559908
 20
-148.6110839472222
 30
0.0
  0
HATCH
  5
B8
330
B3
100
AcDbEntity
  8
_U+30EC_U+30A4_U+30E4_U+30FC 1
 62
   179
420
  2234388
100
AcDbHatch
 10
0.0
 20
0.0
 30
0.0
210
0.0
220
0.0
230
1.0
  2
SOLID
 70
     1
 71
     0
 91
        1
 92
        1
 93
        1
 72
     4
 94
        3
 73
     0
 74
     1
 95
       26
 96
       22
 40
0.0
 40
0.0
 40
0.0
 40
0.0
 40
1.0
 40
1.0
 40
1.0
 40
2.0
 40
2.0
 40
2.0
 40
3.0
 40
3.0
 40
3.0
 40
4.0
 40
4.0
 40
4.0
 40
5.0
 40
5.0
 40
5.0
 40
6.0
 40
6.0
 40
6.0
 40
7.0
 40
7.0
 40
7.0
 40
7.0
 10
75.24260794559908
 20
-148.6110839472222
 10
75.24260794559908
 20
-148.6110839472222
 10
75.24260794559908
 20
-147.5069308441997
 10
75.24260794559908
 20
-147.5069308441997
 10
75.24260794559908
 20
-147.5069308441997
 10
74.89017467745802
 20
-147.5069308441997
 10
74.89017467745802
 20
-147.5069308441997
 10
74.89017467745802
 20
-147.5069308441997
 10
74.89017467745802
 20
-147.3587917383339
 10
74.89017467745802
 20
-147.3587917383339
 10
75.24501951243874
 20
-147.3439778277474
 10
75.29462888742634
 20
-147.181024811295
 10
75.32632376589065
 20
-147.0669921507333
 10
75.32632376589065
 20
-147.0669921507333
 10
75.48238659137246
 20
-147.0669921507333
 10
75.48238659137246
 20
-147.0669921507333
 10
75.48238659137246
 20
-147.0669921507333
 10
75.48238659137246
 20
-148.6110839472222
 10
75.48238659137246
 20
-148.6110839472222
 10
75.48238659137246
 20
-148.6110839472222
 10
75.24260794559908
 20
-148.6110839472222
 10
75.24260794559908
 20
-148.6110839472222
 97
        0
 97
        0
 75
     2
 76
     1
 98
        0
  0
SPLINE
  5
B9
330
B3
100
AcDbEntity
  8
_U+30EC_U+30A4_U+30E4_U+30FC 1
370
     0
100
AcDbSpline
210
0.0
220
0.0
230
1.0
 70
    11
 71
     3
 72
    29
 73
    25
 74
     0
 42
0.0000000001
 43
0.0000000001
 12
1.0
 22
0.0
 32
0.0
 13
1.0
 23
0.0
 33
0.0
 40
0.0
 40
0.0
 40
0.0
 40
0.0
 40
1.0
 40
1.0
 40
1.0
 40
2.0
 40
2.0
 40
2.0
 40
3.0
 40
3.0
 40
3.0
 40
4.0
 40
4.0
 40
4.0
 40
5.0
 40
5.0
 40
5.0
 40
6.0
 40
6.0
 40
6.0
 40
7.0
 40
7.0
 40
7.0
 40
8.0
 40
8.0
 40
8.0
 40
8.0
 10
76.97755803197089
 20
-148.4333170201834
 30
0.0
 10
76.86214733321502
 20
-148.6427788256865
 30
0.0
 10
76.67680119610858
 20
-148.6620713604039
 30
0.0
 10
76.55243324909107
 20
-148.6620713604039
 30
0.0
 10
76.38086749392562
 20
-148.6620713604039
 30
0.0
 10
76.22928329257462
 20
-148.6155625713531
 30
0.0
 10
76.12765297575976
 20
-148.4333170201834
 30
0.0
 10
76.01672090113472
 20
-148.2386691252667
 30
0.0
 10
75.99639483777173
 20
-148.0019910654301
 30
0.0
 10
75.99639483777173
 20
-147.8390380489778
 30
0.0
 10
75.99639483777173
 20
-147.6950330576943
 30
0.0
 10
76.01465384384356
 20
-147.4435410872711
 30
0.0
 10
76.12765297575976
 20
-147.2444145682236
 30
0.0
 10
76.2427191649671
 20
-147.0414984441424
 30
0.0
 10
76.41462942968107
 20
-147.0180717948427
 30
0.0
 10
76.55243324909107
 20
-147.0180717948427
 30
0.0
 10
76.72227645651388
 20
-147.0180717948427
 30
0.0
 10
76.87592771515602
 20
-147.0625135266024
 30
0.0
 10
76.97755803197089
 20
-147.2444145682236
 30
0.0
 10
77.08401148246512
 20
-147.4369954058491
 30
0.0
 10
77.10881616995891
 20
-147.6654052365212
 30
0.0
 10
77.10881616995891
 20
-147.8390380489778
 30
0.0
 10
77.10881616995891
 20
-148.0102592945947
 30
0.0
 10
77.08607853975626
 20
-148.2410806921064
 30
0.0
 10
76.97755803197089
 20
-148.4333170201834
 30
0.0
  0
SPLINE
  5
BA
330
B3
100
AcDbEntity
  8
_U+30EC_U+30A4_U+30E4_U+30FC 1
370
     0
100
AcDbSpline
210
0.0
220
0.0
230
1.0
 70
    11
 71
     3
 72
    17
 73
    13
 74
     0
 42
0.0000000001
 43
0.0000000001
 12
1.0
 22
0.0
 32
0.0
 13
1.0
 23
0.0
 33
0.0
 40
0.0
 40
0.0
 40
0.0
 40
0.0
 40
1.0
 40
1.0
 40
1.0
 40
2.0
 40
2.0
 40
2.0
 40
3.0
 40
3.0
 40
3.0
 40
4.0
 40
4.0
 40
4.0
 40
4.0
 10
76.55243324909107
 20
-147.2106526324682
 30
0.0
 10
76.28578285853273
 20
-147.2106526324682
 30
0.0
 10
76.23617348354513
 20
-147.4941839909042
 30
0.0
 10
76.23617348354513
 20
-147.8390380489778
 30
0.0
 10
76.23617348354513
 20
-148.1583984004604
 30
0.0
 10
76.2744140434314
 20
-148.4674234654873
 30
0.0
 10
76.55243324909107
 20
-148.4674234654873
 30
0.0
 10
76.81701658235825
 20
-148.4674234654873
 30
0.0
 10
76.86903752418552
 20
-148.1859591643424
 30
0.0
 10
76.86903752418552
 20
-147.8390380489778
 30
0.0
 10
76.86903752418552
 20
-147.5196776974951
 30
0.0
 10
76.82838539745957
 20
-147.2106526324682
 30
0.0
 10
76.55243324909107
 20
-147.2106526324682
 30
0.0
  0
HATCH
  5
BB
330
B3
100
AcDbEntity
  8
_U+30EC_U+30A4_U+30E4_U+30FC 1
 62
   179
420
  2234388
100
AcDbHatch
 10
0.0
 20
0.0
 30
0.0
210
0.0
220
0.0
230
1.0
  2
SOLID
 70
     1
 71
     0
 91
        2
 92
        1
 93
        1
 72
     4
 94
        3
 73
     0
 74
     1
 95
       29
 96
       25
 40
0.0
 40
0.0
 40
0.0
 40
0.0
 40
1.0
 40
1.0
 40
1.0
 40
2.0
 40
2.0
 40
2.0
 40
3.0
 40
3.0
 40
3.0
 40
4.0
 40
4.0
 40
4.0
 40
5.0
 40
5.0
 40
5.0
 40
6.0
 40
6.0
 40
6.0
 40
7.0
 40
7.0
 40
7.0
 40
8.0
 40
8.0
 40
8.0
 40
8.0
 10
76.97755803197089
 20
-148.4333170201834
 10
76.86214733321502
 20
-148.6427788256865
 10
76.67680119610858
 20
-148.6620713604039
 10
76.55243324909107
 20
-148.6620713604039
 10
76.38086749392562
 20
-148.6620713604039
 10
76.22928329257462
 20
-148.6155625713531
 10
76.12765297575976
 20
-148.4333170201834
 10
76.01672090113472
 20
-148.2386691252667
 10
75.99639483777173
 20
-148.0019910654301
 10
75.99639483777173
 20
-147.8390380489778
 10
75.99639483777173
 20
-147.6950330576943
 10
76.01465384384356
 20
-147.4435410872711
 10
76.12765297575976
 20
-147.2444145682236
 10
76.2427191649671
 20
-147.0414984441424
 10
76.41462942968107
 20
-147.0180717948427
 10
76.55243324909107
 20
-147.0180717948427
 10
76.72227645651388
 20
-147.0180717948427
 10
76.87592771515602
 20
-147.0625135266024
 10
76.97755803197089
 20
-147.2444145682236
 10
77.08401148246512
 20
-147.4369954058491
 10
77.10881616995891
 20
-147.6654052365212
 10
77.10881616995891
 20
-147.8390380489778
 10
77.10881616995891
 20
-148.0102592945947
 10
77.08607853975626
 20
-148.2410806921064
 10
76.97755803197089
 20
-148.4333170201834
 97
        0
 97
        0
 92
        1
 93
        1
 72
     4
 94
        3
 73
     0
 74
     1
 95
       17
 96
       13
 40
0.0
 40
0.0
 40
0.0
 40
0.0
 40
1.0
 40
1.0
 40
1.0
 40
2.0
 40
2.0
 40
2.0
 40
3.0
 40
3.0
 40
3.0
 40
4.0
 40
4.0
 40
4.0
 40
4.0
 10
76.55243324909107
 20
-147.2106526324682
 10
76.28578285853273
 20
-147.2106526324682
 10
76.23617348354513
 20
-147.4941839909042
 10
76.23617348354513
 20
-147.8390380489778
 10
76.23617348354513
 20
-148.1583984004604
 10
76.2744140434314
 20
-148.4674234654873
 10
76.55243324909107
 20
-148.4674234654873
 10
76.81701658235825
 20
-148.4674234654873
 10
76.86903752418552
 20
-148.1859591643424
 10
76.86903752418552
 20
-147.8390380489778
 10
76.86903752418552
 20
-147.5196776974951
 10
76.82838539745957
 20
-147.2106526324682
 10
76.55243324909107
 20
-147.2106526324682
 97
        0
 97
        0
 75
     2
 76
     1
 98
        0
  0
ENDBLK
  5
B6
330
B3
100
AcDbEntity
  8
0
100
AcDbBlockEnd
  0
BLOCK
  5
BE
330
BC
100
AcDbEntity
  8
0
100
AcDbBlockBegin
  2
block 6
 70
     0
 10
0.0
 20
0.0
 30
0.0
  3
block 6
  1

  0
POLYLINE
  5
C0
330
BC
100
AcDbEntity
  8
_U+30EC_U+30A4_U+30E4_U+30FC 1
370
     0
100
AcDb2dPolyline
 66
     1
 10
0.0
 20
0.0
 30
0.0
  0
VERTEX
  5
C1
330
C0
100
AcDbEntity
  8
_U+30EC_U+30A4_U+30E4_U+30FC 1
370
     0
100
AcDbVertex
100
AcDb2dVertex
 10
90.65010848428192
 20
-112.8840657269873
 30
0.0
  0
VERTEX
  5
C2
330
C0
100
AcDbEntity
  8
_U+30EC_U+30A4_U+30E4_U+30FC 1
370
     0
100
AcDbVertex
100
AcDb2dVertex
 10
90.65010848428192
 20
-113.230986842352
 30
0.0
  0
VERTEX
  5
C3
330
C0
100
AcDbEntity
  8
_U+30EC_U+30A4_U+30E4_U+30FC 1
370
     0
100
AcDbVertex
100
AcDb2dVertex
 10
90.41722002947903
 20
-113.230986842352
 30
0.0
  0
VERTEX
  5
C4
330
C0
100
AcDbEntity
  8
_U+30EC_U+30A4_U+30E4_U+30FC 1
370
     0
100
AcDbVertex
100
AcDb2dVertex
 10
90.41722002947903
 20
-112.8840657269873
 30
0.0
  0
VERTEX
  5
C5
330
C0
100
AcDbEntity
  8
_U+30EC_U+30A4_U+30E4_U+30FC 1
370
     0
100
AcDbVertex
100
AcDb2dVertex
 10
89.71614309823069
 20
-112.8840657269873
 30
0.0
  0
VERTEX
  5
C6
330
C0
100
AcDbEntity
  8
_U+30EC_U+30A4_U+30E4_U+30FC 1
370
     0
100
AcDbVertex
100
AcDb2dVertex
 10
89.71614309823069
 20
-112.6597900108976
 30
0.0
  0
VERTEX
  5
C7
330
C0
100
AcDbEntity
  8
_U+30EC_U+30A4_U+30E4_U+30FC 1
370
     0
100
AcDbVertex
100
AcDb2dVertex
 10
90.44202471697282
 20
-111.6865505363145
 30
0.0
  0
VERTEX
  5
C8
330
C0
100
AcDbEntity
  8
_U+30EC_U+30A4_U+30E4_U+30FC 1
370
     0
100
AcDbVertex
100
AcDb2dVertex
 10
90.65010848428192
 20
-111.6865505363145
 30
0.0
  0
VERTEX
  5
C9
330
C0
100
AcDbEntity
  8
_U+30EC_U+30A4_U+30E4_U+30FC 1
370
     0
100
AcDbVertex
100
AcDb2dVertex
 10
90.65010848428192
 20
-112.6852837174884
 30
0.0
  0
VERTEX
  5
CA
330
C0
100
AcDbEntity
  8
_U+30EC_U+30A4_U+30E4_U+30FC 1
370
     0
100
AcDbVertex
100
AcDb2dVertex
 10
90.87162812398348
 20
-112.6852837174884
 30
0.0
  0
VERTEX
  5
CB
330
C0
100
AcDbEntity
  8
_U+30EC_U+30A4_U+30E4_U+30FC 1
370
     0
100
AcDbVertex
100
AcDb2dVertex
 10
90.87162812398348
 20
-112.8840657269873
 30
0.0
  0
VERTEX
  5
CC
330
C0
100
AcDbEntity
  8
_U+30EC_U+30A4_U+30E4_U+30FC 1
370
     0
100
AcDbVertex
100
AcDb2dVertex
 10
90.65010848428192
 20
-112.8840657269873
 30
0.0
  0
SEQEND
  5
CD
330
C0
100
AcDbEntity
  8
_U+30EC_U+30A4_U+30E4_U+30FC 1
370
     0
  0
POLYLINE
  5
CE
330
BC
100
AcDbEntity
  8
_U+30EC_U+30A4_U+30E4_U+30FC 1
370
     0
100
AcDb2dPolyline
 66
     1
 10
0.0
 20
0.0
 30
0.0
  0
VERTEX
  5
CF
330
CE
100
AcDbEntity
  8
_U+30EC_U+30A4_U+30E4_U+30FC 1
370
     0
100
AcDbVertex
100
AcDb2dVertex
 10
90.41722002947903
 20
-112.0293375370968
 30
0.0
  0
VERTEX
  5
D0
330
CE
100
AcDbEntity
  8
_U+30EC_U+30A4_U+30E4_U+30FC 1
370
     0
100
AcDbVertex
100
AcDb2dVertex
 10
89.9287054896706
 20
-112.6852837174884
 30
0.0
  0
VERTEX
  5
D1
330
CE
100
AcDbEntity
  8
_U+30EC_U+30A4_U+30E4_U+30FC 1
370
     0
100
AcDbVertex
100
AcDb2dVertex
 10
90.41722002947903
 20
-112.6852837174884
 30
0.0
  0
VERTEX
  5
D2
330
CE
100
AcDbEntity
  8
_U+30EC_U+30A4_U+30E4_U+30FC 1
370
     0
100
AcDbVertex
100
AcDb2dVertex
 10
90.41722002947903
 20
-112.0293375370968
 30
0.0
  0
SEQEND
  5
D3
330
CE
100
AcDbEntity
  8
_U+30EC_U+30A4_U+30E4_U+30FC 1
370
     0
  0
HATCH
  5
D4
330
BC
100
AcDbEntity
  8
_U+30EC_U+30A4_U+30E4_U+30FC 1
 62
   179
420
  2234388
100
AcDbHatch
 10
0.0
 20
0.0
 30
0.0
210
0.0
220
0.0
230
1.0
  2
SOLID
 70
     1
 71
     0
 91
        2
 92
        1
 93
       11
 72
     1
 10
90.65010848428192
 20
-112.8840657269873
 11
90.65010848428192
 21
-113.230986842352
 72
     1
 10
90.65010848428192
 20
-113.230986842352
 11
90.41722002947903
 21
-113.230986842352
 72
     1
 10
90.41722002947903
 20
-113.230986842352
 11
90.41722002947903
 21
-112.8840657269873
 72
     1
 10
90.41722002947903
 20
-112.8840657269873
 11
89.71614309823069
 21
-112.8840657269873
 72
     1
 10
89.71614309823069
 20
-112.8840657269873
 11
89.71614309823069
 21
-112.6597900108976
 72
     1
 10
89.71614309823069
 20
-112.6597900108976
 11
90.44202471697282
 21
-111.6865505363145
 72
     1
 10
90.44202471697282
 20
-111.6865505363145
 11
90.65010848428192
 21
-111.6865505363145
 72
     1
 10
90.65010848428192
 20
-111.6865505363145
 11
90.65010848428192
 21
-112.6852837174884
 72
     1
 10
90.65010848428192
 20
-112.6852837174884
 11
90.87162812398348
 21
-112.6852837174884
 72
     1
 10
90.87162812398348
 20
-112.6852837174884
 11
90.87162812398348
 21
-112.8840657269873
 72
     1
 10
90.87162812398348
 20
-112.8840657269873
 11
90.65010848428192
 21
-112.8840657269873
 97
        0
 92
        1
 93
        3
 72
     1
 10
90.41722002947903
 20
-112.0293375370968
 11
89.9287054896706
 21
-112.6852837174884
 72
     1
 10
89.9287054896706
 20
-112.6852837174884
 11
90.41722002947903
 21
-112.6852837174884
 72
     1
 10
90.41722002947903
 20
-112.6852837174884
 11
90.41722002947903
 21
-112.0293375370968
 97
        0
 75
     2
 76
     1
 98
        0
  0
SPLINE
  5
D5
330
BC
100
AcDbEntity
  8
_U+30EC_U+30A4_U+30E4_U+30FC 1
370
     0
100
AcDbSpline
210
0.0
220
0.0
230
1.0
 70
    11
 71
     3
 72
    29
 73
    25
 74
     0
 42
0.0000000001
 43
0.0000000001
 12
1.0
 22
0.0
 32
0.0
 13
1.0
 23
0.0
 33
0.0
 40
0.0
 40
0.0
 40
0.0
 40
0.0
 40
1.0
 40
1.0
 40
1.0
 40
2.0
 40
2.0
 40
2.0
 40
3.0
 40
3.0
 40
3.0
 40
4.0
 40
4.0
 40
4.0
 40
5.0
 40
5.0
 40
5.0
 40
6.0
 40
6.0
 40
6.0
 40
7.0
 40
7.0
 40
7.0
 40
8.0
 40
8.0
 40
8.0
 40
8.0
 10
91.97784828429721
 20
-113.0532199153131
 30
0.0
 10
91.86243758554134
 20
-113.2626817208163
 30
0.0
 10
91.6770914484349
 20
-113.2816297459852
 30
0.0
 10
91.55272350141738
 20
-113.2816297459852
 30
0.0
 10
91.38115774625194
 20
-113.2816297459852
 30
0.0
 10
91.22957354490094
 20
-113.2351209569343
 30
0.0
 10
91.12794322808607
 20
-113.0532199153131
 30
0.0
 10
91.01701115346103
 20
-112.8585720203965
 30
0.0
 10
90.99668509009805
 20
-112.6215494510113
 30
0.0
 10
90.99668509009805
 20
-112.4589409441075
 30
0.0
 10
90.99668509009805
 20
-112.314935952824
 30
0.0
 10
91.01459958662136
 20
-112.0630994728523
 30
0.0
 10
91.12794322808607
 20
-111.8643174633534
 30
0.0
 10
91.24300941729342
 20
-111.6614013392722
 30
0.0
 10
91.41491968200738
 20
-111.6379746899725
 30
0.0
 10
91.55272350141738
 20
-111.6379746899725
 30
0.0
 10
91.72256670884019
 20
-111.6379746899725
 30
0.0
 10
91.87621796748233
 20
-111.6824164217322
 30
0.0
 10
91.97784828429721
 20
-111.8643174633534
 30
0.0
 10
92.08430173479142
 20
-112.0568983009788
 30
0.0
 10
92.10910642228522
 20
-112.2853081316509
 30
0.0
 10
92.10910642228522
 20
-112.4589409441075
 30
0.0
 10
92.10910642228522
 20
-112.6301621897244
 30
0.0
 10
92.08636879208258
 20
-112.8606390776876
 30
0.0
 10
91.97784828429721
 20
-113.0532199153131
 30
0.0
  0
SPLINE
  5
D6
330
BC
100
AcDbEntity
  8
_U+30EC_U+30A4_U+30E4_U+30FC 1
370
     0
100
AcDbSpline
210
0.0
220
0.0
230
1.0
 70
    11
 71
     3
 72
    17
 73
    13
 74
     0
 42
0.0000000001
 43
0.0000000001
 12
1.0
 22
0.0
 32
0.0
 13
1.0
 23
0.0
 33
0.0
 40
0.0
 40
0.0
 40
0.0
 40
0.0
 40
1.0
 40
1.0
 40
1.0
 40
2.0
 40
2.0
 40
2.0
 40
3.0
 40
3.0
 40
3.0
 40
4.0
 40
4.0
 40
4.0
 40
4.0
 10
91.55272350141738
 20
-111.8305555275979
 30
0.0
 10
91.28607311085904
 20
-111.8305555275979
 30
0.0
 10
91.23646373587144
 20
-112.114086886034
 30
0.0
 10
91.23646373587144
 20
-112.4589409441075
 30
0.0
 10
91.23646373587144
 20
-112.7783012955902
 30
0.0
 10
91.27470429575772
 20
-113.0869818510685
 30
0.0
 10
91.55272350141738
 20
-113.0869818510685
 30
0.0
 10
91.81730683468457
 20
-113.0869818510685
 30
0.0
 10
91.86932777651184
 20
-112.8058620594721
 30
0.0
 10
91.86932777651184
 20
-112.4589409441075
 30
0.0
 10
91.86932777651184
 20
-112.1392360830763
 30
0.0
 10
91.8286756497859
 20
-111.8305555275979
 30
0.0
 10
91.55272350141738
 20
-111.8305555275979
 30
0.0
  0
HATCH
  5
D7
330
BC
100
AcDbEntity
  8
_U+30EC_U+30A4_U+30E4_U+30FC 1
 62
   179
420
  2234388
100
AcDbHatch
 10
0.0
 20
0.0
 30
0.0
210
0.0
220
0.0
230
1.0
  2
SOLID
 70
     1
 71
     0
 91
        2
 92
        1
 93
        1
 72
     4
 94
        3
 73
     0
 74
     1
 95
       29
 96
       25
 40
0.0
 40
0.0
 40
0.0
 40
0.0
 40
1.0
 40
1.0
 40
1.0
 40
2.0
 40
2.0
 40
2.0
 40
3.0
 40
3.0
 40
3.0
 40
4.0
 40
4.0
 40
4.0
 40
5.0
 40
5.0
 40
5.0
 40
6.0
 40
6.0
 40
6.0
 40
7.0
 40
7.0
 40
7.0
 40
8.0
 40
8.0
 40
8.0
 40
8.0
 10
91.97784828429721
 20
-113.0532199153131
 10
91.86243758554134
 20
-113.2626817208163
 10
91.6770914484349
 20
-113.2816297459852
 10
91.55272350141738
 20
-113.2816297459852
 10
91.38115774625194
 20
-113.2816297459852
 10
91.22957354490094
 20
-113.2351209569343
 10
91.12794322808607
 20
-113.0532199153131
 10
91.01701115346103
 20
-112.8585720203965
 10
90.99668509009805
 20
-112.6215494510113
 10
90.99668509009805
 20
-112.4589409441075
 10
90.99668509009805
 20
-112.314935952824
 10
91.01459958662136
 20
-112.0630994728523
 10
91.12794322808607
 20
-111.8643174633534
 10
91.24300941729342
 20
-111.6614013392722
 10
91.41491968200738
 20
-111.6379746899725
 10
91.55272350141738
 20
-111.6379746899725
 10
91.72256670884019
 20
-111.6379746899725
 10
91.87621796748233
 20
-111.6824164217322
 10
91.97784828429721
 20
-111.8643174633534
 10
92.08430173479142
 20
-112.0568983009788
 10
92.10910642228522
 20
-112.2853081316509
 10
92.10910642228522
 20
-112.4589409441075
 10
92.10910642228522
 20
-112.6301621897244
 10
92.08636879208258
 20
-112.8606390776876
 10
91.97784828429721
 20
-113.0532199153131
 97
        0
 97
        0
 92
        1
 93
        1
 72
     4
 94
        3
 73
     0
 74
     1
 95
       17
 96
       13
 40
0.0
 40
0.0
 40
0.0
 40
0.0
 40
1.0
 40
1.0
 40
1.0
 40
2.0
 40
2.0
 40
2.0
 40
3.0
 40
3.0
 40
3.0
 40
4.0
 40
4.0
 40
4.0
 40
4.0
 10
91.55272350141738
 20
-111.8305555275979
 10
91.28607311085904
 20
-111.8305555275979
 10
91.23646373587144
 20
-112.114086886034
 10
91.23646373587144
 20
-112.4589409441075
 10
91.23646373587144
 20
-112.7783012955902
 10
91.27470429575772
 20
-113.0869818510685
 10
91.55272350141738
 20
-113.0869818510685
 10
91.81730683468457
 20
-113.0869818510685
 10
91.86932777651184
 20
-112.8058620594721
 10
91.86932777651184
 20
-112.4589409441075
 10
91.86932777651184
 20
-112.1392360830763
 10
91.8286756497859
 20
-111.8305555275979
 10
91.55272350141738
 20
-111.8305555275979
 97
        0
 97
        0
 75
     2
 76
     1
 98
        0
  0
ENDBLK
  5
BF
330
BC
100
AcDbEntity
  8
0
100
AcDbBlockEnd
  0
BLOCK
  5
DA
330
D8
100
AcDbEntity
  8
0
100
AcDbBlockBegin
  2
block 7
 70
     0
 10
0.0
 20
0.0
 30
0.0
  3
block 7
  1

  0
SPLINE
  5
DC
330
D8
100
AcDbEntity
  8
_U+30EC_U+30A4_U+30E4_U+30FC 1
370
     0
100
AcDbSpline
210
0.0
220
0.0
230
1.0
 70
    11
 71
     3
 72
    26
 73
    22
 74
     0
 42
0.0000000001
 43
0.0000000001
 12
1.0
 22
0.0
 32
0.0
 13
1.0
 23
0.0
 33
0.0
 40
0.0
 40
0.0
 40
0.0
 40
0.0
 40
1.0
 40
1.0
 40
1.0
 40
2.0
 40
2.0
 40
2.0
 40
3.0
 40
3.0
 40
3.0
 40
4.0
 40
4.0
 40
4.0
 40
5.0
 40
5.0
 40
5.0
 40
6.0
 40
6.0
 40
6.0
 40
7.0
 40
7.0
 40
7.0
 40
7.0
 10
117.3878390548544
 20
-133.4981390725283
 30
0.0
 10
117.3878390548544
 20
-133.4981390725283
 30
0.0
 10
116.2836859518319
 20
-133.4981390725283
 30
0.0
 10
116.2836859518319
 20
-133.4981390725283
 30
0.0
 10
116.2836859518319
 20
-133.4981390725283
 30
0.0
 10
116.2836859518319
 20
-133.8509168502178
 30
0.0
 10
116.2836859518319
 20
-133.8509168502178
 30
0.0
 10
116.2836859518319
 20
-133.8509168502178
 30
0.0
 10
116.1355468459661
 20
-133.8509168502178
 30
0.0
 10
116.1355468459661
 20
-133.8509168502178
 30
0.0
 10
116.1207329353796
 20
-133.4960720152371
 30
0.0
 10
115.9577799189272
 20
-133.4464626402495
 30
0.0
 10
115.8434027488169
 20
-133.4147677617852
 30
0.0
 10
115.8434027488169
 20
-133.4147677617852
 30
0.0
 10
115.8434027488169
 20
-133.2587049363034
 30
0.0
 10
115.8434027488169
 20
-133.2587049363034
 30
0.0
 10
115.8434027488169
 20
-133.2587049363034
 30
0.0
 10
117.3878390548544
 20
-133.2587049363034
 30
0.0
 10
117.3878390548544
 20
-133.2587049363034
 30
0.0
 10
117.3878390548544
 20
-133.2587049363034
 30
0.0
 10
117.3878390548544
 20
-133.4981390725283
 30
0.0
 10
117.3878390548544
 20
-133.4981390725283
 30
0.0
  0
HATCH
  5
DD
330
D8
100
AcDbEntity
  8
_U+30EC_U+30A4_U+30E4_U+30FC 1
 62
   179
420
  2234388
100
AcDbHatch
 10
0.0
 20
0.0
 30
0.0
210
0.0
220
0.0
230
1.0
  2
SOLID
 70
     1
 71
     0
 91
        1
 92
        1
 93
        1
 72
     4
 94
        3
 73
     0
 74
     1
 95
       26
 96
       22
 40
0.0
 40
0.0
 40
0.0
 40
0.0
 40
1.0
 40
1.0
 40
1.0
 40
2.0
 40
2.0
 40
2.0
 40
3.0
 40
3.0
 40
3.0
 40
4.0
 40
4.0
 40
4.0
 40
5.0
 40
5.0
 40
5.0
 40
6.0
 40
6.0
 40
6.0
 40
7.0
 40
7.0
 40
7.0
 40
7.0
 10
117.3878390548544
 20
-133.4981390725283
 10
117.3878390548544
 20
-133.4981390725283
 10
116.2836859518319
 20
-133.4981390725283
 10
116.2836859518319
 20
-133.4981390725283
 10
116.2836859518319
 20
-133.4981390725283
 10
116.2836859518319
 20
-133.8509168502178
 10
116.2836859518319
 20
-133.8509168502178
 10
116.2836859518319
 20
-133.8509168502178
 10
116.1355468459661
 20
-133.8509168502178
 10
116.1355468459661
 20
-133.8509168502178
 10
116.1207329353796
 20
-133.4960720152371
 10
115.9577799189272
 20
-133.4464626402495
 10
115.8434027488169
 20
-133.4147677617852
 10
115.8434027488169
 20
-133.4147677617852
 10
115.8434027488169
 20
-133.2587049363034
 10
115.8434027488169
 20
-133.2587049363034
 10
115.8434027488169
 20
-133.2587049363034
 10
117.3878390548544
 20
-133.2587049363034
 10
117.3878390548544
 20
-133.2587049363034
 10
117.3878390548544
 20
-133.2587049363034
 10
117.3878390548544
 20
-133.4981390725283
 10
117.3878390548544
 20
-133.4981390725283
 97
        0
 97
        0
 75
     2
 76
     1
 98
        0
  0
SPLINE
  5
DE
330
D8
100
AcDbEntity
  8
_U+30EC_U+30A4_U+30E4_U+30FC 1
370
     0
100
AcDbSpline
210
0.0
220
0.0
230
1.0
 70
    11
 71
     3
 72
    62
 73
    58
 74
     0
 42
0.0000000001
 43
0.0000000001
 12
1.0
 22
0.0
 32
0.0
 13
1.0
 23
0.0
 33
0.0
 40
0.0
 40
0.0
 40
0.0
 40
0.0
 40
1.0
 40
1.0
 40
1.0
 40
2.0
 40
2.0
 40
2.0
 40
3.0
 40
3.0
 40
3.0
 40
4.0
 40
4.0
 40
4.0
 40
5.0
 40
5.0
 40
5.0
 40
6.0
 40
6.0
 40
6.0
 40
7.0
 40
7.0
 40
7.0
 40
8.0
 40
8.0
 40
8.0
 40
9.0
 40
9.0
 40
9.0
 40
10.0
 40
10.0
 40
10.0
 40
11.0
 40
11.0
 40
11.0
 40
12.0
 40
12.0
 40
12.0
 40
13.0
 40
13.0
 40
13.0
 40
14.0
 40
14.0
 40
14.0
 40
15.0
 40
15.0
 40
15.0
 40
16.0
 40
16.0
 40
16.0
 40
17.0
 40
17.0
 40
17.0
 40
18.0
 40
18.0
 40
18.0
 40
19.0
 40
19.0
 40
19.0
 40
19.0
 10
117.4384819584876
 20
-132.1976155268464
 30
0.0
 10
117.4384819584876
 20
-132.2992458436613
 30
0.0
 10
117.4174668760276
 20
-132.5321342984642
 30
0.0
 10
117.2310872102756
 20
-132.6658040032919
 30
0.0
 10
117.1191216070049
 20
-132.7446966899041
 30
0.0
 10
117.0195583474812
 20
-132.7491753140349
 30
0.0
 10
116.9351535080926
 20
-132.7536539381658
 30
0.0
 10
116.9351535080926
 20
-132.7536539381658
 30
0.0
 10
116.9351535080926
 20
-132.5186984260717
 30
0.0
 10
116.9351535080926
 20
-132.5186984260717
 30
0.0
 10
117.0092230610255
 20
-132.5162868592321
 30
0.0
 10
117.2441785731195
 20
-132.5052625536792
 30
0.0
 10
117.2441785731195
 20
-132.2020941509773
 30
0.0
 10
117.2441785731195
 20
-132.0553330833056
 30
0.0
 10
117.1742431347689
 20
-131.8923800668533
 30
0.0
 10
116.9458333040969
 20
-131.8923800668533
 30
0.0
 10
116.8293890766954
 20
-131.8923800668533
 30
0.0
 10
116.7804687208049
 20
-131.9330321935792
 30
0.0
 10
116.7487738423406
 20
-131.9671386388832
 30
0.0
 10
116.6750487989562
 20
-132.0460313254954
 30
0.0
 10
116.6623019456608
 20
-132.170399272513
 30
0.0
 10
116.6623019456608
 20
-132.2293104053107
 30
0.0
 10
116.6623019456608
 20
-132.2496364686737
 30
0.0
 10
116.664369002952
 20
-132.2882215381085
 30
0.0
 10
116.6685031175343
 20
-132.3171603401846
 30
0.0
 10
116.6685031175343
 20
-132.3171603401846
 30
0.0
 10
116.4738552226177
 20
-132.3171603401846
 30
0.0
 10
116.4738552226177
 20
-132.3171603401846
 30
0.0
 10
116.4800563944911
 20
-132.2765082134587
 30
0.0
 10
116.4824679613308
 20
-132.2317219721504
 30
0.0
 10
116.4824679613308
 20
-132.2248317811799
 30
0.0
 10
116.4824679613308
 20
-132.1545518332808
 30
0.0
 10
116.4614528788708
 20
-131.9423339513894
 30
0.0
 10
116.2244303094856
 20
-131.9423339513894
 30
0.0
 10
116.0466633824467
 20
-131.9423339513894
 30
0.0
 10
115.9915418546827
 20
-132.0822048280906
 30
0.0
 10
115.9915418546827
 20
-132.2000270936861
 30
0.0
 10
115.9915418546827
 20
-132.4825249234766
 30
0.0
 10
116.2244303094856
 20
-132.4914821717383
 30
0.0
 10
116.2960882955788
 20
-132.4959607958691
 30
0.0
 10
116.2960882955788
 20
-132.4959607958691
 30
0.0
 10
116.2960882955788
 20
-132.7130018114398
 30
0.0
 10
116.2960882955788
 20
-132.7130018114398
 30
0.0
 10
116.1713758390127
 20
-132.7040445631782
 30
0.0
 10
115.7948269024749
 20
-132.6747612515535
 30
0.0
 10
115.7948269024749
 20
-132.1862467117451
 30
0.0
 10
115.7948269024749
 20
-131.9464680659717
 30
0.0
 10
115.9219509258806
 20
-131.688774923675
 30
0.0
 10
116.2178846280636
 20
-131.688774923675
 30
0.0
 10
116.4042642938156
 20
-131.688774923675
 30
0.0
 10
116.4866020759131
 20
-131.7907497500384
 30
0.0
 10
116.5479247755505
 20
-131.8968586909841
 30
0.0
 10
116.5754855394325
 20
-131.8314018767644
 30
0.0
 10
116.6557562642388
 20
-131.6370984913963
 30
0.0
 10
116.9330864508015
 20
-131.6370984913963
 30
0.0
 10
117.2717393370015
 20
-131.6370984913963
 30
0.0
 10
117.4384819584876
 20
-131.9013373151149
 30
0.0
 10
117.4384819584876
 20
-132.1976155268464
 30
0.0
  0
HATCH
  5
DF
330
D8
100
AcDbEntity
  8
_U+30EC_U+30A4_U+30E4_U+30FC 1
 62
   179
420
  2234388
100
AcDbHatch
 10
0.0
 20
0.0
 30
0.0
210
0.0
220
0.0
230
1.0
  2
SOLID
 70
     1
 71
     0
 91
        1
 92
        1
 93
        1
 72
     4
 94
        3
 73
     0
 74
     1
 95
       62
 96
       58
 40
0.0
 40
0.0
 40
0.0
 40
0.0
 40
1.0
 40
1.0
 40
1.0
 40
2.0
 40
2.0
 40
2.0
 40
3.0
 40
3.0
 40
3.0
 40
4.0
 40
4.0
 40
4.0
 40
5.0
 40
5.0
 40
5.0
 40
6.0
 40
6.0
 40
6.0
 40
7.0
 40
7.0
 40
7.0
 40
8.0
 40
8.0
 40
8.0
 40
9.0
 40
9.0
 40
9.0
 40
10.0
 40
10.0
 40
10.0
 40
11.0
 40
11.0
 40
11.0
 40
12.0
 40
12.0
 40
12.0
 40
13.0
 40
13.0
 40
13.0
 40
14.0
 40
14.0
 40
14.0
 40
15.0
 40
15.0
 40
15.0
 40
16.0
 40
16.0
 40
16.0
 40
17.0
 40
17.0
 40
17.0
 40
18.0
 40
18.0
 40
18.0
 40
19.0
 40
19.0
 40
19.0
 40
19.0
 10
117.4384819584876
 20
-132.1976155268464
 10
117.4384819584876
 20
-132.2992458436613
 10
117.4174668760276
 20
-132.5321342984642
 10
117.2310872102756
 20
-132.6658040032919
 10
117.1191216070049
 20
-132.7446966899041
 10
117.0195583474812
 20
-132.7491753140349
 10
116.9351535080926
 20
-132.7536539381658
 10
116.9351535080926
 20
-132.7536539381658
 10
116.9351535080926
 20
-132.5186984260717
 10
116.9351535080926
 20
-132.5186984260717
 10
117.0092230610255
 20
-132.5162868592321
 10
117.2441785731195
 20
-132.5052625536792
 10
117.2441785731195
 20
-132.2020941509773
 10
117.2441785731195
 20
-132.0553330833056
 10
117.1742431347689
 20
-131.8923800668533
 10
116.9458333040969
 20
-131.8923800668533
 10
116.8293890766954
 20
-131.8923800668533
 10
116.7804687208049
 20
-131.9330321935792
 10
116.7487738423406
 20
-131.9671386388832
 10
116.6750487989562
 20
-132.0460313254954
 10
116.6623019456608
 20
-132.170399272513
 10
116.6623019456608
 20
-132.2293104053107
 10
116.6623019456608
 20
-132.2496364686737
 10
116.664369002952
 20
-132.2882215381085
 10
116.6685031175343
 20
-132.3171603401846
 10
116.6685031175343
 20
-132.3171603401846
 10
116.4738552226177
 20
-132.3171603401846
 10
116.4738552226177
 20
-132.3171603401846
 10
116.4800563944911
 20
-132.2765082134587
 10
116.4824679613308
 20
-132.2317219721504
 10
116.4824679613308
 20
-132.2248317811799
 10
116.4824679613308
 20
-132.1545518332808
 10
116.4614528788708
 20
-131.9423339513894
 10
116.2244303094856
 20
-131.9423339513894
 10
116.0466633824467
 20
-131.9423339513894
 10
115.9915418546827
 20
-132.0822048280906
 10
115.9915418546827
 20
-132.2000270936861
 10
115.9915418546827
 20
-132.4825249234766
 10
116.2244303094856
 20
-132.4914821717383
 10
116.2960882955788
 20
-132.4959607958691
 10
116.2960882955788
 20
-132.4959607958691
 10
116.2960882955788
 20
-132.7130018114398
 10
116.2960882955788
 20
-132.7130018114398
 10
116.1713758390127
 20
-132.7040445631782
 10
115.7948269024749
 20
-132.6747612515535
 10
115.7948269024749
 20
-132.1862467117451
 10
115.7948269024749
 20
-131.9464680659717
 10
115.9219509258806
 20
-131.688774923675
 10
116.2178846280636
 20
-131.688774923675
 10
116.4042642938156
 20
-131.688774923675
 10
116.4866020759131
 20
-131.7907497500384
 10
116.5479247755505
 20
-131.8968586909841
 10
116.5754855394325
 20
-131.8314018767644
 10
116.6557562642388
 20
-131.6370984913963
 10
116.9330864508015
 20
-131.6370984913963
 10
117.2717393370015
 20
-131.6370984913963
 10
117.4384819584876
 20
-131.9013373151149
 10
117.4384819584876
 20
-132.1976155268464
 97
        0
 97
        0
 75
     2
 76
     1
 98
        0
  0
ENDBLK
  5
DB
330
D8
100
AcDbEntity
  8
0
100
AcDbBlockEnd
  0
BLOCK
  5
E2
330
E0
100
AcDbEntity
  8
0
100
AcDbBlockBegin
  2
block 8
 70
     0
 10
0.0
 20
0.0
 30
0.0
  3
block 8
  1

  0
SPLINE
  5
E4
330
E0
100
AcDbEntity
  8
_U+30EC_U+30A4_U+30E4_U+30FC 1
370
     0
100
AcDbSpline
210
0.0
220
0.0
230
1.0
 70
    11
 71
     3
 72
    44
 73
    40
 74
     0
 42
0.0000000001
 43
0.0000000001
 12
1.0
 22
0.0
 32
0.0
 13
1.0
 23
0.0
 33
0.0
 40
0.0
 40
0.0
 40
0.0
 40
0.0
 40
1.0
 40
1.0
 40
1.0
 40
2.0
 40
2.0
 40
2.0
 40
3.0
 40
3.0
 40
3.0
 40
4.0
 40
4.0
 40
4.0
 40
5.0
 40
5.0
 40
5.0
 40
6.0
 40
6.0
 40
6.0
 40
7.0
 40
7.0
 40
7.0
 40
8.0
 40
8.0
 40
8.0
 40
9.0
 40
9.0
 40
9.0
 40
10.0
 40
10.0
 40
10.0
 40
11.0
 40
11.0
 40
11.0
 40
12.0
 40
12.0
 40
12.0
 40
13.0
 40
13.0
 40
13.0
 40
13.0
 10
64.92575275069565
 20
-130.8509277016623
 30
0.0
 10
65.08457165256567
 20
-131.0838161564652
 30
0.0
 10
65.15864120549854
 20
-131.1833794159889
 30
0.0
 10
65.30230168723345
 20
-131.2354003578162
 30
0.0
 10
65.30230168723345
 20
-131.2354003578162
 30
0.0
 10
65.30230168723345
 20
-130.4030652885798
 30
0.0
 10
65.30230168723345
 20
-130.4030652885798
 30
0.0
 10
65.30230168723345
 20
-130.4030652885798
 30
0.0
 10
65.50762937815435
 20
-130.4030652885798
 30
0.0
 10
65.50762937815435
 20
-130.4030652885798
 30
0.0
 10
65.50762937815435
 20
-130.4030652885798
 30
0.0
 10
65.50762937815435
 20
-131.5020507483745
 30
0.0
 10
65.50762937815435
 20
-131.5020507483745
 30
0.0
 10
65.15002846678541
 20
-131.4682888126191
 30
0.0
 10
65.07182479927025
 20
-131.3980088647199
 30
0.0
 10
64.7734795302476
 20
-130.9866644637811
 30
0.0
 10
64.57469752074869
 20
-130.7131238822523
 30
0.0
 10
64.50682913968927
 20
-130.6428439343532
 30
0.0
 10
64.3693698298278
 20
-130.6428439343532
 30
0.0
 10
64.2508585451352
 20
-130.6428439343532
 30
0.0
 10
64.11994491669572
 20
-130.7196695636742
 30
0.0
 10
64.11994491669572
 20
-130.930164897823
 30
0.0
 10
64.11994491669572
 20
-131.2081841034827
 30
0.0
 10
64.35042180465892
 20
-131.2171413517443
 30
0.0
 10
64.46686603206037
 20
-131.2216199758751
 30
0.0
 10
64.46686603206037
 20
-131.2216199758751
 30
0.0
 10
64.46686603206037
 20
-131.4613986216486
 30
0.0
 10
64.46686603206037
 20
-131.4613986216486
 30
0.0
 10
64.33974200865465
 20
-131.4524413733869
 30
0.0
 10
64.22777640538403
 20
-131.440728048737
 30
0.0
 10
64.10926512069143
 20
-131.3552896807028
 30
0.0
 10
63.94837916153027
 20
-131.2374674151073
 30
0.0
 10
63.91461722577482
 20
-131.0386854056084
 30
0.0
 10
63.91461722577482
 20
-130.9143174585909
 30
0.0
 10
63.91461722577482
 20
-130.6180392468594
 30
0.0
 10
64.09858532468716
 20
-130.3965196071578
 30
0.0
 10
64.37143688711895
 20
-130.3965196071578
 30
0.0
 10
64.60019122733954
 20
-130.3965196071578
 30
0.0
 10
64.69940997731473
 20
-130.5208875541753
 30
0.0
 10
64.92575275069565
 20
-130.8509277016623
 30
0.0
  0
HATCH
  5
E5
330
E0
100
AcDbEntity
  8
_U+30EC_U+30A4_U+30E4_U+30FC 1
 62
   179
420
  2234388
100
AcDbHatch
 10
0.0
 20
0.0
 30
0.0
210
0.0
220
0.0
230
1.0
  2
SOLID
 70
     1
 71
     0
 91
        1
 92
        1
 93
        1
 72
     4
 94
        3
 73
     0
 74
     1
 95
       44
 96
       40
 40
0.0
 40
0.0
 40
0.0
 40
0.0
 40
1.0
 40
1.0
 40
1.0
 40
2.0
 40
2.0
 40
2.0
 40
3.0
 40
3.0
 40
3.0
 40
4.0
 40
4.0
 40
4.0
 40
5.0
 40
5.0
 40
5.0
 40
6.0
 40
6.0
 40
6.0
 40
7.0
 40
7.0
 40
7.0
 40
8.0
 40
8.0
 40
8.0
 40
9.0
 40
9.0
 40
9.0
 40
10.0
 40
10.0
 40
10.0
 40
11.0
 40
11.0
 40
11.0
 40
12.0
 40
12.0
 40
12.0
 40
13.0
 40
13.0
 40
13.0
 40
13.0
 10
64.92575275069565
 20
-130.8509277016623
 10
65.08457165256567
 20
-131.0838161564652
 10
65.15864120549854
 20
-131.1833794159889
 10
65.30230168723345
 20
-131.2354003578162
 10
65.30230168723345
 20
-131.2354003578162
 10
65.30230168723345
 20
-130.4030652885798
 10
65.30230168723345
 20
-130.4030652885798
 10
65.30230168723345
 20
-130.4030652885798
 10
65.50762937815435
 20
-130.4030652885798
 10
65.50762937815435
 20
-130.4030652885798
 10
65.50762937815435
 20
-130.4030652885798
 10
65.50762937815435
 20
-131.5020507483745
 10
65.50762937815435
 20
-131.5020507483745
 10
65.15002846678541
 20
-131.4682888126191
 10
65.07182479927025
 20
-131.3980088647199
 10
64.7734795302476
 20
-130.9866644637811
 10
64.57469752074869
 20
-130.7131238822523
 10
64.50682913968927
 20
-130.6428439343532
 10
64.3693698298278
 20
-130.6428439343532
 10
64.2508585451352
 20
-130.6428439343532
 10
64.11994491669572
 20
-130.7196695636742
 10
64.11994491669572
 20
-130.930164897823
 10
64.11994491669572
 20
-131.2081841034827
 10
64.35042180465892
 20
-131.2171413517443
 10
64.46686603206037
 20
-131.2216199758751
 10
64.46686603206037
 20
-131.2216199758751
 10
64.46686603206037
 20
-131.4613986216486
 10
64.46686603206037
 20
-131.4613986216486
 10
64.33974200865465
 20
-131.4524413733869
 10
64.22777640538403
 20
-131.440728048737
 10
64.10926512069143
 20
-131.3552896807028
 10
63.94837916153027
 20
-131.2374674151073
 10
63.91461722577482
 20
-131.0386854056084
 10
63.91461722577482
 20
-130.9143174585909
 10
63.91461722577482
 20
-130.6180392468594
 10
64.09858532468716
 20
-130.3965196071578
 10
64.37143688711895
 20
-130.3965196071578
 10
64.60019122733954
 20
-130.3965196071578
 10
64.69940997731473
 20
-130.5208875541753
 10
64.92575275069565
 20
-130.8509277016623
 97
        0
 97
        0
 75
     2
 76
     1
 98
        0
  0
POLYLINE
  5
E6
330
E0
100
AcDbEntity
  8
_U+30EC_U+30A4_U+30E4_U+30FC 1
370
     0
100
AcDb2dPolyline
 66
     1
 10
0.0
 20
0.0
 30
0.0
  0
VERTEX
  5
E7
330
E6
100
AcDbEntity
  8
_U+30EC_U+30A4_U+30E4_U+30FC 1
370
     0
100
AcDbVertex
100
AcDb2dVertex
 10
65.16070826278968
 20
-129.337497254992
 30
0.0
  0
VERTEX
  5
E8
330
E6
100
AcDbEntity
  8
_U+30EC_U+30A4_U+30E4_U+30FC 1
370
     0
100
AcDbVertex
100
AcDb2dVertex
 10
65.50762937815435
 20
-129.337497254992
 30
0.0
  0
VERTEX
  5
E9
330
E6
100
AcDbEntity
  8
_U+30EC_U+30A4_U+30E4_U+30FC 1
370
     0
100
AcDbVertex
100
AcDb2dVertex
 10
65.50762937815435
 20
-129.5703857097949
 30
0.0
  0
VERTEX
  5
EA
330
E6
100
AcDbEntity
  8
_U+30EC_U+30A4_U+30E4_U+30FC 1
370
     0
100
AcDbVertex
100
AcDb2dVertex
 10
65.16070826278968
 20
-129.5703857097949
 30
0.0
  0
VERTEX
  5
EB
330
E6
100
AcDbEntity
  8
_U+30EC_U+30A4_U+30E4_U+30FC 1
370
     0
100
AcDbVertex
100
AcDb2dVertex
 10
65.16070826278968
 20
-130.2714626410433
 30
0.0
  0
VERTEX
  5
EC
330
E6
100
AcDbEntity
  8
_U+30EC_U+30A4_U+30E4_U+30FC 1
370
     0
100
AcDbVertex
100
AcDb2dVertex
 10
64.93643254669992
 20
-130.2714626410433
 30
0.0
  0
VERTEX
  5
ED
330
E6
100
AcDbEntity
  8
_U+30EC_U+30A4_U+30E4_U+30FC 1
370
     0
100
AcDbVertex
100
AcDb2dVertex
 10
63.96319307211684
 20
-129.5455810223011
 30
0.0
  0
VERTEX
  5
EE
330
E6
100
AcDbEntity
  8
_U+30EC_U+30A4_U+30E4_U+30FC 1
370
     0
100
AcDbVertex
100
AcDb2dVertex
 10
63.96319307211684
 20
-129.337497254992
 30
0.0
  0
VERTEX
  5
EF
330
E6
100
AcDbEntity
  8
_U+30EC_U+30A4_U+30E4_U+30FC 1
370
     0
100
AcDbVertex
100
AcDb2dVertex
 10
64.96192625329077
 20
-129.337497254992
 30
0.0
  0
VERTEX
  5
F0
330
E6
100
AcDbEntity
  8
_U+30EC_U+30A4_U+30E4_U+30FC 1
370
     0
100
AcDbVertex
100
AcDb2dVertex
 10
64.96192625329077
 20
-129.1159776152905
 30
0.0
  0
VERTEX
  5
F1
330
E6
100
AcDbEntity
  8
_U+30EC_U+30A4_U+30E4_U+30FC 1
370
     0
100
AcDbVertex
100
AcDb2dVertex
 10
65.16070826278968
 20
-129.1159776152905
 30
0.0
  0
VERTEX
  5
F2
330
E6
100
AcDbEntity
  8
_U+30EC_U+30A4_U+30E4_U+30FC 1
370
     0
100
AcDbVertex
100
AcDb2dVertex
 10
65.16070826278968
 20
-129.337497254992
 30
0.0
  0
SEQEND
  5
F3
330
E6
100
AcDbEntity
  8
_U+30EC_U+30A4_U+30E4_U+30FC 1
370
     0
  0
POLYLINE
  5
F4
330
E0
100
AcDbEntity
  8
_U+30EC_U+30A4_U+30E4_U+30FC 1
370
     0
100
AcDb2dPolyline
 66
     1
 10
0.0
 20
0.0
 30
0.0
  0
VERTEX
  5
F5
330
F4
100
AcDbEntity
  8
_U+30EC_U+30A4_U+30E4_U+30FC 1
370
     0
100
AcDbVertex
100
AcDb2dVertex
 10
64.3059800728992
 20
-129.5703857097949
 30
0.0
  0
VERTEX
  5
F6
330
F4
100
AcDbEntity
  8
_U+30EC_U+30A4_U+30E4_U+30FC 1
370
     0
100
AcDbVertex
100
AcDb2dVertex
 10
64.96192625329077
 20
-130.0589002496033
 30
0.0
  0
VERTEX
  5
F7
330
F4
100
AcDbEntity
  8
_U+30EC_U+30A4_U+30E4_U+30FC 1
370
     0
100
AcDbVertex
100
AcDb2dVertex
 10
64.96192625329077
 20
-129.5703857097949
 30
0.0
  0
VERTEX
  5
F8
330
F4
100
AcDbEntity
  8
_U+30EC_U+30A4_U+30E4_U+30FC 1
370
     0
100
AcDbVertex
100
AcDb2dVertex
 10
64.3059800728992
 20
-129.5703857097949
 30
0.0
  0
SEQEND
  5
F9
330
F4
100
AcDbEntity
  8
_U+30EC_U+30A4_U+30E4_U+30FC 1
370
     0
  0
HATCH
  5
FA
330
E0
100
AcDbEntity
  8
_U+30EC_U+30A4_U+30E4_U+30FC 1
 62
   179
420
  2234388
100
AcDbHatch
 10
0.0
 20
0.0
 30
0.0
210
0.0
220
0.0
230
1.0
  2
SOLID
 70
     1
 71
     0
 91
        2
 92
        1
 93
       11
 72
     1
 10
65.16070826278968
 20
-129.337497254992
 11
65.50762937815435
 21
-129.337497254992
 72
     1
 10
65.50762937815435
 20
-129.337497254992
 11
65.50762937815435
 21
-129.5703857097949
 72
     1
 10
65.50762937815435
 20
-129.5703857097949
 11
65.16070826278968
 21
-129.5703857097949
 72
     1
 10
65.16070826278968
 20
-129.5703857097949
 11
65.16070826278968
 21
-130.2714626410433
 72
     1
 10
65.16070826278968
 20
-130.2714626410433
 11
64.93643254669992
 21
-130.2714626410433
 72
     1
 10
64.93643254669992
 20
-130.2714626410433
 11
63.96319307211684
 21
-129.5455810223011
 72
     1
 10
63.96319307211684
 20
-129.5455810223011
 11
63.96319307211684
 21
-129.337497254992
 72
     1
 10
63.96319307211684
 20
-129.337497254992
 11
64.96192625329077
 21
-129.337497254992
 72
     1
 10
64.96192625329077
 20
-129.337497254992
 11
64.96192625329077
 21
-129.1159776152905
 72
     1
 10
64.96192625329077
 20
-129.1159776152905
 11
65.16070826278968
 21
-129.1159776152905
 72
     1
 10
65.16070826278968
 20
-129.1159776152905
 11
65.16070826278968
 21
-129.337497254992
 97
        0
 92
        1
 93
        3
 72
     1
 10
64.3059800728992
 20
-129.5703857097949
 11
64.96192625329077
 21
-130.0589002496033
 72
     1
 10
64.96192625329077
 20
-130.0589002496033
 11
64.96192625329077
 21
-129.5703857097949
 72
     1
 10
64.96192625329077
 20
-129.5703857097949
 11
64.3059800728992
 21
-129.5703857097949
 97
        0
 75
     2
 76
     1
 98
        0
  0
ENDBLK
  5
E3
330
E0
100
AcDbEntity
  8
0
100
AcDbBlockEnd
  0
ENDSEC
  0
SECTION
  2
ENTITIES
  0
SPLINE
  5
41
330
1F
100
AcDbEntity
  8
_U+30EC_U+30A4_U+30E4_U+30FC 1
 62
   179
420
  2234388
370
     9
100
AcDbSpline
210
0.0
220
0.0
230
1.0
 70
    11
 71
     3
 72
    17
 73
    13
 74
     0
 42
0.0000000001
 43
0.0000000001
 12
1.0
 22
0.0
 32
0.0
 13
1.0
 23
0.0
 33
0.0
 40
0.0
 40
0.0
 40
0.0
 40
0.0
 40
1.0
 40
1.0
 40
1.0
 40
2.0
 40
2.0
 40
2.0
 40
3.0
 40
3.0
 40
3.0
 40
4.0
 40
4.0
 40
4.0
 40
4.0
 10
70.99705513315867
 20
-111.904286083135
 30
0.0
 10
71.05286457617929
 20
-111.904286083135
 30
0.0
 10
71.09763207503718
 20
-111.9490535831239
 30
0.0
 10
71.09763207503718
 20
-112.0041927497766
 30
0.0
 10
71.09763207503718
 20
-112.0592966386519
 30
0.0
 10
71.05286457617929
 20
-112.1040994164186
 30
0.0
 10
70.99705513315867
 20
-112.1040994164186
 30
0.0
 10
70.94191596789872
 20
-112.1040994164186
 30
0.0
 10
70.89714846904083
 20
-112.0592966386519
 30
0.0
 10
70.89714846904083
 20
-112.0041927497766
 30
0.0
 10
70.89714846904083
 20
-111.9490535831239
 30
0.0
 10
70.94191596789872
 20
-111.904286083135
 30
0.0
 10
70.99705513315867
 20
-111.904286083135
 30
0.0
  0
SPLINE
  5
42
330
1F
100
AcDbEntity
  8
_U+30EC_U+30A4_U+30E4_U+30FC 1
 62
   179
420
  2234388
370
     9
100
AcDbSpline
210
0.0
220
0.0
230
1.0
 70
    11
 71
     3
 72
    17
 73
    13
 74
     0
 42
0.0000000001
 43
0.0000000001
 12
1.0
 22
0.0
 32
0.0
 13
1.0
 23
0.0
 33
0.0
 40
0.0
 40
0.0
 40
0.0
 40
0.0
 40
1.0
 40
1.0
 40
1.0
 40
2.0
 40
2.0
 40
2.0
 40
3.0
 40
3.0
 40
3.0
 40
4.0
 40
4.0
 40
4.0
 40
4.0
 10
73.99566616776883
 20
-111.904286083135
 30
0.0
 10
74.05147561078947
 20
-111.904286083135
 30
0.0
 10
74.09624310964735
 20
-111.9487360831239
 30
0.0
 10
74.09624310964735
 20
-112.0041927497766
 30
0.0
 10
74.09624310964735
 20
-112.0592966386519
 30
0.0
 10
74.05147561078947
 20
-112.1040994164186
 30
0.0
 10
73.99566616776883
 20
-112.1040994164186
 30
0.0
 10
73.94052700250889
 20
-112.1040994164186
 30
0.0
 10
73.895759503651
 20
-112.0592966386519
 30
0.0
 10
73.895759503651
 20
-112.0041927497766
 30
0.0
 10
73.895759503651
 20
-111.9487360831239
 30
0.0
 10
73.94052700250889
 20
-111.904286083135
 30
0.0
 10
73.99566616776883
 20
-111.904286083135
 30
0.0
  0
SPLINE
  5
43
330
1F
100
AcDbEntity
  8
_U+30EC_U+30A4_U+30E4_U+30FC 1
 62
   179
420
  2234388
370
     9
100
AcDbSpline
210
0.0
220
0.0
230
1.0
 70
    11
 71
     3
 72
    17
 73
    13
 74
     0
 42
0.0000000001
 43
0.0000000001
 12
1.0
 22
0.0
 32
0.0
 13
1.0
 23
0.0
 33
0.0
 40
0.0
 40
0.0
 40
0.0
 40
0.0
 40
1.0
 40
1.0
 40
1.0
 40
2.0
 40
2.0
 40
2.0
 40
3.0
 40
3.0
 40
3.0
 40
4.0
 40
4.0
 40
4.0
 40
4.0
 10
114.9242373458162
 20
-139.2187052429734
 30
0.0
 10
114.9793765110762
 20
-139.2187052429734
 30
0.0
 10
115.024144009934
 20
-139.2635080207394
 30
0.0
 10
115.024144009934
 20
-139.318611909615
 30
0.0
 10
115.024144009934
 20
-139.3741038540452
 30
0.0
 10
114.9793765110762
 20
-139.4185185762566
 30
0.0
 10
114.9242373458162
 20
-139.4185185762566
 30
0.0
 10
114.8691334583332
 20
-139.4185185762566
 30
0.0
 10
114.8243306816984
 20
-139.3741038540452
 30
0.0
 10
114.8243306816984
 20
-139.318611909615
 30
0.0
 10
114.8243306816984
 20
-139.2635080207394
 30
0.0
 10
114.8691334583332
 20
-139.2187052429734
 30
0.0
 10
114.9242373458162
 20
-139.2187052429734
 30
0.0
  0
SPLINE
  5
44
330
1F
100
AcDbEntity
  8
_U+30EC_U+30A4_U+30E4_U+30FC 1
 62
   179
420
  2234388
370
     9
100
AcDbSpline
210
0.0
220
0.0
230
1.0
 70
    11
 71
     3
 72
    17
 73
    13
 74
     0
 42
0.0000000001
 43
0.0000000001
 12
1.0
 22
0.0
 32
0.0
 13
1.0
 23
0.0
 33
0.0
 40
0.0
 40
0.0
 40
0.0
 40
0.0
 40
1.0
 40
1.0
 40
1.0
 40
2.0
 40
2.0
 40
2.0
 40
3.0
 40
3.0
 40
3.0
 40
4.0
 40
4.0
 40
4.0
 40
4.0
 10
114.9242373458162
 20
-142.2186921866677
 30
0.0
 10
114.9793765110762
 20
-142.2186921866677
 30
0.0
 10
115.024144009934
 20
-142.2634949644344
 30
0.0
 10
115.024144009934
 20
-142.3186341310869
 30
0.0
 10
115.024144009934
 20
-142.3740907977395
 30
0.0
 10
114.9793765110762
 20
-142.4188582977287
 30
0.0
 10
114.9242373458162
 20
-142.4188582977287
 30
0.0
 10
114.8691334583332
 20
-142.4188582977287
 30
0.0
 10
114.8243306816984
 20
-142.3740907977395
 30
0.0
 10
114.8243306816984
 20
-142.3186341310869
 30
0.0
 10
114.8243306816984
 20
-142.2634949644344
 30
0.0
 10
114.8691334583332
 20
-142.2186921866677
 30
0.0
 10
114.9242373458162
 20
-142.2186921866677
 30
0.0
  0
SPLINE
  5
45
330
1F
100
AcDbEntity
  8
_U+30EC_U+30A4_U+30E4_U+30FC 1
 62
   179
420
  2234388
370
     9
100
AcDbSpline
210
0.0
220
0.0
230
1.0
 70
    11
 71
     3
 72
    17
 73
    13
 74
     0
 42
0.0000000001
 43
0.0000000001
 12
1.0
 22
0.0
 32
0.0
 13
1.0
 23
0.0
 33
0.0
 40
0.0
 40
0.0
 40
0.0
 40
0.0
 40
1.0
 40
1.0
 40
1.0
 40
2.0
 40
2.0
 40
2.0
 40
3.0
 40
3.0
 40
3.0
 40
4.0
 40
4.0
 40
4.0
 40
4.0
 10
114.9242373458162
 20
-126.2189852462231
 30
0.0
 10
114.9793765110762
 20
-126.2189852462231
 30
0.0
 10
115.024144009934
 20
-126.2637880239895
 30
0.0
 10
115.024144009934
 20
-126.3188919128648
 30
0.0
 10
115.024144009934
 20
-126.3740310795175
 30
0.0
 10
114.9793765110762
 20
-126.4187985795064
 30
0.0
 10
114.9242373458162
 20
-126.4187985795064
 30
0.0
 10
114.8691334583332
 20
-126.4187985795064
 30
0.0
 10
114.8243306816984
 20
-126.3740310795175
 30
0.0
 10
114.8243306816984
 20
-126.3188919128648
 30
0.0
 10
114.8243306816984
 20
-126.2637880239895
 30
0.0
 10
114.8691334583332
 20
-126.2189852462231
 30
0.0
 10
114.9242373458162
 20
-126.2189852462231
 30
0.0
  0
SPLINE
  5
46
330
1F
100
AcDbEntity
  8
_U+30EC_U+30A4_U+30E4_U+30FC 1
 62
   179
420
  2234388
370
     9
100
AcDbSpline
210
0.0
220
0.0
230
1.0
 70
    11
 71
     3
 72
    17
 73
    13
 74
     0
 42
0.0000000001
 43
0.0000000001
 12
1.0
 22
0.0
 32
0.0
 13
1.0
 23
0.0
 33
0.0
 40
0.0
 40
0.0
 40
0.0
 40
0.0
 40
1.0
 40
1.0
 40
1.0
 40
2.0
 40
2.0
 40
2.0
 40
3.0
 40
3.0
 40
3.0
 40
4.0
 40
4.0
 40
4.0
 40
4.0
 10
114.9242373458162
 20
-125.2185427464732
 30
0.0
 10
114.9793765110762
 20
-125.2185427464732
 30
0.0
 10
115.024144009934
 20
-125.2633102464621
 30
0.0
 10
115.024144009934
 20
-125.3191549686701
 30
0.0
 10
115.024144009934
 20
-125.3742588575453
 30
0.0
 10
114.9793765110762
 20
-125.419061635312
 30
0.0
 10
114.9242373458162
 20
-125.419061635312
 30
0.0
 10
114.8691334583332
 20
-125.419061635312
 30
0.0
 10
114.8243306816984
 20
-125.3742588575453
 30
0.0
 10
114.8243306816984
 20
-125.3191549686701
 30
0.0
 10
114.8243306816984
 20
-125.2633102464621
 30
0.0
 10
114.8691334583332
 20
-125.2185427464732
 30
0.0
 10
114.9242373458162
 20
-125.2185427464732
 30
0.0
  0
SPLINE
  5
47
330
1F
100
AcDbEntity
  8
_U+30EC_U+30A4_U+30E4_U+30FC 1
 62
   179
420
  2234388
370
     9
100
AcDbSpline
210
0.0
220
0.0
230
1.0
 70
    11
 71
     3
 72
    17
 73
    13
 74
     0
 42
0.0000000001
 43
0.0000000001
 12
1.0
 22
0.0
 32
0.0
 13
1.0
 23
0.0
 33
0.0
 40
0.0
 40
0.0
 40
0.0
 40
0.0
 40
1.0
 40
1.0
 40
1.0
 40
2.0
 40
2.0
 40
2.0
 40
3.0
 40
3.0
 40
3.0
 40
4.0
 40
4.0
 40
4.0
 40
4.0
 10
110.9238080034312
 20
-114.2190374714451
 30
0.0
 10
110.9796174464519
 20
-114.2190374714451
 30
0.0
 10
111.0243849453097
 20
-114.2638402492118
 30
0.0
 10
111.0243849453097
 20
-114.3189441380871
 30
0.0
 10
111.0243849453097
 20
-114.3740833047398
 30
0.0
 10
110.9796174464519
 20
-114.4188508047287
 30
0.0
 10
110.9238080034312
 20
-114.4188508047287
 30
0.0
 10
110.8686688381713
 20
-114.4188508047287
 30
0.0
 10
110.8239013393134
 20
-114.3740833047398
 30
0.0
 10
110.8239013393134
 20
-114.3189441380871
 30
0.0
 10
110.8239013393134
 20
-114.2638402492118
 30
0.0
 10
110.8686688381713
 20
-114.2190374714451
 30
0.0
 10
110.9238080034312
 20
-114.2190374714451
 30
0.0
  0
SPLINE
  5
48
330
1F
100
AcDbEntity
  8
_U+30EC_U+30A4_U+30E4_U+30FC 1
 62
   179
420
  2234388
370
     9
100
AcDbSpline
210
0.0
220
0.0
230
1.0
 70
    11
 71
     3
 72
    17
 73
    13
 74
     0
 42
0.0000000001
 43
0.0000000001
 12
1.0
 22
0.0
 32
0.0
 13
1.0
 23
0.0
 33
0.0
 40
0.0
 40
0.0
 40
0.0
 40
0.0
 40
1.0
 40
1.0
 40
1.0
 40
2.0
 40
2.0
 40
2.0
 40
3.0
 40
3.0
 40
3.0
 40
4.0
 40
4.0
 40
4.0
 40
4.0
 10
70.92230152395469
 20
-114.2190374714451
 30
0.0
 10
70.97740541143776
 20
-114.2190374714451
 30
0.0
 10
71.02220818807251
 20
-114.2638402492118
 30
0.0
 10
71.02220818807251
 20
-114.3189441380871
 30
0.0
 10
71.02220818807251
 20
-114.3740833047398
 30
0.0
 10
70.97740541143776
 20
-114.4188508047287
 30
0.0
 10
70.92230152395469
 20
-114.4188508047287
 30
0.0
 10
70.86716235869473
 20
-114.4188508047287
 30
0.0
 10
70.82235958205997
 20
-114.3740833047398
 30
0.0
 10
70.82235958205997
 20
-114.3189441380871
 30
0.0
 10
70.82235958205997
 20
-114.2638402492118
 30
0.0
 10
70.86716235869473
 20
-114.2190374714451
 30
0.0
 10
70.92230152395469
 20
-114.2190374714451
 30
0.0
  0
SPLINE
  5
49
330
1F
100
AcDbEntity
  8
_U+30EC_U+30A4_U+30E4_U+30FC 1
 62
   179
420
  2234388
370
     9
100
AcDbSpline
210
0.0
220
0.0
230
1.0
 70
    11
 71
     3
 72
    17
 73
    13
 74
     0
 42
0.0000000001
 43
0.0000000001
 12
1.0
 22
0.0
 32
0.0
 13
1.0
 23
0.0
 33
0.0
 40
0.0
 40
0.0
 40
0.0
 40
0.0
 40
1.0
 40
1.0
 40
1.0
 40
2.0
 40
2.0
 40
2.0
 40
3.0
 40
3.0
 40
3.0
 40
4.0
 40
4.0
 40
4.0
 40
4.0
 10
66.92254245933037
 20
-118.218796637112
 30
0.0
 10
66.97764634681344
 20
-118.218796637112
 30
0.0
 10
67.0224491234482
 20
-118.2635994148784
 30
0.0
 10
67.0224491234482
 20
-118.3187033037536
 30
0.0
 10
67.0224491234482
 20
-118.3738424704064
 30
0.0
 10
66.97764634681344
 20
-118.4186099703953
 30
0.0
 10
66.92254245933037
 20
-118.4186099703953
 30
0.0
 10
66.86740329407041
 20
-118.4186099703953
 30
0.0
 10
66.82263579521253
 20
-118.3738424704064
 30
0.0
 10
66.82263579521253
 20
-118.3187033037536
 30
0.0
 10
66.82263579521253
 20
-118.2635994148784
 30
0.0
 10
66.86740329407041
 20
-118.218796637112
 30
0.0
 10
66.92254245933037
 20
-118.218796637112
 30
0.0
  0
SPLINE
  5
4A
330
1F
100
AcDbEntity
  8
_U+30EC_U+30A4_U+30E4_U+30FC 1
 62
   179
420
  2234388
370
     9
100
AcDbSpline
210
0.0
220
0.0
230
1.0
 70
    11
 71
     3
 72
    17
 73
    13
 74
     0
 42
0.0000000001
 43
0.0000000001
 12
1.0
 22
0.0
 32
0.0
 13
1.0
 23
0.0
 33
0.0
 40
0.0
 40
0.0
 40
0.0
 40
0.0
 40
1.0
 40
1.0
 40
1.0
 40
2.0
 40
2.0
 40
2.0
 40
3.0
 40
3.0
 40
3.0
 40
4.0
 40
4.0
 40
4.0
 40
4.0
 10
66.92254245933037
 20
-142.2186921866677
 30
0.0
 10
66.97764634681344
 20
-142.2186921866677
 30
0.0
 10
67.0224491234482
 20
-142.2634949644344
 30
0.0
 10
67.0224491234482
 20
-142.3186341310869
 30
0.0
 10
67.0224491234482
 20
-142.3740907977395
 30
0.0
 10
66.97764634681344
 20
-142.4188582977287
 30
0.0
 10
66.92254245933037
 20
-142.4188582977287
 30
0.0
 10
66.86740329407041
 20
-142.4188582977287
 30
0.0
 10
66.82263579521253
 20
-142.3740907977395
 30
0.0
 10
66.82263579521253
 20
-142.3186341310869
 30
0.0
 10
66.82263579521253
 20
-142.2634949644344
 30
0.0
 10
66.86740329407041
 20
-142.2186921866677
 30
0.0
 10
66.92254245933037
 20
-142.2186921866677
 30
0.0
  0
SPLINE
  5
4B
330
1F
100
AcDbEntity
  8
_U+30EC_U+30A4_U+30E4_U+30FC 1
 62
   179
420
  2234388
370
     9
100
AcDbSpline
210
0.0
220
0.0
230
1.0
 70
    11
 71
     3
 72
    17
 73
    13
 74
     0
 42
0.0000000001
 43
0.0000000001
 12
1.0
 22
0.0
 32
0.0
 13
1.0
 23
0.0
 33
0.0
 40
0.0
 40
0.0
 40
0.0
 40
0.0
 40
1.0
 40
1.0
 40
1.0
 40
2.0
 40
2.0
 40
2.0
 40
3.0
 40
3.0
 40
3.0
 40
4.0
 40
4.0
 40
4.0
 40
4.0
 10
70.92230152395469
 20
-146.2188041301117
 30
0.0
 10
70.97740541143776
 20
-146.2188041301117
 30
0.0
 10
71.02220818807251
 20
-146.2636069078784
 30
0.0
 10
71.02220818807251
 20
-146.3187107967534
 30
0.0
 10
71.02220818807251
 20
-146.3741674634067
 30
0.0
 10
70.97740541143776
 20
-146.4189702411728
 30
0.0
 10
70.92230152395469
 20
-146.4189702411728
 30
0.0
 10
70.86716235869473
 20
-146.4189702411728
 30
0.0
 10
70.82235958205997
 20
-146.3741674634067
 30
0.0
 10
70.82235958205997
 20
-146.3187107967534
 30
0.0
 10
70.82235958205997
 20
-146.2636069078784
 30
0.0
 10
70.86716235869473
 20
-146.2188041301117
 30
0.0
 10
70.92230152395469
 20
-146.2188041301117
 30
0.0
  0
SPLINE
  5
4C
330
1F
100
AcDbEntity
  8
_U+30EC_U+30A4_U+30E4_U+30FC 1
 62
   179
420
  2234388
370
     9
100
AcDbSpline
210
0.0
220
0.0
230
1.0
 70
    11
 71
     3
 72
    17
 73
    13
 74
     0
 42
0.0000000001
 43
0.0000000001
 12
1.0
 22
0.0
 32
0.0
 13
1.0
 23
0.0
 33
0.0
 40
0.0
 40
0.0
 40
0.0
 40
0.0
 40
1.0
 40
1.0
 40
1.0
 40
2.0
 40
2.0
 40
2.0
 40
3.0
 40
3.0
 40
3.0
 40
4.0
 40
4.0
 40
4.0
 40
4.0
 10
80.92270460215647
 20
-146.2188041301117
 30
0.0
 10
80.97784376741643
 20
-146.2188041301117
 30
0.0
 10
81.02261126627431
 20
-146.2636069078784
 30
0.0
 10
81.02261126627431
 20
-146.3187107967534
 30
0.0
 10
81.02261126627431
 20
-146.3741674634067
 30
0.0
 10
80.97784376741643
 20
-146.4189702411728
 30
0.0
 10
80.92270460215647
 20
-146.4189702411728
 30
0.0
 10
80.8668972020056
 20
-146.4189702411728
 30
0.0
 10
80.8227999797944
 20
-146.3741674634067
 30
0.0
 10
80.8227999797944
 20
-146.3187107967534
 30
0.0
 10
80.8227999797944
 20
-146.2636069078784
 30
0.0
 10
80.8668972020056
 20
-146.2188041301117
 30
0.0
 10
80.92270460215647
 20
-146.2188041301117
 30
0.0
  0
POLYLINE
  5
4D
330
1F
100
AcDbEntity
  8
_U+30EC_U+30A4_U+30E4_U+30FC 1
 62
   179
420
  2234388
370
     9
100
AcDb2dPolyline
 66
     1
 10
0.0
 20
0.0
 30
0.0
  0
VERTEX
  5
4E
330
4D
100
AcDbEntity
  8
_U+30EC_U+30A4_U+30E4_U+30FC 1
 62
   179
420
  2234388
370
     9
100
AcDbVertex
100
AcDb2dVertex
 10
114.9242373458162
 20
-125.3191549686701
 30
0.0
  0
VERTEX
  5
4F
330
4D
100
AcDbEntity
  8
_U+30EC_U+30A4_U+30E4_U+30FC 1
 62
   179
420
  2234388
370
     9
100
AcDbVertex
100
AcDb2dVertex
 10
114.9242373458162
 20
-121.5488424696126
 30
0.0
  0
SEQEND
  5
50
330
4D
100
AcDbEntity
  8
_U+30EC_U+30A4_U+30E4_U+30FC 1
 62
   179
420
  2234388
370
     9
  0
POLYLINE
  5
51
330
1F
100
AcDbEntity
  8
_U+30EC_U+30A4_U+30E4_U+30FC 1
 62
   179
420
  2234388
370
     9
100
AcDb2dPolyline
 66
     1
 10
0.0
 20
0.0
 30
0.0
  0
VERTEX
  5
52
330
51
100
AcDbEntity
  8
_U+30EC_U+30A4_U+30E4_U+30FC 1
 62
   179
420
  2234388
370
     9
100
AcDbVertex
100
AcDb2dVertex
 10
114.9242373458162
 20
-125.3191549686701
 30
0.0
  0
VERTEX
  5
53
330
51
100
AcDbEntity
  8
_U+30EC_U+30A4_U+30E4_U+30FC 1
 62
   179
420
  2234388
370
     9
100
AcDbVertex
100
AcDb2dVertex
 10
114.9242373458162
 20
-126.3188919128648
 30
0.0
  0
SEQEND
  5
54
330
51
100
AcDbEntity
  8
_U+30EC_U+30A4_U+30E4_U+30FC 1
 62
   179
420
  2234388
370
     9
  0
POLYLINE
  5
55
330
1F
100
AcDbEntity
  8
_U+30EC_U+30A4_U+30E4_U+30FC 1
 62
   179
420
  2234388
370
     9
100
AcDb2dPolyline
 66
     1
 10
0.0
 20
0.0
 30
0.0
  0
VERTEX
  5
56
330
55
100
AcDbEntity
  8
_U+30EC_U+30A4_U+30E4_U+30FC 1
 62
   179
420
  2234388
370
     9
100
AcDbVertex
100
AcDb2dVertex
 10
113.464231271953
 20
-125.3191549686701
 30
0.0
  0
VERTEX
  5
57
330
55
100
AcDbEntity
  8
_U+30EC_U+30A4_U+30E4_U+30FC 1
 62
   179
420
  2234388
370
     9
100
AcDbVertex
100
AcDb2dVertex
 10
115.9240095425321
 20
-125.3191549686701
 30
0.0
  0
SEQEND
  5
58
330
55
100
AcDbEntity
  8
_U+30EC_U+30A4_U+30E4_U+30FC 1
 62
   179
420
  2234388
370
     9
  0
POLYLINE
  5
59
330
1F
100
AcDbEntity
  8
_U+30EC_U+30A4_U+30E4_U+30FC 1
 62
   179
420
  2234388
370
     9
100
AcDb2dPolyline
 66
     1
 10
0.0
 20
0.0
 30
0.0
  0
VERTEX
  5
5A
330
59
100
AcDbEntity
  8
_U+30EC_U+30A4_U+30E4_U+30FC 1
 62
   179
420
  2234388
370
     9
100
AcDbVertex
100
AcDb2dVertex
 10
113.464231271953
 20
-126.3188919128648
 30
0.0
  0
VERTEX
  5
5B
330
59
100
AcDbEntity
  8
_U+30EC_U+30A4_U+30E4_U+30FC 1
 62
   179
420
  2234388
370
     9
100
AcDbVertex
100
AcDb2dVertex
 10
115.9240095425321
 20
-126.3188919128648
 30
0.0
  0
SEQEND
  5
5C
330
59
100
AcDbEntity
  8
_U+30EC_U+30A4_U+30E4_U+30FC 1
 62
   179
420
  2234388
370
     9
  0
POLYLINE
  5
5D
330
1F
100
AcDbEntity
  8
_U+30EC_U+30A4_U+30E4_U+30FC 1
 62
   179
420
  2234388
370
     9
100
AcDb2dPolyline
 66
     1
 10
0.0
 20
0.0
 30
0.0
  0
VERTEX
  5
5E
330
5D
100
AcDbEntity
  8
_U+30EC_U+30A4_U+30E4_U+30FC 1
 62
   179
420
  2234388
370
     9
100
AcDbVertex
100
AcDb2dVertex
 10
114.9242373458162
 20
-142.3186341310869
 30
0.0
  0
VERTEX
  5
5F
330
5D
100
AcDbEntity
  8
_U+30EC_U+30A4_U+30E4_U+30FC 1
 62
   179
420
  2234388
370
     9
100
AcDbVertex
100
AcDb2dVertex
 10
114.9242373458162
 20
-139.318611909615
 30
0.0
  0
SEQEND
  5
60
330
5D
100
AcDbEntity
  8
_U+30EC_U+30A4_U+30E4_U+30FC 1
 62
   179
420
  2234388
370
     9
  0
POLYLINE
  5
61
330
1F
100
AcDbEntity
  8
_U+30EC_U+30A4_U+30E4_U+30FC 1
 62
   179
420
  2234388
370
     9
100
AcDb2dPolyline
 66
     1
 10
0.0
 20
0.0
 30
0.0
  0
VERTEX
  5
62
330
61
100
AcDbEntity
  8
_U+30EC_U+30A4_U+30E4_U+30FC 1
 62
   179
420
  2234388
370
     9
100
AcDbVertex
100
AcDb2dVertex
 10
83.46242231514066
 20
-142.3186341310869
 30
0.0
  0
VERTEX
  5
63
330
61
100
AcDbEntity
  8
_U+30EC_U+30A4_U+30E4_U+30FC 1
 62
   179
420
  2234388
370
     9
100
AcDbVertex
100
AcDb2dVertex
 10
115.9240095425321
 20
-142.3186341310869
 30
0.0
  0
SEQEND
  5
64
330
61
100
AcDbEntity
  8
_U+30EC_U+30A4_U+30E4_U+30FC 1
 62
   179
420
  2234388
370
     9
  0
POLYLINE
  5
65
330
1F
100
AcDbEntity
  8
_U+30EC_U+30A4_U+30E4_U+30FC 1
 62
   179
420
  2234388
370
     9
100
AcDb2dPolyline
 66
     1
 10
0.0
 20
0.0
 30
0.0
  0
VERTEX
  5
66
330
65
100
AcDbEntity
  8
_U+30EC_U+30A4_U+30E4_U+30FC 1
 62
   179
420
  2234388
370
     9
100
AcDbVertex
100
AcDb2dVertex
 10
80.92270460215647
 20
-146.3187107967534
 30
0.0
  0
VERTEX
  5
67
330
65
100
AcDbEntity
  8
_U+30EC_U+30A4_U+30E4_U+30FC 1
 62
   179
420
  2234388
370
     9
100
AcDbVertex
100
AcDb2dVertex
 10
70.92230152395469
 20
-146.3187107967534
 30
0.0
  0
SEQEND
  5
68
330
65
100
AcDbEntity
  8
_U+30EC_U+30A4_U+30E4_U+30FC 1
 62
   179
420
  2234388
370
     9
  0
POLYLINE
  5
69
330
1F
100
AcDbEntity
  8
_U+30EC_U+30A4_U+30E4_U+30FC 1
 62
   179
420
  2234388
370
     9
100
AcDb2dPolyline
 66
     1
 10
0.0
 20
0.0
 30
0.0
  0
VERTEX
  5
6A
330
69
100
AcDbEntity
  8
_U+30EC_U+30A4_U+30E4_U+30FC 1
 62
   179
420
  2234388
370
     9
100
AcDbVertex
100
AcDb2dVertex
 10
80.92270460215647
 20
-144.8590221860074
 30
0.0
  0
VERTEX
  5
6B
330
69
100
AcDbEntity
  8
_U+30EC_U+30A4_U+30E4_U+30FC 1
 62
   179
420
  2234388
370
     9
100
AcDbVertex
100
AcDb2dVertex
 10
80.92270460215647
 20
-147.3188357965037
 30
0.0
  0
SEQEND
  5
6C
330
69
100
AcDbEntity
  8
_U+30EC_U+30A4_U+30E4_U+30FC 1
 62
   179
420
  2234388
370
     9
  0
POLYLINE
  5
6D
330
1F
100
AcDbEntity
  8
_U+30EC_U+30A4_U+30E4_U+30FC 1
 62
   179
420
  2234388
370
     9
100
AcDb2dPolyline
 66
     1
 10
0.0
 20
0.0
 30
0.0
  0
VERTEX
  5
6E
330
6D
100
AcDbEntity
  8
_U+30EC_U+30A4_U+30E4_U+30FC 1
 62
   179
420
  2234388
370
     9
100
AcDbVertex
100
AcDb2dVertex
 10
70.92230152395469
 20
-144.8590221860074
 30
0.0
  0
VERTEX
  5
6F
330
6D
100
AcDbEntity
  8
_U+30EC_U+30A4_U+30E4_U+30FC 1
 62
   179
420
  2234388
370
     9
100
AcDbVertex
100
AcDb2dVertex
 10
70.92230152395469
 20
-147.3188357965037
 30
0.0
  0
SEQEND
  5
70
330
6D
100
AcDbEntity
  8
_U+30EC_U+30A4_U+30E4_U+30FC 1
 62
   179
420
  2234388
370
     9
  0
POLYLINE
  5
71
330
1F
100
AcDbEntity
  8
_U+30EC_U+30A4_U+30E4_U+30FC 1
 62
   179
420
  2234388
370
     9
100
AcDb2dPolyline
 66
     1
 10
0.0
 20
0.0
 30
0.0
  0
VERTEX
  5
72
330
71
100
AcDbEntity
  8
_U+30EC_U+30A4_U+30E4_U+30FC 1
 62
   179
420
  2234388
370
     9
100
AcDbVertex
100
AcDb2dVertex
 10
70.92230152395469
 20
-114.3189441380871
 30
0.0
  0
VERTEX
  5
73
330
71
100
AcDbEntity
  8
_U+30EC_U+30A4_U+30E4_U+30FC 1
 62
   179
420
  2234388
370
     9
100
AcDbVertex
100
AcDb2dVertex
 10
110.9238080034312
 20
-114.3189441380871
 30
0.0
  0
SEQEND
  5
74
330
71
100
AcDbEntity
  8
_U+30EC_U+30A4_U+30E4_U+30FC 1
 62
   179
420
  2234388
370
     9
  0
POLYLINE
  5
75
330
1F
100
AcDbEntity
  8
_U+30EC_U+30A4_U+30E4_U+30FC 1
 62
   179
420
  2234388
370
     9
100
AcDb2dPolyline
 66
     1
 10
0.0
 20
0.0
 30
0.0
  0
VERTEX
  5
76
330
75
100
AcDbEntity
  8
_U+30EC_U+30A4_U+30E4_U+30FC 1
 62
   179
420
  2234388
370
     9
100
AcDbVertex
100
AcDb2dVertex
 10
70.92230152395469
 20
-115.7789855266108
 30
0.0
  0
VERTEX
  5
77
330
75
100
AcDbEntity
  8
_U+30EC_U+30A4_U+30E4_U+30FC 1
 62
   179
420
  2234388
370
     9
100
AcDbVertex
100
AcDb2dVertex
 10
70.92230152395469
 20
-113.3185016383372
 30
0.0
  0
SEQEND
  5
78
330
75
100
AcDbEntity
  8
_U+30EC_U+30A4_U+30E4_U+30FC 1
 62
   179
420
  2234388
370
     9
  0
POLYLINE
  5
79
330
1F
100
AcDbEntity
  8
_U+30EC_U+30A4_U+30E4_U+30FC 1
 62
   179
420
  2234388
370
     9
100
AcDb2dPolyline
 66
     1
 10
0.0
 20
0.0
 30
0.0
  0
VERTEX
  5
7A
330
79
100
AcDbEntity
  8
_U+30EC_U+30A4_U+30E4_U+30FC 1
 62
   179
420
  2234388
370
     9
100
AcDbVertex
100
AcDb2dVertex
 10
110.9238080034312
 20
-122.778731635972
 30
0.0
  0
VERTEX
  5
7B
330
79
100
AcDbEntity
  8
_U+30EC_U+30A4_U+30E4_U+30FC 1
 62
   179
420
  2234388
370
     9
100
AcDbVertex
100
AcDb2dVertex
 10
110.9238080034312
 20
-113.3185016383372
 30
0.0
  0
SEQEND
  5
7C
330
79
100
AcDbEntity
  8
_U+30EC_U+30A4_U+30E4_U+30FC 1
 62
   179
420
  2234388
370
     9
  0
POLYLINE
  5
7D
330
1F
100
AcDbEntity
  8
_U+30EC_U+30A4_U+30E4_U+30FC 1
 62
   179
420
  2234388
370
     9
100
AcDb2dPolyline
 66
     1
 10
0.0
 20
0.0
 30
0.0
  0
VERTEX
  5
7E
330
7D
100
AcDbEntity
  8
_U+30EC_U+30A4_U+30E4_U+30FC 1
 62
   179
420
  2234388
370
     9
100
AcDbVertex
100
AcDb2dVertex
 10
114.9242373458162
 20
-139.318611909615
 30
0.0
  0
VERTEX
  5
7F
330
7D
100
AcDbEntity
  8
_U+30EC_U+30A4_U+30E4_U+30FC 1
 62
   179
420
  2234388
370
     9
100
AcDbVertex
100
AcDb2dVertex
 10
114.9242373458162
 20
-126.3188919128648
 30
0.0
  0
SEQEND
  5
80
330
7D
100
AcDbEntity
  8
_U+30EC_U+30A4_U+30E4_U+30FC 1
 62
   179
420
  2234388
370
     9
  0
POLYLINE
  5
81
330
1F
100
AcDbEntity
  8
_U+30EC_U+30A4_U+30E4_U+30FC 1
 62
   179
420
  2234388
370
     9
100
AcDb2dPolyline
 66
     1
 10
0.0
 20
0.0
 30
0.0
  0
VERTEX
  5
82
330
81
100
AcDbEntity
  8
_U+30EC_U+30A4_U+30E4_U+30FC 1
 62
   179
420
  2234388
370
     9
100
AcDbVertex
100
AcDb2dVertex
 10
83.46242231514066
 20
-139.318611909615
 30
0.0
  0
VERTEX
  5
83
330
81
100
AcDbEntity
  8
_U+30EC_U+30A4_U+30E4_U+30FC 1
 62
   179
420
  2234388
370
     9
100
AcDbVertex
100
AcDb2dVertex
 10
115.9240095425321
 20
-139.318611909615
 30
0.0
  0
SEQEND
  5
84
330
81
100
AcDbEntity
  8
_U+30EC_U+30A4_U+30E4_U+30FC 1
 62
   179
420
  2234388
370
     9
  0
POLYLINE
  5
85
330
1F
100
AcDbEntity
  8
_U+30EC_U+30A4_U+30E4_U+30FC 1
 62
   179
420
  2234388
370
     9
100
AcDb2dPolyline
 66
     1
 10
0.0
 20
0.0
 30
0.0
  0
VERTEX
  5
86
330
85
100
AcDbEntity
  8
_U+30EC_U+30A4_U+30E4_U+30FC 1
 62
   179
420
  2234388
370
     9
100
AcDbVertex
100
AcDb2dVertex
 10
113.464231271953
 20
-126.3188919128648
 30
0.0
  0
VERTEX
  5
87
330
85
100
AcDbEntity
  8
_U+30EC_U+30A4_U+30E4_U+30FC 1
 62
   179
420
  2234388
370
     9
100
AcDbVertex
100
AcDb2dVertex
 10
115.9240095425321
 20
-126.3188919128648
 30
0.0
  0
SEQEND
  5
88
330
85
100
AcDbEntity
  8
_U+30EC_U+30A4_U+30E4_U+30FC 1
 62
   179
420
  2234388
370
     9
  0
POLYLINE
  5
89
330
1F
100
AcDbEntity
  8
_U+30EC_U+30A4_U+30E4_U+30FC 1
 62
   179
420
  2234388
370
     9
100
AcDb2dPolyline
 66
     1
 10
0.0
 20
0.0
 30
0.0
  0
VERTEX
  5
8A
330
89
100
AcDbEntity
  8
_U+30EC_U+30A4_U+30E4_U+30FC 1
 62
   179
420
  2234388
370
     9
100
AcDbVertex
100
AcDb2dVertex
 10
66.92254245933037
 20
-142.3186341310869
 30
0.0
  0
VERTEX
  5
8B
330
89
100
AcDbEntity
  8
_U+30EC_U+30A4_U+30E4_U+30FC 1
 62
   179
420
  2234388
370
     9
100
AcDbVertex
100
AcDb2dVertex
 10
66.92254245933037
 20
-118.3187033037536
 30
0.0
  0
SEQEND
  5
8C
330
89
100
AcDbEntity
  8
_U+30EC_U+30A4_U+30E4_U+30FC 1
 62
   179
420
  2234388
370
     9
  0
POLYLINE
  5
8D
330
1F
100
AcDbEntity
  8
_U+30EC_U+30A4_U+30E4_U+30FC 1
 62
   179
420
  2234388
370
     9
100
AcDb2dPolyline
 66
     1
 10
0.0
 20
0.0
 30
0.0
  0
VERTEX
  5
8E
330
8D
100
AcDbEntity
  8
_U+30EC_U+30A4_U+30E4_U+30FC 1
 62
   179
420
  2234388
370
     9
100
AcDbVertex
100
AcDb2dVertex
 10
68.38254853319363
 20
-142.3186341310869
 30
0.0
  0
VERTEX
  5
8F
330
8D
100
AcDbEntity
  8
_U+30EC_U+30A4_U+30E4_U+30FC 1
 62
   179
420
  2234388
370
     9
100
AcDbVertex
100
AcDb2dVertex
 10
65.92277026261446
 20
-142.3186341310869
 30
0.0
  0
SEQEND
  5
90
330
8D
100
AcDbEntity
  8
_U+30EC_U+30A4_U+30E4_U+30FC 1
 62
   179
420
  2234388
370
     9
  0
POLYLINE
  5
91
330
1F
100
AcDbEntity
  8
_U+30EC_U+30A4_U+30E4_U+30FC 1
 62
   179
420
  2234388
370
     9
100
AcDb2dPolyline
 66
     1
 10
0.0
 20
0.0
 30
0.0
  0
VERTEX
  5
92
330
91
100
AcDbEntity
  8
_U+30EC_U+30A4_U+30E4_U+30FC 1
 62
   179
420
  2234388
370
     9
100
AcDbVertex
100
AcDb2dVertex
 10
68.38254853319363
 20
-118.3187033037536
 30
0.0
  0
VERTEX
  5
93
330
91
100
AcDbEntity
  8
_U+30EC_U+30A4_U+30E4_U+30FC 1
 62
   179
420
  2234388
370
     9
100
AcDbVertex
100
AcDb2dVertex
 10
65.92277026261446
 20
-118.3187033037536
 30
0.0
  0
SEQEND
  5
94
330
91
100
AcDbEntity
  8
_U+30EC_U+30A4_U+30E4_U+30FC 1
 62
   179
420
  2234388
370
     9
  0
POLYLINE
  5
95
330
1F
100
AcDbEntity
  8
_U+30EC_U+30A4_U+30E4_U+30FC 1
 62
   179
420
  2234388
370
     9
100
AcDb2dPolyline
 66
     1
 10
0.0
 20
0.0
 30
0.0
  0
VERTEX
  5
96
330
95
100
AcDbEntity
  8
_U+30EC_U+30A4_U+30E4_U+30FC 1
 62
   179
420
  2234388
370
     9
100
AcDbVertex
100
AcDb2dVertex
 10
73.99598366776074
 20
-112.7097483051558
 30
0.0
  0
VERTEX
  5
97
330
95
100
AcDbEntity
  8
_U+30EC_U+30A4_U+30E4_U+30FC 1
 62
   179
420
  2234388
370
     9
100
AcDbVertex
100
AcDb2dVertex
 10
73.99598366776074
 20
-111.2986371943975
 30
0.0
  0
SEQEND
  5
98
330
95
100
AcDbEntity
  8
_U+30EC_U+30A4_U+30E4_U+30FC 1
 62
   179
420
  2234388
370
     9
  0
POLYLINE
  5
99
330
1F
100
AcDbEntity
  8
_U+30EC_U+30A4_U+30E4_U+30FC 1
 62
   179
420
  2234388
370
     9
100
AcDb2dPolyline
 66
     1
 10
0.0
 20
0.0
 30
0.0
  0
VERTEX
  5
9A
330
99
100
AcDbEntity
  8
_U+30EC_U+30A4_U+30E4_U+30FC 1
 62
   179
420
  2234388
370
     9
100
AcDbVertex
100
AcDb2dVertex
 10
70.99737263315056
 20
-112.7097483051558
 30
0.0
  0
VERTEX
  5
9B
330
99
100
AcDbEntity
  8
_U+30EC_U+30A4_U+30E4_U+30FC 1
 62
   179
420
  2234388
370
     9
100
AcDbVertex
100
AcDb2dVertex
 10
70.99737263315056
 20
-111.2986371943975
 30
0.0
  0
SEQEND
  5
9C
330
99
100
AcDbEntity
  8
_U+30EC_U+30A4_U+30E4_U+30FC 1
 62
   179
420
  2234388
370
     9
  0
POLYLINE
  5
9D
330
1F
100
AcDbEntity
  8
_U+30EC_U+30A4_U+30E4_U+30FC 1
 62
   179
420
  2234388
370
     9
100
AcDb2dPolyline
 66
     1
 10
0.0
 20
0.0
 30
0.0
  0
VERTEX
  5
9E
330
9D
100
AcDbEntity
  8
_U+30EC_U+30A4_U+30E4_U+30FC 1
 62
   179
420
  2234388
370
     9
100
AcDbVertex
100
AcDb2dVertex
 10
69.74681072061061
 20
-112.0041927497766
 30
0.0
  0
VERTEX
  5
9F
330
9D
100
AcDbEntity
  8
_U+30EC_U+30A4_U+30E4_U+30FC 1
 62
   179
420
  2234388
370
     9
100
AcDbVertex
100
AcDb2dVertex
 10
75.12667169447003
 20
-112.0041927497766
 30
0.0
  0
SEQEND
  5
A0
330
9D
100
AcDbEntity
  8
_U+30EC_U+30A4_U+30E4_U+30FC 1
 62
   179
420
  2234388
370
     9
  0
INSERT
  5
A2
330
1F
100
AcDbEntity
  8
_U+30EC_U+30A4_U+30E4_U+30FC 1
100
AcDbBlockReference
  2
block 2
 10
0.0
 20
0.0
 30
0.0
  0
INSERT
  5
A8
330
1F
100
AcDbEntity
  8
_U+30EC_U+30A4_U+30E4_U+30FC 1
100
AcDbBlockReference
  2
block 3
 10
0.0
 20
0.0
 30
0.0
  0
INSERT
  5
AE
330
1F
100
AcDbEntity
  8
_U+30EC_U+30A4_U+30E4_U+30FC 1
100
AcDbBlockReference
  2
block 4
 10
0.0
 20
0.0
 30
0.0
  0
INSERT
  5
B4
330
1F
100
AcDbEntity
  8
_U+30EC_U+30A4_U+30E4_U+30FC 1
100
AcDbBlockReference
  2
block 5
 10
0.0
 20
0.0
 30
0.0
  0
INSERT
  5
BD
330
1F
100
AcDbEntity
  8
_U+30EC_U+30A4_U+30E4_U+30FC 1
100
AcDbBlockReference
  2
block 6
 10
0.0
 20
0.0
 30
0.0
  0
INSERT
  5
D9
330
1F
100
AcDbEntity
  8
_U+30EC_U+30A4_U+30E4_U+30FC 1
100
AcDbBlockReference
  2
block 7
 10
0.0
 20
0.0
 30
0.0
  0
INSERT
  5
E1
330
1F
100
AcDbEntity
  8
_U+30EC_U+30A4_U+30E4_U+30FC 1
100
AcDbBlockReference
  2
block 8
 10
0.0
 20
0.0
 30
0.0
  0
POLYLINE
  5
FB
330
1F
100
AcDbEntity
  8
_U+30EC_U+30A4_U+30E4_U+30FC 1
 62
   179
420
  2234388
370
    25
100
AcDb2dPolyline
 66
     1
 10
0.0
 20
0.0
 30
0.0
  0
VERTEX
  5
FC
330
FB
100
AcDbEntity
  8
_U+30EC_U+30A4_U+30E4_U+30FC 1
 62
   179
420
  2234388
370
    25
100
AcDbVertex
100
AcDb2dVertex
 10
80.8758557144628
 20
-142.3210330199755
 30
0.0
  0
VERTEX
  5
FD
330
FB
100
AcDbEntity
  8
_U+30EC_U+30A4_U+30E4_U+30FC 1
 62
   179
420
  2234388
370
    25
100
AcDbVertex
100
AcDb2dVertex
 10
80.8758557144628
 20
-139.3003732985084
 30
0.0
  0
VERTEX
  5
FE
330
FB
100
AcDbEntity
  8
_U+30EC_U+30A4_U+30E4_U+30FC 1
 62
   179
420
  2234388
370
    25
100
AcDbVertex
100
AcDb2dVertex
 10
77.94339051149845
 20
-139.3003732985084
 30
0.0
  0
VERTEX
  5
FF
330
FB
100
AcDbEntity
  8
_U+30EC_U+30A4_U+30E4_U+30FC 1
 62
   179
420
  2234388
370
    25
100
AcDbVertex
100
AcDb2dVertex
 10
77.94339051149845
 20
-140.2705121871548
 30
0.0
  0
VERTEX
  5
100
330
FB
100
AcDbEntity
  8
_U+30EC_U+30A4_U+30E4_U+30FC 1
 62
   179
420
  2234388
370
    25
100
AcDbVertex
100
AcDb2dVertex
 10
79.88366823977562
 20
-140.2705121871548
 30
0.0
  0
VERTEX
  5
101
330
FB
100
AcDbEntity
  8
_U+30EC_U+30A4_U+30E4_U+30FC 1
 62
   179
420
  2234388
370
    25
100
AcDbVertex
100
AcDb2dVertex
 10
79.88366823977562
 20
-141.3288455202236
 30
0.0
  0
VERTEX
  5
102
330
FB
100
AcDbEntity
  8
_U+30EC_U+30A4_U+30E4_U+30FC 1
 62
   179
420
  2234388
370
    25
100
AcDbVertex
100
AcDb2dVertex
 10
71.9682170528267
 20
-141.3288455202236
 30
0.0
  0
VERTEX
  5
103
330
FB
100
AcDbEntity
  8
_U+30EC_U+30A4_U+30E4_U+30FC 1
 62
   179
420
  2234388
370
    25
100
AcDbVertex
100
AcDb2dVertex
 10
71.9682170528267
 20
-126.2696441350992
 30
0.0
  0
VERTEX
  5
104
330
FB
100
AcDbEntity
  8
_U+30EC_U+30A4_U+30E4_U+30FC 1
 62
   179
420
  2234388
370
    25
100
AcDbVertex
100
AcDb2dVertex
 10
110.8859196710645
 20
-126.2696441350992
 30
0.0
  0
VERTEX
  5
105
330
FB
100
AcDbEntity
  8
_U+30EC_U+30A4_U+30E4_U+30FC 1
 62
   179
420
  2234388
370
    25
100
AcDbVertex
100
AcDb2dVertex
 10
110.8859196710645
 20
-125.3656510797696
 30
0.0
  0
VERTEX
  5
106
330
FB
100
AcDbEntity
  8
_U+30EC_U+30A4_U+30E4_U+30FC 1
 62
   179
420
  2234388
370
    25
100
AcDbVertex
100
AcDb2dVertex
 10
71.9241198317295
 20
-125.3656510797696
 30
0.0
  0
VERTEX
  5
107
330
FB
100
AcDbEntity
  8
_U+30EC_U+30A4_U+30E4_U+30FC 1
 62
   179
420
  2234388
370
    25
100
AcDbVertex
100
AcDb2dVertex
 10
71.9241198317295
 20
-119.2581858035187
 30
0.0
  0
VERTEX
  5
108
330
FB
100
AcDbEntity
  8
_U+30EC_U+30A4_U+30E4_U+30FC 1
 62
   179
420
  2234388
370
    25
100
AcDbVertex
100
AcDb2dVertex
 10
73.86439756000667
 20
-119.2581858035187
 30
0.0
  0
VERTEX
  5
109
330
FB
100
AcDbEntity
  8
_U+30EC_U+30A4_U+30E4_U+30FC 1
 62
   179
420
  2234388
370
    25
100
AcDbVertex
100
AcDb2dVertex
 10
73.86439756000667
 20
-118.3541927481891
 30
0.0
  0
VERTEX
  5
10A
330
FB
100
AcDbEntity
  8
_U+30EC_U+30A4_U+30E4_U+30FC 1
 62
   179
420
  2234388
370
    25
100
AcDbVertex
100
AcDb2dVertex
 10
70.93193235704231
 20
-118.3541927481891
 30
0.0
  0
VERTEX
  5
10B
330
FB
100
AcDbEntity
  8
_U+30EC_U+30A4_U+30E4_U+30FC 1
 62
   179
420
  2234388
370
    25
100
AcDbVertex
100
AcDb2dVertex
 10
70.93193235704231
 20
-142.3430816310811
 30
0.0
  0
VERTEX
  5
10C
330
FB
100
AcDbEntity
  8
_U+30EC_U+30A4_U+30E4_U+30FC 1
 62
   179
420
  2234388
370
    25
100
AcDbVertex
100
AcDb2dVertex
 10
80.8758557144628
 20
-142.3210330199755
 30
0.0
  0
SEQEND
  5
10E
330
FB
100
AcDbEntity
  8
_U+30EC_U+30A4_U+30E4_U+30FC 1
 62
   179
420
  2234388
370
    25
  0
HATCH
  5
10D
330
1F
100
AcDbEntity
  8
_U+30EC_U+30A4_U+30E4_U+30FC 1
 62
    19
420
  5188122
100
AcDbHatch
 10
0.0
 20
0.0
 30
0.0
210
0.0
220
0.0
230
1.0
  2
SOLID
 70
     1
 71
     0
 91
        1
 92
        1
 93
       16
 72
     1
 10
80.8758557144628
 20
-142.3210330199755
 11
80.8758557144628
 21
-139.3003732985084
 72
     1
 10
80.8758557144628
 20
-139.3003732985084
 11
77.94339051149845
 21
-139.3003732985084
 72
     1
 10
77.94339051149845
 20
-139.3003732985084
 11
77.94339051149845
 21
-140.2705121871548
 72
     1
 10
77.94339051149845
 20
-140.2705121871548
 11
79.88366823977562
 21
-140.2705121871548
 72
     1
 10
79.88366823977562
 20
-140.2705121871548
 11
79.88366823977562
 21
-141.3288455202236
 72
     1
 10
79.88366823977562
 20
-141.3288455202236
 11
71.9682170528267
 21
-141.3288455202236
 72
     1
 10
71.9682170528267
 20
-141.3288455202236
 11
71.9682170528267
 21
-126.2696441350992
 72
     1
 10
71.9682170528267
 20
-126.2696441350992
 11
110.8859196710645
 21
-126.2696441350992
 72
     1
 10
110.8859196710645
 20
-126.2696441350992
 11
110.8859196710645
 21
-125.3656510797696
 72
     1
 10
110.8859196710645
 20
-125.3656510797696
 11
71.9241198317295
 21
-125.3656510797696
 72
     1
 10
71.9241198317295
 20
-125.3656510797696
 11
71.9241198317295
 21
-119.2581858035187
 72
     1
 10
71.9241198317295
 20
-119.2581858035187
 11
73.86439756000667
 21
-119.2581858035187
 72
     1
 10
73.86439756000667
 20
-119.2581858035187
 11
73.86439756000667
 21
-118.3541927481891
 72
     1
 10
73.86439756000667
 20
-118.3541927481891
 11
70.93193235704231
 21
-118.3541927481891
 72
     1
 10
70.93193235704231
 20
-118.3541927481891
 11
70.93193235704231
 21
-142.3430816310811
 72
     1
 10
70.93193235704231
 20
-142.3430816310811
 11
80.8758557144628
 21
-142.3210330199755
 97
        0
 75
     2
 76
     1
 98
        0
  0
ENDSEC
  0
SECTION
  2
OBJECTS
  0
DICTIONARY
  5
C
330
0
100
AcDbDictionary
281
     1
  3
ACAD_GROUP
350
D
  3
ACAD_LAYOUT
350
1A
  3
ACAD_MATERIAL
350
3B
  3
ACAD_MLEADERSTYLE
350
110
  3
ACAD_MLINESTYLE
350
17
  3
ACAD_PLOTSETTINGS
350
19
  3
ACAD_PLOTSTYLENAME
350
E
  3
ACAD_TABLESTYLE
350
10F
  3
ACAD_VISUALSTYLE
350
2A
  0
SUN
  5
3F
330
29
100
AcDbSun
 90
        1
290
     0
 63
     7
421
 16777215
 40
1.0
291
     1
 91
  2455826
 92
 54000000
292
     0
 70
     2
 71
   256
280
     1
  0
DICTIONARY
  5
D
102
{ACAD_REACTORS
330
C
102
}
330
C
100
AcDbDictionary
281
     1
  0
DICTIONARY
  5
1A
102
{ACAD_REACTORS
330
C
102
}
330
C
100
AcDbDictionary
281
     1
  3
Layout1
350
1E
  3
Layout2
350
26
  3
Model
350
22
  0
DICTIONARY
  5
3B
102
{ACAD_REACTORS
330
C
102
}
330
C
100
AcDbDictionary
281
     1
  3
ByBlock
350
3D
  3
ByLayer
350
3C
  3
Global
350
3E
  0
DICTIONARY
  5
110
102
{ACAD_REACTORS
330
C
102
}
330
C
100
AcDbDictionary
281
     1
  0
DICTIONARY
  5
17
102
{ACAD_REACTORS
330
C
102
}
330
C
100
AcDbDictionary
281
     1
  3
Standard
350
18
  0
DICTIONARY
  5
19
102
{ACAD_REACTORS
330
C
102
}
330
C
100
AcDbDictionary
281
     1
  0
ACDBDICTIONARYWDFLT
  5
E
102
{ACAD_REACTORS
330
C
102
}
330
C
100
AcDbDictionary
281
     1
  3
Normal
350
F
100
AcDbDictionaryWithDefault
340
F
  0
DICTIONARY
  5
10F
102
{ACAD_REACTORS
330
C
102
}
330
C
100
AcDbDictionary
281
     1
  0
DICTIONARY
  5
2A
102
{ACAD_REACTORS
330
C
102
}
330
C
100
AcDbDictionary
281
     1
  3
2dWireframe
350
2F
  3
3D Hidden
350
31
  3
3dWireframe
350
30
  3
Basic
350
32
  3
Brighten
350
36
  3
ColorChange
350
3A
  3
Conceptual
350
34
  3
Dim
350
35
  3
Facepattern
350
39
  3
Flat
350
2B
  3
FlatWithEdges
350
2C
  3
Gouraud
350
2D
  3
GouraudWithEdges
350
2E
  3
Linepattern
350
38
  3
Realistic
350
33
  3
Thicken
350
37
  0
LAYOUT
  5
1E
102
{ACAD_REACTORS
330
1A
102
}
330
1A
100
AcDbPlotSettings
  1

  2
none_device
  4

  6

 40
0.0
 41
0.0
 42
0.0
 43
0.0
 44
0.0
 45
0.0
 46
0.0
 47
0.0
 48
0.0
 49
0.0
140
0.0
141
0.0
142
1.0
143
1.0
 70
   688
 72
     0
 73
     0
 74
     5
  7

 75
    16
 76
     0
 77
     2
 78
   300
147
1.0
148
0.0
149
0.0
100
AcDbLayout
  1
Layout1
 70
     1
 71
     1
 10
0.0
 20
0.0
 11
12.0
 21
9.0
 12
0.0
 22
0.0
 32
0.0
 14
1.000000000000000E+20
 24
1.000000000000000E+20
 34
1.000000000000000E+20
 15
-1.000000000000000E+20
 25
-1.000000000000000E+20
 35
-1.000000000000000E+20
146
0.0
 13
0.0
 23
0.0
 33
0.0
 16
1.0
 26
0.0
 36
0.0
 17
0.0
 27
1.0
 37
0.0
 76
     0
330
1B
  0
LAYOUT
  5
26
102
{ACAD_REACTORS
330
1A
102
}
330
1A
100
AcDbPlotSettings
  1

  2
none_device
  4

  6

 40
0.0
 41
0.0
 42
0.0
 43
0.0
 44
0.0
 45
0.0
 46
0.0
 47
0.0
 48
0.0
 49
0.0
140
0.0
141
0.0
142
1.0
143
1.0
 70
   688
 72
     0
 73
     0
 74
     5
  7

 75
    16
 76
     0
 77
     2
 78
   300
147
1.0
148
0.0
149
0.0
100
AcDbLayout
  1
Layout2
 70
     1
 71
     2
 10
0.0
 20
0.0
 11
0.0
 21
0.0
 12
0.0
 22
0.0
 32
0.0
 14
0.0
 24
0.0
 34
0.0
 15
0.0
 25
0.0
 35
0.0
146
0.0
 13
0.0
 23
0.0
 33
0.0
 16
1.0
 26
0.0
 36
0.0
 17
0.0
 27
1.0
 37
0.0
 76
     0
330
23
  0
LAYOUT
  5
22
102
{ACAD_REACTORS
330
1A
102
}
330
1A
100
AcDbPlotSettings
  1

  2
none_device
  4

  6

 40
0.0
 41
0.0
 42
0.0
 43
0.0
 44
0.0
 45
0.0
 46
0.0
 47
0.0
 48
0.0
 49
0.0
140
0.0
141
0.0
142
1.0
143
1.0
 70
  1712
 72
     0
 73
     0
 74
     0
  7

 75
     0
 76
     0
 77
     2
 78
   300
147
1.0
148
0.0
149
0.0
100
AcDbLayout
  1
Model
 70
     1
 71
     0
 10
0.0
 20
0.0
 11
12.0
 21
9.0
 12
0.0
 22
0.0
 32
0.0
 14
1.000000000000000E+20
 24
1.000000000000000E+20
 34
1.000000000000000E+20
 15
-1.000000000000000E+20
 25
-1.000000000000000E+20
 35
-1.000000000000000E+20
146
0.0
 13
0.0
 23
0.0
 33
0.0
 16
1.0
 26
0.0
 36
0.0
 17
0.0
 27
1.0
 37
0.0
 76
     0
330
1F
331
29
  0
MATERIAL
  5
3D
102
{ACAD_REACTORS
330
3B
102
}
330
3B
100
AcDbMaterial
  1
ByBlock
 72
     1
 94
      127
  0
MATERIAL
  5
3C
102
{ACAD_REACTORS
330
3B
102
}
330
3B
100
AcDbMaterial
  1
ByLayer
 72
     1
 94
      127
  0
MATERIAL
  5
3E
102
{ACAD_REACTORS
330
3B
102
}
330
3B
100
AcDbMaterial
  1
Global
 72
     1
 94
      127
  0
MLINESTYLE
  5
18
102
{ACAD_REACTORS
330
17
102
}
330
17
100
AcDbMlineStyle
  2
Standard
 70
     0
  3

 62
   256
 51
90.0
 52
90.0
 71
     2
 49
0.5
 62
   256
  6
BYLAYER
 49
-0.5
 62
   256
  6
BYLAYER
  0
ACDBPLACEHOLDER
  5
F
102
{ACAD_REACTORS
330
E
102
}
330
E
  0
VISUALSTYLE
  5
2F
102
{ACAD_REACTORS
330
2A
102
}
330
2A
100
AcDbVisualStyle
  2
2dWireframe
 70
     4
177
     2
291
     0
 71
     0
176
     1
 72
     2
176
     1
 73
     0
176
     1
 90
        0
176
     1
 40
-0.6
176
     1
 41
-30.0
176
     1
 62
     5
 63
     7
421
 16777215
176
     1
 74
     1
176
     1
 91
        4
176
     1
 64
     7
176
     1
 65
   257
176
     1
 75
     1
176
     1
175
     1
176
     1
 42
1.0
176
     1
 92
        0
176
     1
 66
   257
176
     1
 43
1.0
176
     1
 76
     1
176
     1
 77
     6
176
     1
 78
     2
176
     1
 67
     7
176
     1
 79
     5
176
     1
170
     0
176
     1
171
     0
176
     1
290
     0
176
     1
 93
        1
176
     1
 44
0.0
176
     1
173
     0
176
     1
  0
VISUALSTYLE
  5
31
102
{ACAD_REACTORS
330
2A
102
}
330
2A
100
AcDbVisualStyle
  2
3D Hidden
 70
     6
177
     2
291
     0
 71
     1
176
     1
 72
     2
176
     1
 73
     2
176
     1
 90
        0
176
     1
 40
-0.6
176
     1
 41
-30.0
176
     1
 62
     5
 63
     7
421
 16777215
176
     1
 74
     2
176
     1
 91
        2
176
     1
 64
     7
176
     1
 65
   257
176
     1
 75
     2
176
     1
175
     1
176
     1
 42
40.0
176
     1
 92
        0
176
     1
 66
   257
176
     1
 43
1.0
176
     1
 76
     1
176
     1
 77
     6
176
     1
 78
     2
176
     1
 67
     7
176
     1
 79
     3
176
     1
170
     0
176
     1
171
     0
176
     1
290
     0
176
     1
 93
        1
176
     1
 44
0.0
176
     1
173
     0
176
     1
  0
VISUALSTYLE
  5
30
102
{ACAD_REACTORS
330
2A
102
}
330
2A
100
AcDbVisualStyle
  2
3dWireframe
 70
     5
177
     2
291
     0
 71
     0
176
     1
 72
     2
176
     1
 73
     0
176
     1
 90
        0
176
     1
 40
-0.6
176
     1
 41
-30.0
176
     1
 62
     5
 63
     7
421
 16777215
176
     1
 74
     1
176
     1
 91
        4
176
     1
 64
     7
176
     1
 65
   257
176
     1
 75
     1
176
     1
175
     1
176
     1
 42
1.0
176
     1
 92
        0
176
     1
 66
   257
176
     1
 43
1.0
176
     1
 76
     1
176
     1
 77
     6
176
     1
 78
     2
176
     1
 67
     7
176
     1
 79
     5
176
     1
170
     0
176
     1
171
     0
176
     1
290
     0
176
     1
 93
        1
176
     1
 44
0.0
176
     1
173
     0
176
     1
  0
VISUALSTYLE
  5
32
102
{ACAD_REACTORS
330
2A
102
}
330
2A
100
AcDbVisualStyle
  2
Basic
 70
     7
177
     2
291
     1
 71
     1
176
     1
 72
     0
176
     1
 73
     1
176
     1
 90
        0
176
     1
 40
-0.6
176
     1
 41
-30.0
176
     1
 62
     5
 63
     7
421
 16777215
176
     1
 74
     0
176
     1
 91
        4
176
     1
 64
     7
176
     1
 65
   257
176
     1
 75
     1
176
     1
175
     1
176
     1
 42
1.0
176
     1
 92
        8
176
     1
 66
     7
176
     1
 43
1.0
176
     1
 76
     1
176
     1
 77
     6
176
     1
 78
     2
176
     1
 67
     7
176
     1
 79
     5
176
     1
170
     0
176
     1
171
     0
176
     1
290
     0
176
     1
 93
        1
176
     1
 44
0.0
176
     1
173
     0
176
     1
  0
VISUALSTYLE
  5
36
102
{ACAD_REACTORS
330
2A
102
}
330
2A
100
AcDbVisualStyle
  2
Brighten
 70
    12
177
     2
291
     1
 71
     2
176
     1
 72
     2
176
     1
 73
     0
176
     1
 90
        0
176
     1
 40
-0.6
176
     1
 41
-30.0
176
     1
 62
     5
 63
     7
421
 16777215
176
     1
 74
     1
176
     1
 91
        4
176
     1
 64
     7
176
     1
 65
   257
176
     1
 75
     1
176
     1
175
     1
176
     1
 42
1.0
176
     1
 92
        8
176
     1
 66
     7
176
     1
 43
1.0
176
     1
 76
     1
176
     1
 77
     6
176
     1
 78
     2
176
     1
 67
     7
176
     1
 79
     5
176
     1
170
     0
176
     1
171
     0
176
     1
290
     0
176
     1
 93
        1
176
     1
 44
50.0
176
     1
173
     0
176
     1
  0
VISUALSTYLE
  5
3A
102
{ACAD_REACTORS
330
2A
102
}
330
2A
100
AcDbVisualStyle
  2
ColorChange
 70
    16
177
     2
291
     1
 71
     2
176
     1
 72
     2
176
     1
 73
     3
176
     1
 90
        0
176
     1
 40
-0.6
176
     1
 41
-30.0
176
     1
 62
     5
 63
     8
421
  8421504
176
     1
 74
     1
176
     1
 91
        4
176
     1
 64
     7
176
     1
 65
   257
176
     1
 75
     1
176
     1
175
     1
176
     1
 42
1.0
176
     1
 92
        8
176
     1
 66
     8
424
  8421504
176
     1
 43
1.0
176
     1
 76
     1
176
     1
 77
     6
176
     1
 78
     2
176
     1
 67
     7
176
     1
 79
     5
176
     1
170
     0
176
     1
171
     0
176
     1
290
     0
176
     1
 93
        1
176
     1
 44
0.0
176
     1
173
     0
176
     1
  0
VISUALSTYLE
  5
34
102
{ACAD_REACTORS
330
2A
102
}
330
2A
100
AcDbVisualStyle
  2
Conceptual
 70
     9
177
     2
291
     0
 71
     3
176
     1
 72
     2
176
     1
 73
     0
176
     1
 90
        0
176
     1
 40
-0.6
176
     1
 41
-30.0
176
     1
 62
     5
 63
     7
421
 16777215
176
     1
 74
     2
176
     1
 91
        2
176
     1
 64
     7
176
     1
 65
   257
176
     1
 75
     1
176
     1
175
     1
176
     1
 42
40.0
176
     1
 92
        8
176
     1
 66
     7
176
     1
 43
1.0
176
     1
 76
     1
176
     1
 77
     6
176
     1
 78
     2
176
     1
 67
     7
176
     1
 79
     3
176
     1
170
     0
176
     1
171
     0
176
     1
290
     0
176
     1
 93
        1
176
     1
 44
0.0
176
     1
173
     0
176
     1
  0
VISUALSTYLE
  5
35
102
{ACAD_REACTORS
330
2A
102
}
330
2A
100
AcDbVisualStyle
  2
Dim
 70
    11
177
     2
291
     1
 71
     2
176
     1
 72
     2
176
     1
 73
     0
176
     1
 90
        0
176
     1
 40
-0.6
176
     1
 41
-30.0
176
     1
 62
     5
 63
     7
421
 16777215
176
     1
 74
     1
176
     1
 91
        4
176
     1
 64
     7
176
     1
 65
   257
176
     1
 75
     1
176
     1
175
     1
176
     1
 42
1.0
176
     1
 92
        8
176
     1
 66
     7
176
     1
 43
1.0
176
     1
 76
     1
176
     1
 77
     6
176
     1
 78
     2
176
     1
 67
     7
176
     1
 79
     5
176
     1
170
     0
176
     1
171
     0
176
     1
290
     0
176
     1
 93
        1
176
     1
 44
-50.0
176
     1
173
     0
176
     1
  0
VISUALSTYLE
  5
39
102
{ACAD_REACTORS
330
2A
102
}
330
2A
100
AcDbVisualStyle
  2
Facepattern
 70
    15
177
     2
291
     1
 71
     2
176
     1
 72
     2
176
     1
 73
     0
176
     1
 90
        0
176
     1
 40
-0.6
176
     1
 41
-30.0
176
     1
 62
     5
 63
     7
421
 16777215
176
     1
 74
     1
176
     1
 91
        4
176
     1
 64
     7
176
     1
 65
   257
176
     1
 75
     1
176
     1
175
     1
176
     1
 42
1.0
176
     1
 92
        8
176
     1
 66
     7
176
     1
 43
1.0
176
     1
 76
     1
176
     1
 77
     6
176
     1
 78
     2
176
     1
 67
     7
176
     1
 79
     5
176
     1
170
     0
176
     1
171
     0
176
     1
290
     0
176
     1
 93
        1
176
     1
 44
0.0
176
     1
173
     0
176
     1
  0
VISUALSTYLE
  5
2B
102
{ACAD_REACTORS
330
2A
102
}
330
2A
100
AcDbVisualStyle
  2
Flat
 70
     0
177
     2
291
     1
 71
     2
176
     1
 72
     1
176
     1
 73
     1
176
     1
 90
        2
176
     1
 40
-0.6
176
     1
 41
30.0
176
     1
 62
     5
 63
     7
421
 16777215
176
     1
 74
     0
176
     1
 91
        4
176
     1
 64
     7
176
     1
 65
   257
176
     1
 75
     1
176
     1
175
     1
176
     1
 42
1.0
176
     1
 92
        8
176
     1
 66
     7
176
     1
 43
1.0
176
     1
 76
     1
176
     1
 77
     6
176
     1
 78
     2
176
     1
 67
     7
176
     1
 79
     5
176
     1
170
     0
176
     1
171
     0
176
     1
290
     0
176
     1
 93
       13
176
     1
 44
0.0
176
     1
173
     0
176
     1
  0
VISUALSTYLE
  5
2C
102
{ACAD_REACTORS
330
2A
102
}
330
2A
100
AcDbVisualStyle
  2
FlatWithEdges
 70
     1
177
     2
291
     1
 71
     2
176
     1
 72
     1
176
     1
 73
     1
176
     1
 90
        2
176
     1
 40
-0.6
176
     1
 41
30.0
176
     1
 62
     5
 63
     7
421
 16777215
176
     1
 74
     1
176
     1
 91
        4
176
     1
 64
     7
176
     1
 65
   257
176
     1
 75
     1
176
     1
175
     1
176
     1
 42
1.0
176
     1
 92
        0
176
     1
 66
   257
176
     1
 43
1.0
176
     1
 76
     1
176
     1
 77
     6
176
     1
 78
     2
176
     1
 67
     7
176
     1
 79
     5
176
     1
170
     0
176
     1
171
     0
176
     1
290
     0
176
     1
 93
       13
176
     1
 44
0.0
176
     1
173
     0
176
     1
  0
VISUALSTYLE
  5
2D
102
{ACAD_REACTORS
330
2A
102
}
330
2A
100
AcDbVisualStyle
  2
Gouraud
 70
     2
177
     2
291
     1
 71
     2
176
     1
 72
     2
176
     1
 73
     1
176
     1
 90
        2
176
     1
 40
-0.6
176
     1
 41
30.0
176
     1
 62
     5
 63
     7
421
 16777215
176
     1
 74
     0
176
     1
 91
        4
176
     1
 64
     7
176
     1
 65
   257
176
     1
 75
     1
176
     1
175
     1
176
     1
 42
1.0
176
     1
 92
        0
176
     1
 66
     7
176
     1
 43
1.0
176
     1
 76
     1
176
     1
 77
     6
176
     1
 78
     2
176
     1
 67
     7
176
     1
 79
     5
176
     1
170
     0
176
     1
171
     0
176
     1
290
     0
176
     1
 93
       13
176
     1
 44
0.0
176
     1
173
     0
176
     1
  0
VISUALSTYLE
  5
2E
102
{ACAD_REACTORS
330
2A
102
}
330
2A
100
AcDbVisualStyle
  2
GouraudWithEdges
 70
     3
177
     2
291
     1
 71
     2
176
     1
 72
     2
176
     1
 73
     1
176
     1
 90
        2
176
     1
 40
-0.6
176
     1
 41
30.0
176
     1
 62
     5
 63
     7
421
 16777215
176
     1
 74
     1
176
     1
 91
        4
176
     1
 64
     7
176
     1
 65
   257
176
     1
 75
     1
176
     1
175
     1
176
     1
 42
1.0
176
     1
 92
        0
176
     1
 66
   257
176
     1
 43
1.0
176
     1
 76
     1
176
     1
 77
     6
176
     1
 78
     2
176
     1
 67
     7
176
     1
 79
     5
176
     1
170
     0
176
     1
171
     0
176
     1
290
     0
176
     1
 93
       13
176
     1
 44
0.0
176
     1
173
     0
176
     1
  0
VISUALSTYLE
  5
38
102
{ACAD_REACTORS
330
2A
102
}
330
2A
100
AcDbVisualStyle
  2
Linepattern
 70
    14
177
     2
291
     1
 71
     2
176
     1
 72
     2
176
     1
 73
     0
176
     1
 90
        0
176
     1
 40
-0.6
176
     1
 41
-30.0
176
     1
 62
     5
 63
     7
421
 16777215
176
     1
 74
     1
176
     1
 91
        4
176
     1
 64
     7
176
     1
 65
   257
176
     1
 75
     7
176
     1
175
     7
176
     1
 42
1.0
176
     1
 92
        8
176
     1
 66
     7
176
     1
 43
1.0
176
     1
 76
     1
176
     1
 77
     6
176
     1
 78
     2
176
     1
 67
     7
176
     1
 79
     5
176
     1
170
     0
176
     1
171
     0
176
     1
290
     0
176
     1
 93
        1
176
     1
 44
0.0
176
     1
173
     0
176
     1
  0
VISUALSTYLE
  5
33
102
{ACAD_REACTORS
330
2A
102
}
330
2A
100
AcDbVisualStyle
  2
Realistic
 70
     8
177
     2
291
     0
 71
     2
176
     1
 72
     2
176
     1
 73
     0
176
     1
 90
        0
176
     1
 40
-0.6
176
     1
 41
-30.0
176
     1
 62
     5
 63
     7
421
 16777215
176
     1
 74
     1
176
     1
 91
        0
176
     1
 64
     7
176
     1
 65
   257
176
     1
 75
     1
176
     1
175
     1
176
     1
 42
1.0
176
     1
 92
        8
176
     1
 66
     8
424
  7895160
176
     1
 43
1.0
176
     1
 76
     1
176
     1
 77
     6
176
     1
 78
     2
176
     1
 67
     7
176
     1
 79
     5
176
     1
170
     0
176
     1
171
     0
176
     1
290
     0
176
     1
 93
       13
176
     1
 44
0.0
176
     1
173
     0
176
     1
  0
VISUALSTYLE
  5
37
102
{ACAD_REACTORS
330
2A
102
}
330
2A
100
AcDbVisualStyle
  2
Thicken
 70
    13
177
     2
291
     1
 71
     2
176
     1
 72
     2
176
     1
 73
     0
176
     1
 90
        0
176
     1
 40
-0.6
176
     1
 41
-30.0
176
     1
 62
     5
 63
     7
421
 16777215
176
     1
 74
     1
176
     1
 91
        4
176
     1
 64
     7
176
     1
 65
   257
176
     1
 75
     1
176
     1
175
     1
176
     1
 42
1.0
176
     1
 92
       12
176
     1
 66
     7
176
     1
 43
1.0
176
     1
 76
     1
176
     1
 77
     6
176
     1
 78
     2
176
     1
 67
     7
176
     1
 79
     5
176
     1
170
     0
176
     1
171
     0
176
     1
290
     0
176
     1
 93
        1
176
     1
 44
0.0
176
     1
173
     0
176
     1
  0
ENDSEC
  0
EOF
