  0
SECTION
  2
HEADER
  9
$ACADVER
  1
AC1024
  9
$ACADMAINTVER
 70
     6
  9
$DWGCODEPAGE
  3
UNDEFINED
  9
$INSBASE
 10
0.0
 20
0.0
 30
0.0
  9
$EXTMIN
 10
1.000000000000000E+20
 20
1.000000000000000E+20
 30
1.000000000000000E+20
  9
$EXTMAX
 10
-1.000000000000000E+20
 20
-1.000000000000000E+20
 30
-1.000000000000000E+20
  9
$LIMMIN
 10
0.0
 20
0.0
  9
$LIMMAX
 10
12.0
 20
9.0
  9
$ORTHOMODE
 70
     0
  9
$REGENMODE
 70
     1
  9
$FILLMODE
 70
     1
  9
$QTEXTMODE
 70
     0
  9
$MIRRTEXT
 70
     1
  9
$LTSCALE
 40
1.0
  9
$ATTMODE
 70
     1
  9
$TEXTSIZE
 40
0.2
  9
$TRACEWID
 40
0.05
  9
$TEXTSTYLE
  7
Standard
  9
$CLAYER
  8
0
  9
$CELTYPE
  6
ByLayer
  9
$CECOLOR
 62
   256
  9
$CELTSCALE
 40
1.0
  9
$DISPSILH
 70
     0
  9
$DIMSCALE
 40
1.0
  9
$DIMASZ
 40
0.18
  9
$DIMEXO
 40
0.0625
  9
$DIMDLI
 40
0.38
  9
$DIMRND
 40
0.0
  9
$DIMDLE
 40
0.0
  9
$DIMEXE
 40
0.18
  9
$DIMTP
 40
0.0
  9
$DIMTM
 40
0.0
  9
$DIMTXT
 40
0.18
  9
$DIMCEN
 40
0.09
  9
$DIMTSZ
 40
0.0
  9
$DIMTOL
 70
     0
  9
$DIMLIM
 70
     0
  9
$DIMTIH
 70
     1
  9
$DIMTOH
 70
     1
  9
$DIMSE1
 70
     0
  9
$DIMSE2
 70
     0
  9
$DIMTAD
 70
     0
  9
$DIMZIN
 70
     0
  9
$DIMBLK
  1

  9
$DIMASO
 70
     1
  9
$DIMSHO
 70
     1
  9
$DIMPOST
  1

  9
$DIMAPOST
  1

  9
$DIMALT
 70
     0
  9
$DIMALTD
 70
     2
  9
$DIMALTF
 40
25.4
  9
$DIMLFAC
 40
1.0
  9
$DIMTOFL
 70
     0
  9
$DIMTVP
 40
0.0
  9
$DIMTIX
 70
     0
  9
$DIMSOXD
 70
     0
  9
$DIMSAH
 70
     0
  9
$DIMBLK1
  1

  9
$DIMBLK2
  1

  9
$DIMSTYLE
  2
Standard
  9
$DIMCLRD
 70
     0
  9
$DIMCLRE
 70
     0
  9
$DIMCLRT
 70
     0
  9
$DIMTFAC
 40
1.0
  9
$DIMGAP
 40
0.09
  9
$DIMJUST
 70
     0
  9
$DIMSD1
 70
     0
  9
$DIMSD2
 70
     0
  9
$DIMTOLJ
 70
     1
  9
$DIMTZIN
 70
     0
  9
$DIMALTZ
 70
     0
  9
$DIMALTTZ
 70
     0
  9
$DIMUPT
 70
     0
  9
$DIMDEC
 70
     4
  9
$DIMTDEC
 70
     4
  9
$DIMALTU
 70
     2
  9
$DIMALTTD
 70
     2
  9
$DIMTXSTY
  7
Standard
  9
$DIMAUNIT
 70
     0
  9
$DIMADEC
 70
     0
  9
$DIMALTRND
 40
0.0
  9
$DIMAZIN
 70
     0
  9
$DIMDSEP
 70
    46
  9
$DIMATFIT
 70
     3
  9
$DIMFRAC
 70
     0
  9
$DIMLDRBLK
  1

  9
$DIMLUNIT
 70
     2
  9
$DIMLWD
 70
    -2
  9
$DIMLWE
 70
    -2
  9
$DIMTMOVE
 70
     0
  9
$DIMFXL
 40
1.0
  9
$DIMFXLON
 70
     0
  9
$DIMJOGANG
 40
0.7853981633974483
  9
$DIMTFILL
 70
     0
  9
$DIMTFILLCLR
 70
     0
  9
$DIMARCSYM
 70
     0
  9
$DIMLTYPE
  6

  9
$DIMLTEX1
  6

  9
$DIMLTEX2
  6

  9
$DIMTXTDIRECTION
 70
     0
  9
$LUNITS
 70
     2
  9
$LUPREC
 70
     4
  9
$SKETCHINC
 40
0.1
  9
$FILLETRAD
 40
0.5
  9
$AUNITS
 70
     0
  9
$AUPREC
 70
     0
  9
$MENU
  1
.
  9
$ELEVATION
 40
0.0
  9
$PELEVATION
 40
0.0
  9
$THICKNESS
 40
0.0
  9
$LIMCHECK
 70
     0
  9
$CHAMFERA
 40
0.5
  9
$CHAMFERB
 40
0.5
  9
$CHAMFERC
 40
1.0
  9
$CHAMFERD
 40
0.0
  9
$SKPOLY
 70
     0
  9
$TDCREATE
 40
2457917.592361111
  9
$TDUCREATE
 40
2457917.217361111
  9
$TDUPDATE
 40
2457917.592361111
  9
$TDUUPDATE
 40
2457917.217361111
  9
$TDINDWG
 40
0.0000000116
  9
$TDUSRTIMER
 40
0.0000000116
  9
$USRTIMER
 70
     1
  9
$ANGBASE
 50
0.0
  9
$ANGDIR
 70
     0
  9
$PDMODE
 70
     0
  9
$PDSIZE
 40
0.0
  9
$PLINEWID
 40
0.0
  9
$SPLFRAME
 70
     0
  9
$SPLINETYPE
 70
     6
  9
$SPLINESEGS
 70
     8
  9
$HANDSEED
  5
FF
  9
$SURFTAB1
 70
     6
  9
$SURFTAB2
 70
     6
  9
$SURFTYPE
 70
     6
  9
$SURFU
 70
     6
  9
$SURFV
 70
     6
  9
$UCSBASE
  2

  9
$UCSNAME
  2

  9
$UCSORG
 10
0.0
 20
0.0
 30
0.0
  9
$UCSXDIR
 10
1.0
 20
0.0
 30
0.0
  9
$UCSYDIR
 10
0.0
 20
1.0
 30
0.0
  9
$UCSORTHOREF
  2

  9
$UCSORTHOVIEW
 70
     0
  9
$UCSORGTOP
 10
0.0
 20
0.0
 30
0.0
  9
$UCSORGBOTTOM
 10
0.0
 20
0.0
 30
0.0
  9
$UCSORGLEFT
 10
0.0
 20
0.0
 30
0.0
  9
$UCSORGRIGHT
 10
0.0
 20
0.0
 30
0.0
  9
$UCSORGFRONT
 10
0.0
 20
0.0
 30
0.0
  9
$UCSORGBACK
 10
0.0
 20
0.0
 30
0.0
  9
$PUCSBASE
  2

  9
$PUCSNAME
  2

  9
$PUCSORG
 10
0.0
 20
0.0
 30
0.0
  9
$PUCSXDIR
 10
1.0
 20
0.0
 30
0.0
  9
$PUCSYDIR
 10
0.0
 20
1.0
 30
0.0
  9
$PUCSORTHOREF
  2

  9
$PUCSORTHOVIEW
 70
     0
  9
$PUCSORGTOP
 10
0.0
 20
0.0
 30
0.0
  9
$PUCSORGBOTTOM
 10
0.0
 20
0.0
 30
0.0
  9
$PUCSORGLEFT
 10
0.0
 20
0.0
 30
0.0
  9
$PUCSORGRIGHT
 10
0.0
 20
0.0
 30
0.0
  9
$PUCSORGFRONT
 10
0.0
 20
0.0
 30
0.0
  9
$PUCSORGBACK
 10
0.0
 20
0.0
 30
0.0
  9
$USERI1
 70
     0
  9
$USERI2
 70
     0
  9
$USERI3
 70
     0
  9
$USERI4
 70
     0
  9
$USERI5
 70
     0
  9
$USERR1
 40
0.0
  9
$USERR2
 40
0.0
  9
$USERR3
 40
0.0
  9
$USERR4
 40
0.0
  9
$USERR5
 40
0.0
  9
$WORLDVIEW
 70
     1
  9
$SHADEDGE
 70
     3
  9
$SHADEDIF
 70
    70
  9
$TILEMODE
 70
     1
  9
$MAXACTVP
 70
    64
  9
$PINSBASE
 10
0.0
 20
0.0
 30
0.0
  9
$PLIMCHECK
 70
     0
  9
$PEXTMIN
 10
1.000000000000000E+20
 20
1.000000000000000E+20
 30
1.000000000000000E+20
  9
$PEXTMAX
 10
-1.000000000000000E+20
 20
-1.000000000000000E+20
 30
-1.000000000000000E+20
  9
$PLIMMIN
 10
0.0
 20
0.0
  9
$PLIMMAX
 10
12.0
 20
9.0
  9
$UNITMODE
 70
     0
  9
$VISRETAIN
 70
     1
  9
$PLINEGEN
 70
     0
  9
$PSLTSCALE
 70
     1
  9
$TREEDEPTH
 70
  3020
  9
$CMLSTYLE
  2
Standard
  9
$CMLJUST
 70
     0
  9
$CMLSCALE
 40
1.0
  9
$PROXYGRAPHICS
 70
     1
  9
$MEASUREMENT
 70
     0
  9
$CELWEIGHT
370
    -1
  9
$ENDCAPS
280
     0
  9
$JOINSTYLE
280
     0
  9
$LWDISPLAY
290
     1
  9
$INSUNITS
 70
     1
  9
$HYPERLINKBASE
  1

  9
$STYLESHEET
  1

  9
$XEDIT
290
     1
  9
$CEPSNTYPE
380
     0
  9
$PSTYLEMODE
290
     1
  9
$FINGERPRINTGUID
  2
{BA2A63A0-B996-C536-09CE-20EEF05319FB}
  9
$VERSIONGUID
  2
{FAEB1C32-E019-11D5-929B-00C0DF256EC4}
  9
$EXTNAMES
290
     1
  9
$PSVPSCALE
 40
0.0
  9
$OLESTARTUP
290
     0
  9
$SORTENTS
280
   127
  9
$INDEXCTL
280
     0
  9
$HIDETEXT
280
     1
  9
$XCLIPFRAME
280
     2
  9
$HALOGAP
280
     0
  9
$OBSCOLOR
 70
   257
  9
$OBSLTYPE
280
     0
  9
$INTERSECTIONDISPLAY
280
     0
  9
$INTERSECTIONCOLOR
 70
   257
  9
$DIMASSOC
280
     2
  9
$PROJECTNAME
  1

  9
$CAMERADISPLAY
290
     0
  9
$LENSLENGTH
 40
50.0
  9
$CAMERAHEIGHT
 40
0.0
  9
$STEPSPERSEC
 40
2.0
  9
$STEPSIZE
 40
6.0
  9
$3DDWFPREC
 40
2.0
  9
$PSOLWIDTH
 40
0.25
  9
$PSOLHEIGHT
 40
4.0
  9
$LOFTANG1
 40
1.570796326794897
  9
$LOFTANG2
 40
1.570796326794897
  9
$LOFTMAG1
 40
0.0
  9
$LOFTMAG2
 40
0.0
  9
$LOFTPARAM
 70
     7
  9
$LOFTNORMALS
280
     1
  9
$LATITUDE
 40
37.795
  9
$LONGITUDE
 40
-122.394
  9
$NORTHDIRECTION
 40
0.0
  9
$TIMEZONE
 70
 -8000
  9
$LIGHTGLYPHDISPLAY
280
     1
  9
$TILEMODELIGHTSYNCH
280
     1
  9
$CMATERIAL
347
3C
  9
$SOLIDHIST
280
     1
  9
$SHOWHIST
280
     1
  9
$DWFFRAME
280
     2
  9
$DGNFRAME
280
     2
  9
$REALWORLDSCALE
290
     1
  9
$INTERFERECOLOR
 62
   256
  9
$CSHADOW
280
     0
  9
$SHADOWPLANELOCATION
 40
0.0
  0
ENDSEC
  0
SECTION
  2
CLASSES
  0
CLASS
  1
ACDBDICTIONARYWDFLT
  2
AcDbDictionaryWithDefault
  3
ObjectDBX Classes
 90
        0
 91
        4
280
     0
281
     0
  0
CLASS
  1
VISUALSTYLE
  2
AcDbVisualStyle
  3
ObjectDBX Classes
 90
     4095
 91
        4
280
     0
281
     0
  0
CLASS
  1
MATERIAL
  2
AcDbMaterial
  3
ObjectDBX Classes
 90
     1153
 91
        4
280
     0
281
     0
  0
CLASS
  1
SUN
  2
AcDbSun
  3
SCENEOE
 90
     1024
 91
        4
280
     0
281
     0
  0
ENDSEC
  0
SECTION
  2
TABLES
  0
TABLE
  2
VPORT
  5
8
330
0
100
AcDbSymbolTable
 70
     1
  0
VPORT
  5
29
330
8
100
AcDbSymbolTableRecord
100
AcDbViewportTableRecord
  2
*Active
 70
     0
 10
0.0
 20
0.0
 11
1.0
 21
1.0
 12
0.0
 22
0.0
 13
0.0
 23
0.0
 14
0.5
 24
0.5
 15
0.5
 25
0.5
 16
0.0
 26
0.0
 36
1.0
 17
91.00082462281999
 27
-128.4993055234307
 37
0.0
 40
256.9986110468615
 41
0.7081814508812795
 42
50.0
 43
0.0
 44
0.0
 50
0.0
 51
0.0
 71
     0
 72
   100
 73
     1
 74
     3
 75
     0
 76
     0
 77
     0
 78
     0
281
     0
 65
     1
110
0.0
120
0.0
130
0.0
111
1.0
121
0.0
131
0.0
112
0.0
122
1.0
132
0.0
 79
     0
146
0.0
 60
     3
 61
     5
292
     1
282
     1
141
0.0
142
0.0
 63
   250
361
3F
  0
ENDTAB
  0
TABLE
  2
LTYPE
  5
5
330
0
100
AcDbSymbolTable
 70
     1
  0
LTYPE
  5
14
330
5
100
AcDbSymbolTableRecord
100
AcDbLinetypeTableRecord
  2
ByBlock
 70
     0
  3

 72
    65
 73
     0
 40
0.0
  0
LTYPE
  5
15
330
5
100
AcDbSymbolTableRecord
100
AcDbLinetypeTableRecord
  2
ByLayer
 70
     0
  3

 72
    65
 73
     0
 40
0.0
  0
LTYPE
  5
16
330
5
100
AcDbSymbolTableRecord
100
AcDbLinetypeTableRecord
  2
Continuous
 70
     0
  3
Solid line
 72
    65
 73
     0
 40
0.0
  0
ENDTAB
  0
TABLE
  2
LAYER
  5
2
330
0
100
AcDbSymbolTable
 70
     2
  0
LAYER
  5
10
330
2
100
AcDbSymbolTableRecord
100
AcDbLayerTableRecord
  2
0
 70
     0
 62
     7
  6
Continuous
370
    -3
390
F
347
3E
  0
LAYER
  5
40
330
2
100
AcDbSymbolTableRecord
100
AcDbLayerTableRecord
  2
_U+30EC_U+30A4_U+30E4_U+30FC 1
 70
     0
 62
     7
  6
Continuous
370
    -3
390
F
347
3E
  0
ENDTAB
  0
TABLE
  2
STYLE
  5
3
330
0
100
AcDbSymbolTable
 70
     1
  0
STYLE
  5
11
330
3
100
AcDbSymbolTableRecord
100
AcDbTextStyleTableRecord
  2
Standard
 70
     0
 40
0.0
 41
1.0
 50
0.0
 71
     0
 42
0.2
  3
txt
  4

  0
ENDTAB
  0
TABLE
  2
VIEW
  5
6
330
0
100
AcDbSymbolTable
 70
     0
  0
ENDTAB
  0
TABLE
  2
UCS
  5
7
330
0
100
AcDbSymbolTable
 70
     0
  0
ENDTAB
  0
TABLE
  2
APPID
  5
9
330
0
100
AcDbSymbolTable
 70
     1
  0
APPID
  5
12
330
9
100
AcDbSymbolTableRecord
100
AcDbRegAppTableRecord
  2
ACAD
 70
     0
  0
ENDTAB
  0
TABLE
  2
DIMSTYLE
  5
A
330
0
100
AcDbSymbolTable
 70
     1
100
AcDbDimStyleTable
  0
DIMSTYLE
105
27
330
A
100
AcDbSymbolTableRecord
100
AcDbDimStyleTableRecord
  2
Standard
 70
     0
178
     0
340
11
  0
ENDTAB
  0
TABLE
  2
BLOCK_RECORD
  5
1
330
0
100
AcDbSymbolTable
 70
     8
  0
BLOCK_RECORD
  5
1F
330
1
100
AcDbSymbolTableRecord
100
AcDbBlockTableRecord
  2
*Model_Space
340
22
 70
     0
280
     1
281
     0
  0
BLOCK_RECORD
  5
1B
330
1
100
AcDbSymbolTableRecord
100
AcDbBlockTableRecord
  2
*Paper_Space
340
1E
 70
     0
280
     1
281
     0
  0
BLOCK_RECORD
  5
23
330
1
100
AcDbSymbolTableRecord
100
AcDbBlockTableRecord
  2
*Paper_Space0
340
26
 70
     0
280
     1
281
     0
  0
BLOCK_RECORD
  5
B5
330
1
100
AcDbSymbolTableRecord
100
AcDbBlockTableRecord
  2
block 2
340
0
102
{BLKREFS
331
B6
102
}
 70
     0
280
     1
281
     0
  0
BLOCK_RECORD
  5
BB
330
1
100
AcDbSymbolTableRecord
100
AcDbBlockTableRecord
  2
block 3
340
0
102
{BLKREFS
331
BC
102
}
 70
     0
280
     1
281
     0
  0
BLOCK_RECORD
  5
C1
330
1
100
AcDbSymbolTableRecord
100
AcDbBlockTableRecord
  2
block 4
340
0
102
{BLKREFS
331
C2
102
}
 70
     0
280
     1
281
     0
  0
BLOCK_RECORD
  5
CA
330
1
100
AcDbSymbolTableRecord
100
AcDbBlockTableRecord
  2
block 5
340
0
102
{BLKREFS
331
CB
102
}
 70
     0
280
     1
281
     0
  0
BLOCK_RECORD
  5
D0
330
1
100
AcDbSymbolTableRecord
100
AcDbBlockTableRecord
  2
block 6
340
0
102
{BLKREFS
331
D1
102
}
 70
     0
280
     1
281
     0
  0
BLOCK_RECORD
  5
D8
330
1
100
AcDbSymbolTableRecord
100
AcDbBlockTableRecord
  2
block 7
340
0
102
{BLKREFS
331
D9
102
}
 70
     0
280
     1
281
     0
  0
BLOCK_RECORD
  5
E1
330
1
100
AcDbSymbolTableRecord
100
AcDbBlockTableRecord
  2
block 8
340
0
102
{BLKREFS
331
E2
102
}
 70
     0
280
     1
281
     0
  0
ENDTAB
  0
ENDSEC
  0
SECTION
  2
BLOCKS
  0
BLOCK
  5
20
330
1F
100
AcDbEntity
  8
0
100
AcDbBlockBegin
  2
*Model_Space
 70
     0
 10
0.0
 20
0.0
 30
0.0
  3
*Model_Space
  1

  0
ENDBLK
  5
21
330
1F
100
AcDbEntity
  8
0
100
AcDbBlockEnd
  0
BLOCK
  5
1C
330
1B
100
AcDbEntity
 67
     1
  8
0
100
AcDbBlockBegin
  2
*Paper_Space
 70
     0
 10
0.0
 20
0.0
 30
0.0
  3
*Paper_Space
  1

  0
ENDBLK
  5
1D
330
1B
100
AcDbEntity
 67
     1
  8
0
100
AcDbBlockEnd
  0
BLOCK
  5
24
330
23
100
AcDbEntity
  8
0
100
AcDbBlockBegin
  2
*Paper_Space0
 70
     0
 10
0.0
 20
0.0
 30
0.0
  3
*Paper_Space0
  1

  0
ENDBLK
  5
25
330
23
100
AcDbEntity
  8
0
100
AcDbBlockEnd
  0
BLOCK
  5
B7
330
B5
100
AcDbEntity
  8
0
100
AcDbBlockBegin
  2
block 2
 70
     0
 10
0.0
 20
0.0
 30
0.0
  3
block 2
  1

  0
SPLINE
  5
B9
330
B5
100
AcDbEntity
  8
_U+30EC_U+30A4_U+30E4_U+30FC 1
370
     0
100
AcDbSpline
210
0.0
220
0.0
230
1.0
 70
    11
 71
     3
 72
    62
 73
    58
 74
     0
 42
0.0000000001
 43
0.0000000001
 12
1.0
 22
0.0
 32
0.0
 13
1.0
 23
0.0
 33
0.0
 40
0.0
 40
0.0
 40
0.0
 40
0.0
 40
1.0
 40
1.0
 40
1.0
 40
2.0
 40
2.0
 40
2.0
 40
3.0
 40
3.0
 40
3.0
 40
4.0
 40
4.0
 40
4.0
 40
5.0
 40
5.0
 40
5.0
 40
6.0
 40
6.0
 40
6.0
 40
7.0
 40
7.0
 40
7.0
 40
8.0
 40
8.0
 40
8.0
 40
9.0
 40
9.0
 40
9.0
 40
10.0
 40
10.0
 40
10.0
 40
11.0
 40
11.0
 40
11.0
 40
12.0
 40
12.0
 40
12.0
 40
13.0
 40
13.0
 40
13.0
 40
14.0
 40
14.0
 40
14.0
 40
15.0
 40
15.0
 40
15.0
 40
16.0
 40
16.0
 40
16.0
 40
17.0
 40
17.0
 40
17.0
 40
18.0
 40
18.0
 40
18.0
 40
19.0
 40
19.0
 40
19.0
 40
19.0
 10
72.60831568280278
 20
-111.341696478241
 30
0.0
 10
72.50668536598792
 20
-111.341696478241
 30
0.0
 10
72.27379691118503
 20
-111.3205091410067
 30
0.0
 10
72.14029946113159
 20
-111.1343017300289
 30
0.0
 10
72.06123451974511
 20
-111.022163871984
 30
0.0
 10
72.05675589561429
 20
-110.9227728672346
 30
0.0
 10
72.0521050167092
 20
-110.8381957730717
 30
0.0
 10
72.0521050167092
 20
-110.8381957730717
 30
0.0
 10
72.28740503835176
 20
-110.8381957730717
 30
0.0
 10
72.28740503835176
 20
-110.8381957730717
 30
0.0
 10
72.28964435041718
 20
-110.9122653260046
 30
0.0
 10
72.30084091074424
 20
-111.1470485833243
 30
0.0
 10
72.60383705867196
 20
-111.1470485833243
 30
0.0
 10
72.75077038111786
 20
-111.1470485833243
 30
0.0
 10
72.91355114279592
 20
-111.077285399748
 30
0.0
 10
72.91355114279592
 20
-110.8487033143017
 30
0.0
 10
72.91355114279592
 20
-110.7324313416745
 30
0.0
 10
72.87289901606998
 20
-110.6836832405583
 30
0.0
 10
72.83896482554026
 20
-110.651988362094
 30
0.0
 10
72.75989988415378
 20
-110.5779188091611
 30
0.0
 10
72.63553193713626
 20
-110.5653442106399
 30
0.0
 10
72.57679305911275
 20
-110.5653442106399
 30
0.0
 10
72.55629474097552
 20
-110.5653442106399
 30
0.0
 10
72.51788192631497
 20
-110.5674112679311
 30
0.0
 10
72.48859861469036
 20
-110.5715453825134
 30
0.0
 10
72.48859861469036
 20
-110.5715453825134
 30
0.0
 10
72.48859861469036
 20
-110.377069742371
 30
0.0
 10
72.48859861469036
 20
-110.377069742371
 30
0.0
 10
72.5292507414163
 20
-110.3832709142445
 30
0.0
 10
72.57438149227308
 20
-110.3855102263099
 30
0.0
 10
72.58127168324357
 20
-110.3855102263099
 30
0.0
 10
72.65137937636841
 20
-110.3855102263099
 30
0.0
 10
72.86376951303406
 20
-110.3643228890756
 30
0.0
 10
72.86376951303406
 20
-110.1273003196904
 30
0.0
 10
72.86376951303406
 20
-109.9497056474258
 30
0.0
 10
72.72372638155865
 20
-109.8945841196618
 30
0.0
 10
72.60607637073737
 20
-109.8945841196618
 30
0.0
 10
72.32357854094688
 20
-109.8945841196618
 30
0.0
 10
72.31444903791098
 20
-110.1273003196904
 30
0.0
 10
72.30997041378015
 20
-110.1993028153321
 30
0.0
 10
72.30997041378015
 20
-110.1993028153321
 30
0.0
 10
72.0929293982094
 20
-110.1993028153321
 30
0.0
 10
72.0929293982094
 20
-110.1993028153321
 30
0.0
 10
72.10188664647106
 20
-110.0744181039918
 30
0.0
 10
72.13134221286994
 20
-109.697869167454
 30
0.0
 10
72.6196844979041
 20
-109.697869167454
 30
0.0
 10
72.85929088890323
 20
-109.697869167454
 30
0.0
 10
73.11698403119992
 20
-109.8248209360855
 30
0.0
 10
73.11698403119992
 20
-110.1209268930427
 30
0.0
 10
73.11698403119992
 20
-110.3071343040204
 30
0.0
 10
73.01535371438506
 20
-110.3896443408922
 30
0.0
 10
72.9090725186651
 20
-110.4509670405296
 30
0.0
 10
72.97470158765911
 20
-110.4785278044116
 30
0.0
 10
73.1690049730272
 20
-110.5589707839922
 30
0.0
 10
73.1690049730272
 20
-110.8361287157806
 30
0.0
 10
73.1690049730272
 20
-111.1746093472064
 30
0.0
 10
72.90459389453427
 20
-111.341696478241
 30
0.0
 10
72.60831568280278
 20
-111.341696478241
 30
0.0
  0
HATCH
  5
BA
330
B5
100
AcDbEntity
  8
_U+30EC_U+30A4_U+30E4_U+30FC 1
 62
   179
420
  2234388
100
AcDbHatch
 10
0.0
 20
0.0
 30
0.0
210
0.0
220
0.0
230
1.0
  2
SOLID
 70
     1
 71
     0
 91
        1
 92
        1
 93
        1
 72
     4
 94
        3
 73
     0
 74
     1
 95
       62
 96
       58
 40
0.0
 40
0.0
 40
0.0
 40
0.0
 40
1.0
 40
1.0
 40
1.0
 40
2.0
 40
2.0
 40
2.0
 40
3.0
 40
3.0
 40
3.0
 40
4.0
 40
4.0
 40
4.0
 40
5.0
 40
5.0
 40
5.0
 40
6.0
 40
6.0
 40
6.0
 40
7.0
 40
7.0
 40
7.0
 40
8.0
 40
8.0
 40
8.0
 40
9.0
 40
9.0
 40
9.0
 40
10.0
 40
10.0
 40
10.0
 40
11.0
 40
11.0
 40
11.0
 40
12.0
 40
12.0
 40
12.0
 40
13.0
 40
13.0
 40
13.0
 40
14.0
 40
14.0
 40
14.0
 40
15.0
 40
15.0
 40
15.0
 40
16.0
 40
16.0
 40
16.0
 40
17.0
 40
17.0
 40
17.0
 40
18.0
 40
18.0
 40
18.0
 40
19.0
 40
19.0
 40
19.0
 40
19.0
 10
72.60831568280278
 20
-111.341696478241
 10
72.50668536598792
 20
-111.341696478241
 10
72.27379691118503
 20
-111.3205091410067
 10
72.14029946113159
 20
-111.1343017300289
 10
72.06123451974511
 20
-111.022163871984
 10
72.05675589561429
 20
-110.9227728672346
 10
72.0521050167092
 20
-110.8381957730717
 10
72.0521050167092
 20
-110.8381957730717
 10
72.28740503835176
 20
-110.8381957730717
 10
72.28740503835176
 20
-110.8381957730717
 10
72.28964435041718
 20
-110.9122653260046
 10
72.30084091074424
 20
-111.1470485833243
 10
72.60383705867196
 20
-111.1470485833243
 10
72.75077038111786
 20
-111.1470485833243
 10
72.91355114279592
 20
-111.077285399748
 10
72.91355114279592
 20
-110.8487033143017
 10
72.91355114279592
 20
-110.7324313416745
 10
72.87289901606998
 20
-110.6836832405583
 10
72.83896482554026
 20
-110.651988362094
 10
72.75989988415378
 20
-110.5779188091611
 10
72.63553193713626
 20
-110.5653442106399
 10
72.57679305911275
 20
-110.5653442106399
 10
72.55629474097552
 20
-110.5653442106399
 10
72.51788192631497
 20
-110.5674112679311
 10
72.48859861469036
 20
-110.5715453825134
 10
72.48859861469036
 20
-110.5715453825134
 10
72.48859861469036
 20
-110.377069742371
 10
72.48859861469036
 20
-110.377069742371
 10
72.5292507414163
 20
-110.3832709142445
 10
72.57438149227308
 20
-110.3855102263099
 10
72.58127168324357
 20
-110.3855102263099
 10
72.65137937636841
 20
-110.3855102263099
 10
72.86376951303406
 20
-110.3643228890756
 10
72.86376951303406
 20
-110.1273003196904
 10
72.86376951303406
 20
-109.9497056474258
 10
72.72372638155865
 20
-109.8945841196618
 10
72.60607637073737
 20
-109.8945841196618
 10
72.32357854094688
 20
-109.8945841196618
 10
72.31444903791098
 20
-110.1273003196904
 10
72.30997041378015
 20
-110.1993028153321
 10
72.30997041378015
 20
-110.1993028153321
 10
72.0929293982094
 20
-110.1993028153321
 10
72.0929293982094
 20
-110.1993028153321
 10
72.10188664647106
 20
-110.0744181039918
 10
72.13134221286994
 20
-109.697869167454
 10
72.6196844979041
 20
-109.697869167454
 10
72.85929088890323
 20
-109.697869167454
 10
73.11698403119992
 20
-109.8248209360855
 10
73.11698403119992
 20
-110.1209268930427
 10
73.11698403119992
 20
-110.3071343040204
 10
73.01535371438506
 20
-110.3896443408922
 10
72.9090725186651
 20
-110.4509670405296
 10
72.97470158765911
 20
-110.4785278044116
 10
73.1690049730272
 20
-110.5589707839922
 10
73.1690049730272
 20
-110.8361287157806
 10
73.1690049730272
 20
-111.1746093472064
 10
72.90459389453427
 20
-111.341696478241
 10
72.60831568280278
 20
-111.341696478241
 97
        0
 97
        0
 75
     2
 76
     1
 98
        0
  0
ENDBLK
  5
B8
330
B5
100
AcDbEntity
  8
0
100
AcDbBlockEnd
  0
BLOCK
  5
BD
330
BB
100
AcDbEntity
  8
0
100
AcDbBlockBegin
  2
block 3
 70
     0
 10
0.0
 20
0.0
 30
0.0
  3
block 3
  1

  0
SPLINE
  5
BF
330
BB
100
AcDbEntity
  8
_U+30EC_U+30A4_U+30E4_U+30FC 1
370
     0
100
AcDbSpline
210
0.0
220
0.0
230
1.0
 70
    11
 71
     3
 72
    26
 73
    22
 74
     0
 42
0.0000000001
 43
0.0000000001
 12
1.0
 22
0.0
 32
0.0
 13
1.0
 23
0.0
 33
0.0
 40
0.0
 40
0.0
 40
0.0
 40
0.0
 40
1.0
 40
1.0
 40
1.0
 40
2.0
 40
2.0
 40
2.0
 40
3.0
 40
3.0
 40
3.0
 40
4.0
 40
4.0
 40
4.0
 40
5.0
 40
5.0
 40
5.0
 40
6.0
 40
6.0
 40
6.0
 40
7.0
 40
7.0
 40
7.0
 40
7.0
 10
117.5824869497711
 20
-125.4772677637696
 30
0.0
 10
117.5824869497711
 20
-125.4772677637696
 30
0.0
 10
116.4783338467485
 20
-125.4772677637696
 30
0.0
 10
116.4783338467485
 20
-125.4772677637696
 30
0.0
 10
116.4783338467485
 20
-125.4772677637696
 30
0.0
 10
116.4783338467485
 20
-125.8300455414592
 30
0.0
 10
116.4783338467485
 20
-125.8300455414592
 30
0.0
 10
116.4783338467485
 20
-125.8300455414592
 30
0.0
 10
116.3301947408827
 20
-125.8300455414592
 30
0.0
 10
116.3301947408827
 20
-125.8300455414592
 30
0.0
 10
116.3153808302962
 20
-125.4750284517042
 30
0.0
 10
116.1524278138438
 20
-125.4252468219423
 30
0.0
 10
116.0380506437335
 20
-125.393551943478
 30
0.0
 10
116.0380506437335
 20
-125.393551943478
 30
0.0
 10
116.0380506437335
 20
-125.2376613727704
 30
0.0
 10
116.0380506437335
 20
-125.2376613727704
 30
0.0
 10
116.0380506437335
 20
-125.2376613727704
 30
0.0
 10
117.5824869497711
 20
-125.2376613727704
 30
0.0
 10
117.5824869497711
 20
-125.2376613727704
 30
0.0
 10
117.5824869497711
 20
-125.2376613727704
 30
0.0
 10
117.5824869497711
 20
-125.4772677637696
 30
0.0
 10
117.5824869497711
 20
-125.4772677637696
 30
0.0
  0
HATCH
  5
C0
330
BB
100
AcDbEntity
  8
_U+30EC_U+30A4_U+30E4_U+30FC 1
 62
   179
420
  2234388
100
AcDbHatch
 10
0.0
 20
0.0
 30
0.0
210
0.0
220
0.0
230
1.0
  2
SOLID
 70
     1
 71
     0
 91
        1
 92
        1
 93
        1
 72
     4
 94
        3
 73
     0
 74
     1
 95
       26
 96
       22
 40
0.0
 40
0.0
 40
0.0
 40
0.0
 40
1.0
 40
1.0
 40
1.0
 40
2.0
 40
2.0
 40
2.0
 40
3.0
 40
3.0
 40
3.0
 40
4.0
 40
4.0
 40
4.0
 40
5.0
 40
5.0
 40
5.0
 40
6.0
 40
6.0
 40
6.0
 40
7.0
 40
7.0
 40
7.0
 40
7.0
 10
117.5824869497711
 20
-125.4772677637696
 10
117.5824869497711
 20
-125.4772677637696
 10
116.4783338467485
 20
-125.4772677637696
 10
116.4783338467485
 20
-125.4772677637696
 10
116.4783338467485
 20
-125.4772677637696
 10
116.4783338467485
 20
-125.8300455414592
 10
116.4783338467485
 20
-125.8300455414592
 10
116.4783338467485
 20
-125.8300455414592
 10
116.3301947408827
 20
-125.8300455414592
 10
116.3301947408827
 20
-125.8300455414592
 10
116.3153808302962
 20
-125.4750284517042
 10
116.1524278138438
 20
-125.4252468219423
 10
116.0380506437335
 20
-125.393551943478
 10
116.0380506437335
 20
-125.393551943478
 10
116.0380506437335
 20
-125.2376613727704
 10
116.0380506437335
 20
-125.2376613727704
 10
116.0380506437335
 20
-125.2376613727704
 10
117.5824869497711
 20
-125.2376613727704
 10
117.5824869497711
 20
-125.2376613727704
 10
117.5824869497711
 20
-125.2376613727704
 10
117.5824869497711
 20
-125.4772677637696
 10
117.5824869497711
 20
-125.4772677637696
 97
        0
 97
        0
 75
     2
 76
     1
 98
        0
  0
ENDBLK
  5
BE
330
BB
100
AcDbEntity
  8
0
100
AcDbBlockEnd
  0
BLOCK
  5
C3
330
C1
100
AcDbEntity
  8
0
100
AcDbBlockBegin
  2
block 4
 70
     0
 10
0.0
 20
0.0
 30
0.0
  3
block 4
  1

  0
SPLINE
  5
C5
330
C1
100
AcDbEntity
  8
_U+30EC_U+30A4_U+30E4_U+30FC 1
370
     0
100
AcDbSpline
210
0.0
220
0.0
230
1.0
 70
    11
 71
     3
 72
    26
 73
    22
 74
     0
 42
0.0000000001
 43
0.0000000001
 12
1.0
 22
0.0
 32
0.0
 13
1.0
 23
0.0
 33
0.0
 40
0.0
 40
0.0
 40
0.0
 40
0.0
 40
1.0
 40
1.0
 40
1.0
 40
2.0
 40
2.0
 40
2.0
 40
3.0
 40
3.0
 40
3.0
 40
4.0
 40
4.0
 40
4.0
 40
5.0
 40
5.0
 40
5.0
 40
6.0
 40
6.0
 40
6.0
 40
7.0
 40
7.0
 40
7.0
 40
7.0
 10
117.5824869497711
 20
-133.0302951056313
 30
0.0
 10
117.5824869497711
 20
-133.0302951056313
 30
0.0
 10
116.4779893372
 20
-133.0302951056313
 30
0.0
 10
116.4779893372
 20
-133.0302951056313
 30
0.0
 10
116.4779893372
 20
-133.0302951056313
 30
0.0
 10
116.4779893372
 20
-133.3830728833209
 30
0.0
 10
116.4779893372
 20
-133.3830728833209
 30
0.0
 10
116.4779893372
 20
-133.3830728833209
 30
0.0
 10
116.3298502313342
 20
-133.3830728833209
 30
0.0
 10
116.3298502313342
 20
-133.3830728833209
 30
0.0
 10
116.3153808302962
 20
-133.0282280483402
 30
0.0
 10
116.1524278138438
 20
-132.9786186733526
 30
0.0
 10
116.0383951532821
 20
-132.9469237948883
 30
0.0
 10
116.0383951532821
 20
-132.9469237948883
 30
0.0
 10
116.0383951532821
 20
-132.7908609694065
 30
0.0
 10
116.0383951532821
 20
-132.7908609694065
 30
0.0
 10
116.0383951532821
 20
-132.7908609694065
 30
0.0
 10
117.5824869497711
 20
-132.7908609694065
 30
0.0
 10
117.5824869497711
 20
-132.7908609694065
 30
0.0
 10
117.5824869497711
 20
-132.7908609694065
 30
0.0
 10
117.5824869497711
 20
-133.0302951056313
 30
0.0
 10
117.5824869497711
 20
-133.0302951056313
 30
0.0
  0
HATCH
  5
C6
330
C1
100
AcDbEntity
  8
_U+30EC_U+30A4_U+30E4_U+30FC 1
 62
   179
420
  2234388
100
AcDbHatch
 10
0.0
 20
0.0
 30
0.0
210
0.0
220
0.0
230
1.0
  2
SOLID
 70
     1
 71
     0
 91
        1
 92
        1
 93
        1
 72
     4
 94
        3
 73
     0
 74
     1
 95
       26
 96
       22
 40
0.0
 40
0.0
 40
0.0
 40
0.0
 40
1.0
 40
1.0
 40
1.0
 40
2.0
 40
2.0
 40
2.0
 40
3.0
 40
3.0
 40
3.0
 40
4.0
 40
4.0
 40
4.0
 40
5.0
 40
5.0
 40
5.0
 40
6.0
 40
6.0
 40
6.0
 40
7.0
 40
7.0
 40
7.0
 40
7.0
 10
117.5824869497711
 20
-133.0302951056313
 10
117.5824869497711
 20
-133.0302951056313
 10
116.4779893372
 20
-133.0302951056313
 10
116.4779893372
 20
-133.0302951056313
 10
116.4779893372
 20
-133.0302951056313
 10
116.4779893372
 20
-133.3830728833209
 10
116.4779893372
 20
-133.3830728833209
 10
116.4779893372
 20
-133.3830728833209
 10
116.3298502313342
 20
-133.3830728833209
 10
116.3298502313342
 20
-133.3830728833209
 10
116.3153808302962
 20
-133.0282280483402
 10
116.1524278138438
 20
-132.9786186733526
 10
116.0383951532821
 20
-132.9469237948883
 10
116.0383951532821
 20
-132.9469237948883
 10
116.0383951532821
 20
-132.7908609694065
 10
116.0383951532821
 20
-132.7908609694065
 10
116.0383951532821
 20
-132.7908609694065
 10
117.5824869497711
 20
-132.7908609694065
 10
117.5824869497711
 20
-132.7908609694065
 10
117.5824869497711
 20
-132.7908609694065
 10
117.5824869497711
 20
-133.0302951056313
 10
117.5824869497711
 20
-133.0302951056313
 97
        0
 97
        0
 75
     2
 76
     1
 98
        0
  0
SPLINE
  5
C7
330
C1
100
AcDbEntity
  8
_U+30EC_U+30A4_U+30E4_U+30FC 1
370
     0
100
AcDbSpline
210
0.0
220
0.0
230
1.0
 70
    11
 71
     3
 72
    29
 73
    25
 74
     0
 42
0.0000000001
 43
0.0000000001
 12
1.0
 22
0.0
 32
0.0
 13
1.0
 23
0.0
 33
0.0
 40
0.0
 40
0.0
 40
0.0
 40
0.0
 40
1.0
 40
1.0
 40
1.0
 40
2.0
 40
2.0
 40
2.0
 40
3.0
 40
3.0
 40
3.0
 40
4.0
 40
4.0
 40
4.0
 40
5.0
 40
5.0
 40
5.0
 40
6.0
 40
6.0
 40
6.0
 40
7.0
 40
7.0
 40
7.0
 40
8.0
 40
8.0
 40
8.0
 40
8.0
 10
117.4047200227322
 20
-131.295689528808
 30
0.0
 10
117.6141818282353
 20
-131.4111002275639
 30
0.0
 10
117.6334743629528
 20
-131.5964463646703
 30
0.0
 10
117.6334743629528
 20
-131.7204698021393
 30
0.0
 10
117.6334743629528
 20
-131.8927245764018
 30
0.0
 10
117.5866210643534
 20
-132.0439642682043
 30
0.0
 10
117.4047200227322
 20
-132.1455945850192
 30
0.0
 10
117.2104166373641
 20
-132.2565266596442
 30
0.0
 10
116.9733940679789
 20
-132.2768527230072
 30
0.0
 10
116.810096541978
 20
-132.2768527230072
 30
0.0
 10
116.6664360602431
 20
-132.2768527230072
 30
0.0
 10
116.4145995802714
 20
-132.2585937169354
 30
0.0
 10
116.2158175707724
 20
-132.1455945850192
 30
0.0
 10
116.0129014466912
 20
-132.0305283958118
 30
0.0
 10
115.9894747973915
 20
-131.8586181310978
 30
0.0
 10
115.9894747973915
 20
-131.7204698021393
 30
0.0
 10
115.9894747973915
 20
-131.550971104265
 30
0.0
 10
116.0339165291512
 20
-131.3973198456229
 30
0.0
 10
116.2158175707724
 20
-131.295689528808
 30
0.0
 10
116.4083984083979
 20
-131.1892360783138
 30
0.0
 10
116.63680823907
 20
-131.16443139082
 30
0.0
 10
116.810096541978
 20
-131.16443139082
 30
0.0
 10
116.9816622971435
 20
-131.16443139082
 30
0.0
 10
117.2124836946552
 20
-131.1871690210227
 30
0.0
 10
117.4047200227322
 20
-131.295689528808
 30
0.0
  0
SPLINE
  5
C8
330
C1
100
AcDbEntity
  8
_U+30EC_U+30A4_U+30E4_U+30FC 1
370
     0
100
AcDbSpline
210
0.0
220
0.0
230
1.0
 70
    11
 71
     3
 72
    17
 73
    13
 74
     0
 42
0.0000000001
 43
0.0000000001
 12
1.0
 22
0.0
 32
0.0
 13
1.0
 23
0.0
 33
0.0
 40
0.0
 40
0.0
 40
0.0
 40
0.0
 40
1.0
 40
1.0
 40
1.0
 40
2.0
 40
2.0
 40
2.0
 40
3.0
 40
3.0
 40
3.0
 40
4.0
 40
4.0
 40
4.0
 40
4.0
 10
116.182055635017
 20
-131.7204698021393
 30
0.0
 10
116.182055635017
 20
-131.9874647022462
 30
0.0
 10
116.4655869934531
 20
-132.0374185867823
 30
0.0
 10
116.810096541978
 20
-132.0374185867823
 30
0.0
 10
117.1298014030092
 20
-132.0374185867823
 30
0.0
 10
117.4384819584876
 20
-131.9988335173475
 30
0.0
 10
117.4384819584876
 20
-131.7204698021393
 30
0.0
 10
117.4384819584876
 20
-131.4562309784207
 30
0.0
 10
117.1573621668912
 20
-131.4042100365934
 30
0.0
 10
116.810096541978
 20
-131.4042100365934
 30
0.0
 10
116.4910807000439
 20
-131.4042100365934
 30
0.0
 10
116.182055635017
 20
-131.4448621633194
 30
0.0
 10
116.182055635017
 20
-131.7204698021393
 30
0.0
  0
HATCH
  5
C9
330
C1
100
AcDbEntity
  8
_U+30EC_U+30A4_U+30E4_U+30FC 1
 62
   179
420
  2234388
100
AcDbHatch
 10
0.0
 20
0.0
 30
0.0
210
0.0
220
0.0
230
1.0
  2
SOLID
 70
     1
 71
     0
 91
        2
 92
        1
 93
        1
 72
     4
 94
        3
 73
     0
 74
     1
 95
       29
 96
       25
 40
0.0
 40
0.0
 40
0.0
 40
0.0
 40
1.0
 40
1.0
 40
1.0
 40
2.0
 40
2.0
 40
2.0
 40
3.0
 40
3.0
 40
3.0
 40
4.0
 40
4.0
 40
4.0
 40
5.0
 40
5.0
 40
5.0
 40
6.0
 40
6.0
 40
6.0
 40
7.0
 40
7.0
 40
7.0
 40
8.0
 40
8.0
 40
8.0
 40
8.0
 10
117.4047200227322
 20
-131.295689528808
 10
117.6141818282353
 20
-131.4111002275639
 10
117.6334743629528
 20
-131.5964463646703
 10
117.6334743629528
 20
-131.7204698021393
 10
117.6334743629528
 20
-131.8927245764018
 10
117.5866210643534
 20
-132.0439642682043
 10
117.4047200227322
 20
-132.1455945850192
 10
117.2104166373641
 20
-132.2565266596442
 10
116.9733940679789
 20
-132.2768527230072
 10
116.810096541978
 20
-132.2768527230072
 10
116.6664360602431
 20
-132.2768527230072
 10
116.4145995802714
 20
-132.2585937169354
 10
116.2158175707724
 20
-132.1455945850192
 10
116.0129014466912
 20
-132.0305283958118
 10
115.9894747973915
 20
-131.8586181310978
 10
115.9894747973915
 20
-131.7204698021393
 10
115.9894747973915
 20
-131.550971104265
 10
116.0339165291512
 20
-131.3973198456229
 10
116.2158175707724
 20
-131.295689528808
 10
116.4083984083979
 20
-131.1892360783138
 10
116.63680823907
 20
-131.16443139082
 10
116.810096541978
 20
-131.16443139082
 10
116.9816622971435
 20
-131.16443139082
 10
117.2124836946552
 20
-131.1871690210227
 10
117.4047200227322
 20
-131.295689528808
 97
        0
 97
        0
 92
        1
 93
        1
 72
     4
 94
        3
 73
     0
 74
     1
 95
       17
 96
       13
 40
0.0
 40
0.0
 40
0.0
 40
0.0
 40
1.0
 40
1.0
 40
1.0
 40
2.0
 40
2.0
 40
2.0
 40
3.0
 40
3.0
 40
3.0
 40
4.0
 40
4.0
 40
4.0
 40
4.0
 10
116.182055635017
 20
-131.7204698021393
 10
116.182055635017
 20
-131.9874647022462
 10
116.4655869934531
 20
-132.0374185867823
 10
116.810096541978
 20
-132.0374185867823
 10
117.1298014030092
 20
-132.0374185867823
 10
117.4384819584876
 20
-131.9988335173475
 10
117.4384819584876
 20
-131.7204698021393
 10
117.4384819584876
 20
-131.4562309784207
 10
117.1573621668912
 20
-131.4042100365934
 10
116.810096541978
 20
-131.4042100365934
 10
116.4910807000439
 20
-131.4042100365934
 10
116.182055635017
 20
-131.4448621633194
 10
116.182055635017
 20
-131.7204698021393
 97
        0
 97
        0
 75
     2
 76
     1
 98
        0
  0
ENDBLK
  5
C4
330
C1
100
AcDbEntity
  8
0
100
AcDbBlockEnd
  0
BLOCK
  5
CC
330
CA
100
AcDbEntity
  8
0
100
AcDbBlockBegin
  2
block 5
 70
     0
 10
0.0
 20
0.0
 30
0.0
  3
block 5
  1

  0
SPLINE
  5
CE
330
CA
100
AcDbEntity
  8
_U+30EC_U+30A4_U+30E4_U+30FC 1
370
     0
100
AcDbSpline
210
0.0
220
0.0
230
1.0
 70
    11
 71
     3
 72
    62
 73
    58
 74
     0
 42
0.0000000001
 43
0.0000000001
 12
1.0
 22
0.0
 32
0.0
 13
1.0
 23
0.0
 33
0.0
 40
0.0
 40
0.0
 40
0.0
 40
0.0
 40
1.0
 40
1.0
 40
1.0
 40
2.0
 40
2.0
 40
2.0
 40
3.0
 40
3.0
 40
3.0
 40
4.0
 40
4.0
 40
4.0
 40
5.0
 40
5.0
 40
5.0
 40
6.0
 40
6.0
 40
6.0
 40
7.0
 40
7.0
 40
7.0
 40
8.0
 40
8.0
 40
8.0
 40
9.0
 40
9.0
 40
9.0
 40
10.0
 40
10.0
 40
10.0
 40
11.0
 40
11.0
 40
11.0
 40
12.0
 40
12.0
 40
12.0
 40
13.0
 40
13.0
 40
13.0
 40
14.0
 40
14.0
 40
14.0
 40
15.0
 40
15.0
 40
15.0
 40
16.0
 40
16.0
 40
16.0
 40
17.0
 40
17.0
 40
17.0
 40
18.0
 40
18.0
 40
18.0
 40
19.0
 40
19.0
 40
19.0
 40
19.0
 10
117.6331298534042
 20
-138.8180555208511
 30
0.0
 10
117.6331298534042
 20
-138.9196858376659
 30
0.0
 10
117.6121147709442
 20
-139.1525742924688
 30
0.0
 10
117.4260796147407
 20
-139.285899487748
 30
0.0
 10
117.3137695019216
 20
-139.3651366839087
 30
0.0
 10
117.2145507519464
 20
-139.3696153080396
 30
0.0
 10
117.1298014030092
 20
-139.3740939321704
 30
0.0
 10
117.1298014030092
 20
-139.3740939321704
 30
0.0
 10
117.1298014030092
 20
-139.1391384200763
 30
0.0
 10
117.1298014030092
 20
-139.1391384200763
 30
0.0
 10
117.2038709559421
 20
-139.1367268532367
 30
0.0
 10
117.4384819584876
 20
-139.1253580381353
 30
0.0
 10
117.4384819584876
 20
-138.8225341449819
 30
0.0
 10
117.4384819584876
 20
-138.6754285677617
 30
0.0
 10
117.3688910296856
 20
-138.5128200608579
 30
0.0
 10
117.1404811990135
 20
-138.5128200608579
 30
0.0
 10
117.024036971612
 20
-138.5128200608579
 30
0.0
 10
116.97546112527
 20
-138.5534721875838
 30
0.0
 10
116.9437662468057
 20
-138.5872341233393
 30
0.0
 10
116.8696966938729
 20
-138.6664713195001
 30
0.0
 10
116.8569498405774
 20
-138.7908392665176
 30
0.0
 10
116.8569498405774
 20
-138.8497503993154
 30
0.0
 10
116.8569498405774
 20
-138.8700764626783
 30
0.0
 10
116.8590168978686
 20
-138.9083170225646
 30
0.0
 10
116.8631510124509
 20
-138.9379448437377
 30
0.0
 10
116.8631510124509
 20
-138.9379448437377
 30
0.0
 10
116.6685031175343
 20
-138.9379448437377
 30
0.0
 10
116.6685031175343
 20
-138.9379448437377
 30
0.0
 10
116.6750487989562
 20
-138.8972927170118
 30
0.0
 10
116.6771158562474
 20
-138.8518174566065
 30
0.0
 10
116.6771158562474
 20
-138.8452717751845
 30
0.0
 10
116.6771158562474
 20
-138.7749918272854
 30
0.0
 10
116.6557562642388
 20
-138.5624294358455
 30
0.0
 10
116.4190782044022
 20
-138.5624294358455
 30
0.0
 10
116.2413112773633
 20
-138.5624294358455
 30
0.0
 10
116.1861897495993
 20
-138.7026448220952
 30
0.0
 10
116.1861897495993
 20
-138.8201225781422
 30
0.0
 10
116.1861897495993
 20
-139.1029649174812
 30
0.0
 10
116.4190782044022
 20
-139.1119221657429
 30
0.0
 10
116.4907361904954
 20
-139.1164007898737
 30
0.0
 10
116.4907361904954
 20
-139.1164007898737
 30
0.0
 10
116.4907361904954
 20
-139.3334418054444
 30
0.0
 10
116.4907361904954
 20
-139.3334418054444
 30
0.0
 10
116.3660237339293
 20
-139.3244845571828
 30
0.0
 10
115.9894747973915
 20
-139.2952012455582
 30
0.0
 10
115.9894747973915
 20
-138.8066867057497
 30
0.0
 10
115.9894747973915
 20
-138.5669080599763
 30
0.0
 10
116.1165988207973
 20
-138.3092149176796
 30
0.0
 10
116.4125325229802
 20
-138.3092149176796
 30
0.0
 10
116.5989121887322
 20
-138.3092149176796
 30
0.0
 10
116.6812499708297
 20
-138.411189744043
 30
0.0
 10
116.7425726704671
 20
-138.5172986849887
 30
0.0
 10
116.7701334343491
 20
-138.451841870769
 30
0.0
 10
116.8504041591555
 20
-138.2571939758524
 30
0.0
 10
117.1277343457181
 20
-138.2571939758524
 30
0.0
 10
117.4660427223696
 20
-138.2571939758524
 30
0.0
 10
117.6331298534042
 20
-138.5217773091196
 30
0.0
 10
117.6331298534042
 20
-138.8180555208511
 30
0.0
  0
HATCH
  5
CF
330
CA
100
AcDbEntity
  8
_U+30EC_U+30A4_U+30E4_U+30FC 1
 62
   179
420
  2234388
100
AcDbHatch
 10
0.0
 20
0.0
 30
0.0
210
0.0
220
0.0
230
1.0
  2
SOLID
 70
     1
 71
     0
 91
        1
 92
        1
 93
        1
 72
     4
 94
        3
 73
     0
 74
     1
 95
       62
 96
       58
 40
0.0
 40
0.0
 40
0.0
 40
0.0
 40
1.0
 40
1.0
 40
1.0
 40
2.0
 40
2.0
 40
2.0
 40
3.0
 40
3.0
 40
3.0
 40
4.0
 40
4.0
 40
4.0
 40
5.0
 40
5.0
 40
5.0
 40
6.0
 40
6.0
 40
6.0
 40
7.0
 40
7.0
 40
7.0
 40
8.0
 40
8.0
 40
8.0
 40
9.0
 40
9.0
 40
9.0
 40
10.0
 40
10.0
 40
10.0
 40
11.0
 40
11.0
 40
11.0
 40
12.0
 40
12.0
 40
12.0
 40
13.0
 40
13.0
 40
13.0
 40
14.0
 40
14.0
 40
14.0
 40
15.0
 40
15.0
 40
15.0
 40
16.0
 40
16.0
 40
16.0
 40
17.0
 40
17.0
 40
17.0
 40
18.0
 40
18.0
 40
18.0
 40
19.0
 40
19.0
 40
19.0
 40
19.0
 10
117.6331298534042
 20
-138.8180555208511
 10
117.6331298534042
 20
-138.9196858376659
 10
117.6121147709442
 20
-139.1525742924688
 10
117.4260796147407
 20
-139.285899487748
 10
117.3137695019216
 20
-139.3651366839087
 10
117.2145507519464
 20
-139.3696153080396
 10
117.1298014030092
 20
-139.3740939321704
 10
117.1298014030092
 20
-139.3740939321704
 10
117.1298014030092
 20
-139.1391384200763
 10
117.1298014030092
 20
-139.1391384200763
 10
117.2038709559421
 20
-139.1367268532367
 10
117.4384819584876
 20
-139.1253580381353
 10
117.4384819584876
 20
-138.8225341449819
 10
117.4384819584876
 20
-138.6754285677617
 10
117.3688910296856
 20
-138.5128200608579
 10
117.1404811990135
 20
-138.5128200608579
 10
117.024036971612
 20
-138.5128200608579
 10
116.97546112527
 20
-138.5534721875838
 10
116.9437662468057
 20
-138.5872341233393
 10
116.8696966938729
 20
-138.6664713195001
 10
116.8569498405774
 20
-138.7908392665176
 10
116.8569498405774
 20
-138.8497503993154
 10
116.8569498405774
 20
-138.8700764626783
 10
116.8590168978686
 20
-138.9083170225646
 10
116.8631510124509
 20
-138.9379448437377
 10
116.8631510124509
 20
-138.9379448437377
 10
116.6685031175343
 20
-138.9379448437377
 10
116.6685031175343
 20
-138.9379448437377
 10
116.6750487989562
 20
-138.8972927170118
 10
116.6771158562474
 20
-138.8518174566065
 10
116.6771158562474
 20
-138.8452717751845
 10
116.6771158562474
 20
-138.7749918272854
 10
116.6557562642388
 20
-138.5624294358455
 10
116.4190782044022
 20
-138.5624294358455
 10
116.2413112773633
 20
-138.5624294358455
 10
116.1861897495993
 20
-138.7026448220952
 10
116.1861897495993
 20
-138.8201225781422
 10
116.1861897495993
 20
-139.1029649174812
 10
116.4190782044022
 20
-139.1119221657429
 10
116.4907361904954
 20
-139.1164007898737
 10
116.4907361904954
 20
-139.1164007898737
 10
116.4907361904954
 20
-139.3334418054444
 10
116.4907361904954
 20
-139.3334418054444
 10
116.3660237339293
 20
-139.3244845571828
 10
115.9894747973915
 20
-139.2952012455582
 10
115.9894747973915
 20
-138.8066867057497
 10
115.9894747973915
 20
-138.5669080599763
 10
116.1165988207973
 20
-138.3092149176796
 10
116.4125325229802
 20
-138.3092149176796
 10
116.5989121887322
 20
-138.3092149176796
 10
116.6812499708297
 20
-138.411189744043
 10
116.7425726704671
 20
-138.5172986849887
 10
116.7701334343491
 20
-138.451841870769
 10
116.8504041591555
 20
-138.2571939758524
 10
117.1277343457181
 20
-138.2571939758524
 10
117.4660427223696
 20
-138.2571939758524
 10
117.6331298534042
 20
-138.5217773091196
 10
117.6331298534042
 20
-138.8180555208511
 97
        0
 97
        0
 75
     2
 76
     1
 98
        0
  0
ENDBLK
  5
CD
330
CA
100
AcDbEntity
  8
0
100
AcDbBlockEnd
  0
BLOCK
  5
D2
330
D0
100
AcDbEntity
  8
0
100
AcDbBlockBegin
  2
block 6
 70
     0
 10
0.0
 20
0.0
 30
0.0
  3
block 6
  1

  0
SPLINE
  5
D4
330
D0
100
AcDbEntity
  8
_U+30EC_U+30A4_U+30E4_U+30FC 1
370
     0
100
AcDbSpline
210
0.0
220
0.0
230
1.0
 70
    11
 71
     3
 72
    44
 73
    40
 74
     0
 42
0.0000000001
 43
0.0000000001
 12
1.0
 22
0.0
 32
0.0
 13
1.0
 23
0.0
 33
0.0
 40
0.0
 40
0.0
 40
0.0
 40
0.0
 40
1.0
 40
1.0
 40
1.0
 40
2.0
 40
2.0
 40
2.0
 40
3.0
 40
3.0
 40
3.0
 40
4.0
 40
4.0
 40
4.0
 40
5.0
 40
5.0
 40
5.0
 40
6.0
 40
6.0
 40
6.0
 40
7.0
 40
7.0
 40
7.0
 40
8.0
 40
8.0
 40
8.0
 40
9.0
 40
9.0
 40
9.0
 40
10.0
 40
10.0
 40
10.0
 40
11.0
 40
11.0
 40
11.0
 40
12.0
 40
12.0
 40
12.0
 40
13.0
 40
13.0
 40
13.0
 40
13.0
 10
65.35483939338351
 20
-130.3844617729594
 30
0.0
 10
65.51365829525353
 20
-130.6173502277623
 30
0.0
 10
65.5877278481864
 20
-130.7169134872861
 30
0.0
 10
65.73138832992132
 20
-130.7689344291133
 30
0.0
 10
65.73138832992132
 20
-130.7689344291133
 30
0.0
 10
65.73138832992132
 20
-129.936599359877
 30
0.0
 10
65.73138832992132
 20
-129.936599359877
 30
0.0
 10
65.73138832992132
 20
-129.936599359877
 30
0.0
 10
65.93671602084221
 20
-129.936599359877
 30
0.0
 10
65.93671602084221
 20
-129.936599359877
 30
0.0
 10
65.93671602084221
 20
-129.936599359877
 30
0.0
 10
65.93671602084221
 20
-131.0355848196717
 30
0.0
 10
65.93671602084221
 20
-131.0355848196717
 30
0.0
 10
65.57911510947328
 20
-131.0014783743677
 30
0.0
 10
65.50091144195811
 20
-130.9315429360171
 30
0.0
 10
65.20256617293548
 20
-130.5201985350783
 30
0.0
 10
65.00378416343656
 20
-130.2466579535495
 30
0.0
 10
64.93591578237714
 20
-130.1763780056503
 30
0.0
 10
64.79845647251567
 20
-130.1763780056503
 30
0.0
 10
64.67994518782307
 20
-130.1763780056503
 30
0.0
 10
64.54903155938358
 20
-130.2532036349714
 30
0.0
 10
64.54903155938358
 20
-130.4636989691202
 30
0.0
 10
64.54903155938358
 20
-130.7417181747799
 30
0.0
 10
64.7795084473468
 20
-130.7506754230415
 30
0.0
 10
64.89595267474823
 20
-130.7551540471723
 30
0.0
 10
64.89595267474823
 20
-130.7551540471723
 30
0.0
 10
64.89595267474823
 20
-130.9949326929457
 30
0.0
 10
64.89595267474823
 20
-130.9949326929457
 30
0.0
 10
64.76882865134252
 20
-130.9859754446841
 30
0.0
 10
64.6568630480719
 20
-130.9746066295828
 30
0.0
 10
64.53835176337931
 20
-130.8884792424515
 30
0.0
 10
64.37746580421813
 20
-130.7710014864045
 30
0.0
 10
64.34370386846268
 20
-130.5722194769056
 30
0.0
 10
64.34370386846268
 20
-130.4478515298881
 30
0.0
 10
64.34370386846268
 20
-130.1515733181566
 30
0.0
 10
64.52767196737503
 20
-129.930053678455
 30
0.0
 10
64.80052352980681
 20
-129.930053678455
 30
0.0
 10
65.0292778700274
 20
-129.930053678455
 30
0.0
 10
65.12849662000261
 20
-130.0544216254725
 30
0.0
 10
65.35483939338351
 20
-130.3844617729594
 30
0.0
  0
HATCH
  5
D5
330
D0
100
AcDbEntity
  8
_U+30EC_U+30A4_U+30E4_U+30FC 1
 62
   179
420
  2234388
100
AcDbHatch
 10
0.0
 20
0.0
 30
0.0
210
0.0
220
0.0
230
1.0
  2
SOLID
 70
     1
 71
     0
 91
        1
 92
        1
 93
        1
 72
     4
 94
        3
 73
     0
 74
     1
 95
       44
 96
       40
 40
0.0
 40
0.0
 40
0.0
 40
0.0
 40
1.0
 40
1.0
 40
1.0
 40
2.0
 40
2.0
 40
2.0
 40
3.0
 40
3.0
 40
3.0
 40
4.0
 40
4.0
 40
4.0
 40
5.0
 40
5.0
 40
5.0
 40
6.0
 40
6.0
 40
6.0
 40
7.0
 40
7.0
 40
7.0
 40
8.0
 40
8.0
 40
8.0
 40
9.0
 40
9.0
 40
9.0
 40
10.0
 40
10.0
 40
10.0
 40
11.0
 40
11.0
 40
11.0
 40
12.0
 40
12.0
 40
12.0
 40
13.0
 40
13.0
 40
13.0
 40
13.0
 10
65.35483939338351
 20
-130.3844617729594
 10
65.51365829525353
 20
-130.6173502277623
 10
65.5877278481864
 20
-130.7169134872861
 10
65.73138832992132
 20
-130.7689344291133
 10
65.73138832992132
 20
-130.7689344291133
 10
65.73138832992132
 20
-129.936599359877
 10
65.73138832992132
 20
-129.936599359877
 10
65.73138832992132
 20
-129.936599359877
 10
65.93671602084221
 20
-129.936599359877
 10
65.93671602084221
 20
-129.936599359877
 10
65.93671602084221
 20
-129.936599359877
 10
65.93671602084221
 20
-131.0355848196717
 10
65.93671602084221
 20
-131.0355848196717
 10
65.57911510947328
 20
-131.0014783743677
 10
65.50091144195811
 20
-130.9315429360171
 10
65.20256617293548
 20
-130.5201985350783
 10
65.00378416343656
 20
-130.2466579535495
 10
64.93591578237714
 20
-130.1763780056503
 10
64.79845647251567
 20
-130.1763780056503
 10
64.67994518782307
 20
-130.1763780056503
 10
64.54903155938358
 20
-130.2532036349714
 10
64.54903155938358
 20
-130.4636989691202
 10
64.54903155938358
 20
-130.7417181747799
 10
64.7795084473468
 20
-130.7506754230415
 10
64.89595267474823
 20
-130.7551540471723
 10
64.89595267474823
 20
-130.7551540471723
 10
64.89595267474823
 20
-130.9949326929457
 10
64.89595267474823
 20
-130.9949326929457
 10
64.76882865134252
 20
-130.9859754446841
 10
64.6568630480719
 20
-130.9746066295828
 10
64.53835176337931
 20
-130.8884792424515
 10
64.37746580421813
 20
-130.7710014864045
 10
64.34370386846268
 20
-130.5722194769056
 10
64.34370386846268
 20
-130.4478515298881
 10
64.34370386846268
 20
-130.1515733181566
 10
64.52767196737503
 20
-129.930053678455
 10
64.80052352980681
 20
-129.930053678455
 10
65.0292778700274
 20
-129.930053678455
 10
65.12849662000261
 20
-130.0544216254725
 10
65.35483939338351
 20
-130.3844617729594
 97
        0
 97
        0
 75
     2
 76
     1
 98
        0
  0
SPLINE
  5
D6
330
D0
100
AcDbEntity
  8
_U+30EC_U+30A4_U+30E4_U+30FC 1
370
     0
100
AcDbSpline
210
0.0
220
0.0
230
1.0
 70
    11
 71
     3
 72
    26
 73
    22
 74
     0
 42
0.0000000001
 43
0.0000000001
 12
1.0
 22
0.0
 32
0.0
 13
1.0
 23
0.0
 33
0.0
 40
0.0
 40
0.0
 40
0.0
 40
0.0
 40
1.0
 40
1.0
 40
1.0
 40
2.0
 40
2.0
 40
2.0
 40
3.0
 40
3.0
 40
3.0
 40
4.0
 40
4.0
 40
4.0
 40
5.0
 40
5.0
 40
5.0
 40
6.0
 40
6.0
 40
6.0
 40
7.0
 40
7.0
 40
7.0
 40
7.0
 10
65.93671602084221
 20
-129.2782416126457
 30
0.0
 10
65.93671602084221
 20
-129.2782416126457
 30
0.0
 10
64.83256291781964
 20
-129.2782416126457
 30
0.0
 10
64.83256291781964
 20
-129.2782416126457
 30
0.0
 10
64.83256291781964
 20
-129.2782416126457
 30
0.0
 10
64.83256291781964
 20
-129.6306748807868
 30
0.0
 10
64.83256291781964
 20
-129.6306748807868
 30
0.0
 10
64.83256291781964
 20
-129.6306748807868
 30
0.0
 10
64.68442381195389
 20
-129.6306748807868
 30
0.0
 10
64.68442381195389
 20
-129.6306748807868
 30
0.0
 10
64.66960990136732
 20
-129.2758300458061
 30
0.0
 10
64.506656884915
 20
-129.2262206708185
 30
0.0
 10
64.39227971480472
 20
-129.1945257923541
 30
0.0
 10
64.39227971480472
 20
-129.1945257923541
 30
0.0
 10
64.39227971480472
 20
-129.0384629668723
 30
0.0
 10
64.39227971480472
 20
-129.0384629668723
 30
0.0
 10
64.39227971480472
 20
-129.0384629668723
 30
0.0
 10
65.93671602084221
 20
-129.0384629668723
 30
0.0
 10
65.93671602084221
 20
-129.0384629668723
 30
0.0
 10
65.93671602084221
 20
-129.0384629668723
 30
0.0
 10
65.93671602084221
 20
-129.2782416126457
 30
0.0
 10
65.93671602084221
 20
-129.2782416126457
 30
0.0
  0
HATCH
  5
D7
330
D0
100
AcDbEntity
  8
_U+30EC_U+30A4_U+30E4_U+30FC 1
 62
   179
420
  2234388
100
AcDbHatch
 10
0.0
 20
0.0
 30
0.0
210
0.0
220
0.0
230
1.0
  2
SOLID
 70
     1
 71
     0
 91
        1
 92
        1
 93
        1
 72
     4
 94
        3
 73
     0
 74
     1
 95
       26
 96
       22
 40
0.0
 40
0.0
 40
0.0
 40
0.0
 40
1.0
 40
1.0
 40
1.0
 40
2.0
 40
2.0
 40
2.0
 40
3.0
 40
3.0
 40
3.0
 40
4.0
 40
4.0
 40
4.0
 40
5.0
 40
5.0
 40
5.0
 40
6.0
 40
6.0
 40
6.0
 40
7.0
 40
7.0
 40
7.0
 40
7.0
 10
65.93671602084221
 20
-129.2782416126457
 10
65.93671602084221
 20
-129.2782416126457
 10
64.83256291781964
 20
-129.2782416126457
 10
64.83256291781964
 20
-129.2782416126457
 10
64.83256291781964
 20
-129.2782416126457
 10
64.83256291781964
 20
-129.6306748807868
 10
64.83256291781964
 20
-129.6306748807868
 10
64.83256291781964
 20
-129.6306748807868
 10
64.68442381195389
 20
-129.6306748807868
 10
64.68442381195389
 20
-129.6306748807868
 10
64.66960990136732
 20
-129.2758300458061
 10
64.506656884915
 20
-129.2262206708185
 10
64.39227971480472
 20
-129.1945257923541
 10
64.39227971480472
 20
-129.1945257923541
 10
64.39227971480472
 20
-129.0384629668723
 10
64.39227971480472
 20
-129.0384629668723
 10
64.39227971480472
 20
-129.0384629668723
 10
65.93671602084221
 20
-129.0384629668723
 10
65.93671602084221
 20
-129.0384629668723
 10
65.93671602084221
 20
-129.0384629668723
 10
65.93671602084221
 20
-129.2782416126457
 10
65.93671602084221
 20
-129.2782416126457
 97
        0
 97
        0
 75
     2
 76
     1
 98
        0
  0
ENDBLK
  5
D3
330
D0
100
AcDbEntity
  8
0
100
AcDbBlockEnd
  0
BLOCK
  5
DA
330
D8
100
AcDbEntity
  8
0
100
AcDbBlockBegin
  2
block 7
 70
     0
 10
0.0
 20
0.0
 30
0.0
  3
block 7
  1

  0
SPLINE
  5
DC
330
D8
100
AcDbEntity
  8
_U+30EC_U+30A4_U+30E4_U+30FC 1
370
     0
100
AcDbSpline
210
0.0
220
0.0
230
1.0
 70
    11
 71
     3
 72
    26
 73
    22
 74
     0
 42
0.0000000001
 43
0.0000000001
 12
1.0
 22
0.0
 32
0.0
 13
1.0
 23
0.0
 33
0.0
 40
0.0
 40
0.0
 40
0.0
 40
0.0
 40
1.0
 40
1.0
 40
1.0
 40
2.0
 40
2.0
 40
2.0
 40
3.0
 40
3.0
 40
3.0
 40
4.0
 40
4.0
 40
4.0
 40
5.0
 40
5.0
 40
5.0
 40
6.0
 40
6.0
 40
6.0
 40
7.0
 40
7.0
 40
7.0
 40
7.0
 10
75.43828936916127
 20
-147.0931748764212
 30
0.0
 10
75.43828936916127
 20
-147.0931748764212
 30
0.0
 10
75.43828936916127
 20
-145.9886772638501
 30
0.0
 10
75.43828936916127
 20
-145.9886772638501
 30
0.0
 10
75.43828936916127
 20
-145.9886772638501
 30
0.0
 10
75.08585610102021
 20
-145.9886772638501
 30
0.0
 10
75.08585610102021
 20
-145.9886772638501
 30
0.0
 10
75.08585610102021
 20
-145.9886772638501
 30
0.0
 10
75.08585610102021
 20
-145.8408826675328
 30
0.0
 10
75.08585610102021
 20
-145.8408826675328
 30
0.0
 10
75.44070093600094
 20
-145.8260687569463
 30
0.0
 10
75.49031031098853
 20
-145.6631157404939
 30
0.0
 10
75.52200518945284
 20
-145.5487385703836
 30
0.0
 10
75.52200518945284
 20
-145.5487385703836
 30
0.0
 10
75.67806801493465
 20
-145.5487385703836
 30
0.0
 10
75.67806801493465
 20
-145.5487385703836
 30
0.0
 10
75.67806801493465
 20
-145.5487385703836
 30
0.0
 10
75.67806801493465
 20
-147.0931748764212
 30
0.0
 10
75.67806801493465
 20
-147.0931748764212
 30
0.0
 10
75.67806801493465
 20
-147.0931748764212
 30
0.0
 10
75.43828936916127
 20
-147.0931748764212
 30
0.0
 10
75.43828936916127
 20
-147.0931748764212
 30
0.0
  0
HATCH
  5
DD
330
D8
100
AcDbEntity
  8
_U+30EC_U+30A4_U+30E4_U+30FC 1
 62
   179
420
  2234388
100
AcDbHatch
 10
0.0
 20
0.0
 30
0.0
210
0.0
220
0.0
230
1.0
  2
SOLID
 70
     1
 71
     0
 91
        1
 92
        1
 93
        1
 72
     4
 94
        3
 73
     0
 74
     1
 95
       26
 96
       22
 40
0.0
 40
0.0
 40
0.0
 40
0.0
 40
1.0
 40
1.0
 40
1.0
 40
2.0
 40
2.0
 40
2.0
 40
3.0
 40
3.0
 40
3.0
 40
4.0
 40
4.0
 40
4.0
 40
5.0
 40
5.0
 40
5.0
 40
6.0
 40
6.0
 40
6.0
 40
7.0
 40
7.0
 40
7.0
 40
7.0
 10
75.43828936916127
 20
-147.0931748764212
 10
75.43828936916127
 20
-147.0931748764212
 10
75.43828936916127
 20
-145.9886772638501
 10
75.43828936916127
 20
-145.9886772638501
 10
75.43828936916127
 20
-145.9886772638501
 10
75.08585610102021
 20
-145.9886772638501
 10
75.08585610102021
 20
-145.9886772638501
 10
75.08585610102021
 20
-145.9886772638501
 10
75.08585610102021
 20
-145.8408826675328
 10
75.08585610102021
 20
-145.8408826675328
 10
75.44070093600094
 20
-145.8260687569463
 10
75.49031031098853
 20
-145.6631157404939
 10
75.52200518945284
 20
-145.5487385703836
 10
75.52200518945284
 20
-145.5487385703836
 10
75.67806801493465
 20
-145.5487385703836
 10
75.67806801493465
 20
-145.5487385703836
 10
75.67806801493465
 20
-145.5487385703836
 10
75.67806801493465
 20
-147.0931748764212
 10
75.67806801493465
 20
-147.0931748764212
 10
75.67806801493465
 20
-147.0931748764212
 10
75.43828936916127
 20
-147.0931748764212
 10
75.43828936916127
 20
-147.0931748764212
 97
        0
 97
        0
 75
     2
 76
     1
 98
        0
  0
SPLINE
  5
DE
330
D8
100
AcDbEntity
  8
_U+30EC_U+30A4_U+30E4_U+30FC 1
370
     0
100
AcDbSpline
210
0.0
220
0.0
230
1.0
 70
    11
 71
     3
 72
    29
 73
    25
 74
     0
 42
0.0000000001
 43
0.0000000001
 12
1.0
 22
0.0
 32
0.0
 13
1.0
 23
0.0
 33
0.0
 40
0.0
 40
0.0
 40
0.0
 40
0.0
 40
1.0
 40
1.0
 40
1.0
 40
2.0
 40
2.0
 40
2.0
 40
3.0
 40
3.0
 40
3.0
 40
4.0
 40
4.0
 40
4.0
 40
5.0
 40
5.0
 40
5.0
 40
6.0
 40
6.0
 40
6.0
 40
7.0
 40
7.0
 40
7.0
 40
8.0
 40
8.0
 40
8.0
 40
8.0
 10
77.17323945553308
 20
-146.9154079493823
 30
0.0
 10
77.05782875677721
 20
-147.1248697548855
 30
0.0
 10
76.87248261967078
 20
-147.1438177800543
 30
0.0
 10
76.74811467265326
 20
-147.1438177800543
 30
0.0
 10
76.57654891748781
 20
-147.1438177800543
 30
0.0
 10
76.42496471613681
 20
-147.0973089910034
 30
0.0
 10
76.32333439932195
 20
-146.9154079493823
 30
0.0
 10
76.2124023246969
 20
-146.7207600544656
 30
0.0
 10
76.19207626133392
 20
-146.4837374850805
 30
0.0
 10
76.19207626133392
 20
-146.3207844686281
 30
0.0
 10
76.19207626133392
 20
-146.1771239868932
 30
0.0
 10
76.21033526740575
 20
-145.9252875069214
 30
0.0
 10
76.32333439932195
 20
-145.7265054974226
 30
0.0
 10
76.43840058852929
 20
-145.5232448637928
 30
0.0
 10
76.61031085324326
 20
-145.5001627240416
 30
0.0
 10
76.74811467265326
 20
-145.5001627240416
 30
0.0
 10
76.91795788007607
 20
-145.5001627240416
 30
0.0
 10
77.07160913871822
 20
-145.5446044558014
 30
0.0
 10
77.17323945553308
 20
-145.7265054974226
 30
0.0
 10
77.27969290602731
 20
-145.919086335048
 30
0.0
 10
77.3044975935211
 20
-146.1474961657201
 30
0.0
 10
77.3044975935211
 20
-146.3207844686281
 30
0.0
 10
77.3044975935211
 20
-146.4923502237936
 30
0.0
 10
77.28175996331845
 20
-146.7228271117568
 30
0.0
 10
77.17323945553308
 20
-146.9154079493823
 30
0.0
  0
SPLINE
  5
DF
330
D8
100
AcDbEntity
  8
_U+30EC_U+30A4_U+30E4_U+30FC 1
370
     0
100
AcDbSpline
210
0.0
220
0.0
230
1.0
 70
    11
 71
     3
 72
    17
 73
    13
 74
     0
 42
0.0000000001
 43
0.0000000001
 12
1.0
 22
0.0
 32
0.0
 13
1.0
 23
0.0
 33
0.0
 40
0.0
 40
0.0
 40
0.0
 40
0.0
 40
1.0
 40
1.0
 40
1.0
 40
2.0
 40
2.0
 40
2.0
 40
3.0
 40
3.0
 40
3.0
 40
4.0
 40
4.0
 40
4.0
 40
4.0
 10
76.74811467265326
 20
-145.6927435616671
 30
0.0
 10
76.48146428209492
 20
-145.6927435616671
 30
0.0
 10
76.43185490710732
 20
-145.9762749201032
 30
0.0
 10
76.43185490710732
 20
-146.3207844686281
 30
0.0
 10
76.43185490710732
 20
-146.6404893296593
 30
0.0
 10
76.47009546699358
 20
-146.9491698851377
 30
0.0
 10
76.74811467265326
 20
-146.9491698851377
 30
0.0
 10
77.01269800592044
 20
-146.9491698851377
 30
0.0
 10
77.0647189477477
 20
-146.6677055839928
 30
0.0
 10
77.0647189477477
 20
-146.3207844686281
 30
0.0
 10
77.0647189477477
 20
-146.0014241171455
 30
0.0
 10
77.02406682102176
 20
-145.6927435616671
 30
0.0
 10
76.74811467265326
 20
-145.6927435616671
 30
0.0
  0
HATCH
  5
E0
330
D8
100
AcDbEntity
  8
_U+30EC_U+30A4_U+30E4_U+30FC 1
 62
   179
420
  2234388
100
AcDbHatch
 10
0.0
 20
0.0
 30
0.0
210
0.0
220
0.0
230
1.0
  2
SOLID
 70
     1
 71
     0
 91
        2
 92
        1
 93
        1
 72
     4
 94
        3
 73
     0
 74
     1
 95
       29
 96
       25
 40
0.0
 40
0.0
 40
0.0
 40
0.0
 40
1.0
 40
1.0
 40
1.0
 40
2.0
 40
2.0
 40
2.0
 40
3.0
 40
3.0
 40
3.0
 40
4.0
 40
4.0
 40
4.0
 40
5.0
 40
5.0
 40
5.0
 40
6.0
 40
6.0
 40
6.0
 40
7.0
 40
7.0
 40
7.0
 40
8.0
 40
8.0
 40
8.0
 40
8.0
 10
77.17323945553308
 20
-146.9154079493823
 10
77.05782875677721
 20
-147.1248697548855
 10
76.87248261967078
 20
-147.1438177800543
 10
76.74811467265326
 20
-147.1438177800543
 10
76.57654891748781
 20
-147.1438177800543
 10
76.42496471613681
 20
-147.0973089910034
 10
76.32333439932195
 20
-146.9154079493823
 10
76.2124023246969
 20
-146.7207600544656
 10
76.19207626133392
 20
-146.4837374850805
 10
76.19207626133392
 20
-146.3207844686281
 10
76.19207626133392
 20
-146.1771239868932
 10
76.21033526740575
 20
-145.9252875069214
 10
76.32333439932195
 20
-145.7265054974226
 10
76.43840058852929
 20
-145.5232448637928
 10
76.61031085324326
 20
-145.5001627240416
 10
76.74811467265326
 20
-145.5001627240416
 10
76.91795788007607
 20
-145.5001627240416
 10
77.07160913871822
 20
-145.5446044558014
 10
77.17323945553308
 20
-145.7265054974226
 10
77.27969290602731
 20
-145.919086335048
 10
77.3044975935211
 20
-146.1474961657201
 10
77.3044975935211
 20
-146.3207844686281
 10
77.3044975935211
 20
-146.4923502237936
 10
77.28175996331845
 20
-146.7228271117568
 10
77.17323945553308
 20
-146.9154079493823
 97
        0
 97
        0
 92
        1
 93
        1
 72
     4
 94
        3
 73
     0
 74
     1
 95
       17
 96
       13
 40
0.0
 40
0.0
 40
0.0
 40
0.0
 40
1.0
 40
1.0
 40
1.0
 40
2.0
 40
2.0
 40
2.0
 40
3.0
 40
3.0
 40
3.0
 40
4.0
 40
4.0
 40
4.0
 40
4.0
 10
76.74811467265326
 20
-145.6927435616671
 10
76.48146428209492
 20
-145.6927435616671
 10
76.43185490710732
 20
-145.9762749201032
 10
76.43185490710732
 20
-146.3207844686281
 10
76.43185490710732
 20
-146.6404893296593
 10
76.47009546699358
 20
-146.9491698851377
 10
76.74811467265326
 20
-146.9491698851377
 10
77.01269800592044
 20
-146.9491698851377
 10
77.0647189477477
 20
-146.6677055839928
 10
77.0647189477477
 20
-146.3207844686281
 10
77.0647189477477
 20
-146.0014241171455
 10
77.02406682102176
 20
-145.6927435616671
 10
76.74811467265326
 20
-145.6927435616671
 97
        0
 97
        0
 75
     2
 76
     1
 98
        0
  0
ENDBLK
  5
DB
330
D8
100
AcDbEntity
  8
0
100
AcDbBlockEnd
  0
BLOCK
  5
E3
330
E1
100
AcDbEntity
  8
0
100
AcDbBlockBegin
  2
block 8
 70
     0
 10
0.0
 20
0.0
 30
0.0
  3
block 8
  1

  0
POLYLINE
  5
E5
330
E1
100
AcDbEntity
  8
_U+30EC_U+30A4_U+30E4_U+30FC 1
370
     0
100
AcDb2dPolyline
 66
     1
 10
0.0
 20
0.0
 30
0.0
  0
VERTEX
  5
E6
330
E5
100
AcDbEntity
  8
_U+30EC_U+30A4_U+30E4_U+30FC 1
370
     0
100
AcDbVertex
100
AcDb2dVertex
 10
90.84578990784411
 20
-114.010611950664
 30
0.0
  0
VERTEX
  5
E7
330
E5
100
AcDbEntity
  8
_U+30EC_U+30A4_U+30E4_U+30FC 1
370
     0
100
AcDbVertex
100
AcDb2dVertex
 10
90.84578990784411
 20
-114.3575330660287
 30
0.0
  0
VERTEX
  5
E8
330
E5
100
AcDbEntity
  8
_U+30EC_U+30A4_U+30E4_U+30FC 1
370
     0
100
AcDbVertex
100
AcDb2dVertex
 10
90.61290145304122
 20
-114.3575330660287
 30
0.0
  0
VERTEX
  5
E9
330
E5
100
AcDbEntity
  8
_U+30EC_U+30A4_U+30E4_U+30FC 1
370
     0
100
AcDbVertex
100
AcDb2dVertex
 10
90.61290145304122
 20
-114.010611950664
 30
0.0
  0
VERTEX
  5
EA
330
E5
100
AcDbEntity
  8
_U+30EC_U+30A4_U+30E4_U+30FC 1
370
     0
100
AcDbVertex
100
AcDb2dVertex
 10
89.91182452179288
 20
-114.010611950664
 30
0.0
  0
VERTEX
  5
EB
330
E5
100
AcDbEntity
  8
_U+30EC_U+30A4_U+30E4_U+30FC 1
370
     0
100
AcDbVertex
100
AcDb2dVertex
 10
89.91182452179288
 20
-113.7863362345743
 30
0.0
  0
VERTEX
  5
EC
330
E5
100
AcDbEntity
  8
_U+30EC_U+30A4_U+30E4_U+30FC 1
370
     0
100
AcDbVertex
100
AcDb2dVertex
 10
90.63770614053502
 20
-112.8130967599912
 30
0.0
  0
VERTEX
  5
ED
330
E5
100
AcDbEntity
  8
_U+30EC_U+30A4_U+30E4_U+30FC 1
370
     0
100
AcDbVertex
100
AcDb2dVertex
 10
90.84578990784411
 20
-112.8130967599912
 30
0.0
  0
VERTEX
  5
EE
330
E5
100
AcDbEntity
  8
_U+30EC_U+30A4_U+30E4_U+30FC 1
370
     0
100
AcDbVertex
100
AcDb2dVertex
 10
90.84578990784411
 20
-113.8118299411651
 30
0.0
  0
VERTEX
  5
EF
330
E5
100
AcDbEntity
  8
_U+30EC_U+30A4_U+30E4_U+30FC 1
370
     0
100
AcDbVertex
100
AcDb2dVertex
 10
91.06730954754568
 20
-113.8118299411651
 30
0.0
  0
VERTEX
  5
F0
330
E5
100
AcDbEntity
  8
_U+30EC_U+30A4_U+30E4_U+30FC 1
370
     0
100
AcDbVertex
100
AcDb2dVertex
 10
91.06730954754568
 20
-114.010611950664
 30
0.0
  0
VERTEX
  5
F1
330
E5
100
AcDbEntity
  8
_U+30EC_U+30A4_U+30E4_U+30FC 1
370
     0
100
AcDbVertex
100
AcDb2dVertex
 10
90.84578990784411
 20
-114.010611950664
 30
0.0
  0
SEQEND
  5
F2
330
E5
100
AcDbEntity
  8
_U+30EC_U+30A4_U+30E4_U+30FC 1
370
     0
  0
POLYLINE
  5
F3
330
E1
100
AcDbEntity
  8
_U+30EC_U+30A4_U+30E4_U+30FC 1
370
     0
100
AcDb2dPolyline
 66
     1
 10
0.0
 20
0.0
 30
0.0
  0
VERTEX
  5
F4
330
F3
100
AcDbEntity
  8
_U+30EC_U+30A4_U+30E4_U+30FC 1
370
     0
100
AcDbVertex
100
AcDb2dVertex
 10
90.61290145304122
 20
-113.1558837607735
 30
0.0
  0
VERTEX
  5
F5
330
F3
100
AcDbEntity
  8
_U+30EC_U+30A4_U+30E4_U+30FC 1
370
     0
100
AcDbVertex
100
AcDb2dVertex
 10
90.1243869132328
 20
-113.8118299411651
 30
0.0
  0
VERTEX
  5
F6
330
F3
100
AcDbEntity
  8
_U+30EC_U+30A4_U+30E4_U+30FC 1
370
     0
100
AcDbVertex
100
AcDb2dVertex
 10
90.61290145304122
 20
-113.8118299411651
 30
0.0
  0
VERTEX
  5
F7
330
F3
100
AcDbEntity
  8
_U+30EC_U+30A4_U+30E4_U+30FC 1
370
     0
100
AcDbVertex
100
AcDb2dVertex
 10
90.61290145304122
 20
-113.1558837607735
 30
0.0
  0
SEQEND
  5
F8
330
F3
100
AcDbEntity
  8
_U+30EC_U+30A4_U+30E4_U+30FC 1
370
     0
  0
HATCH
  5
F9
330
E1
100
AcDbEntity
  8
_U+30EC_U+30A4_U+30E4_U+30FC 1
 62
   179
420
  2234388
100
AcDbHatch
 10
0.0
 20
0.0
 30
0.0
210
0.0
220
0.0
230
1.0
  2
SOLID
 70
     1
 71
     0
 91
        2
 92
        1
 93
       11
 72
     1
 10
90.84578990784411
 20
-114.010611950664
 11
90.84578990784411
 21
-114.3575330660287
 72
     1
 10
90.84578990784411
 20
-114.3575330660287
 11
90.61290145304122
 21
-114.3575330660287
 72
     1
 10
90.61290145304122
 20
-114.3575330660287
 11
90.61290145304122
 21
-114.010611950664
 72
     1
 10
90.61290145304122
 20
-114.010611950664
 11
89.91182452179288
 21
-114.010611950664
 72
     1
 10
89.91182452179288
 20
-114.010611950664
 11
89.91182452179288
 21
-113.7863362345743
 72
     1
 10
89.91182452179288
 20
-113.7863362345743
 11
90.63770614053502
 21
-112.8130967599912
 72
     1
 10
90.63770614053502
 20
-112.8130967599912
 11
90.84578990784411
 21
-112.8130967599912
 72
     1
 10
90.84578990784411
 20
-112.8130967599912
 11
90.84578990784411
 21
-113.8118299411651
 72
     1
 10
90.84578990784411
 20
-113.8118299411651
 11
91.06730954754568
 21
-113.8118299411651
 72
     1
 10
91.06730954754568
 20
-113.8118299411651
 11
91.06730954754568
 21
-114.010611950664
 72
     1
 10
91.06730954754568
 20
-114.010611950664
 11
90.84578990784411
 21
-114.010611950664
 97
        0
 92
        1
 93
        3
 72
     1
 10
90.61290145304122
 20
-113.1558837607735
 11
90.1243869132328
 21
-113.8118299411651
 72
     1
 10
90.1243869132328
 20
-113.8118299411651
 11
90.61290145304122
 21
-113.8118299411651
 72
     1
 10
90.61290145304122
 20
-113.8118299411651
 11
90.61290145304122
 21
-113.1558837607735
 97
        0
 75
     2
 76
     1
 98
        0
  0
SPLINE
  5
FA
330
E1
100
AcDbEntity
  8
_U+30EC_U+30A4_U+30E4_U+30FC 1
370
     0
100
AcDbSpline
210
0.0
220
0.0
230
1.0
 70
    11
 71
     3
 72
    29
 73
    25
 74
     0
 42
0.0000000001
 43
0.0000000001
 12
1.0
 22
0.0
 32
0.0
 13
1.0
 23
0.0
 33
0.0
 40
0.0
 40
0.0
 40
0.0
 40
0.0
 40
1.0
 40
1.0
 40
1.0
 40
2.0
 40
2.0
 40
2.0
 40
3.0
 40
3.0
 40
3.0
 40
4.0
 40
4.0
 40
4.0
 40
5.0
 40
5.0
 40
5.0
 40
6.0
 40
6.0
 40
6.0
 40
7.0
 40
7.0
 40
7.0
 40
8.0
 40
8.0
 40
8.0
 40
8.0
 10
92.1735297078594
 20
-114.1797661389898
 30
0.0
 10
92.05811900910354
 20
-114.389227944493
 30
0.0
 10
91.87277287199709
 20
-114.4081759696619
 30
0.0
 10
91.74840492497957
 20
-114.4081759696619
 30
0.0
 10
91.57683916981412
 20
-114.4081759696619
 30
0.0
 10
91.42525496846314
 20
-114.361667180611
 30
0.0
 10
91.32362465164826
 20
-114.1797661389898
 30
0.0
 10
91.21269257702322
 20
-113.9851182440732
 30
0.0
 10
91.19236651366025
 20
-113.748095674688
 30
0.0
 10
91.19236651366025
 20
-113.5854871677842
 30
0.0
 10
91.19236651366025
 20
-113.4414821765007
 30
0.0
 10
91.21028101018355
 20
-113.189645696529
 30
0.0
 10
91.32362465164826
 20
-112.9908636870301
 30
0.0
 10
91.43869084085561
 20
-112.7879475629489
 30
0.0
 10
91.61060110556957
 20
-112.7645209136492
 30
0.0
 10
91.74840492497957
 20
-112.7645209136492
 30
0.0
 10
91.91824813240238
 20
-112.7645209136492
 30
0.0
 10
92.07189939104452
 20
-112.8089626454089
 30
0.0
 10
92.1735297078594
 20
-112.9908636870301
 30
0.0
 10
92.27998315835362
 20
-113.1834445246555
 30
0.0
 10
92.30478784584741
 20
-113.4118543553276
 30
0.0
 10
92.30478784584741
 20
-113.5854871677842
 30
0.0
 10
92.30478784584741
 20
-113.7567084134011
 30
0.0
 10
92.28205021564477
 20
-113.9871853013643
 30
0.0
 10
92.1735297078594
 20
-114.1797661389898
 30
0.0
  0
SPLINE
  5
FB
330
E1
100
AcDbEntity
  8
_U+30EC_U+30A4_U+30E4_U+30FC 1
370
     0
100
AcDbSpline
210
0.0
220
0.0
230
1.0
 70
    11
 71
     3
 72
    17
 73
    13
 74
     0
 42
0.0000000001
 43
0.0000000001
 12
1.0
 22
0.0
 32
0.0
 13
1.0
 23
0.0
 33
0.0
 40
0.0
 40
0.0
 40
0.0
 40
0.0
 40
1.0
 40
1.0
 40
1.0
 40
2.0
 40
2.0
 40
2.0
 40
3.0
 40
3.0
 40
3.0
 40
4.0
 40
4.0
 40
4.0
 40
4.0
 10
91.74840492497957
 20
-112.9571017512746
 30
0.0
 10
91.48175453442123
 20
-112.9571017512746
 30
0.0
 10
91.43214515943363
 20
-113.2406331097107
 30
0.0
 10
91.43214515943363
 20
-113.5854871677842
 30
0.0
 10
91.43214515943363
 20
-113.9048475192669
 30
0.0
 10
91.4703857193199
 20
-114.2135280747452
 30
0.0
 10
91.74840492497957
 20
-114.2135280747452
 30
0.0
 10
92.01298825824675
 20
-114.2135280747452
 30
0.0
 10
92.06500920007403
 20
-113.9324082831488
 30
0.0
 10
92.06500920007403
 20
-113.5854871677842
 30
0.0
 10
92.06500920007403
 20
-113.265782306753
 30
0.0
 10
92.02435707334809
 20
-112.9571017512746
 30
0.0
 10
91.74840492497957
 20
-112.9571017512746
 30
0.0
  0
HATCH
  5
FC
330
E1
100
AcDbEntity
  8
_U+30EC_U+30A4_U+30E4_U+30FC 1
 62
   179
420
  2234388
100
AcDbHatch
 10
0.0
 20
0.0
 30
0.0
210
0.0
220
0.0
230
1.0
  2
SOLID
 70
     1
 71
     0
 91
        2
 92
        1
 93
        1
 72
     4
 94
        3
 73
     0
 74
     1
 95
       29
 96
       25
 40
0.0
 40
0.0
 40
0.0
 40
0.0
 40
1.0
 40
1.0
 40
1.0
 40
2.0
 40
2.0
 40
2.0
 40
3.0
 40
3.0
 40
3.0
 40
4.0
 40
4.0
 40
4.0
 40
5.0
 40
5.0
 40
5.0
 40
6.0
 40
6.0
 40
6.0
 40
7.0
 40
7.0
 40
7.0
 40
8.0
 40
8.0
 40
8.0
 40
8.0
 10
92.1735297078594
 20
-114.1797661389898
 10
92.05811900910354
 20
-114.389227944493
 10
91.87277287199709
 20
-114.4081759696619
 10
91.74840492497957
 20
-114.4081759696619
 10
91.57683916981412
 20
-114.4081759696619
 10
91.42525496846314
 20
-114.361667180611
 10
91.32362465164826
 20
-114.1797661389898
 10
91.21269257702322
 20
-113.9851182440732
 10
91.19236651366025
 20
-113.748095674688
 10
91.19236651366025
 20
-113.5854871677842
 10
91.19236651366025
 20
-113.4414821765007
 10
91.21028101018355
 20
-113.189645696529
 10
91.32362465164826
 20
-112.9908636870301
 10
91.43869084085561
 20
-112.7879475629489
 10
91.61060110556957
 20
-112.7645209136492
 10
91.74840492497957
 20
-112.7645209136492
 10
91.91824813240238
 20
-112.7645209136492
 10
92.07189939104452
 20
-112.8089626454089
 10
92.1735297078594
 20
-112.9908636870301
 10
92.27998315835362
 20
-113.1834445246555
 10
92.30478784584741
 20
-113.4118543553276
 10
92.30478784584741
 20
-113.5854871677842
 10
92.30478784584741
 20
-113.7567084134011
 10
92.28205021564477
 20
-113.9871853013643
 10
92.1735297078594
 20
-114.1797661389898
 97
        0
 97
        0
 92
        1
 93
        1
 72
     4
 94
        3
 73
     0
 74
     1
 95
       17
 96
       13
 40
0.0
 40
0.0
 40
0.0
 40
0.0
 40
1.0
 40
1.0
 40
1.0
 40
2.0
 40
2.0
 40
2.0
 40
3.0
 40
3.0
 40
3.0
 40
4.0
 40
4.0
 40
4.0
 40
4.0
 10
91.74840492497957
 20
-112.9571017512746
 10
91.48175453442123
 20
-112.9571017512746
 10
91.43214515943363
 20
-113.2406331097107
 10
91.43214515943363
 20
-113.5854871677842
 10
91.43214515943363
 20
-113.9048475192669
 10
91.4703857193199
 20
-114.2135280747452
 10
91.74840492497957
 20
-114.2135280747452
 10
92.01298825824675
 20
-114.2135280747452
 10
92.06500920007403
 20
-113.9324082831488
 10
92.06500920007403
 20
-113.5854871677842
 10
92.06500920007403
 20
-113.265782306753
 10
92.02435707334809
 20
-112.9571017512746
 10
91.74840492497957
 20
-112.9571017512746
 97
        0
 97
        0
 75
     2
 76
     1
 98
        0
  0
ENDBLK
  5
E4
330
E1
100
AcDbEntity
  8
0
100
AcDbBlockEnd
  0
ENDSEC
  0
SECTION
  2
ENTITIES
  0
SPLINE
  5
41
330
1F
100
AcDbEntity
  8
_U+30EC_U+30A4_U+30E4_U+30FC 1
 62
   179
420
  2234388
370
     9
100
AcDbSpline
210
0.0
220
0.0
230
1.0
 70
    11
 71
     3
 72
    17
 73
    13
 74
     0
 42
0.0000000001
 43
0.0000000001
 12
1.0
 22
0.0
 32
0.0
 13
1.0
 23
0.0
 33
0.0
 40
0.0
 40
0.0
 40
0.0
 40
0.0
 40
1.0
 40
1.0
 40
1.0
 40
2.0
 40
2.0
 40
2.0
 40
3.0
 40
3.0
 40
3.0
 40
4.0
 40
4.0
 40
4.0
 40
4.0
 10
71.19274096149964
 20
-112.2684233052664
 30
0.0
 10
71.24855040452027
 20
-112.2684233052664
 30
0.0
 10
71.29331790337815
 20
-112.3132260830328
 30
0.0
 10
71.29331790337815
 20
-112.368329971908
 30
0.0
 10
71.29331790337815
 20
-112.4234691385608
 30
0.0
 10
71.24855040452027
 20
-112.4682366385496
 30
0.0
 10
71.19274096149964
 20
-112.4682366385496
 30
0.0
 10
71.1376017962397
 20
-112.4682366385496
 30
0.0
 10
71.09279901960493
 20
-112.4234691385608
 30
0.0
 10
71.09279901960493
 20
-112.368329971908
 30
0.0
 10
71.09279901960493
 20
-112.3132260830328
 30
0.0
 10
71.1376017962397
 20
-112.2684233052664
 30
0.0
 10
71.19274096149964
 20
-112.2684233052664
 30
0.0
  0
SPLINE
  5
42
330
1F
100
AcDbEntity
  8
_U+30EC_U+30A4_U+30E4_U+30FC 1
 62
   179
420
  2234388
370
     9
100
AcDbSpline
210
0.0
220
0.0
230
1.0
 70
    11
 71
     3
 72
    17
 73
    13
 74
     0
 42
0.0000000001
 43
0.0000000001
 12
1.0
 22
0.0
 32
0.0
 13
1.0
 23
0.0
 33
0.0
 40
0.0
 40
0.0
 40
0.0
 40
0.0
 40
1.0
 40
1.0
 40
1.0
 40
2.0
 40
2.0
 40
2.0
 40
3.0
 40
3.0
 40
3.0
 40
4.0
 40
4.0
 40
4.0
 40
4.0
 10
74.19135199610982
 20
-112.2684233052664
 30
0.0
 10
74.24716143913044
 20
-112.2684233052664
 30
0.0
 10
74.29192893798832
 20
-112.3125205274776
 30
0.0
 10
74.29192893798832
 20
-112.368329971908
 30
0.0
 10
74.29192893798832
 20
-112.4234691385608
 30
0.0
 10
74.24716143913044
 20
-112.4682366385496
 30
0.0
 10
74.19135199610982
 20
-112.4682366385496
 30
0.0
 10
74.13621283084986
 20
-112.4682366385496
 30
0.0
 10
74.0914100542151
 20
-112.4234691385608
 30
0.0
 10
74.0914100542151
 20
-112.368329971908
 30
0.0
 10
74.0914100542151
 20
-112.3125205274776
 30
0.0
 10
74.13621283084986
 20
-112.2684233052664
 30
0.0
 10
74.19135199610982
 20
-112.2684233052664
 30
0.0
  0
POLYLINE
  5
43
330
1F
100
AcDbEntity
  8
_U+30EC_U+30A4_U+30E4_U+30FC 1
 62
   179
420
  2234388
370
    25
100
AcDb2dPolyline
 66
     1
 10
0.0
 20
0.0
 30
0.0
  0
VERTEX
  5
44
330
43
100
AcDbEntity
  8
_U+30EC_U+30A4_U+30E4_U+30FC 1
 62
   179
420
  2234388
370
    25
100
AcDbVertex
100
AcDb2dVertex
 10
78.11769998047048
 20
-137.35148774344
 30
0.0
  0
VERTEX
  5
45
330
43
100
AcDbEntity
  8
_U+30EC_U+30A4_U+30E4_U+30FC 1
 62
   179
420
  2234388
370
    25
100
AcDbVertex
100
AcDb2dVertex
 10
78.11769998047048
 20
-138.3519302431899
 30
0.0
  0
VERTEX
  5
46
330
43
100
AcDbEntity
  8
_U+30EC_U+30A4_U+30E4_U+30FC 1
 62
   179
420
  2234388
370
    25
100
AcDbVertex
100
AcDb2dVertex
 10
80.11794997997043
 20
-138.3519302431899
 30
0.0
  0
VERTEX
  5
47
330
43
100
AcDbEntity
  8
_U+30EC_U+30A4_U+30E4_U+30FC 1
 62
   179
420
  2234388
370
    25
100
AcDbVertex
100
AcDb2dVertex
 10
80.11794997997043
 20
-139.3517024651618
 30
0.0
  0
VERTEX
  5
48
330
43
100
AcDbEntity
  8
_U+30EC_U+30A4_U+30E4_U+30FC 1
 62
   179
420
  2234388
370
    25
100
AcDbVertex
100
AcDb2dVertex
 10
72.11772427123468
 20
-139.3517024651618
 30
0.0
  0
VERTEX
  5
49
330
43
100
AcDbEntity
  8
_U+30EC_U+30A4_U+30E4_U+30FC 1
 62
   179
420
  2234388
370
    25
100
AcDbVertex
100
AcDb2dVertex
 10
72.11772427123468
 20
-127.3517546903841
 30
0.0
  0
VERTEX
  5
4A
330
43
100
AcDbEntity
  8
_U+30EC_U+30A4_U+30E4_U+30FC 1
 62
   179
420
  2234388
370
    25
100
AcDbVertex
100
AcDb2dVertex
 10
111.1174124429364
 20
-127.3517546903841
 30
0.0
  0
VERTEX
  5
4B
330
43
100
AcDbEntity
  8
_U+30EC_U+30A4_U+30E4_U+30FC 1
 62
   179
420
  2234388
370
    25
100
AcDbVertex
100
AcDb2dVertex
 10
111.1174124429364
 20
-126.3519824684119
 30
0.0
  0
VERTEX
  5
4C
330
43
100
AcDbEntity
  8
_U+30EC_U+30A4_U+30E4_U+30FC 1
 62
   179
420
  2234388
370
    25
100
AcDbVertex
100
AcDb2dVertex
 10
72.11772427123468
 20
-126.3519824684119
 30
0.0
  0
VERTEX
  5
4D
330
43
100
AcDbEntity
  8
_U+30EC_U+30A4_U+30E4_U+30FC 1
 62
   179
420
  2234388
370
    25
100
AcDbVertex
100
AcDb2dVertex
 10
72.11772427123468
 20
-120.3513030254677
 30
0.0
  0
VERTEX
  5
4E
330
43
100
AcDbEntity
  8
_U+30EC_U+30A4_U+30E4_U+30FC 1
 62
   179
420
  2234388
370
    25
100
AcDbVertex
100
AcDb2dVertex
 10
74.11793894242717
 20
-120.3513030254677
 30
0.0
  0
VERTEX
  5
4F
330
43
100
AcDbEntity
  8
_U+30EC_U+30A4_U+30E4_U+30FC 1
 62
   179
420
  2234388
370
    25
100
AcDbVertex
100
AcDb2dVertex
 10
74.11793894242717
 20
-119.3515308034955
 30
0.0
  0
VERTEX
  5
50
330
43
100
AcDbEntity
  8
_U+30EC_U+30A4_U+30E4_U+30FC 1
 62
   179
420
  2234388
370
    25
100
AcDbVertex
100
AcDb2dVertex
 10
71.11795207451877
 20
-119.3515308034955
 30
0.0
  0
VERTEX
  5
51
330
43
100
AcDbEntity
  8
_U+30EC_U+30A4_U+30E4_U+30FC 1
 62
   179
420
  2234388
370
    25
100
AcDbVertex
100
AcDb2dVertex
 10
71.11795207451877
 20
-140.3514746871344
 30
0.0
  0
VERTEX
  5
52
330
43
100
AcDbEntity
  8
_U+30EC_U+30A4_U+30E4_U+30FC 1
 62
   179
420
  2234388
370
    25
100
AcDbVertex
100
AcDb2dVertex
 10
81.11768487495989
 20
-140.3514746871344
 30
0.0
  0
VERTEX
  5
53
330
43
100
AcDbEntity
  8
_U+30EC_U+30A4_U+30E4_U+30FC 1
 62
   179
420
  2234388
370
    25
100
AcDbVertex
100
AcDb2dVertex
 10
81.11768487495989
 20
-137.35148774344
 30
0.0
  0
VERTEX
  5
54
330
43
100
AcDbEntity
  8
_U+30EC_U+30A4_U+30E4_U+30FC 1
 62
   179
420
  2234388
370
    25
100
AcDbVertex
100
AcDb2dVertex
 10
78.11769998047048
 20
-137.35148774344
 30
0.0
  0
SEQEND
  5
56
330
43
100
AcDbEntity
  8
_U+30EC_U+30A4_U+30E4_U+30FC 1
 62
   179
420
  2234388
370
    25
  0
HATCH
  5
55
330
1F
100
AcDbEntity
  8
_U+30EC_U+30A4_U+30E4_U+30FC 1
 62
     9
420
 13224394
100
AcDbHatch
 10
0.0
 20
0.0
 30
0.0
210
0.0
220
0.0
230
1.0
  2
SOLID
 70
     1
 71
     0
 91
        1
 92
        1
 93
       16
 72
     1
 10
78.11769998047048
 20
-137.35148774344
 11
78.11769998047048
 21
-138.3519302431899
 72
     1
 10
78.11769998047048
 20
-138.3519302431899
 11
80.11794997997043
 21
-138.3519302431899
 72
     1
 10
80.11794997997043
 20
-138.3519302431899
 11
80.11794997997043
 21
-139.3517024651618
 72
     1
 10
80.11794997997043
 20
-139.3517024651618
 11
72.11772427123468
 21
-139.3517024651618
 72
     1
 10
72.11772427123468
 20
-139.3517024651618
 11
72.11772427123468
 21
-127.3517546903841
 72
     1
 10
72.11772427123468
 20
-127.3517546903841
 11
111.1174124429364
 21
-127.3517546903841
 72
     1
 10
111.1174124429364
 20
-127.3517546903841
 11
111.1174124429364
 21
-126.3519824684119
 72
     1
 10
111.1174124429364
 20
-126.3519824684119
 11
72.11772427123468
 21
-126.3519824684119
 72
     1
 10
72.11772427123468
 20
-126.3519824684119
 11
72.11772427123468
 21
-120.3513030254677
 72
     1
 10
72.11772427123468
 20
-120.3513030254677
 11
74.11793894242717
 21
-120.3513030254677
 72
     1
 10
74.11793894242717
 20
-120.3513030254677
 11
74.11793894242717
 21
-119.3515308034955
 72
     1
 10
74.11793894242717
 20
-119.3515308034955
 11
71.11795207451877
 21
-119.3515308034955
 72
     1
 10
71.11795207451877
 20
-119.3515308034955
 11
71.11795207451877
 21
-140.3514746871344
 72
     1
 10
71.11795207451877
 20
-140.3514746871344
 11
81.11768487495989
 21
-140.3514746871344
 72
     1
 10
81.11768487495989
 20
-140.3514746871344
 11
81.11768487495989
 21
-137.35148774344
 72
     1
 10
81.11768487495989
 20
-137.35148774344
 11
78.11769998047048
 21
-137.35148774344
 97
        0
 75
     2
 76
     1
 98
        0
  0
SPLINE
  5
57
330
1F
100
AcDbEntity
  8
_U+30EC_U+30A4_U+30E4_U+30FC 1
 62
   179
420
  2234388
370
     9
100
AcDbSpline
210
0.0
220
0.0
230
1.0
 70
    11
 71
     3
 72
    17
 73
    13
 74
     0
 42
0.0000000001
 43
0.0000000001
 12
1.0
 22
0.0
 32
0.0
 13
1.0
 23
0.0
 33
0.0
 40
0.0
 40
0.0
 40
0.0
 40
0.0
 40
1.0
 40
1.0
 40
1.0
 40
2.0
 40
2.0
 40
2.0
 40
3.0
 40
3.0
 40
3.0
 40
4.0
 40
4.0
 40
4.0
 40
4.0
 10
115.1171715075607
 20
-137.2515810767984
 30
0.0
 10
115.1723106728207
 20
-137.2515810767984
 30
0.0
 10
115.2170781716786
 20
-137.296348576787
 30
0.0
 10
115.2170781716786
 20
-137.35148774344
 30
0.0
 10
115.2170781716786
 20
-137.4072971878705
 30
0.0
 10
115.1723106728207
 20
-137.4513944100817
 30
0.0
 10
115.1171715075607
 20
-137.4513944100817
 30
0.0
 10
115.0620676200777
 20
-137.4513944100817
 30
0.0
 10
115.0172648434429
 20
-137.4072971878705
 30
0.0
 10
115.0172648434429
 20
-137.35148774344
 30
0.0
 10
115.0172648434429
 20
-137.296348576787
 30
0.0
 10
115.0620676200777
 20
-137.2515810767984
 30
0.0
 10
115.1171715075607
 20
-137.2515810767984
 30
0.0
  0
SPLINE
  5
58
330
1F
100
AcDbEntity
  8
_U+30EC_U+30A4_U+30E4_U+30FC 1
 62
   179
420
  2234388
370
     9
100
AcDbSpline
210
0.0
220
0.0
230
1.0
 70
    11
 71
     3
 72
    17
 73
    13
 74
     0
 42
0.0000000001
 43
0.0000000001
 12
1.0
 22
0.0
 32
0.0
 13
1.0
 23
0.0
 33
0.0
 40
0.0
 40
0.0
 40
0.0
 40
0.0
 40
1.0
 40
1.0
 40
1.0
 40
2.0
 40
2.0
 40
2.0
 40
3.0
 40
3.0
 40
3.0
 40
4.0
 40
4.0
 40
4.0
 40
4.0
 10
115.1171715075607
 20
-140.2515680204928
 30
0.0
 10
115.1723106728207
 20
-140.2515680204928
 30
0.0
 10
115.2170781716786
 20
-140.2963355204813
 30
0.0
 10
115.2170781716786
 20
-140.3514746871344
 30
0.0
 10
115.2170781716786
 20
-140.4072841315648
 30
0.0
 10
115.1723106728207
 20
-140.4520516315534
 30
0.0
 10
115.1171715075607
 20
-140.4520516315534
 30
0.0
 10
115.0620676200777
 20
-140.4520516315534
 30
0.0
 10
115.0172648434429
 20
-140.4072841315648
 30
0.0
 10
115.0172648434429
 20
-140.3514746871344
 30
0.0
 10
115.0172648434429
 20
-140.2963355204813
 30
0.0
 10
115.0620676200777
 20
-140.2515680204928
 30
0.0
 10
115.1171715075607
 20
-140.2515680204928
 30
0.0
  0
SPLINE
  5
59
330
1F
100
AcDbEntity
  8
_U+30EC_U+30A4_U+30E4_U+30FC 1
 62
   179
420
  2234388
370
     9
100
AcDbSpline
210
0.0
220
0.0
230
1.0
 70
    11
 71
     3
 72
    17
 73
    13
 74
     0
 42
0.0000000001
 43
0.0000000001
 12
1.0
 22
0.0
 32
0.0
 13
1.0
 23
0.0
 33
0.0
 40
0.0
 40
0.0
 40
0.0
 40
0.0
 40
1.0
 40
1.0
 40
1.0
 40
2.0
 40
2.0
 40
2.0
 40
3.0
 40
3.0
 40
3.0
 40
4.0
 40
4.0
 40
4.0
 40
4.0
 10
115.1171715075607
 20
-127.2518480237425
 30
0.0
 10
115.1723106728207
 20
-127.2518480237425
 30
0.0
 10
115.2170781716786
 20
-127.2966155237314
 30
0.0
 10
115.2170781716786
 20
-127.3517546903841
 30
0.0
 10
115.2170781716786
 20
-127.4068585792594
 30
0.0
 10
115.1723106728207
 20
-127.4516613570261
 30
0.0
 10
115.1171715075607
 20
-127.4516613570261
 30
0.0
 10
115.0620676200777
 20
-127.4516613570261
 30
0.0
 10
115.0172648434429
 20
-127.4068585792594
 30
0.0
 10
115.0172648434429
 20
-127.3517546903841
 30
0.0
 10
115.0172648434429
 20
-127.2966155237314
 30
0.0
 10
115.0620676200777
 20
-127.2518480237425
 30
0.0
 10
115.1171715075607
 20
-127.2518480237425
 30
0.0
  0
SPLINE
  5
5A
330
1F
100
AcDbEntity
  8
_U+30EC_U+30A4_U+30E4_U+30FC 1
 62
   179
420
  2234388
370
     9
100
AcDbSpline
210
0.0
220
0.0
230
1.0
 70
    11
 71
     3
 72
    17
 73
    13
 74
     0
 42
0.0000000001
 43
0.0000000001
 12
1.0
 22
0.0
 32
0.0
 13
1.0
 23
0.0
 33
0.0
 40
0.0
 40
0.0
 40
0.0
 40
0.0
 40
1.0
 40
1.0
 40
1.0
 40
2.0
 40
2.0
 40
2.0
 40
3.0
 40
3.0
 40
3.0
 40
4.0
 40
4.0
 40
4.0
 40
4.0
 10
115.1171715075607
 20
-126.2513702462151
 30
0.0
 10
115.1723106728207
 20
-126.2513702462151
 30
0.0
 10
115.2170781716786
 20
-126.2961730239815
 30
0.0
 10
115.2170781716786
 20
-126.3519824684119
 30
0.0
 10
115.2170781716786
 20
-126.4070863572872
 30
0.0
 10
115.1723106728207
 20
-126.4518891350536
 30
0.0
 10
115.1171715075607
 20
-126.4518891350536
 30
0.0
 10
115.0620676200777
 20
-126.4518891350536
 30
0.0
 10
115.0172648434429
 20
-126.4070863572872
 30
0.0
 10
115.0172648434429
 20
-126.3519824684119
 30
0.0
 10
115.0172648434429
 20
-126.2961730239815
 30
0.0
 10
115.0620676200777
 20
-126.2513702462151
 30
0.0
 10
115.1171715075607
 20
-126.2513702462151
 30
0.0
  0
SPLINE
  5
5B
330
1F
100
AcDbEntity
  8
_U+30EC_U+30A4_U+30E4_U+30FC 1
 62
   179
420
  2234388
370
     9
100
AcDbSpline
210
0.0
220
0.0
230
1.0
 70
    11
 71
     3
 72
    17
 73
    13
 74
     0
 42
0.0000000001
 43
0.0000000001
 12
1.0
 22
0.0
 32
0.0
 13
1.0
 23
0.0
 33
0.0
 40
0.0
 40
0.0
 40
0.0
 40
0.0
 40
1.0
 40
1.0
 40
1.0
 40
2.0
 40
2.0
 40
2.0
 40
3.0
 40
3.0
 40
3.0
 40
4.0
 40
4.0
 40
4.0
 40
4.0
 10
111.1174124429364
 20
-115.251864971187
 30
0.0
 10
111.1725516081964
 20
-115.251864971187
 30
0.0
 10
111.2173191070543
 20
-115.2966677489537
 30
0.0
 10
111.2173191070543
 20
-115.3517716378286
 30
0.0
 10
111.2173191070543
 20
-115.4069108044817
 30
0.0
 10
111.1725516081964
 20
-115.4516783044706
 30
0.0
 10
111.1174124429364
 20
-115.4516783044706
 30
0.0
 10
111.0623085554533
 20
-115.4516783044706
 30
0.0
 10
111.0175057788186
 20
-115.4069108044817
 30
0.0
 10
111.0175057788186
 20
-115.3517716378286
 30
0.0
 10
111.0175057788186
 20
-115.2966677489537
 30
0.0
 10
111.0623085554533
 20
-115.251864971187
 30
0.0
 10
111.1174124429364
 20
-115.251864971187
 30
0.0
  0
SPLINE
  5
5C
330
1F
100
AcDbEntity
  8
_U+30EC_U+30A4_U+30E4_U+30FC 1
 62
   179
420
  2234388
370
     9
100
AcDbSpline
210
0.0
220
0.0
230
1.0
 70
    11
 71
     3
 72
    17
 73
    13
 74
     0
 42
0.0000000001
 43
0.0000000001
 12
1.0
 22
0.0
 32
0.0
 13
1.0
 23
0.0
 33
0.0
 40
0.0
 40
0.0
 40
0.0
 40
0.0
 40
1.0
 40
1.0
 40
1.0
 40
2.0
 40
2.0
 40
2.0
 40
3.0
 40
3.0
 40
3.0
 40
4.0
 40
4.0
 40
4.0
 40
4.0
 10
71.11795207451877
 20
-115.251864971187
 30
0.0
 10
71.17309123977873
 20
-115.251864971187
 30
0.0
 10
71.21785873863661
 20
-115.2966677489537
 30
0.0
 10
71.21785873863661
 20
-115.3517716378286
 30
0.0
 10
71.21785873863661
 20
-115.4069108044817
 30
0.0
 10
71.17309123977873
 20
-115.4516783044706
 30
0.0
 10
71.11795207451877
 20
-115.4516783044706
 30
0.0
 10
71.06284998223433
 20
-115.4516783044706
 30
0.0
 10
71.0180472044676
 20
-115.4069108044817
 30
0.0
 10
71.0180472044676
 20
-115.3517716378286
 30
0.0
 10
71.0180472044676
 20
-115.2966677489537
 30
0.0
 10
71.06284998223433
 20
-115.251864971187
 30
0.0
 10
71.11795207451877
 20
-115.251864971187
 30
0.0
  0
SPLINE
  5
5D
330
1F
100
AcDbEntity
  8
_U+30EC_U+30A4_U+30E4_U+30FC 1
 62
   179
420
  2234388
370
     9
100
AcDbSpline
210
0.0
220
0.0
230
1.0
 70
    11
 71
     3
 72
    17
 73
    13
 74
     0
 42
0.0000000001
 43
0.0000000001
 12
1.0
 22
0.0
 32
0.0
 13
1.0
 23
0.0
 33
0.0
 40
0.0
 40
0.0
 40
0.0
 40
0.0
 40
1.0
 40
1.0
 40
1.0
 40
2.0
 40
2.0
 40
2.0
 40
3.0
 40
3.0
 40
3.0
 40
4.0
 40
4.0
 40
4.0
 40
4.0
 10
67.11752273213378
 20
-119.2516241368539
 30
0.0
 10
67.17333217515441
 20
-119.2516241368539
 30
0.0
 10
67.21813495178918
 20
-119.2964269146203
 30
0.0
 10
67.21813495178918
 20
-119.3515308034955
 30
0.0
 10
67.21813495178918
 20
-119.4066699701483
 30
0.0
 10
67.17333217515441
 20
-119.4514374701371
 30
0.0
 10
67.11752273213378
 20
-119.4514374701371
 30
0.0
 10
67.06238356687383
 20
-119.4514374701371
 30
0.0
 10
67.01761606801595
 20
-119.4066699701483
 30
0.0
 10
67.01761606801595
 20
-119.3515308034955
 30
0.0
 10
67.01761606801595
 20
-119.2964269146203
 30
0.0
 10
67.06238356687383
 20
-119.2516241368539
 30
0.0
 10
67.11752273213378
 20
-119.2516241368539
 30
0.0
  0
SPLINE
  5
5E
330
1F
100
AcDbEntity
  8
_U+30EC_U+30A4_U+30E4_U+30FC 1
 62
   179
420
  2234388
370
     9
100
AcDbSpline
210
0.0
220
0.0
230
1.0
 70
    11
 71
     3
 72
    17
 73
    13
 74
     0
 42
0.0000000001
 43
0.0000000001
 12
1.0
 22
0.0
 32
0.0
 13
1.0
 23
0.0
 33
0.0
 40
0.0
 40
0.0
 40
0.0
 40
0.0
 40
1.0
 40
1.0
 40
1.0
 40
2.0
 40
2.0
 40
2.0
 40
3.0
 40
3.0
 40
3.0
 40
4.0
 40
4.0
 40
4.0
 40
4.0
 10
67.11752273213378
 20
-140.2515680204928
 30
0.0
 10
67.17333217515441
 20
-140.2515680204928
 30
0.0
 10
67.21813495178918
 20
-140.2963355204813
 30
0.0
 10
67.21813495178918
 20
-140.3514746871344
 30
0.0
 10
67.21813495178918
 20
-140.4072841315648
 30
0.0
 10
67.17333217515441
 20
-140.4520516315534
 30
0.0
 10
67.11752273213378
 20
-140.4520516315534
 30
0.0
 10
67.06238356687383
 20
-140.4520516315534
 30
0.0
 10
67.01761606801595
 20
-140.4072841315648
 30
0.0
 10
67.01761606801595
 20
-140.3514746871344
 30
0.0
 10
67.01761606801595
 20
-140.2963355204813
 30
0.0
 10
67.06238356687383
 20
-140.2515680204928
 30
0.0
 10
67.11752273213378
 20
-140.2515680204928
 30
0.0
  0
SPLINE
  5
5F
330
1F
100
AcDbEntity
  8
_U+30EC_U+30A4_U+30E4_U+30FC 1
 62
   179
420
  2234388
370
     9
100
AcDbSpline
210
0.0
220
0.0
230
1.0
 70
    11
 71
     3
 72
    17
 73
    13
 74
     0
 42
0.0000000001
 43
0.0000000001
 12
1.0
 22
0.0
 32
0.0
 13
1.0
 23
0.0
 33
0.0
 40
0.0
 40
0.0
 40
0.0
 40
0.0
 40
1.0
 40
1.0
 40
1.0
 40
2.0
 40
2.0
 40
2.0
 40
3.0
 40
3.0
 40
3.0
 40
4.0
 40
4.0
 40
4.0
 40
4.0
 10
71.11795207451877
 20
-144.251997463937
 30
0.0
 10
71.17309123977873
 20
-144.251997463937
 30
0.0
 10
71.21785873863661
 20
-144.2968002417037
 30
0.0
 10
71.21785873863661
 20
-144.3519041305786
 30
0.0
 10
71.21785873863661
 20
-144.4070432972317
 30
0.0
 10
71.17309123977873
 20
-144.4518107972203
 30
0.0
 10
71.11795207451877
 20
-144.4518107972203
 30
0.0
 10
71.06284998223433
 20
-144.4518107972203
 30
0.0
 10
71.0180472044676
 20
-144.4070432972317
 30
0.0
 10
71.0180472044676
 20
-144.3519041305786
 30
0.0
 10
71.0180472044676
 20
-144.2968002417037
 30
0.0
 10
71.06284998223433
 20
-144.251997463937
 30
0.0
 10
71.11795207451877
 20
-144.251997463937
 30
0.0
  0
SPLINE
  5
60
330
1F
100
AcDbEntity
  8
_U+30EC_U+30A4_U+30E4_U+30FC 1
 62
   179
420
  2234388
370
     9
100
AcDbSpline
210
0.0
220
0.0
230
1.0
 70
    11
 71
     3
 72
    17
 73
    13
 74
     0
 42
0.0000000001
 43
0.0000000001
 12
1.0
 22
0.0
 32
0.0
 13
1.0
 23
0.0
 33
0.0
 40
0.0
 40
0.0
 40
0.0
 40
0.0
 40
1.0
 40
1.0
 40
1.0
 40
2.0
 40
2.0
 40
2.0
 40
3.0
 40
3.0
 40
3.0
 40
4.0
 40
4.0
 40
4.0
 40
4.0
 10
81.11768487495989
 20
-144.251997463937
 30
0.0
 10
81.17282404021984
 20
-144.251997463937
 30
0.0
 10
81.21759153907773
 20
-144.2968002417037
 30
0.0
 10
81.21759153907773
 20
-144.3519041305786
 30
0.0
 10
81.21759153907773
 20
-144.4070432972317
 30
0.0
 10
81.17282404021984
 20
-144.4518107972203
 30
0.0
 10
81.11768487495989
 20
-144.4518107972203
 30
0.0
 10
81.06258098747682
 20
-144.4518107972203
 30
0.0
 10
81.01777821084205
 20
-144.4070432972317
 30
0.0
 10
81.01777821084205
 20
-144.3519041305786
 30
0.0
 10
81.01777821084205
 20
-144.2968002417037
 30
0.0
 10
81.06258098747682
 20
-144.251997463937
 30
0.0
 10
81.11768487495989
 20
-144.251997463937
 30
0.0
  0
POLYLINE
  5
61
330
1F
100
AcDbEntity
  8
_U+30EC_U+30A4_U+30E4_U+30FC 1
 62
   179
420
  2234388
370
     9
100
AcDb2dPolyline
 66
     1
 10
0.0
 20
0.0
 30
0.0
  0
VERTEX
  5
62
330
61
100
AcDbEntity
  8
_U+30EC_U+30A4_U+30E4_U+30FC 1
 62
   179
420
  2234388
370
     9
100
AcDbVertex
100
AcDb2dVertex
 10
115.1171715075607
 20
-126.3519824684119
 30
0.0
  0
VERTEX
  5
63
330
61
100
AcDbEntity
  8
_U+30EC_U+30A4_U+30E4_U+30FC 1
 62
   179
420
  2234388
370
     9
100
AcDbVertex
100
AcDb2dVertex
 10
115.1171715075607
 20
-122.5816699693545
 30
0.0
  0
SEQEND
  5
64
330
61
100
AcDbEntity
  8
_U+30EC_U+30A4_U+30E4_U+30FC 1
 62
   179
420
  2234388
370
     9
  0
POLYLINE
  5
65
330
1F
100
AcDbEntity
  8
_U+30EC_U+30A4_U+30E4_U+30FC 1
 62
   179
420
  2234388
370
     9
100
AcDb2dPolyline
 66
     1
 10
0.0
 20
0.0
 30
0.0
  0
VERTEX
  5
66
330
65
100
AcDbEntity
  8
_U+30EC_U+30A4_U+30E4_U+30FC 1
 62
   179
420
  2234388
370
     9
100
AcDbVertex
100
AcDb2dVertex
 10
115.1171715075607
 20
-126.3519824684119
 30
0.0
  0
VERTEX
  5
67
330
65
100
AcDbEntity
  8
_U+30EC_U+30A4_U+30E4_U+30FC 1
 62
   179
420
  2234388
370
     9
100
AcDbVertex
100
AcDb2dVertex
 10
115.1171715075607
 20
-127.3517546903841
 30
0.0
  0
SEQEND
  5
68
330
65
100
AcDbEntity
  8
_U+30EC_U+30A4_U+30E4_U+30FC 1
 62
   179
420
  2234388
370
     9
  0
POLYLINE
  5
69
330
1F
100
AcDbEntity
  8
_U+30EC_U+30A4_U+30E4_U+30FC 1
 62
   179
420
  2234388
370
     9
100
AcDb2dPolyline
 66
     1
 10
0.0
 20
0.0
 30
0.0
  0
VERTEX
  5
6A
330
69
100
AcDbEntity
  8
_U+30EC_U+30A4_U+30E4_U+30FC 1
 62
   179
420
  2234388
370
     9
100
AcDbVertex
100
AcDb2dVertex
 10
113.6571301559206
 20
-126.3519824684119
 30
0.0
  0
VERTEX
  5
6B
330
69
100
AcDbEntity
  8
_U+30EC_U+30A4_U+30E4_U+30FC 1
 62
   179
420
  2234388
370
     9
100
AcDbVertex
100
AcDb2dVertex
 10
116.1176139820373
 20
-126.3519824684119
 30
0.0
  0
SEQEND
  5
6C
330
69
100
AcDbEntity
  8
_U+30EC_U+30A4_U+30E4_U+30FC 1
 62
   179
420
  2234388
370
     9
  0
POLYLINE
  5
6D
330
1F
100
AcDbEntity
  8
_U+30EC_U+30A4_U+30E4_U+30FC 1
 62
   179
420
  2234388
370
     9
100
AcDb2dPolyline
 66
     1
 10
0.0
 20
0.0
 30
0.0
  0
VERTEX
  5
6E
330
6D
100
AcDbEntity
  8
_U+30EC_U+30A4_U+30E4_U+30FC 1
 62
   179
420
  2234388
370
     9
100
AcDbVertex
100
AcDb2dVertex
 10
113.6571301559206
 20
-127.3517546903841
 30
0.0
  0
VERTEX
  5
6F
330
6D
100
AcDbEntity
  8
_U+30EC_U+30A4_U+30E4_U+30FC 1
 62
   179
420
  2234388
370
     9
100
AcDbVertex
100
AcDb2dVertex
 10
116.1176139820373
 20
-127.3517546903841
 30
0.0
  0
SEQEND
  5
70
330
6D
100
AcDbEntity
  8
_U+30EC_U+30A4_U+30E4_U+30FC 1
 62
   179
420
  2234388
370
     9
  0
POLYLINE
  5
71
330
1F
100
AcDbEntity
  8
_U+30EC_U+30A4_U+30E4_U+30FC 1
 62
   179
420
  2234388
370
     9
100
AcDb2dPolyline
 66
     1
 10
0.0
 20
0.0
 30
0.0
  0
VERTEX
  5
72
330
71
100
AcDbEntity
  8
_U+30EC_U+30A4_U+30E4_U+30FC 1
 62
   179
420
  2234388
370
     9
100
AcDbVertex
100
AcDb2dVertex
 10
115.1171715075607
 20
-127.3517546903841
 30
0.0
  0
VERTEX
  5
73
330
71
100
AcDbEntity
  8
_U+30EC_U+30A4_U+30E4_U+30FC 1
 62
   179
420
  2234388
370
     9
100
AcDbVertex
100
AcDb2dVertex
 10
115.1171715075607
 20
-137.35148774344
 30
0.0
  0
SEQEND
  5
74
330
71
100
AcDbEntity
  8
_U+30EC_U+30A4_U+30E4_U+30FC 1
 62
   179
420
  2234388
370
     9
  0
POLYLINE
  5
75
330
1F
100
AcDbEntity
  8
_U+30EC_U+30A4_U+30E4_U+30FC 1
 62
   179
420
  2234388
370
     9
100
AcDb2dPolyline
 66
     1
 10
0.0
 20
0.0
 30
0.0
  0
VERTEX
  5
76
330
75
100
AcDbEntity
  8
_U+30EC_U+30A4_U+30E4_U+30FC 1
 62
   179
420
  2234388
370
     9
100
AcDbVertex
100
AcDb2dVertex
 10
113.6571301559206
 20
-127.3517546903841
 30
0.0
  0
VERTEX
  5
77
330
75
100
AcDbEntity
  8
_U+30EC_U+30A4_U+30E4_U+30FC 1
 62
   179
420
  2234388
370
     9
100
AcDbVertex
100
AcDb2dVertex
 10
116.1176139820373
 20
-127.3517546903841
 30
0.0
  0
SEQEND
  5
78
330
75
100
AcDbEntity
  8
_U+30EC_U+30A4_U+30E4_U+30FC 1
 62
   179
420
  2234388
370
     9
  0
POLYLINE
  5
79
330
1F
100
AcDbEntity
  8
_U+30EC_U+30A4_U+30E4_U+30FC 1
 62
   179
420
  2234388
370
     9
100
AcDb2dPolyline
 66
     1
 10
0.0
 20
0.0
 30
0.0
  0
VERTEX
  5
7A
330
79
100
AcDbEntity
  8
_U+30EC_U+30A4_U+30E4_U+30FC 1
 62
   179
420
  2234388
370
     9
100
AcDbVertex
100
AcDb2dVertex
 10
83.65743786572095
 20
-137.35148774344
 30
0.0
  0
VERTEX
  5
7B
330
79
100
AcDbEntity
  8
_U+30EC_U+30A4_U+30E4_U+30FC 1
 62
   179
420
  2234388
370
     9
100
AcDbVertex
100
AcDb2dVertex
 10
116.1176139820373
 20
-137.35148774344
 30
0.0
  0
SEQEND
  5
7C
330
79
100
AcDbEntity
  8
_U+30EC_U+30A4_U+30E4_U+30FC 1
 62
   179
420
  2234388
370
     9
  0
POLYLINE
  5
7D
330
1F
100
AcDbEntity
  8
_U+30EC_U+30A4_U+30E4_U+30FC 1
 62
   179
420
  2234388
370
     9
100
AcDb2dPolyline
 66
     1
 10
0.0
 20
0.0
 30
0.0
  0
VERTEX
  5
7E
330
7D
100
AcDbEntity
  8
_U+30EC_U+30A4_U+30E4_U+30FC 1
 62
   179
420
  2234388
370
     9
100
AcDbVertex
100
AcDb2dVertex
 10
115.1171715075607
 20
-140.3514746871344
 30
0.0
  0
VERTEX
  5
7F
330
7D
100
AcDbEntity
  8
_U+30EC_U+30A4_U+30E4_U+30FC 1
 62
   179
420
  2234388
370
     9
100
AcDbVertex
100
AcDb2dVertex
 10
115.1171715075607
 20
-137.35148774344
 30
0.0
  0
SEQEND
  5
80
330
7D
100
AcDbEntity
  8
_U+30EC_U+30A4_U+30E4_U+30FC 1
 62
   179
420
  2234388
370
     9
  0
POLYLINE
  5
81
330
1F
100
AcDbEntity
  8
_U+30EC_U+30A4_U+30E4_U+30FC 1
 62
   179
420
  2234388
370
     9
100
AcDb2dPolyline
 66
     1
 10
0.0
 20
0.0
 30
0.0
  0
VERTEX
  5
82
330
81
100
AcDbEntity
  8
_U+30EC_U+30A4_U+30E4_U+30FC 1
 62
   179
420
  2234388
370
     9
100
AcDbVertex
100
AcDb2dVertex
 10
83.65743786572095
 20
-140.3514746871344
 30
0.0
  0
VERTEX
  5
83
330
81
100
AcDbEntity
  8
_U+30EC_U+30A4_U+30E4_U+30FC 1
 62
   179
420
  2234388
370
     9
100
AcDbVertex
100
AcDb2dVertex
 10
116.1176139820373
 20
-140.3514746871344
 30
0.0
  0
SEQEND
  5
84
330
81
100
AcDbEntity
  8
_U+30EC_U+30A4_U+30E4_U+30FC 1
 62
   179
420
  2234388
370
     9
  0
POLYLINE
  5
85
330
1F
100
AcDbEntity
  8
_U+30EC_U+30A4_U+30E4_U+30FC 1
 62
   179
420
  2234388
370
     9
100
AcDb2dPolyline
 66
     1
 10
0.0
 20
0.0
 30
0.0
  0
VERTEX
  5
86
330
85
100
AcDbEntity
  8
_U+30EC_U+30A4_U+30E4_U+30FC 1
 62
   179
420
  2234388
370
     9
100
AcDbVertex
100
AcDb2dVertex
 10
67.11752273213378
 20
-140.3514746871344
 30
0.0
  0
VERTEX
  5
87
330
85
100
AcDbEntity
  8
_U+30EC_U+30A4_U+30E4_U+30FC 1
 62
   179
420
  2234388
370
     9
100
AcDbVertex
100
AcDb2dVertex
 10
67.11752273213378
 20
-119.3515308034955
 30
0.0
  0
SEQEND
  5
88
330
85
100
AcDbEntity
  8
_U+30EC_U+30A4_U+30E4_U+30FC 1
 62
   179
420
  2234388
370
     9
  0
POLYLINE
  5
89
330
1F
100
AcDbEntity
  8
_U+30EC_U+30A4_U+30E4_U+30FC 1
 62
   179
420
  2234388
370
     9
100
AcDb2dPolyline
 66
     1
 10
0.0
 20
0.0
 30
0.0
  0
VERTEX
  5
8A
330
89
100
AcDbEntity
  8
_U+30EC_U+30A4_U+30E4_U+30FC 1
 62
   179
420
  2234388
370
     9
100
AcDbVertex
100
AcDb2dVertex
 10
68.57756408377392
 20
-140.3514746871344
 30
0.0
  0
VERTEX
  5
8B
330
89
100
AcDbEntity
  8
_U+30EC_U+30A4_U+30E4_U+30FC 1
 62
   179
420
  2234388
370
     9
100
AcDbVertex
100
AcDb2dVertex
 10
66.11775053541788
 20
-140.3514746871344
 30
0.0
  0
SEQEND
  5
8C
330
89
100
AcDbEntity
  8
_U+30EC_U+30A4_U+30E4_U+30FC 1
 62
   179
420
  2234388
370
     9
  0
POLYLINE
  5
8D
330
1F
100
AcDbEntity
  8
_U+30EC_U+30A4_U+30E4_U+30FC 1
 62
   179
420
  2234388
370
     9
100
AcDb2dPolyline
 66
     1
 10
0.0
 20
0.0
 30
0.0
  0
VERTEX
  5
8E
330
8D
100
AcDbEntity
  8
_U+30EC_U+30A4_U+30E4_U+30FC 1
 62
   179
420
  2234388
370
     9
100
AcDbVertex
100
AcDb2dVertex
 10
68.57756408377392
 20
-119.3515308034955
 30
0.0
  0
VERTEX
  5
8F
330
8D
100
AcDbEntity
  8
_U+30EC_U+30A4_U+30E4_U+30FC 1
 62
   179
420
  2234388
370
     9
100
AcDbVertex
100
AcDb2dVertex
 10
66.11775053541788
 20
-119.3515308034955
 30
0.0
  0
SEQEND
  5
90
330
8D
100
AcDbEntity
  8
_U+30EC_U+30A4_U+30E4_U+30FC 1
 62
   179
420
  2234388
370
     9
  0
POLYLINE
  5
91
330
1F
100
AcDbEntity
  8
_U+30EC_U+30A4_U+30E4_U+30FC 1
 62
   179
420
  2234388
370
     9
100
AcDb2dPolyline
 66
     1
 10
0.0
 20
0.0
 30
0.0
  0
VERTEX
  5
92
330
91
100
AcDbEntity
  8
_U+30EC_U+30A4_U+30E4_U+30FC 1
 62
   179
420
  2234388
370
     9
100
AcDbVertex
100
AcDb2dVertex
 10
81.11768487495989
 20
-144.3519041305786
 30
0.0
  0
VERTEX
  5
93
330
91
100
AcDbEntity
  8
_U+30EC_U+30A4_U+30E4_U+30FC 1
 62
   179
420
  2234388
370
     9
100
AcDbVertex
100
AcDb2dVertex
 10
71.11795207451877
 20
-144.3519041305786
 30
0.0
  0
SEQEND
  5
94
330
91
100
AcDbEntity
  8
_U+30EC_U+30A4_U+30E4_U+30FC 1
 62
   179
420
  2234388
370
     9
  0
POLYLINE
  5
95
330
1F
100
AcDbEntity
  8
_U+30EC_U+30A4_U+30E4_U+30FC 1
 62
   179
420
  2234388
370
     9
100
AcDb2dPolyline
 66
     1
 10
0.0
 20
0.0
 30
0.0
  0
VERTEX
  5
96
330
95
100
AcDbEntity
  8
_U+30EC_U+30A4_U+30E4_U+30FC 1
 62
   179
420
  2234388
370
     9
100
AcDbVertex
100
AcDb2dVertex
 10
81.11768487495989
 20
-142.8918980198324
 30
0.0
  0
VERTEX
  5
97
330
95
100
AcDbEntity
  8
_U+30EC_U+30A4_U+30E4_U+30FC 1
 62
   179
420
  2234388
370
     9
100
AcDbVertex
100
AcDb2dVertex
 10
81.11768487495989
 20
-145.3516763525512
 30
0.0
  0
SEQEND
  5
98
330
95
100
AcDbEntity
  8
_U+30EC_U+30A4_U+30E4_U+30FC 1
 62
   179
420
  2234388
370
     9
  0
POLYLINE
  5
99
330
1F
100
AcDbEntity
  8
_U+30EC_U+30A4_U+30E4_U+30FC 1
 62
   179
420
  2234388
370
     9
100
AcDb2dPolyline
 66
     1
 10
0.0
 20
0.0
 30
0.0
  0
VERTEX
  5
9A
330
99
100
AcDbEntity
  8
_U+30EC_U+30A4_U+30E4_U+30FC 1
 62
   179
420
  2234388
370
     9
100
AcDbVertex
100
AcDb2dVertex
 10
71.11795207451877
 20
-142.8918980198324
 30
0.0
  0
VERTEX
  5
9B
330
99
100
AcDbEntity
  8
_U+30EC_U+30A4_U+30E4_U+30FC 1
 62
   179
420
  2234388
370
     9
100
AcDbVertex
100
AcDb2dVertex
 10
71.11795207451877
 20
-145.3516763525512
 30
0.0
  0
SEQEND
  5
9C
330
99
100
AcDbEntity
  8
_U+30EC_U+30A4_U+30E4_U+30FC 1
 62
   179
420
  2234388
370
     9
  0
POLYLINE
  5
9D
330
1F
100
AcDbEntity
  8
_U+30EC_U+30A4_U+30E4_U+30FC 1
 62
   179
420
  2234388
370
     9
100
AcDb2dPolyline
 66
     1
 10
0.0
 20
0.0
 30
0.0
  0
VERTEX
  5
9E
330
9D
100
AcDbEntity
  8
_U+30EC_U+30A4_U+30E4_U+30FC 1
 62
   179
420
  2234388
370
     9
100
AcDbVertex
100
AcDb2dVertex
 10
71.11795207451877
 20
-115.3517716378286
 30
0.0
  0
VERTEX
  5
9F
330
9D
100
AcDbEntity
  8
_U+30EC_U+30A4_U+30E4_U+30FC 1
 62
   179
420
  2234388
370
     9
100
AcDbVertex
100
AcDb2dVertex
 10
111.1174124429364
 20
-115.3517716378286
 30
0.0
  0
SEQEND
  5
A0
330
9D
100
AcDbEntity
  8
_U+30EC_U+30A4_U+30E4_U+30FC 1
 62
   179
420
  2234388
370
     9
  0
POLYLINE
  5
A1
330
1F
100
AcDbEntity
  8
_U+30EC_U+30A4_U+30E4_U+30FC 1
 62
   179
420
  2234388
370
     9
100
AcDb2dPolyline
 66
     1
 10
0.0
 20
0.0
 30
0.0
  0
VERTEX
  5
A2
330
A1
100
AcDbEntity
  8
_U+30EC_U+30A4_U+30E4_U+30FC 1
 62
   179
420
  2234388
370
     9
100
AcDbVertex
100
AcDb2dVertex
 10
71.11795207451877
 20
-116.8118130263526
 30
0.0
  0
VERTEX
  5
A3
330
A1
100
AcDbEntity
  8
_U+30EC_U+30A4_U+30E4_U+30FC 1
 62
   179
420
  2234388
370
     9
100
AcDbVertex
100
AcDb2dVertex
 10
71.11795207451877
 20
-114.3513291380787
 30
0.0
  0
SEQEND
  5
A4
330
A1
100
AcDbEntity
  8
_U+30EC_U+30A4_U+30E4_U+30FC 1
 62
   179
420
  2234388
370
     9
  0
POLYLINE
  5
A5
330
1F
100
AcDbEntity
  8
_U+30EC_U+30A4_U+30E4_U+30FC 1
 62
   179
420
  2234388
370
     9
100
AcDb2dPolyline
 66
     1
 10
0.0
 20
0.0
 30
0.0
  0
VERTEX
  5
A6
330
A5
100
AcDbEntity
  8
_U+30EC_U+30A4_U+30E4_U+30FC 1
 62
   179
420
  2234388
370
     9
100
AcDbVertex
100
AcDb2dVertex
 10
111.1174124429364
 20
-123.8115591357139
 30
0.0
  0
VERTEX
  5
A7
330
A5
100
AcDbEntity
  8
_U+30EC_U+30A4_U+30E4_U+30FC 1
 62
   179
420
  2234388
370
     9
100
AcDbVertex
100
AcDb2dVertex
 10
111.1174124429364
 20
-114.3513291380787
 30
0.0
  0
SEQEND
  5
A8
330
A5
100
AcDbEntity
  8
_U+30EC_U+30A4_U+30E4_U+30FC 1
 62
   179
420
  2234388
370
     9
  0
POLYLINE
  5
A9
330
1F
100
AcDbEntity
  8
_U+30EC_U+30A4_U+30E4_U+30FC 1
 62
   179
420
  2234388
370
     9
100
AcDb2dPolyline
 66
     1
 10
0.0
 20
0.0
 30
0.0
  0
VERTEX
  5
AA
330
A9
100
AcDbEntity
  8
_U+30EC_U+30A4_U+30E4_U+30FC 1
 62
   179
420
  2234388
370
     9
100
AcDbVertex
100
AcDb2dVertex
 10
74.19166949610171
 20
-113.0738855272872
 30
0.0
  0
VERTEX
  5
AB
330
A9
100
AcDbEntity
  8
_U+30EC_U+30A4_U+30E4_U+30FC 1
 62
   179
420
  2234388
370
     9
100
AcDbVertex
100
AcDb2dVertex
 10
74.19166949610171
 20
-111.6627744165288
 30
0.0
  0
SEQEND
  5
AC
330
A9
100
AcDbEntity
  8
_U+30EC_U+30A4_U+30E4_U+30FC 1
 62
   179
420
  2234388
370
     9
  0
POLYLINE
  5
AD
330
1F
100
AcDbEntity
  8
_U+30EC_U+30A4_U+30E4_U+30FC 1
 62
   179
420
  2234388
370
     9
100
AcDb2dPolyline
 66
     1
 10
0.0
 20
0.0
 30
0.0
  0
VERTEX
  5
AE
330
AD
100
AcDbEntity
  8
_U+30EC_U+30A4_U+30E4_U+30FC 1
 62
   179
420
  2234388
370
     9
100
AcDbVertex
100
AcDb2dVertex
 10
71.19305846149155
 20
-113.0738855272872
 30
0.0
  0
VERTEX
  5
AF
330
AD
100
AcDbEntity
  8
_U+30EC_U+30A4_U+30E4_U+30FC 1
 62
   179
420
  2234388
370
     9
100
AcDbVertex
100
AcDb2dVertex
 10
71.19305846149155
 20
-111.6627744165288
 30
0.0
  0
SEQEND
  5
B0
330
AD
100
AcDbEntity
  8
_U+30EC_U+30A4_U+30E4_U+30FC 1
 62
   179
420
  2234388
370
     9
  0
POLYLINE
  5
B1
330
1F
100
AcDbEntity
  8
_U+30EC_U+30A4_U+30E4_U+30FC 1
 62
   179
420
  2234388
370
     9
100
AcDb2dPolyline
 66
     1
 10
0.0
 20
0.0
 30
0.0
  0
VERTEX
  5
B2
330
B1
100
AcDbEntity
  8
_U+30EC_U+30A4_U+30E4_U+30FC 1
 62
   179
420
  2234388
370
     9
100
AcDbVertex
100
AcDb2dVertex
 10
69.78194738638088
 20
-112.368329971908
 30
0.0
  0
VERTEX
  5
B3
330
B1
100
AcDbEntity
  8
_U+30EC_U+30A4_U+30E4_U+30FC 1
 62
   179
420
  2234388
370
     9
100
AcDbVertex
100
AcDb2dVertex
 10
75.32235752281102
 20
-112.368329971908
 30
0.0
  0
SEQEND
  5
B4
330
B1
100
AcDbEntity
  8
_U+30EC_U+30A4_U+30E4_U+30FC 1
 62
   179
420
  2234388
370
     9
  0
INSERT
  5
B6
330
1F
100
AcDbEntity
  8
_U+30EC_U+30A4_U+30E4_U+30FC 1
100
AcDbBlockReference
  2
block 2
 10
0.0
 20
0.0
 30
0.0
  0
INSERT
  5
BC
330
1F
100
AcDbEntity
  8
_U+30EC_U+30A4_U+30E4_U+30FC 1
100
AcDbBlockReference
  2
block 3
 10
0.0
 20
0.0
 30
0.0
  0
INSERT
  5
C2
330
1F
100
AcDbEntity
  8
_U+30EC_U+30A4_U+30E4_U+30FC 1
100
AcDbBlockReference
  2
block 4
 10
0.0
 20
0.0
 30
0.0
  0
INSERT
  5
CB
330
1F
100
AcDbEntity
  8
_U+30EC_U+30A4_U+30E4_U+30FC 1
100
AcDbBlockReference
  2
block 5
 10
0.0
 20
0.0
 30
0.0
  0
INSERT
  5
D1
330
1F
100
AcDbEntity
  8
_U+30EC_U+30A4_U+30E4_U+30FC 1
100
AcDbBlockReference
  2
block 6
 10
0.0
 20
0.0
 30
0.0
  0
INSERT
  5
D9
330
1F
100
AcDbEntity
  8
_U+30EC_U+30A4_U+30E4_U+30FC 1
100
AcDbBlockReference
  2
block 7
 10
0.0
 20
0.0
 30
0.0
  0
INSERT
  5
E2
330
1F
100
AcDbEntity
  8
_U+30EC_U+30A4_U+30E4_U+30FC 1
100
AcDbBlockReference
  2
block 8
 10
0.0
 20
0.0
 30
0.0
  0
ENDSEC
  0
SECTION
  2
OBJECTS
  0
DICTIONARY
  5
C
330
0
100
AcDbDictionary
281
     1
  3
ACAD_GROUP
350
D
  3
ACAD_LAYOUT
350
1A
  3
ACAD_MATERIAL
350
3B
  3
ACAD_MLEADERSTYLE
350
FE
  3
ACAD_MLINESTYLE
350
17
  3
ACAD_PLOTSETTINGS
350
19
  3
ACAD_PLOTSTYLENAME
350
E
  3
ACAD_TABLESTYLE
350
FD
  3
ACAD_VISUALSTYLE
350
2A
  0
SUN
  5
3F
330
29
100
AcDbSun
 90
        1
290
     0
 63
     7
421
 16777215
 40
1.0
291
     1
 91
  2455826
 92
 54000000
292
     0
 70
     2
 71
   256
280
     1
  0
DICTIONARY
  5
D
102
{ACAD_REACTORS
330
C
102
}
330
C
100
AcDbDictionary
281
     1
  0
DICTIONARY
  5
1A
102
{ACAD_REACTORS
330
C
102
}
330
C
100
AcDbDictionary
281
     1
  3
Layout1
350
1E
  3
Layout2
350
26
  3
Model
350
22
  0
DICTIONARY
  5
3B
102
{ACAD_REACTORS
330
C
102
}
330
C
100
AcDbDictionary
281
     1
  3
ByBlock
350
3D
  3
ByLayer
350
3C
  3
Global
350
3E
  0
DICTIONARY
  5
FE
102
{ACAD_REACTORS
330
C
102
}
330
C
100
AcDbDictionary
281
     1
  0
DICTIONARY
  5
17
102
{ACAD_REACTORS
330
C
102
}
330
C
100
AcDbDictionary
281
     1
  3
Standard
350
18
  0
DICTIONARY
  5
19
102
{ACAD_REACTORS
330
C
102
}
330
C
100
AcDbDictionary
281
     1
  0
ACDBDICTIONARYWDFLT
  5
E
102
{ACAD_REACTORS
330
C
102
}
330
C
100
AcDbDictionary
281
     1
  3
Normal
350
F
100
AcDbDictionaryWithDefault
340
F
  0
DICTIONARY
  5
FD
102
{ACAD_REACTORS
330
C
102
}
330
C
100
AcDbDictionary
281
     1
  0
DICTIONARY
  5
2A
102
{ACAD_REACTORS
330
C
102
}
330
C
100
AcDbDictionary
281
     1
  3
2dWireframe
350
2F
  3
3D Hidden
350
31
  3
3dWireframe
350
30
  3
Basic
350
32
  3
Brighten
350
36
  3
ColorChange
350
3A
  3
Conceptual
350
34
  3
Dim
350
35
  3
Facepattern
350
39
  3
Flat
350
2B
  3
FlatWithEdges
350
2C
  3
Gouraud
350
2D
  3
GouraudWithEdges
350
2E
  3
Linepattern
350
38
  3
Realistic
350
33
  3
Thicken
350
37
  0
LAYOUT
  5
1E
102
{ACAD_REACTORS
330
1A
102
}
330
1A
100
AcDbPlotSettings
  1

  2
none_device
  4

  6

 40
0.0
 41
0.0
 42
0.0
 43
0.0
 44
0.0
 45
0.0
 46
0.0
 47
0.0
 48
0.0
 49
0.0
140
0.0
141
0.0
142
1.0
143
1.0
 70
   688
 72
     0
 73
     0
 74
     5
  7

 75
    16
 76
     0
 77
     2
 78
   300
147
1.0
148
0.0
149
0.0
100
AcDbLayout
  1
Layout1
 70
     1
 71
     1
 10
0.0
 20
0.0
 11
12.0
 21
9.0
 12
0.0
 22
0.0
 32
0.0
 14
1.000000000000000E+20
 24
1.000000000000000E+20
 34
1.000000000000000E+20
 15
-1.000000000000000E+20
 25
-1.000000000000000E+20
 35
-1.000000000000000E+20
146
0.0
 13
0.0
 23
0.0
 33
0.0
 16
1.0
 26
0.0
 36
0.0
 17
0.0
 27
1.0
 37
0.0
 76
     0
330
1B
  0
LAYOUT
  5
26
102
{ACAD_REACTORS
330
1A
102
}
330
1A
100
AcDbPlotSettings
  1

  2
none_device
  4

  6

 40
0.0
 41
0.0
 42
0.0
 43
0.0
 44
0.0
 45
0.0
 46
0.0
 47
0.0
 48
0.0
 49
0.0
140
0.0
141
0.0
142
1.0
143
1.0
 70
   688
 72
     0
 73
     0
 74
     5
  7

 75
    16
 76
     0
 77
     2
 78
   300
147
1.0
148
0.0
149
0.0
100
AcDbLayout
  1
Layout2
 70
     1
 71
     2
 10
0.0
 20
0.0
 11
0.0
 21
0.0
 12
0.0
 22
0.0
 32
0.0
 14
0.0
 24
0.0
 34
0.0
 15
0.0
 25
0.0
 35
0.0
146
0.0
 13
0.0
 23
0.0
 33
0.0
 16
1.0
 26
0.0
 36
0.0
 17
0.0
 27
1.0
 37
0.0
 76
     0
330
23
  0
LAYOUT
  5
22
102
{ACAD_REACTORS
330
1A
102
}
330
1A
100
AcDbPlotSettings
  1

  2
none_device
  4

  6

 40
0.0
 41
0.0
 42
0.0
 43
0.0
 44
0.0
 45
0.0
 46
0.0
 47
0.0
 48
0.0
 49
0.0
140
0.0
141
0.0
142
1.0
143
1.0
 70
  1712
 72
     0
 73
     0
 74
     0
  7

 75
     0
 76
     0
 77
     2
 78
   300
147
1.0
148
0.0
149
0.0
100
AcDbLayout
  1
Model
 70
     1
 71
     0
 10
0.0
 20
0.0
 11
12.0
 21
9.0
 12
0.0
 22
0.0
 32
0.0
 14
1.000000000000000E+20
 24
1.000000000000000E+20
 34
1.000000000000000E+20
 15
-1.000000000000000E+20
 25
-1.000000000000000E+20
 35
-1.000000000000000E+20
146
0.0
 13
0.0
 23
0.0
 33
0.0
 16
1.0
 26
0.0
 36
0.0
 17
0.0
 27
1.0
 37
0.0
 76
     0
330
1F
331
29
  0
MATERIAL
  5
3D
102
{ACAD_REACTORS
330
3B
102
}
330
3B
100
AcDbMaterial
  1
ByBlock
 72
     1
 94
      127
  0
MATERIAL
  5
3C
102
{ACAD_REACTORS
330
3B
102
}
330
3B
100
AcDbMaterial
  1
ByLayer
 72
     1
 94
      127
  0
MATERIAL
  5
3E
102
{ACAD_REACTORS
330
3B
102
}
330
3B
100
AcDbMaterial
  1
Global
 72
     1
 94
      127
  0
MLINESTYLE
  5
18
102
{ACAD_REACTORS
330
17
102
}
330
17
100
AcDbMlineStyle
  2
Standard
 70
     0
  3

 62
   256
 51
90.0
 52
90.0
 71
     2
 49
0.5
 62
   256
  6
BYLAYER
 49
-0.5
 62
   256
  6
BYLAYER
  0
ACDBPLACEHOLDER
  5
F
102
{ACAD_REACTORS
330
E
102
}
330
E
  0
VISUALSTYLE
  5
2F
102
{ACAD_REACTORS
330
2A
102
}
330
2A
100
AcDbVisualStyle
  2
2dWireframe
 70
     4
177
     2
291
     0
 71
     0
176
     1
 72
     2
176
     1
 73
     0
176
     1
 90
        0
176
     1
 40
-0.6
176
     1
 41
-30.0
176
     1
 62
     5
 63
     7
421
 16777215
176
     1
 74
     1
176
     1
 91
        4
176
     1
 64
     7
176
     1
 65
   257
176
     1
 75
     1
176
     1
175
     1
176
     1
 42
1.0
176
     1
 92
        0
176
     1
 66
   257
176
     1
 43
1.0
176
     1
 76
     1
176
     1
 77
     6
176
     1
 78
     2
176
     1
 67
     7
176
     1
 79
     5
176
     1
170
     0
176
     1
171
     0
176
     1
290
     0
176
     1
 93
        1
176
     1
 44
0.0
176
     1
173
     0
176
     1
  0
VISUALSTYLE
  5
31
102
{ACAD_REACTORS
330
2A
102
}
330
2A
100
AcDbVisualStyle
  2
3D Hidden
 70
     6
177
     2
291
     0
 71
     1
176
     1
 72
     2
176
     1
 73
     2
176
     1
 90
        0
176
     1
 40
-0.6
176
     1
 41
-30.0
176
     1
 62
     5
 63
     7
421
 16777215
176
     1
 74
     2
176
     1
 91
        2
176
     1
 64
     7
176
     1
 65
   257
176
     1
 75
     2
176
     1
175
     1
176
     1
 42
40.0
176
     1
 92
        0
176
     1
 66
   257
176
     1
 43
1.0
176
     1
 76
     1
176
     1
 77
     6
176
     1
 78
     2
176
     1
 67
     7
176
     1
 79
     3
176
     1
170
     0
176
     1
171
     0
176
     1
290
     0
176
     1
 93
        1
176
     1
 44
0.0
176
     1
173
     0
176
     1
  0
VISUALSTYLE
  5
30
102
{ACAD_REACTORS
330
2A
102
}
330
2A
100
AcDbVisualStyle
  2
3dWireframe
 70
     5
177
     2
291
     0
 71
     0
176
     1
 72
     2
176
     1
 73
     0
176
     1
 90
        0
176
     1
 40
-0.6
176
     1
 41
-30.0
176
     1
 62
     5
 63
     7
421
 16777215
176
     1
 74
     1
176
     1
 91
        4
176
     1
 64
     7
176
     1
 65
   257
176
     1
 75
     1
176
     1
175
     1
176
     1
 42
1.0
176
     1
 92
        0
176
     1
 66
   257
176
     1
 43
1.0
176
     1
 76
     1
176
     1
 77
     6
176
     1
 78
     2
176
     1
 67
     7
176
     1
 79
     5
176
     1
170
     0
176
     1
171
     0
176
     1
290
     0
176
     1
 93
        1
176
     1
 44
0.0
176
     1
173
     0
176
     1
  0
VISUALSTYLE
  5
32
102
{ACAD_REACTORS
330
2A
102
}
330
2A
100
AcDbVisualStyle
  2
Basic
 70
     7
177
     2
291
     1
 71
     1
176
     1
 72
     0
176
     1
 73
     1
176
     1
 90
        0
176
     1
 40
-0.6
176
     1
 41
-30.0
176
     1
 62
     5
 63
     7
421
 16777215
176
     1
 74
     0
176
     1
 91
        4
176
     1
 64
     7
176
     1
 65
   257
176
     1
 75
     1
176
     1
175
     1
176
     1
 42
1.0
176
     1
 92
        8
176
     1
 66
     7
176
     1
 43
1.0
176
     1
 76
     1
176
     1
 77
     6
176
     1
 78
     2
176
     1
 67
     7
176
     1
 79
     5
176
     1
170
     0
176
     1
171
     0
176
     1
290
     0
176
     1
 93
        1
176
     1
 44
0.0
176
     1
173
     0
176
     1
  0
VISUALSTYLE
  5
36
102
{ACAD_REACTORS
330
2A
102
}
330
2A
100
AcDbVisualStyle
  2
Brighten
 70
    12
177
     2
291
     1
 71
     2
176
     1
 72
     2
176
     1
 73
     0
176
     1
 90
        0
176
     1
 40
-0.6
176
     1
 41
-30.0
176
     1
 62
     5
 63
     7
421
 16777215
176
     1
 74
     1
176
     1
 91
        4
176
     1
 64
     7
176
     1
 65
   257
176
     1
 75
     1
176
     1
175
     1
176
     1
 42
1.0
176
     1
 92
        8
176
     1
 66
     7
176
     1
 43
1.0
176
     1
 76
     1
176
     1
 77
     6
176
     1
 78
     2
176
     1
 67
     7
176
     1
 79
     5
176
     1
170
     0
176
     1
171
     0
176
     1
290
     0
176
     1
 93
        1
176
     1
 44
50.0
176
     1
173
     0
176
     1
  0
VISUALSTYLE
  5
3A
102
{ACAD_REACTORS
330
2A
102
}
330
2A
100
AcDbVisualStyle
  2
ColorChange
 70
    16
177
     2
291
     1
 71
     2
176
     1
 72
     2
176
     1
 73
     3
176
     1
 90
        0
176
     1
 40
-0.6
176
     1
 41
-30.0
176
     1
 62
     5
 63
     8
421
  8421504
176
     1
 74
     1
176
     1
 91
        4
176
     1
 64
     7
176
     1
 65
   257
176
     1
 75
     1
176
     1
175
     1
176
     1
 42
1.0
176
     1
 92
        8
176
     1
 66
     8
424
  8421504
176
     1
 43
1.0
176
     1
 76
     1
176
     1
 77
     6
176
     1
 78
     2
176
     1
 67
     7
176
     1
 79
     5
176
     1
170
     0
176
     1
171
     0
176
     1
290
     0
176
     1
 93
        1
176
     1
 44
0.0
176
     1
173
     0
176
     1
  0
VISUALSTYLE
  5
34
102
{ACAD_REACTORS
330
2A
102
}
330
2A
100
AcDbVisualStyle
  2
Conceptual
 70
     9
177
     2
291
     0
 71
     3
176
     1
 72
     2
176
     1
 73
     0
176
     1
 90
        0
176
     1
 40
-0.6
176
     1
 41
-30.0
176
     1
 62
     5
 63
     7
421
 16777215
176
     1
 74
     2
176
     1
 91
        2
176
     1
 64
     7
176
     1
 65
   257
176
     1
 75
     1
176
     1
175
     1
176
     1
 42
40.0
176
     1
 92
        8
176
     1
 66
     7
176
     1
 43
1.0
176
     1
 76
     1
176
     1
 77
     6
176
     1
 78
     2
176
     1
 67
     7
176
     1
 79
     3
176
     1
170
     0
176
     1
171
     0
176
     1
290
     0
176
     1
 93
        1
176
     1
 44
0.0
176
     1
173
     0
176
     1
  0
VISUALSTYLE
  5
35
102
{ACAD_REACTORS
330
2A
102
}
330
2A
100
AcDbVisualStyle
  2
Dim
 70
    11
177
     2
291
     1
 71
     2
176
     1
 72
     2
176
     1
 73
     0
176
     1
 90
        0
176
     1
 40
-0.6
176
     1
 41
-30.0
176
     1
 62
     5
 63
     7
421
 16777215
176
     1
 74
     1
176
     1
 91
        4
176
     1
 64
     7
176
     1
 65
   257
176
     1
 75
     1
176
     1
175
     1
176
     1
 42
1.0
176
     1
 92
        8
176
     1
 66
     7
176
     1
 43
1.0
176
     1
 76
     1
176
     1
 77
     6
176
     1
 78
     2
176
     1
 67
     7
176
     1
 79
     5
176
     1
170
     0
176
     1
171
     0
176
     1
290
     0
176
     1
 93
        1
176
     1
 44
-50.0
176
     1
173
     0
176
     1
  0
VISUALSTYLE
  5
39
102
{ACAD_REACTORS
330
2A
102
}
330
2A
100
AcDbVisualStyle
  2
Facepattern
 70
    15
177
     2
291
     1
 71
     2
176
     1
 72
     2
176
     1
 73
     0
176
     1
 90
        0
176
     1
 40
-0.6
176
     1
 41
-30.0
176
     1
 62
     5
 63
     7
421
 16777215
176
     1
 74
     1
176
     1
 91
        4
176
     1
 64
     7
176
     1
 65
   257
176
     1
 75
     1
176
     1
175
     1
176
     1
 42
1.0
176
     1
 92
        8
176
     1
 66
     7
176
     1
 43
1.0
176
     1
 76
     1
176
     1
 77
     6
176
     1
 78
     2
176
     1
 67
     7
176
     1
 79
     5
176
     1
170
     0
176
     1
171
     0
176
     1
290
     0
176
     1
 93
        1
176
     1
 44
0.0
176
     1
173
     0
176
     1
  0
VISUALSTYLE
  5
2B
102
{ACAD_REACTORS
330
2A
102
}
330
2A
100
AcDbVisualStyle
  2
Flat
 70
     0
177
     2
291
     1
 71
     2
176
     1
 72
     1
176
     1
 73
     1
176
     1
 90
        2
176
     1
 40
-0.6
176
     1
 41
30.0
176
     1
 62
     5
 63
     7
421
 16777215
176
     1
 74
     0
176
     1
 91
        4
176
     1
 64
     7
176
     1
 65
   257
176
     1
 75
     1
176
     1
175
     1
176
     1
 42
1.0
176
     1
 92
        8
176
     1
 66
     7
176
     1
 43
1.0
176
     1
 76
     1
176
     1
 77
     6
176
     1
 78
     2
176
     1
 67
     7
176
     1
 79
     5
176
     1
170
     0
176
     1
171
     0
176
     1
290
     0
176
     1
 93
       13
176
     1
 44
0.0
176
     1
173
     0
176
     1
  0
VISUALSTYLE
  5
2C
102
{ACAD_REACTORS
330
2A
102
}
330
2A
100
AcDbVisualStyle
  2
FlatWithEdges
 70
     1
177
     2
291
     1
 71
     2
176
     1
 72
     1
176
     1
 73
     1
176
     1
 90
        2
176
     1
 40
-0.6
176
     1
 41
30.0
176
     1
 62
     5
 63
     7
421
 16777215
176
     1
 74
     1
176
     1
 91
        4
176
     1
 64
     7
176
     1
 65
   257
176
     1
 75
     1
176
     1
175
     1
176
     1
 42
1.0
176
     1
 92
        0
176
     1
 66
   257
176
     1
 43
1.0
176
     1
 76
     1
176
     1
 77
     6
176
     1
 78
     2
176
     1
 67
     7
176
     1
 79
     5
176
     1
170
     0
176
     1
171
     0
176
     1
290
     0
176
     1
 93
       13
176
     1
 44
0.0
176
     1
173
     0
176
     1
  0
VISUALSTYLE
  5
2D
102
{ACAD_REACTORS
330
2A
102
}
330
2A
100
AcDbVisualStyle
  2
Gouraud
 70
     2
177
     2
291
     1
 71
     2
176
     1
 72
     2
176
     1
 73
     1
176
     1
 90
        2
176
     1
 40
-0.6
176
     1
 41
30.0
176
     1
 62
     5
 63
     7
421
 16777215
176
     1
 74
     0
176
     1
 91
        4
176
     1
 64
     7
176
     1
 65
   257
176
     1
 75
     1
176
     1
175
     1
176
     1
 42
1.0
176
     1
 92
        0
176
     1
 66
     7
176
     1
 43
1.0
176
     1
 76
     1
176
     1
 77
     6
176
     1
 78
     2
176
     1
 67
     7
176
     1
 79
     5
176
     1
170
     0
176
     1
171
     0
176
     1
290
     0
176
     1
 93
       13
176
     1
 44
0.0
176
     1
173
     0
176
     1
  0
VISUALSTYLE
  5
2E
102
{ACAD_REACTORS
330
2A
102
}
330
2A
100
AcDbVisualStyle
  2
GouraudWithEdges
 70
     3
177
     2
291
     1
 71
     2
176
     1
 72
     2
176
     1
 73
     1
176
     1
 90
        2
176
     1
 40
-0.6
176
     1
 41
30.0
176
     1
 62
     5
 63
     7
421
 16777215
176
     1
 74
     1
176
     1
 91
        4
176
     1
 64
     7
176
     1
 65
   257
176
     1
 75
     1
176
     1
175
     1
176
     1
 42
1.0
176
     1
 92
        0
176
     1
 66
   257
176
     1
 43
1.0
176
     1
 76
     1
176
     1
 77
     6
176
     1
 78
     2
176
     1
 67
     7
176
     1
 79
     5
176
     1
170
     0
176
     1
171
     0
176
     1
290
     0
176
     1
 93
       13
176
     1
 44
0.0
176
     1
173
     0
176
     1
  0
VISUALSTYLE
  5
38
102
{ACAD_REACTORS
330
2A
102
}
330
2A
100
AcDbVisualStyle
  2
Linepattern
 70
    14
177
     2
291
     1
 71
     2
176
     1
 72
     2
176
     1
 73
     0
176
     1
 90
        0
176
     1
 40
-0.6
176
     1
 41
-30.0
176
     1
 62
     5
 63
     7
421
 16777215
176
     1
 74
     1
176
     1
 91
        4
176
     1
 64
     7
176
     1
 65
   257
176
     1
 75
     7
176
     1
175
     7
176
     1
 42
1.0
176
     1
 92
        8
176
     1
 66
     7
176
     1
 43
1.0
176
     1
 76
     1
176
     1
 77
     6
176
     1
 78
     2
176
     1
 67
     7
176
     1
 79
     5
176
     1
170
     0
176
     1
171
     0
176
     1
290
     0
176
     1
 93
        1
176
     1
 44
0.0
176
     1
173
     0
176
     1
  0
VISUALSTYLE
  5
33
102
{ACAD_REACTORS
330
2A
102
}
330
2A
100
AcDbVisualStyle
  2
Realistic
 70
     8
177
     2
291
     0
 71
     2
176
     1
 72
     2
176
     1
 73
     0
176
     1
 90
        0
176
     1
 40
-0.6
176
     1
 41
-30.0
176
     1
 62
     5
 63
     7
421
 16777215
176
     1
 74
     1
176
     1
 91
        0
176
     1
 64
     7
176
     1
 65
   257
176
     1
 75
     1
176
     1
175
     1
176
     1
 42
1.0
176
     1
 92
        8
176
     1
 66
     8
424
  7895160
176
     1
 43
1.0
176
     1
 76
     1
176
     1
 77
     6
176
     1
 78
     2
176
     1
 67
     7
176
     1
 79
     5
176
     1
170
     0
176
     1
171
     0
176
     1
290
     0
176
     1
 93
       13
176
     1
 44
0.0
176
     1
173
     0
176
     1
  0
VISUALSTYLE
  5
37
102
{ACAD_REACTORS
330
2A
102
}
330
2A
100
AcDbVisualStyle
  2
Thicken
 70
    13
177
     2
291
     1
 71
     2
176
     1
 72
     2
176
     1
 73
     0
176
     1
 90
        0
176
     1
 40
-0.6
176
     1
 41
-30.0
176
     1
 62
     5
 63
     7
421
 16777215
176
     1
 74
     1
176
     1
 91
        4
176
     1
 64
     7
176
     1
 65
   257
176
     1
 75
     1
176
     1
175
     1
176
     1
 42
1.0
176
     1
 92
       12
176
     1
 66
     7
176
     1
 43
1.0
176
     1
 76
     1
176
     1
 77
     6
176
     1
 78
     2
176
     1
 67
     7
176
     1
 79
     5
176
     1
170
     0
176
     1
171
     0
176
     1
290
     0
176
     1
 93
        1
176
     1
 44
0.0
176
     1
173
     0
176
     1
  0
ENDSEC
  0
EOF
