  0
SECTION
  2
HEADER
  9
$ACADVER
  1
AC1024
  9
$ACADMAINTVER
 70
     6
  9
$DWGCODEPAGE
  3
UNDEFINED
  9
$INSBASE
 10
0.0
 20
0.0
 30
0.0
  9
$EXTMIN
 10
1.000000000000000E+20
 20
1.000000000000000E+20
 30
1.000000000000000E+20
  9
$EXTMAX
 10
-1.000000000000000E+20
 20
-1.000000000000000E+20
 30
-1.000000000000000E+20
  9
$LIMMIN
 10
0.0
 20
0.0
  9
$LIMMAX
 10
12.0
 20
9.0
  9
$ORTHOMODE
 70
     0
  9
$REGENMODE
 70
     1
  9
$FILLMODE
 70
     1
  9
$QTEXTMODE
 70
     0
  9
$MIRRTEXT
 70
     1
  9
$LTSCALE
 40
1.0
  9
$ATTMODE
 70
     1
  9
$TEXTSIZE
 40
0.2
  9
$TRACEWID
 40
0.05
  9
$TEXTSTYLE
  7
Standard
  9
$CLAYER
  8
0
  9
$CELTYPE
  6
ByLayer
  9
$CECOLOR
 62
   256
  9
$CELTSCALE
 40
1.0
  9
$DISPSILH
 70
     0
  9
$DIMSCALE
 40
1.0
  9
$DIMASZ
 40
0.18
  9
$DIMEXO
 40
0.0625
  9
$DIMDLI
 40
0.38
  9
$DIMRND
 40
0.0
  9
$DIMDLE
 40
0.0
  9
$DIMEXE
 40
0.18
  9
$DIMTP
 40
0.0
  9
$DIMTM
 40
0.0
  9
$DIMTXT
 40
0.18
  9
$DIMCEN
 40
0.09
  9
$DIMTSZ
 40
0.0
  9
$DIMTOL
 70
     0
  9
$DIMLIM
 70
     0
  9
$DIMTIH
 70
     1
  9
$DIMTOH
 70
     1
  9
$DIMSE1
 70
     0
  9
$DIMSE2
 70
     0
  9
$DIMTAD
 70
     0
  9
$DIMZIN
 70
     0
  9
$DIMBLK
  1

  9
$DIMASO
 70
     1
  9
$DIMSHO
 70
     1
  9
$DIMPOST
  1

  9
$DIMAPOST
  1

  9
$DIMALT
 70
     0
  9
$DIMALTD
 70
     2
  9
$DIMALTF
 40
25.4
  9
$DIMLFAC
 40
1.0
  9
$DIMTOFL
 70
     0
  9
$DIMTVP
 40
0.0
  9
$DIMTIX
 70
     0
  9
$DIMSOXD
 70
     0
  9
$DIMSAH
 70
     0
  9
$DIMBLK1
  1

  9
$DIMBLK2
  1

  9
$DIMSTYLE
  2
Standard
  9
$DIMCLRD
 70
     0
  9
$DIMCLRE
 70
     0
  9
$DIMCLRT
 70
     0
  9
$DIMTFAC
 40
1.0
  9
$DIMGAP
 40
0.09
  9
$DIMJUST
 70
     0
  9
$DIMSD1
 70
     0
  9
$DIMSD2
 70
     0
  9
$DIMTOLJ
 70
     1
  9
$DIMTZIN
 70
     0
  9
$DIMALTZ
 70
     0
  9
$DIMALTTZ
 70
     0
  9
$DIMUPT
 70
     0
  9
$DIMDEC
 70
     4
  9
$DIMTDEC
 70
     4
  9
$DIMALTU
 70
     2
  9
$DIMALTTD
 70
     2
  9
$DIMTXSTY
  7
Standard
  9
$DIMAUNIT
 70
     0
  9
$DIMADEC
 70
     0
  9
$DIMALTRND
 40
0.0
  9
$DIMAZIN
 70
     0
  9
$DIMDSEP
 70
    46
  9
$DIMATFIT
 70
     3
  9
$DIMFRAC
 70
     0
  9
$DIMLDRBLK
  1

  9
$DIMLUNIT
 70
     2
  9
$DIMLWD
 70
    -2
  9
$DIMLWE
 70
    -2
  9
$DIMTMOVE
 70
     0
  9
$DIMFXL
 40
1.0
  9
$DIMFXLON
 70
     0
  9
$DIMJOGANG
 40
0.7853981633974483
  9
$DIMTFILL
 70
     0
  9
$DIMTFILLCLR
 70
     0
  9
$DIMARCSYM
 70
     0
  9
$DIMLTYPE
  6

  9
$DIMLTEX1
  6

  9
$DIMLTEX2
  6

  9
$DIMTXTDIRECTION
 70
     0
  9
$LUNITS
 70
     2
  9
$LUPREC
 70
     4
  9
$SKETCHINC
 40
0.1
  9
$FILLETRAD
 40
0.5
  9
$AUNITS
 70
     0
  9
$AUPREC
 70
     0
  9
$MENU
  1
.
  9
$ELEVATION
 40
0.0
  9
$PELEVATION
 40
0.0
  9
$THICKNESS
 40
0.0
  9
$LIMCHECK
 70
     0
  9
$CHAMFERA
 40
0.5
  9
$CHAMFERB
 40
0.5
  9
$CHAMFERC
 40
1.0
  9
$CHAMFERD
 40
0.0
  9
$SKPOLY
 70
     0
  9
$TDCREATE
 40
2457917.592314803
  9
$TDUCREATE
 40
2457917.217314815
  9
$TDUPDATE
 40
2457917.592314803
  9
$TDUUPDATE
 40
2457917.217314815
  9
$TDINDWG
 40
0.0000000116
  9
$TDUSRTIMER
 40
0.0000000116
  9
$USRTIMER
 70
     1
  9
$ANGBASE
 50
0.0
  9
$ANGDIR
 70
     0
  9
$PDMODE
 70
     0
  9
$PDSIZE
 40
0.0
  9
$PLINEWID
 40
0.0
  9
$SPLFRAME
 70
     0
  9
$SPLINETYPE
 70
     6
  9
$SPLINESEGS
 70
     8
  9
$HANDSEED
  5
D5
  9
$SURFTAB1
 70
     6
  9
$SURFTAB2
 70
     6
  9
$SURFTYPE
 70
     6
  9
$SURFU
 70
     6
  9
$SURFV
 70
     6
  9
$UCSBASE
  2

  9
$UCSNAME
  2

  9
$UCSORG
 10
0.0
 20
0.0
 30
0.0
  9
$UCSXDIR
 10
1.0
 20
0.0
 30
0.0
  9
$UCSYDIR
 10
0.0
 20
1.0
 30
0.0
  9
$UCSORTHOREF
  2

  9
$UCSORTHOVIEW
 70
     0
  9
$UCSORGTOP
 10
0.0
 20
0.0
 30
0.0
  9
$UCSORGBOTTOM
 10
0.0
 20
0.0
 30
0.0
  9
$UCSORGLEFT
 10
0.0
 20
0.0
 30
0.0
  9
$UCSORGRIGHT
 10
0.0
 20
0.0
 30
0.0
  9
$UCSORGFRONT
 10
0.0
 20
0.0
 30
0.0
  9
$UCSORGBACK
 10
0.0
 20
0.0
 30
0.0
  9
$PUCSBASE
  2

  9
$PUCSNAME
  2

  9
$PUCSORG
 10
0.0
 20
0.0
 30
0.0
  9
$PUCSXDIR
 10
1.0
 20
0.0
 30
0.0
  9
$PUCSYDIR
 10
0.0
 20
1.0
 30
0.0
  9
$PUCSORTHOREF
  2

  9
$PUCSORTHOVIEW
 70
     0
  9
$PUCSORGTOP
 10
0.0
 20
0.0
 30
0.0
  9
$PUCSORGBOTTOM
 10
0.0
 20
0.0
 30
0.0
  9
$PUCSORGLEFT
 10
0.0
 20
0.0
 30
0.0
  9
$PUCSORGRIGHT
 10
0.0
 20
0.0
 30
0.0
  9
$PUCSORGFRONT
 10
0.0
 20
0.0
 30
0.0
  9
$PUCSORGBACK
 10
0.0
 20
0.0
 30
0.0
  9
$USERI1
 70
     0
  9
$USERI2
 70
     0
  9
$USERI3
 70
     0
  9
$USERI4
 70
     0
  9
$USERI5
 70
     0
  9
$USERR1
 40
0.0
  9
$USERR2
 40
0.0
  9
$USERR3
 40
0.0
  9
$USERR4
 40
0.0
  9
$USERR5
 40
0.0
  9
$WORLDVIEW
 70
     1
  9
$SHADEDGE
 70
     3
  9
$SHADEDIF
 70
    70
  9
$TILEMODE
 70
     1
  9
$MAXACTVP
 70
    64
  9
$PINSBASE
 10
0.0
 20
0.0
 30
0.0
  9
$PLIMCHECK
 70
     0
  9
$PEXTMIN
 10
1.000000000000000E+20
 20
1.000000000000000E+20
 30
1.000000000000000E+20
  9
$PEXTMAX
 10
-1.000000000000000E+20
 20
-1.000000000000000E+20
 30
-1.000000000000000E+20
  9
$PLIMMIN
 10
0.0
 20
0.0
  9
$PLIMMAX
 10
12.0
 20
9.0
  9
$UNITMODE
 70
     0
  9
$VISRETAIN
 70
     1
  9
$PLINEGEN
 70
     0
  9
$PSLTSCALE
 70
     1
  9
$TREEDEPTH
 70
  3020
  9
$CMLSTYLE
  2
Standard
  9
$CMLJUST
 70
     0
  9
$CMLSCALE
 40
1.0
  9
$PROXYGRAPHICS
 70
     1
  9
$MEASUREMENT
 70
     0
  9
$CELWEIGHT
370
    -1
  9
$ENDCAPS
280
     0
  9
$JOINSTYLE
280
     0
  9
$LWDISPLAY
290
     1
  9
$INSUNITS
 70
     1
  9
$HYPERLINKBASE
  1

  9
$STYLESHEET
  1

  9
$XEDIT
290
     1
  9
$CEPSNTYPE
380
     0
  9
$PSTYLEMODE
290
     1
  9
$FINGERPRINTGUID
  2
{EB3E69EF-5EE2-9A26-BD7D-B7C77340DD56}
  9
$VERSIONGUID
  2
{FAEB1C32-E019-11D5-929B-00C0DF256EC4}
  9
$EXTNAMES
290
     1
  9
$PSVPSCALE
 40
0.0
  9
$OLESTARTUP
290
     0
  9
$SORTENTS
280
   127
  9
$INDEXCTL
280
     0
  9
$HIDETEXT
280
     1
  9
$XCLIPFRAME
280
     2
  9
$HALOGAP
280
     0
  9
$OBSCOLOR
 70
   257
  9
$OBSLTYPE
280
     0
  9
$INTERSECTIONDISPLAY
280
     0
  9
$INTERSECTIONCOLOR
 70
   257
  9
$DIMASSOC
280
     2
  9
$PROJECTNAME
  1

  9
$CAMERADISPLAY
290
     0
  9
$LENSLENGTH
 40
50.0
  9
$CAMERAHEIGHT
 40
0.0
  9
$STEPSPERSEC
 40
2.0
  9
$STEPSIZE
 40
6.0
  9
$3DDWFPREC
 40
2.0
  9
$PSOLWIDTH
 40
0.25
  9
$PSOLHEIGHT
 40
4.0
  9
$LOFTANG1
 40
1.570796326794897
  9
$LOFTANG2
 40
1.570796326794897
  9
$LOFTMAG1
 40
0.0
  9
$LOFTMAG2
 40
0.0
  9
$LOFTPARAM
 70
     7
  9
$LOFTNORMALS
280
     1
  9
$LATITUDE
 40
37.795
  9
$LONGITUDE
 40
-122.394
  9
$NORTHDIRECTION
 40
0.0
  9
$TIMEZONE
 70
 -8000
  9
$LIGHTGLYPHDISPLAY
280
     1
  9
$TILEMODELIGHTSYNCH
280
     1
  9
$CMATERIAL
347
3C
  9
$SOLIDHIST
280
     1
  9
$SHOWHIST
280
     1
  9
$DWFFRAME
280
     2
  9
$DGNFRAME
280
     2
  9
$REALWORLDSCALE
290
     1
  9
$INTERFERECOLOR
 62
   256
  9
$CSHADOW
280
     0
  9
$SHADOWPLANELOCATION
 40
0.0
  0
ENDSEC
  0
SECTION
  2
CLASSES
  0
CLASS
  1
ACDBDICTIONARYWDFLT
  2
AcDbDictionaryWithDefault
  3
ObjectDBX Classes
 90
        0
 91
        4
280
     0
281
     0
  0
CLASS
  1
VISUALSTYLE
  2
AcDbVisualStyle
  3
ObjectDBX Classes
 90
     4095
 91
        4
280
     0
281
     0
  0
CLASS
  1
MATERIAL
  2
AcDbMaterial
  3
ObjectDBX Classes
 90
     1153
 91
        4
280
     0
281
     0
  0
CLASS
  1
SUN
  2
AcDbSun
  3
SCENEOE
 90
     1024
 91
        4
280
     0
281
     0
  0
ENDSEC
  0
SECTION
  2
TABLES
  0
TABLE
  2
VPORT
  5
8
330
0
100
AcDbSymbolTable
 70
     1
  0
VPORT
  5
29
330
8
100
AcDbSymbolTableRecord
100
AcDbViewportTableRecord
  2
*Active
 70
     0
 10
0.0
 20
0.0
 11
1.0
 21
1.0
 12
0.0
 22
0.0
 13
0.0
 23
0.0
 14
0.5
 24
0.5
 15
0.5
 25
0.5
 16
0.0
 26
0.0
 36
1.0
 17
91.00082462281999
 27
-128.4993055234307
 37
0.0
 40
256.9986110468615
 41
0.7081814508812795
 42
50.0
 43
0.0
 44
0.0
 50
0.0
 51
0.0
 71
     0
 72
   100
 73
     1
 74
     3
 75
     0
 76
     0
 77
     0
 78
     0
281
     0
 65
     1
110
0.0
120
0.0
130
0.0
111
1.0
121
0.0
131
0.0
112
0.0
122
1.0
132
0.0
 79
     0
146
0.0
 60
     3
 61
     5
292
     1
282
     1
141
0.0
142
0.0
 63
   250
361
3F
  0
ENDTAB
  0
TABLE
  2
LTYPE
  5
5
330
0
100
AcDbSymbolTable
 70
     1
  0
LTYPE
  5
14
330
5
100
AcDbSymbolTableRecord
100
AcDbLinetypeTableRecord
  2
ByBlock
 70
     0
  3

 72
    65
 73
     0
 40
0.0
  0
LTYPE
  5
15
330
5
100
AcDbSymbolTableRecord
100
AcDbLinetypeTableRecord
  2
ByLayer
 70
     0
  3

 72
    65
 73
     0
 40
0.0
  0
LTYPE
  5
16
330
5
100
AcDbSymbolTableRecord
100
AcDbLinetypeTableRecord
  2
Continuous
 70
     0
  3
Solid line
 72
    65
 73
     0
 40
0.0
  0
ENDTAB
  0
TABLE
  2
LAYER
  5
2
330
0
100
AcDbSymbolTable
 70
     2
  0
LAYER
  5
10
330
2
100
AcDbSymbolTableRecord
100
AcDbLayerTableRecord
  2
0
 70
     0
 62
     7
  6
Continuous
370
    -3
390
F
347
3E
  0
LAYER
  5
40
330
2
100
AcDbSymbolTableRecord
100
AcDbLayerTableRecord
  2
_U+30EC_U+30A4_U+30E4_U+30FC 1
 70
     0
 62
     7
  6
Continuous
370
    -3
390
F
347
3E
  0
ENDTAB
  0
TABLE
  2
STYLE
  5
3
330
0
100
AcDbSymbolTable
 70
     1
  0
STYLE
  5
11
330
3
100
AcDbSymbolTableRecord
100
AcDbTextStyleTableRecord
  2
Standard
 70
     0
 40
0.0
 41
1.0
 50
0.0
 71
     0
 42
0.2
  3
txt
  4

  0
ENDTAB
  0
TABLE
  2
VIEW
  5
6
330
0
100
AcDbSymbolTable
 70
     0
  0
ENDTAB
  0
TABLE
  2
UCS
  5
7
330
0
100
AcDbSymbolTable
 70
     0
  0
ENDTAB
  0
TABLE
  2
APPID
  5
9
330
0
100
AcDbSymbolTable
 70
     1
  0
APPID
  5
12
330
9
100
AcDbSymbolTableRecord
100
AcDbRegAppTableRecord
  2
ACAD
 70
     0
  0
ENDTAB
  0
TABLE
  2
DIMSTYLE
  5
A
330
0
100
AcDbSymbolTable
 70
     1
100
AcDbDimStyleTable
  0
DIMSTYLE
105
27
330
A
100
AcDbSymbolTableRecord
100
AcDbDimStyleTableRecord
  2
Standard
 70
     0
178
     0
340
11
  0
ENDTAB
  0
TABLE
  2
BLOCK_RECORD
  5
1
330
0
100
AcDbSymbolTable
 70
     7
  0
BLOCK_RECORD
  5
1F
330
1
100
AcDbSymbolTableRecord
100
AcDbBlockTableRecord
  2
*Model_Space
340
22
 70
     0
280
     1
281
     0
  0
BLOCK_RECORD
  5
1B
330
1
100
AcDbSymbolTableRecord
100
AcDbBlockTableRecord
  2
*Paper_Space
340
1E
 70
     0
280
     1
281
     0
  0
BLOCK_RECORD
  5
23
330
1
100
AcDbSymbolTableRecord
100
AcDbBlockTableRecord
  2
*Paper_Space0
340
26
 70
     0
280
     1
281
     0
  0
BLOCK_RECORD
  5
50
330
1
100
AcDbSymbolTableRecord
100
AcDbBlockTableRecord
  2
block 2
340
0
102
{BLKREFS
331
51
102
}
 70
     0
280
     1
281
     0
  0
BLOCK_RECORD
  5
60
330
1
100
AcDbSymbolTableRecord
100
AcDbBlockTableRecord
  2
block 3
340
0
102
{BLKREFS
331
61
102
}
 70
     0
280
     1
281
     0
  0
BLOCK_RECORD
  5
95
330
1
100
AcDbSymbolTableRecord
100
AcDbBlockTableRecord
  2
block 4
340
0
102
{BLKREFS
331
96
102
}
 70
     0
280
     1
281
     0
  0
BLOCK_RECORD
  5
A7
330
1
100
AcDbSymbolTableRecord
100
AcDbBlockTableRecord
  2
block 5
340
0
102
{BLKREFS
331
A8
102
}
 70
     0
280
     1
281
     0
  0
BLOCK_RECORD
  5
AD
330
1
100
AcDbSymbolTableRecord
100
AcDbBlockTableRecord
  2
block 6
340
0
102
{BLKREFS
331
AE
102
}
 70
     0
280
     1
281
     0
  0
BLOCK_RECORD
  5
CB
330
1
100
AcDbSymbolTableRecord
100
AcDbBlockTableRecord
  2
block 7
340
0
102
{BLKREFS
331
CC
102
}
 70
     0
280
     1
281
     0
  0
ENDTAB
  0
ENDSEC
  0
SECTION
  2
BLOCKS
  0
BLOCK
  5
20
330
1F
100
AcDbEntity
  8
0
100
AcDbBlockBegin
  2
*Model_Space
 70
     0
 10
0.0
 20
0.0
 30
0.0
  3
*Model_Space
  1

  0
ENDBLK
  5
21
330
1F
100
AcDbEntity
  8
0
100
AcDbBlockEnd
  0
BLOCK
  5
1C
330
1B
100
AcDbEntity
 67
     1
  8
0
100
AcDbBlockBegin
  2
*Paper_Space
 70
     0
 10
0.0
 20
0.0
 30
0.0
  3
*Paper_Space
  1

  0
ENDBLK
  5
1D
330
1B
100
AcDbEntity
 67
     1
  8
0
100
AcDbBlockEnd
  0
BLOCK
  5
24
330
23
100
AcDbEntity
  8
0
100
AcDbBlockBegin
  2
*Paper_Space0
 70
     0
 10
0.0
 20
0.0
 30
0.0
  3
*Paper_Space0
  1

  0
ENDBLK
  5
25
330
23
100
AcDbEntity
  8
0
100
AcDbBlockEnd
  0
BLOCK
  5
52
330
50
100
AcDbEntity
  8
0
100
AcDbBlockBegin
  2
block 2
 70
     0
 10
0.0
 20
0.0
 30
0.0
  3
block 2
  1

  0
SPLINE
  5
54
330
50
100
AcDbEntity
  8
_U+30EC_U+30A4_U+30E4_U+30FC 1
370
     0
100
AcDbSpline
210
0.0
220
0.0
230
1.0
 70
    11
 71
     3
 72
    26
 73
    22
 74
     0
 42
0.0000000001
 43
0.0000000001
 12
1.0
 22
0.0
 32
0.0
 13
1.0
 23
0.0
 33
0.0
 40
0.0
 40
0.0
 40
0.0
 40
0.0
 40
1.0
 40
1.0
 40
1.0
 40
2.0
 40
2.0
 40
2.0
 40
3.0
 40
3.0
 40
3.0
 40
4.0
 40
4.0
 40
4.0
 40
5.0
 40
5.0
 40
5.0
 40
6.0
 40
6.0
 40
6.0
 40
7.0
 40
7.0
 40
7.0
 40
7.0
 10
77.71532523013714
 20
-138.5851670660482
 30
0.0
 10
77.71532523013714
 20
-138.5851670660482
 30
0.0
 10
77.71532523013714
 20
-137.480669453477
 30
0.0
 10
77.71532523013714
 20
-137.480669453477
 30
0.0
 10
77.71532523013714
 20
-137.480669453477
 30
0.0
 10
77.38528508265021
 20
-137.480669453477
 30
0.0
 10
77.38528508265021
 20
-137.480669453477
 30
0.0
 10
77.38528508265021
 20
-137.480669453477
 30
0.0
 10
77.38528508265021
 20
-137.3328748571599
 30
0.0
 10
77.38528508265021
 20
-137.3328748571599
 30
0.0
 10
77.7173922874283
 20
-137.3180609465733
 30
0.0
 10
77.76390107647917
 20
-137.1551079301209
 30
0.0
 10
77.79352889765232
 20
-137.0407307600107
 30
0.0
 10
77.79352889765232
 20
-137.0407307600107
 30
0.0
 10
77.9396009462269
 20
-137.0407307600107
 30
0.0
 10
77.9396009462269
 20
-137.0407307600107
 30
0.0
 10
77.9396009462269
 20
-137.0407307600107
 30
0.0
 10
77.9396009462269
 20
-138.5851670660482
 30
0.0
 10
77.9396009462269
 20
-138.5851670660482
 30
0.0
 10
77.9396009462269
 20
-138.5851670660482
 30
0.0
 10
77.71532523013714
 20
-138.5851670660482
 30
0.0
 10
77.71532523013714
 20
-138.5851670660482
 30
0.0
  0
HATCH
  5
55
330
50
100
AcDbEntity
  8
_U+30EC_U+30A4_U+30E4_U+30FC 1
 62
   179
420
  2234388
100
AcDbHatch
 10
0.0
 20
0.0
 30
0.0
210
0.0
220
0.0
230
1.0
  2
SOLID
 70
     1
 71
     0
 91
        1
 92
        1
 93
        1
 72
     4
 94
        3
 73
     0
 74
     1
 95
       26
 96
       22
 40
0.0
 40
0.0
 40
0.0
 40
0.0
 40
1.0
 40
1.0
 40
1.0
 40
2.0
 40
2.0
 40
2.0
 40
3.0
 40
3.0
 40
3.0
 40
4.0
 40
4.0
 40
4.0
 40
5.0
 40
5.0
 40
5.0
 40
6.0
 40
6.0
 40
6.0
 40
7.0
 40
7.0
 40
7.0
 40
7.0
 10
77.71532523013714
 20
-138.5851670660482
 10
77.71532523013714
 20
-138.5851670660482
 10
77.71532523013714
 20
-137.480669453477
 10
77.71532523013714
 20
-137.480669453477
 10
77.71532523013714
 20
-137.480669453477
 10
77.38528508265021
 20
-137.480669453477
 10
77.38528508265021
 20
-137.480669453477
 10
77.38528508265021
 20
-137.480669453477
 10
77.38528508265021
 20
-137.3328748571599
 10
77.38528508265021
 20
-137.3328748571599
 10
77.7173922874283
 20
-137.3180609465733
 10
77.76390107647917
 20
-137.1551079301209
 10
77.79352889765232
 20
-137.0407307600107
 10
77.79352889765232
 20
-137.0407307600107
 10
77.9396009462269
 20
-137.0407307600107
 10
77.9396009462269
 20
-137.0407307600107
 10
77.9396009462269
 20
-137.0407307600107
 10
77.9396009462269
 20
-138.5851670660482
 10
77.9396009462269
 20
-138.5851670660482
 10
77.9396009462269
 20
-138.5851670660482
 10
77.71532523013714
 20
-138.5851670660482
 10
77.71532523013714
 20
-138.5851670660482
 97
        0
 97
        0
 75
     2
 76
     1
 98
        0
  0
SPLINE
  5
56
330
50
100
AcDbEntity
  8
_U+30EC_U+30A4_U+30E4_U+30FC 1
370
     0
100
AcDbSpline
210
0.0
220
0.0
230
1.0
 70
    11
 71
     3
 72
    44
 73
    40
 74
     0
 42
0.0000000001
 43
0.0000000001
 12
1.0
 22
0.0
 32
0.0
 13
1.0
 23
0.0
 33
0.0
 40
0.0
 40
0.0
 40
0.0
 40
0.0
 40
1.0
 40
1.0
 40
1.0
 40
2.0
 40
2.0
 40
2.0
 40
3.0
 40
3.0
 40
3.0
 40
4.0
 40
4.0
 40
4.0
 40
5.0
 40
5.0
 40
5.0
 40
6.0
 40
6.0
 40
6.0
 40
7.0
 40
7.0
 40
7.0
 40
8.0
 40
8.0
 40
8.0
 40
9.0
 40
9.0
 40
9.0
 40
10.0
 40
10.0
 40
10.0
 40
11.0
 40
11.0
 40
11.0
 40
12.0
 40
12.0
 40
12.0
 40
13.0
 40
13.0
 40
13.0
 40
13.0
 10
79.03393552711653
 20
-138.0032904385895
 30
0.0
 10
78.81603323767446
 20
-138.1621093404595
 30
0.0
 10
78.72284340479845
 20
-138.2361788933923
 30
0.0
 10
78.67426755845644
 20
-138.3798393751273
 30
0.0
 10
78.67426755845644
 20
-138.3798393751273
 30
0.0
 10
79.45268688334863
 20
-138.3798393751273
 30
0.0
 10
79.45268688334863
 20
-138.3798393751273
 30
0.0
 10
79.45268688334863
 20
-138.3798393751273
 30
0.0
 10
79.45268688334863
 20
-138.5851670660482
 30
0.0
 10
79.45268688334863
 20
-138.5851670660482
 30
0.0
 10
79.45268688334863
 20
-138.5851670660482
 30
0.0
 10
78.42467039055009
 20
-138.5851670660482
 30
0.0
 10
78.42467039055009
 20
-138.5851670660482
 30
0.0
 10
78.45636526901438
 20
-138.2275661546792
 30
0.0
 10
78.5219943380084
 20
-138.149362487164
 30
0.0
 10
78.90698375848507
 20
-137.8510172181414
 30
0.0
 10
79.16295435303913
 20
-137.6522352086425
 30
0.0
 10
79.22841116725887
 20
-137.5843668275831
 30
0.0
 10
79.22841116725887
 20
-137.4469075177216
 30
0.0
 10
79.22841116725887
 20
-137.328396233029
 30
0.0
 10
79.15658092639141
 20
-137.1974826045895
 30
0.0
 10
78.95986597418364
 20
-137.1974826045895
 30
0.0
 10
78.69958901027303
 20
-137.1974826045895
 30
0.0
 10
78.69114852633416
 20
-137.4279594925527
 30
0.0
 10
78.6868421569776
 20
-137.5444037199542
 30
0.0
 10
78.6868421569776
 20
-137.5444037199542
 30
0.0
 10
78.4627386956621
 20
-137.5444037199542
 30
0.0
 10
78.4627386956621
 20
-137.5444037199542
 30
0.0
 10
78.47117917960095
 20
-137.4172796965485
 30
0.0
 10
78.48168672083096
 20
-137.3053140932778
 30
0.0
 10
78.56212970041156
 20
-137.1868028085852
 30
0.0
 10
78.67202824639102
 20
-137.0259168494241
 30
0.0
 10
78.85823565736878
 20
-136.9921549136686
 30
0.0
 10
78.97467988477023
 20
-136.9921549136686
 30
0.0
 10
79.25183781655858
 20
-136.9921549136686
 30
0.0
 10
79.45906030999635
 20
-137.176123012581
 30
0.0
 10
79.45906030999635
 20
-137.4489745750128
 30
0.0
 10
79.45906030999635
 20
-137.6773844056848
 30
0.0
 10
79.34278833736917
 20
-137.7769476652086
 30
0.0
 10
79.03393552711653
 20
-138.0032904385895
 30
0.0
  0
HATCH
  5
57
330
50
100
AcDbEntity
  8
_U+30EC_U+30A4_U+30E4_U+30FC 1
 62
   179
420
  2234388
100
AcDbHatch
 10
0.0
 20
0.0
 30
0.0
210
0.0
220
0.0
230
1.0
  2
SOLID
 70
     1
 71
     0
 91
        1
 92
        1
 93
        1
 72
     4
 94
        3
 73
     0
 74
     1
 95
       44
 96
       40
 40
0.0
 40
0.0
 40
0.0
 40
0.0
 40
1.0
 40
1.0
 40
1.0
 40
2.0
 40
2.0
 40
2.0
 40
3.0
 40
3.0
 40
3.0
 40
4.0
 40
4.0
 40
4.0
 40
5.0
 40
5.0
 40
5.0
 40
6.0
 40
6.0
 40
6.0
 40
7.0
 40
7.0
 40
7.0
 40
8.0
 40
8.0
 40
8.0
 40
9.0
 40
9.0
 40
9.0
 40
10.0
 40
10.0
 40
10.0
 40
11.0
 40
11.0
 40
11.0
 40
12.0
 40
12.0
 40
12.0
 40
13.0
 40
13.0
 40
13.0
 40
13.0
 10
79.03393552711653
 20
-138.0032904385895
 10
78.81603323767446
 20
-138.1621093404595
 10
78.72284340479845
 20
-138.2361788933923
 10
78.67426755845644
 20
-138.3798393751273
 10
78.67426755845644
 20
-138.3798393751273
 10
79.45268688334863
 20
-138.3798393751273
 10
79.45268688334863
 20
-138.3798393751273
 10
79.45268688334863
 20
-138.3798393751273
 10
79.45268688334863
 20
-138.5851670660482
 10
79.45268688334863
 20
-138.5851670660482
 10
79.45268688334863
 20
-138.5851670660482
 10
78.42467039055009
 20
-138.5851670660482
 10
78.42467039055009
 20
-138.5851670660482
 10
78.45636526901438
 20
-138.2275661546792
 10
78.5219943380084
 20
-138.149362487164
 10
78.90698375848507
 20
-137.8510172181414
 10
79.16295435303913
 20
-137.6522352086425
 10
79.22841116725887
 20
-137.5843668275831
 10
79.22841116725887
 20
-137.4469075177216
 10
79.22841116725887
 20
-137.328396233029
 10
79.15658092639141
 20
-137.1974826045895
 10
78.95986597418364
 20
-137.1974826045895
 10
78.69958901027303
 20
-137.1974826045895
 10
78.69114852633416
 20
-137.4279594925527
 10
78.6868421569776
 20
-137.5444037199542
 10
78.6868421569776
 20
-137.5444037199542
 10
78.4627386956621
 20
-137.5444037199542
 10
78.4627386956621
 20
-137.5444037199542
 10
78.47117917960095
 20
-137.4172796965485
 10
78.48168672083096
 20
-137.3053140932778
 10
78.56212970041156
 20
-137.1868028085852
 10
78.67202824639102
 20
-137.0259168494241
 10
78.85823565736878
 20
-136.9921549136686
 10
78.97467988477023
 20
-136.9921549136686
 10
79.25183781655858
 20
-136.9921549136686
 10
79.45906030999635
 20
-137.176123012581
 10
79.45906030999635
 20
-137.4489745750128
 10
79.45906030999635
 20
-137.6773844056848
 10
79.34278833736917
 20
-137.7769476652086
 10
79.03393552711653
 20
-138.0032904385895
 97
        0
 97
        0
 75
     2
 76
     1
 98
        0
  0
ENDBLK
  5
53
330
50
100
AcDbEntity
  8
0
100
AcDbBlockEnd
  0
BLOCK
  5
62
330
60
100
AcDbEntity
  8
0
100
AcDbBlockBegin
  2
block 3
 70
     0
 10
0.0
 20
0.0
 30
0.0
  3
block 3
  1

  0
SPLINE
  5
64
330
60
100
AcDbEntity
  8
_U+30EC_U+30A4_U+30E4_U+30FC 1
370
     0
100
AcDbSpline
210
0.0
220
0.0
230
1.0
 70
    11
 71
     3
 72
    26
 73
    22
 74
     0
 42
0.0000000001
 43
0.0000000001
 12
1.0
 22
0.0
 32
0.0
 13
1.0
 23
0.0
 33
0.0
 40
0.0
 40
0.0
 40
0.0
 40
0.0
 40
1.0
 40
1.0
 40
1.0
 40
2.0
 40
2.0
 40
2.0
 40
3.0
 40
3.0
 40
3.0
 40
4.0
 40
4.0
 40
4.0
 40
5.0
 40
5.0
 40
5.0
 40
6.0
 40
6.0
 40
6.0
 40
7.0
 40
7.0
 40
7.0
 40
7.0
 10
88.71534285976561
 20
-138.5851670660482
 30
0.0
 10
88.71534285976561
 20
-138.5851670660482
 30
0.0
 10
88.71534285976561
 20
-137.480669453477
 30
0.0
 10
88.71534285976561
 20
-137.480669453477
 30
0.0
 10
88.71534285976561
 20
-137.480669453477
 30
0.0
 10
88.38530271227867
 20
-137.480669453477
 30
0.0
 10
88.38530271227867
 20
-137.480669453477
 30
0.0
 10
88.38530271227867
 20
-137.480669453477
 30
0.0
 10
88.38530271227867
 20
-137.3328748571599
 30
0.0
 10
88.38530271227867
 20
-137.3328748571599
 30
0.0
 10
88.71740991705676
 20
-137.3180609465733
 30
0.0
 10
88.76391870610763
 20
-137.1551079301209
 30
0.0
 10
88.79354652728078
 20
-137.0407307600107
 30
0.0
 10
88.79354652728078
 20
-137.0407307600107
 30
0.0
 10
88.93961857585538
 20
-137.0407307600107
 30
0.0
 10
88.93961857585538
 20
-137.0407307600107
 30
0.0
 10
88.93961857585538
 20
-137.0407307600107
 30
0.0
 10
88.93961857585538
 20
-138.5851670660482
 30
0.0
 10
88.93961857585538
 20
-138.5851670660482
 30
0.0
 10
88.93961857585538
 20
-138.5851670660482
 30
0.0
 10
88.71534285976561
 20
-138.5851670660482
 30
0.0
 10
88.71534285976561
 20
-138.5851670660482
 30
0.0
  0
HATCH
  5
65
330
60
100
AcDbEntity
  8
_U+30EC_U+30A4_U+30E4_U+30FC 1
 62
   179
420
  2234388
100
AcDbHatch
 10
0.0
 20
0.0
 30
0.0
210
0.0
220
0.0
230
1.0
  2
SOLID
 70
     1
 71
     0
 91
        1
 92
        1
 93
        1
 72
     4
 94
        3
 73
     0
 74
     1
 95
       26
 96
       22
 40
0.0
 40
0.0
 40
0.0
 40
0.0
 40
1.0
 40
1.0
 40
1.0
 40
2.0
 40
2.0
 40
2.0
 40
3.0
 40
3.0
 40
3.0
 40
4.0
 40
4.0
 40
4.0
 40
5.0
 40
5.0
 40
5.0
 40
6.0
 40
6.0
 40
6.0
 40
7.0
 40
7.0
 40
7.0
 40
7.0
 10
88.71534285976561
 20
-138.5851670660482
 10
88.71534285976561
 20
-138.5851670660482
 10
88.71534285976561
 20
-137.480669453477
 10
88.71534285976561
 20
-137.480669453477
 10
88.71534285976561
 20
-137.480669453477
 10
88.38530271227867
 20
-137.480669453477
 10
88.38530271227867
 20
-137.480669453477
 10
88.38530271227867
 20
-137.480669453477
 10
88.38530271227867
 20
-137.3328748571599
 10
88.38530271227867
 20
-137.3328748571599
 10
88.71740991705676
 20
-137.3180609465733
 10
88.76391870610763
 20
-137.1551079301209
 10
88.79354652728078
 20
-137.0407307600107
 10
88.79354652728078
 20
-137.0407307600107
 10
88.93961857585538
 20
-137.0407307600107
 10
88.93961857585538
 20
-137.0407307600107
 10
88.93961857585538
 20
-137.0407307600107
 10
88.93961857585538
 20
-138.5851670660482
 10
88.93961857585538
 20
-138.5851670660482
 10
88.93961857585538
 20
-138.5851670660482
 10
88.71534285976561
 20
-138.5851670660482
 10
88.71534285976561
 20
-138.5851670660482
 97
        0
 97
        0
 75
     2
 76
     1
 98
        0
  0
SPLINE
  5
66
330
60
100
AcDbEntity
  8
_U+30EC_U+30A4_U+30E4_U+30FC 1
370
     0
100
AcDbSpline
210
0.0
220
0.0
230
1.0
 70
    11
 71
     3
 72
    29
 73
    25
 74
     0
 42
0.0000000001
 43
0.0000000001
 12
1.0
 22
0.0
 32
0.0
 13
1.0
 23
0.0
 33
0.0
 40
0.0
 40
0.0
 40
0.0
 40
0.0
 40
1.0
 40
1.0
 40
1.0
 40
2.0
 40
2.0
 40
2.0
 40
3.0
 40
3.0
 40
3.0
 40
4.0
 40
4.0
 40
4.0
 40
5.0
 40
5.0
 40
5.0
 40
6.0
 40
6.0
 40
6.0
 40
7.0
 40
7.0
 40
7.0
 40
8.0
 40
8.0
 40
8.0
 40
8.0
 10
90.33849959764107
 20
-138.4074001390093
 30
0.0
 10
90.23066810895276
 20
-138.6168619445125
 30
0.0
 10
90.05720755127042
 20
-138.6358099696813
 30
0.0
 10
89.94076332386898
 20
-138.6358099696813
 30
0.0
 10
89.78004961948207
 20
-138.6358099696813
 30
0.0
 10
89.63828394026405
 20
-138.5893011806305
 30
0.0
 10
89.54302705009688
 20
-138.4074001390093
 30
0.0
 10
89.43950193076513
 20
-138.2127522440927
 30
0.0
 10
89.420381650822
 20
-137.9757296747075
 30
0.0
 10
89.420381650822
 20
-137.8127766582551
 30
0.0
 10
89.420381650822
 20
-137.6691161765202
 30
0.0
 10
89.43726261869972
 20
-137.4172796965485
 30
0.0
 10
89.54302705009688
 20
-137.2184976870495
 30
0.0
 10
89.65103079355947
 20
-137.0152370534198
 30
0.0
 10
89.81174449794638
 20
-136.9921549136686
 30
0.0
 10
89.94076332386898
 20
-136.9921549136686
 30
0.0
 10
90.09940997096473
 20
-136.9921549136686
 30
0.0
 10
90.24324270747391
 20
-137.0365966454283
 30
0.0
 10
90.33849959764107
 20
-137.2184976870495
 30
0.0
 10
90.43789060239052
 20
-137.411078524675
 30
0.0
 10
90.46114499691596
 20
-137.6394883553471
 30
0.0
 10
90.46114499691596
 20
-137.8127766582551
 30
0.0
 10
90.46114499691596
 20
-137.9843424134206
 30
0.0
 10
90.44012991445594
 20
-138.2148193013838
 30
0.0
 10
90.33849959764107
 20
-138.4074001390093
 30
0.0
  0
SPLINE
  5
67
330
60
100
AcDbEntity
  8
_U+30EC_U+30A4_U+30E4_U+30FC 1
370
     0
100
AcDbSpline
210
0.0
220
0.0
230
1.0
 70
    11
 71
     3
 72
    17
 73
    13
 74
     0
 42
0.0000000001
 43
0.0000000001
 12
1.0
 22
0.0
 32
0.0
 13
1.0
 23
0.0
 33
0.0
 40
0.0
 40
0.0
 40
0.0
 40
0.0
 40
1.0
 40
1.0
 40
1.0
 40
2.0
 40
2.0
 40
2.0
 40
3.0
 40
3.0
 40
3.0
 40
4.0
 40
4.0
 40
4.0
 40
4.0
 10
89.94076332386898
 20
-137.1847357512941
 30
0.0
 10
89.69116615596263
 20
-137.1847357512941
 30
0.0
 10
89.64465736691176
 20
-137.4682671097302
 30
0.0
 10
89.64465736691176
 20
-137.8127766582551
 30
0.0
 10
89.64465736691176
 20
-138.1324815192863
 30
0.0
 10
89.68065861473262
 20
-138.4411620747647
 30
0.0
 10
89.94076332386898
 20
-138.4411620747647
 30
0.0
 10
90.18829343448418
 20
-138.4411620747647
 30
0.0
 10
90.23704153560047
 20
-138.1596977736198
 30
0.0
 10
90.23704153560047
 20
-137.8127766582551
 30
0.0
 10
90.23704153560047
 20
-137.4934163067725
 30
0.0
 10
90.19880097571419
 20
-137.1847357512941
 30
0.0
 10
89.94076332386898
 20
-137.1847357512941
 30
0.0
  0
HATCH
  5
68
330
60
100
AcDbEntity
  8
_U+30EC_U+30A4_U+30E4_U+30FC 1
 62
   179
420
  2234388
100
AcDbHatch
 10
0.0
 20
0.0
 30
0.0
210
0.0
220
0.0
230
1.0
  2
SOLID
 70
     1
 71
     0
 91
        2
 92
        1
 93
        1
 72
     4
 94
        3
 73
     0
 74
     1
 95
       29
 96
       25
 40
0.0
 40
0.0
 40
0.0
 40
0.0
 40
1.0
 40
1.0
 40
1.0
 40
2.0
 40
2.0
 40
2.0
 40
3.0
 40
3.0
 40
3.0
 40
4.0
 40
4.0
 40
4.0
 40
5.0
 40
5.0
 40
5.0
 40
6.0
 40
6.0
 40
6.0
 40
7.0
 40
7.0
 40
7.0
 40
8.0
 40
8.0
 40
8.0
 40
8.0
 10
90.33849959764107
 20
-138.4074001390093
 10
90.23066810895276
 20
-138.6168619445125
 10
90.05720755127042
 20
-138.6358099696813
 10
89.94076332386898
 20
-138.6358099696813
 10
89.78004961948207
 20
-138.6358099696813
 10
89.63828394026405
 20
-138.5893011806305
 10
89.54302705009688
 20
-138.4074001390093
 10
89.43950193076513
 20
-138.2127522440927
 10
89.420381650822
 20
-137.9757296747075
 10
89.420381650822
 20
-137.8127766582551
 10
89.420381650822
 20
-137.6691161765202
 10
89.43726261869972
 20
-137.4172796965485
 10
89.54302705009688
 20
-137.2184976870495
 10
89.65103079355947
 20
-137.0152370534198
 10
89.81174449794638
 20
-136.9921549136686
 10
89.94076332386898
 20
-136.9921549136686
 10
90.09940997096473
 20
-136.9921549136686
 10
90.24324270747391
 20
-137.0365966454283
 10
90.33849959764107
 20
-137.2184976870495
 10
90.43789060239052
 20
-137.411078524675
 10
90.46114499691596
 20
-137.6394883553471
 10
90.46114499691596
 20
-137.8127766582551
 10
90.46114499691596
 20
-137.9843424134206
 10
90.44012991445594
 20
-138.2148193013838
 10
90.33849959764107
 20
-138.4074001390093
 97
        0
 97
        0
 92
        1
 93
        1
 72
     4
 94
        3
 73
     0
 74
     1
 95
       17
 96
       13
 40
0.0
 40
0.0
 40
0.0
 40
0.0
 40
1.0
 40
1.0
 40
1.0
 40
2.0
 40
2.0
 40
2.0
 40
3.0
 40
3.0
 40
3.0
 40
4.0
 40
4.0
 40
4.0
 40
4.0
 10
89.94076332386898
 20
-137.1847357512941
 10
89.69116615596263
 20
-137.1847357512941
 10
89.64465736691176
 20
-137.4682671097302
 10
89.64465736691176
 20
-137.8127766582551
 10
89.64465736691176
 20
-138.1324815192863
 10
89.68065861473262
 20
-138.4411620747647
 10
89.94076332386898
 20
-138.4411620747647
 10
90.18829343448418
 20
-138.4411620747647
 10
90.23704153560047
 20
-138.1596977736198
 10
90.23704153560047
 20
-137.8127766582551
 10
90.23704153560047
 20
-137.4934163067725
 10
90.19880097571419
 20
-137.1847357512941
 10
89.94076332386898
 20
-137.1847357512941
 97
        0
 97
        0
 75
     2
 76
     1
 98
        0
  0
ENDBLK
  5
63
330
60
100
AcDbEntity
  8
0
100
AcDbBlockEnd
  0
BLOCK
  5
97
330
95
100
AcDbEntity
  8
0
100
AcDbBlockBegin
  2
block 4
 70
     0
 10
0.0
 20
0.0
 30
0.0
  3
block 4
  1

  0
SPLINE
  5
99
330
95
100
AcDbEntity
  8
_U+30EC_U+30A4_U+30E4_U+30FC 1
370
     0
100
AcDbSpline
210
0.0
220
0.0
230
1.0
 70
    11
 71
     3
 72
    29
 73
    25
 74
     0
 42
0.0000000001
 43
0.0000000001
 12
1.0
 22
0.0
 32
0.0
 13
1.0
 23
0.0
 33
0.0
 40
0.0
 40
0.0
 40
0.0
 40
0.0
 40
1.0
 40
1.0
 40
1.0
 40
2.0
 40
2.0
 40
2.0
 40
3.0
 40
3.0
 40
3.0
 40
4.0
 40
4.0
 40
4.0
 40
5.0
 40
5.0
 40
5.0
 40
6.0
 40
6.0
 40
6.0
 40
7.0
 40
7.0
 40
7.0
 40
8.0
 40
8.0
 40
8.0
 40
8.0
 10
107.7470838489313
 20
-128.6546793298155
 30
0.0
 10
107.7470838489313
 20
-128.9213297203738
 30
0.0
 10
107.6096245390698
 20
-129.1752332576368
 30
0.0
 10
107.260636366414
 20
-129.1752332576368
 30
0.0
 10
107.0046657718599
 20
-129.1752332576368
 30
0.0
 10
106.9095811364671
 20
-129.0332953236445
 30
0.0
 10
106.8482584368296
 20
-128.9275308922473
 30
0.0
 10
106.7890027944833
 20
-129.0522433488133
 30
0.0
 10
106.674625624373
 20
-129.1283799590373
 30
0.0
 10
106.5137396652118
 20
-129.1283799590373
 30
0.0
 10
106.2388210454889
 20
-129.1283799590373
 30
0.0
 10
106.1034287929186
 20
-128.9295979495384
 30
0.0
 10
106.1034287929186
 20
-128.6546793298155
 30
0.0
 10
106.1034287929186
 20
-128.3711479713794
 30
0.0
 10
106.247433784202
 20
-128.1806341910451
 30
0.0
 10
106.5137396652118
 20
-128.1806341910451
 30
0.0
 10
106.674625624373
 20
-128.1806341910451
 30
0.0
 10
106.7890027944833
 20
-128.2591823681088
 30
0.0
 10
106.8482584368296
 20
-128.3838948246749
 30
0.0
 10
106.8989013404628
 20
-128.2950113611554
 30
0.0
 10
106.9939859758557
 20
-128.1361924592854
 30
0.0
 10
107.2565022518317
 20
-128.1361924592854
 30
0.0
 10
107.6309841310784
 20
-128.1361924592854
 30
0.0
 10
107.7470838489313
 20
-128.4155897031392
 30
0.0
 10
107.7470838489313
 20
-128.6546793298155
 30
0.0
  0
SPLINE
  5
9A
330
95
100
AcDbEntity
  8
_U+30EC_U+30A4_U+30E4_U+30FC 1
370
     0
100
AcDbSpline
210
0.0
220
0.0
230
1.0
 70
    11
 71
     3
 72
    17
 73
    13
 74
     0
 42
0.0000000001
 43
0.0000000001
 12
1.0
 22
0.0
 32
0.0
 13
1.0
 23
0.0
 33
0.0
 40
0.0
 40
0.0
 40
0.0
 40
0.0
 40
1.0
 40
1.0
 40
1.0
 40
2.0
 40
2.0
 40
2.0
 40
3.0
 40
3.0
 40
3.0
 40
4.0
 40
4.0
 40
4.0
 40
4.0
 10
106.2960096305441
 20
-128.6546793298155
 30
0.0
 10
106.2960096305441
 20
-128.819699403559
 30
0.0
 10
106.391094265937
 20
-128.9044487524961
 30
0.0
 10
106.5264865185073
 20
-128.9044487524961
 30
0.0
 10
106.6491319177822
 20
-128.9044487524961
 30
0.0
 10
106.7676432024748
 20
-128.8324462568544
 30
0.0
 10
106.7676432024748
 20
-128.6546793298155
 30
0.0
 10
106.7676432024748
 20
-128.4769124027766
 30
0.0
 10
106.6491319177822
 20
-128.4049099071349
 30
0.0
 10
106.5264865185073
 20
-128.4049099071349
 30
0.0
 10
106.391094265937
 20
-128.4049099071349
 30
0.0
 10
106.2960096305441
 20
-128.4917263133632
 30
0.0
 10
106.2960096305441
 20
-128.6546793298155
 30
0.0
  0
SPLINE
  5
9B
330
95
100
AcDbEntity
  8
_U+30EC_U+30A4_U+30E4_U+30FC 1
370
     0
100
AcDbSpline
210
0.0
220
0.0
230
1.0
 70
    11
 71
     3
 72
    17
 73
    13
 74
     0
 42
0.0000000001
 43
0.0000000001
 12
1.0
 22
0.0
 32
0.0
 13
1.0
 23
0.0
 33
0.0
 40
0.0
 40
0.0
 40
0.0
 40
0.0
 40
1.0
 40
1.0
 40
1.0
 40
2.0
 40
2.0
 40
2.0
 40
3.0
 40
3.0
 40
3.0
 40
4.0
 40
4.0
 40
4.0
 40
4.0
 10
106.9560899255179
 20
-128.6546793298155
 30
0.0
 10
106.9560899255179
 20
-128.7983398115504
 30
0.0
 10
107.0429063317462
 20
-128.950957541547
 30
0.0
 10
107.2458224558274
 20
-128.950957541547
 30
0.0
 10
107.4511501467483
 20
-128.950957541547
 30
0.0
 10
107.5524359540147
 20
-128.8238335181413
 30
0.0
 10
107.5524359540147
 20
-128.6546793298155
 30
0.0
 10
107.5524359540147
 20
-128.468644173612
 30
0.0
 10
107.4297905547398
 20
-128.358401118084
 30
0.0
 10
107.2520236277009
 20
-128.358401118084
 30
0.0
 10
107.0301594784508
 20
-128.358401118084
 30
0.0
 10
106.9560899255179
 20
-128.5213541345363
 30
0.0
 10
106.9560899255179
 20
-128.6546793298155
 30
0.0
  0
HATCH
  5
9C
330
95
100
AcDbEntity
  8
_U+30EC_U+30A4_U+30E4_U+30FC 1
 62
   179
420
  2234388
100
AcDbHatch
 10
0.0
 20
0.0
 30
0.0
210
0.0
220
0.0
230
1.0
  2
SOLID
 70
     1
 71
     0
 91
        3
 92
        1
 93
        1
 72
     4
 94
        3
 73
     0
 74
     1
 95
       29
 96
       25
 40
0.0
 40
0.0
 40
0.0
 40
0.0
 40
1.0
 40
1.0
 40
1.0
 40
2.0
 40
2.0
 40
2.0
 40
3.0
 40
3.0
 40
3.0
 40
4.0
 40
4.0
 40
4.0
 40
5.0
 40
5.0
 40
5.0
 40
6.0
 40
6.0
 40
6.0
 40
7.0
 40
7.0
 40
7.0
 40
8.0
 40
8.0
 40
8.0
 40
8.0
 10
107.7470838489313
 20
-128.6546793298155
 10
107.7470838489313
 20
-128.9213297203738
 10
107.6096245390698
 20
-129.1752332576368
 10
107.260636366414
 20
-129.1752332576368
 10
107.0046657718599
 20
-129.1752332576368
 10
106.9095811364671
 20
-129.0332953236445
 10
106.8482584368296
 20
-128.9275308922473
 10
106.7890027944833
 20
-129.0522433488133
 10
106.674625624373
 20
-129.1283799590373
 10
106.5137396652118
 20
-129.1283799590373
 10
106.2388210454889
 20
-129.1283799590373
 10
106.1034287929186
 20
-128.9295979495384
 10
106.1034287929186
 20
-128.6546793298155
 10
106.1034287929186
 20
-128.3711479713794
 10
106.247433784202
 20
-128.1806341910451
 10
106.5137396652118
 20
-128.1806341910451
 10
106.674625624373
 20
-128.1806341910451
 10
106.7890027944833
 20
-128.2591823681088
 10
106.8482584368296
 20
-128.3838948246749
 10
106.8989013404628
 20
-128.2950113611554
 10
106.9939859758557
 20
-128.1361924592854
 10
107.2565022518317
 20
-128.1361924592854
 10
107.6309841310784
 20
-128.1361924592854
 10
107.7470838489313
 20
-128.4155897031392
 10
107.7470838489313
 20
-128.6546793298155
 97
        0
 97
        0
 92
        1
 93
        1
 72
     4
 94
        3
 73
     0
 74
     1
 95
       17
 96
       13
 40
0.0
 40
0.0
 40
0.0
 40
0.0
 40
1.0
 40
1.0
 40
1.0
 40
2.0
 40
2.0
 40
2.0
 40
3.0
 40
3.0
 40
3.0
 40
4.0
 40
4.0
 40
4.0
 40
4.0
 10
106.2960096305441
 20
-128.6546793298155
 10
106.2960096305441
 20
-128.819699403559
 10
106.391094265937
 20
-128.9044487524961
 10
106.5264865185073
 20
-128.9044487524961
 10
106.6491319177822
 20
-128.9044487524961
 10
106.7676432024748
 20
-128.8324462568544
 10
106.7676432024748
 20
-128.6546793298155
 10
106.7676432024748
 20
-128.4769124027766
 10
106.6491319177822
 20
-128.4049099071349
 10
106.5264865185073
 20
-128.4049099071349
 10
106.391094265937
 20
-128.4049099071349
 10
106.2960096305441
 20
-128.4917263133632
 10
106.2960096305441
 20
-128.6546793298155
 97
        0
 97
        0
 92
        1
 93
        1
 72
     4
 94
        3
 73
     0
 74
     1
 95
       17
 96
       13
 40
0.0
 40
0.0
 40
0.0
 40
0.0
 40
1.0
 40
1.0
 40
1.0
 40
2.0
 40
2.0
 40
2.0
 40
3.0
 40
3.0
 40
3.0
 40
4.0
 40
4.0
 40
4.0
 40
4.0
 10
106.9560899255179
 20
-128.6546793298155
 10
106.9560899255179
 20
-128.7983398115504
 10
107.0429063317462
 20
-128.950957541547
 10
107.2458224558274
 20
-128.950957541547
 10
107.4511501467483
 20
-128.950957541547
 10
107.5524359540147
 20
-128.8238335181413
 10
107.5524359540147
 20
-128.6546793298155
 10
107.5524359540147
 20
-128.468644173612
 10
107.4297905547398
 20
-128.358401118084
 10
107.2520236277009
 20
-128.358401118084
 10
107.0301594784508
 20
-128.358401118084
 10
106.9560899255179
 20
-128.5213541345363
 10
106.9560899255179
 20
-128.6546793298155
 97
        0
 97
        0
 75
     2
 76
     1
 98
        0
  0
POLYLINE
  5
9D
330
95
100
AcDbEntity
  8
_U+30EC_U+30A4_U+30E4_U+30FC 1
370
     0
100
AcDb2dPolyline
 66
     1
 10
0.0
 20
0.0
 30
0.0
  0
VERTEX
  5
9E
330
9D
100
AcDbEntity
  8
_U+30EC_U+30A4_U+30E4_U+30FC 1
370
     0
100
AcDbVertex
100
AcDb2dVertex
 10
107.6964409452981
 20
-127.9177734055206
 30
0.0
  0
VERTEX
  5
9F
330
9D
100
AcDbEntity
  8
_U+30EC_U+30A4_U+30E4_U+30FC 1
370
     0
100
AcDbVertex
100
AcDb2dVertex
 10
107.4446044653263
 20
-127.9177734055206
 30
0.0
  0
VERTEX
  5
A0
330
9D
100
AcDbEntity
  8
_U+30EC_U+30A4_U+30E4_U+30FC 1
370
     0
100
AcDbVertex
100
AcDb2dVertex
 10
107.4446044653263
 20
-127.6659369255488
 30
0.0
  0
VERTEX
  5
A1
330
9D
100
AcDbEntity
  8
_U+30EC_U+30A4_U+30E4_U+30FC 1
370
     0
100
AcDbVertex
100
AcDb2dVertex
 10
107.6964409452981
 20
-127.6659369255488
 30
0.0
  0
VERTEX
  5
A2
330
9D
100
AcDbEntity
  8
_U+30EC_U+30A4_U+30E4_U+30FC 1
370
     0
100
AcDbVertex
100
AcDb2dVertex
 10
107.6964409452981
 20
-127.9177734055206
 30
0.0
  0
SEQEND
  5
A3
330
9D
100
AcDbEntity
  8
_U+30EC_U+30A4_U+30E4_U+30FC 1
370
     0
  0
HATCH
  5
A4
330
95
100
AcDbEntity
  8
_U+30EC_U+30A4_U+30E4_U+30FC 1
 62
   179
420
  2234388
100
AcDbHatch
 10
0.0
 20
0.0
 30
0.0
210
0.0
220
0.0
230
1.0
  2
SOLID
 70
     1
 71
     0
 91
        1
 92
        1
 93
        4
 72
     1
 10
107.6964409452981
 20
-127.9177734055206
 11
107.4446044653263
 21
-127.9177734055206
 72
     1
 10
107.4446044653263
 20
-127.9177734055206
 11
107.4446044653263
 21
-127.6659369255488
 72
     1
 10
107.4446044653263
 20
-127.6659369255488
 11
107.6964409452981
 21
-127.6659369255488
 72
     1
 10
107.6964409452981
 20
-127.6659369255488
 11
107.6964409452981
 21
-127.9177734055206
 97
        0
 75
     2
 76
     1
 98
        0
  0
SPLINE
  5
A5
330
95
100
AcDbEntity
  8
_U+30EC_U+30A4_U+30E4_U+30FC 1
370
     0
100
AcDbSpline
210
0.0
220
0.0
230
1.0
 70
    11
 71
     3
 72
    53
 73
    49
 74
     0
 42
0.0000000001
 43
0.0000000001
 12
1.0
 22
0.0
 32
0.0
 13
1.0
 23
0.0
 33
0.0
 40
0.0
 40
0.0
 40
0.0
 40
0.0
 40
1.0
 40
1.0
 40
1.0
 40
2.0
 40
2.0
 40
2.0
 40
3.0
 40
3.0
 40
3.0
 40
4.0
 40
4.0
 40
4.0
 40
5.0
 40
5.0
 40
5.0
 40
6.0
 40
6.0
 40
6.0
 40
7.0
 40
7.0
 40
7.0
 40
8.0
 40
8.0
 40
8.0
 40
9.0
 40
9.0
 40
9.0
 40
10.0
 40
10.0
 40
10.0
 40
11.0
 40
11.0
 40
11.0
 40
12.0
 40
12.0
 40
12.0
 40
13.0
 40
13.0
 40
13.0
 40
14.0
 40
14.0
 40
14.0
 40
15.0
 40
15.0
 40
15.0
 40
16.0
 40
16.0
 40
16.0
 40
16.0
 10
107.7470838489313
 20
-126.9486680455198
 30
0.0
 10
107.7470838489313
 20
-127.026871713035
 30
0.0
 10
107.7302028810536
 20
-127.1285020298498
 30
0.0
 10
107.666813124125
 20
-127.2301323466647
 30
0.0
 10
107.5569145781455
 20
-127.4034206495728
 30
0.0
 10
107.4256564401575
 20
-127.4247802415813
 30
0.0
 10
107.3178249514692
 20
-127.4437282667502
 30
0.0
 10
107.3178249514692
 20
-127.4437282667502
 30
0.0
 10
107.3178249514692
 20
-127.2215196079516
 30
0.0
 10
107.3178249514692
 20
-127.2215196079516
 30
0.0
 10
107.5166069609681
 20
-127.1667425897361
 30
0.0
 10
107.5462347821412
 20
-127.0396185663304
 30
0.0
 10
107.5462347821412
 20
-126.9466009882286
 30
0.0
 10
107.5462347821412
 20
-126.807074621076
 30
0.0
 10
107.4466715226175
 20
-126.654801400628
 30
0.0
 10
107.2141275773631
 20
-126.654801400628
 30
0.0
 10
106.9581569828091
 20
-126.654801400628
 30
0.0
 10
106.8882215444585
 20
-126.834635384958
 30
0.0
 10
106.8882215444585
 20
-126.9552137269418
 30
0.0
 10
106.8882215444585
 20
-126.9869086054061
 30
0.0
 10
106.8882215444585
 20
-127.1285020298498
 30
0.0
 10
107.0174126251554
 20
-127.2173854933693
 30
0.0
 10
107.0174126251554
 20
-127.2173854933693
 30
0.0
 10
106.9984645999865
 20
-127.393085363117
 30
0.0
 10
106.9984645999865
 20
-127.393085363117
 30
0.0
 10
106.9984645999865
 20
-127.393085363117
 30
0.0
 10
106.1520046392606
 20
-127.2725070211333
 30
0.0
 10
106.1520046392606
 20
-127.2725070211333
 30
0.0
 10
106.1520046392606
 20
-127.2725070211333
 30
0.0
 10
106.1520046392606
 20
-126.4939154414668
 30
0.0
 10
106.1520046392606
 20
-126.4939154414668
 30
0.0
 10
106.1520046392606
 20
-126.4939154414668
 30
0.0
 10
106.3466525341772
 20
-126.4939154414668
 30
0.0
 10
106.3466525341772
 20
-126.4939154414668
 30
0.0
 10
106.3466525341772
 20
-126.4939154414668
 30
0.0
 10
106.3466525341772
 20
-127.1095540046809
 30
0.0
 10
106.3466525341772
 20
-127.1095540046809
 30
0.0
 10
106.3466525341772
 20
-127.1095540046809
 30
0.0
 10
106.7697102597659
 20
-127.1750108189007
 30
0.0
 10
106.7697102597659
 20
-127.1750108189007
 30
0.0
 10
106.7359483240105
 20
-127.1136881192632
 30
0.0
 10
106.695640706833
 20
-127.0313503371658
 30
0.0
 10
106.695640706833
 20
-126.9128390524732
 30
0.0
 10
106.695640706833
 20
-126.6589355152103
 30
0.0
 10
106.8820203725851
 20
-126.4219129458251
 30
0.0
 10
107.1951795521943
 20
-126.4219129458251
 30
0.0
 10
107.5124728463858
 20
-126.4219129458251
 30
0.0
 10
107.7470838489313
 20
-126.6461886619148
 30
0.0
 10
107.7470838489313
 20
-126.9486680455198
 30
0.0
  0
HATCH
  5
A6
330
95
100
AcDbEntity
  8
_U+30EC_U+30A4_U+30E4_U+30FC 1
 62
   179
420
  2234388
100
AcDbHatch
 10
0.0
 20
0.0
 30
0.0
210
0.0
220
0.0
230
1.0
  2
SOLID
 70
     1
 71
     0
 91
        1
 92
        1
 93
        1
 72
     4
 94
        3
 73
     0
 74
     1
 95
       53
 96
       49
 40
0.0
 40
0.0
 40
0.0
 40
0.0
 40
1.0
 40
1.0
 40
1.0
 40
2.0
 40
2.0
 40
2.0
 40
3.0
 40
3.0
 40
3.0
 40
4.0
 40
4.0
 40
4.0
 40
5.0
 40
5.0
 40
5.0
 40
6.0
 40
6.0
 40
6.0
 40
7.0
 40
7.0
 40
7.0
 40
8.0
 40
8.0
 40
8.0
 40
9.0
 40
9.0
 40
9.0
 40
10.0
 40
10.0
 40
10.0
 40
11.0
 40
11.0
 40
11.0
 40
12.0
 40
12.0
 40
12.0
 40
13.0
 40
13.0
 40
13.0
 40
14.0
 40
14.0
 40
14.0
 40
15.0
 40
15.0
 40
15.0
 40
16.0
 40
16.0
 40
16.0
 40
16.0
 10
107.7470838489313
 20
-126.9486680455198
 10
107.7470838489313
 20
-127.026871713035
 10
107.7302028810536
 20
-127.1285020298498
 10
107.666813124125
 20
-127.2301323466647
 10
107.5569145781455
 20
-127.4034206495728
 10
107.4256564401575
 20
-127.4247802415813
 10
107.3178249514692
 20
-127.4437282667502
 10
107.3178249514692
 20
-127.4437282667502
 10
107.3178249514692
 20
-127.2215196079516
 10
107.3178249514692
 20
-127.2215196079516
 10
107.5166069609681
 20
-127.1667425897361
 10
107.5462347821412
 20
-127.0396185663304
 10
107.5462347821412
 20
-126.9466009882286
 10
107.5462347821412
 20
-126.807074621076
 10
107.4466715226175
 20
-126.654801400628
 10
107.2141275773631
 20
-126.654801400628
 10
106.9581569828091
 20
-126.654801400628
 10
106.8882215444585
 20
-126.834635384958
 10
106.8882215444585
 20
-126.9552137269418
 10
106.8882215444585
 20
-126.9869086054061
 10
106.8882215444585
 20
-127.1285020298498
 10
107.0174126251554
 20
-127.2173854933693
 10
107.0174126251554
 20
-127.2173854933693
 10
106.9984645999865
 20
-127.393085363117
 10
106.9984645999865
 20
-127.393085363117
 10
106.9984645999865
 20
-127.393085363117
 10
106.1520046392606
 20
-127.2725070211333
 10
106.1520046392606
 20
-127.2725070211333
 10
106.1520046392606
 20
-127.2725070211333
 10
106.1520046392606
 20
-126.4939154414668
 10
106.1520046392606
 20
-126.4939154414668
 10
106.1520046392606
 20
-126.4939154414668
 10
106.3466525341772
 20
-126.4939154414668
 10
106.3466525341772
 20
-126.4939154414668
 10
106.3466525341772
 20
-126.4939154414668
 10
106.3466525341772
 20
-127.1095540046809
 10
106.3466525341772
 20
-127.1095540046809
 10
106.3466525341772
 20
-127.1095540046809
 10
106.7697102597659
 20
-127.1750108189007
 10
106.7697102597659
 20
-127.1750108189007
 10
106.7359483240105
 20
-127.1136881192632
 10
106.695640706833
 20
-127.0313503371658
 10
106.695640706833
 20
-126.9128390524732
 10
106.695640706833
 20
-126.6589355152103
 10
106.8820203725851
 20
-126.4219129458251
 10
107.1951795521943
 20
-126.4219129458251
 10
107.5124728463858
 20
-126.4219129458251
 10
107.7470838489313
 20
-126.6461886619148
 10
107.7470838489313
 20
-126.9486680455198
 97
        0
 97
        0
 75
     2
 76
     1
 98
        0
  0
ENDBLK
  5
98
330
95
100
AcDbEntity
  8
0
100
AcDbBlockEnd
  0
BLOCK
  5
A9
330
A7
100
AcDbEntity
  8
0
100
AcDbBlockBegin
  2
block 5
 70
     0
 10
0.0
 20
0.0
 30
0.0
  3
block 5
  1

  0
SPLINE
  5
AB
330
A7
100
AcDbEntity
  8
_U+30EC_U+30A4_U+30E4_U+30FC 1
370
     0
100
AcDbSpline
210
0.0
220
0.0
230
1.0
 70
    11
 71
     3
 72
    26
 73
    22
 74
     0
 42
0.0000000001
 43
0.0000000001
 12
1.0
 22
0.0
 32
0.0
 13
1.0
 23
0.0
 33
0.0
 40
0.0
 40
0.0
 40
0.0
 40
0.0
 40
1.0
 40
1.0
 40
1.0
 40
2.0
 40
2.0
 40
2.0
 40
3.0
 40
3.0
 40
3.0
 40
4.0
 40
4.0
 40
4.0
 40
5.0
 40
5.0
 40
5.0
 40
6.0
 40
6.0
 40
6.0
 40
7.0
 40
7.0
 40
7.0
 40
7.0
 10
107.6964409452981
 20
-119.690885386744
 30
0.0
 10
107.6964409452981
 20
-119.690885386744
 30
0.0
 10
106.5922878422755
 20
-119.690885386744
 30
0.0
 10
106.5922878422755
 20
-119.690885386744
 30
0.0
 10
106.5922878422755
 20
-119.690885386744
 30
0.0
 10
106.5922878422755
 20
-120.0209255342309
 30
0.0
 10
106.5922878422755
 20
-120.0209255342309
 30
0.0
 10
106.5922878422755
 20
-120.0209255342309
 30
0.0
 10
106.4441487364098
 20
-120.0209255342309
 30
0.0
 10
106.4441487364098
 20
-120.0209255342309
 30
0.0
 10
106.4293348258232
 20
-119.6888183294528
 30
0.0
 10
106.2663818093709
 20
-119.6423095404019
 30
0.0
 10
106.1520046392606
 20
-119.6126817192288
 30
0.0
 10
106.1520046392606
 20
-119.6126817192288
 30
0.0
 10
106.1520046392606
 20
-119.4666096706542
 30
0.0
 10
106.1520046392606
 20
-119.4666096706542
 30
0.0
 10
106.1520046392606
 20
-119.4666096706542
 30
0.0
 10
107.6964409452981
 20
-119.4666096706542
 30
0.0
 10
107.6964409452981
 20
-119.4666096706542
 30
0.0
 10
107.6964409452981
 20
-119.4666096706542
 30
0.0
 10
107.6964409452981
 20
-119.690885386744
 30
0.0
 10
107.6964409452981
 20
-119.690885386744
 30
0.0
  0
HATCH
  5
AC
330
A7
100
AcDbEntity
  8
_U+30EC_U+30A4_U+30E4_U+30FC 1
 62
   179
420
  2234388
100
AcDbHatch
 10
0.0
 20
0.0
 30
0.0
210
0.0
220
0.0
230
1.0
  2
SOLID
 70
     1
 71
     0
 91
        1
 92
        1
 93
        1
 72
     4
 94
        3
 73
     0
 74
     1
 95
       26
 96
       22
 40
0.0
 40
0.0
 40
0.0
 40
0.0
 40
1.0
 40
1.0
 40
1.0
 40
2.0
 40
2.0
 40
2.0
 40
3.0
 40
3.0
 40
3.0
 40
4.0
 40
4.0
 40
4.0
 40
5.0
 40
5.0
 40
5.0
 40
6.0
 40
6.0
 40
6.0
 40
7.0
 40
7.0
 40
7.0
 40
7.0
 10
107.6964409452981
 20
-119.690885386744
 10
107.6964409452981
 20
-119.690885386744
 10
106.5922878422755
 20
-119.690885386744
 10
106.5922878422755
 20
-119.690885386744
 10
106.5922878422755
 20
-119.690885386744
 10
106.5922878422755
 20
-120.0209255342309
 10
106.5922878422755
 20
-120.0209255342309
 10
106.5922878422755
 20
-120.0209255342309
 10
106.4441487364098
 20
-120.0209255342309
 10
106.4441487364098
 20
-120.0209255342309
 10
106.4293348258232
 20
-119.6888183294528
 10
106.2663818093709
 20
-119.6423095404019
 10
106.1520046392606
 20
-119.6126817192288
 10
106.1520046392606
 20
-119.6126817192288
 10
106.1520046392606
 20
-119.4666096706542
 10
106.1520046392606
 20
-119.4666096706542
 10
106.1520046392606
 20
-119.4666096706542
 10
107.6964409452981
 20
-119.4666096706542
 10
107.6964409452981
 20
-119.4666096706542
 10
107.6964409452981
 20
-119.4666096706542
 10
107.6964409452981
 20
-119.690885386744
 10
107.6964409452981
 20
-119.690885386744
 97
        0
 97
        0
 75
     2
 76
     1
 98
        0
  0
ENDBLK
  5
AA
330
A7
100
AcDbEntity
  8
0
100
AcDbBlockEnd
  0
BLOCK
  5
AF
330
AD
100
AcDbEntity
  8
0
100
AcDbBlockBegin
  2
block 6
 70
     0
 10
0.0
 20
0.0
 30
0.0
  3
block 6
  1

  0
SPLINE
  5
B1
330
AD
100
AcDbEntity
  8
_U+30EC_U+30A4_U+30E4_U+30FC 1
370
     0
100
AcDbSpline
210
0.0
220
0.0
230
1.0
 70
    11
 71
     3
 72
    62
 73
    58
 74
     0
 42
0.0000000001
 43
0.0000000001
 12
1.0
 22
0.0
 32
0.0
 13
1.0
 23
0.0
 33
0.0
 40
0.0
 40
0.0
 40
0.0
 40
0.0
 40
1.0
 40
1.0
 40
1.0
 40
2.0
 40
2.0
 40
2.0
 40
3.0
 40
3.0
 40
3.0
 40
4.0
 40
4.0
 40
4.0
 40
5.0
 40
5.0
 40
5.0
 40
6.0
 40
6.0
 40
6.0
 40
7.0
 40
7.0
 40
7.0
 40
8.0
 40
8.0
 40
8.0
 40
9.0
 40
9.0
 40
9.0
 40
10.0
 40
10.0
 40
10.0
 40
11.0
 40
11.0
 40
11.0
 40
12.0
 40
12.0
 40
12.0
 40
13.0
 40
13.0
 40
13.0
 40
14.0
 40
14.0
 40
14.0
 40
15.0
 40
15.0
 40
15.0
 40
16.0
 40
16.0
 40
16.0
 40
17.0
 40
17.0
 40
17.0
 40
18.0
 40
18.0
 40
18.0
 40
19.0
 40
19.0
 40
19.0
 40
19.0
 10
107.7470838489313
 20
-139.0878064973461
 30
0.0
 10
107.7470838489313
 20
-139.1832356422875
 30
0.0
 10
107.7260687664713
 20
-139.4009656769553
 30
0.0
 10
107.5400336102678
 20
-139.5260226430699
 30
0.0
 10
107.4277234974486
 20
-139.6000921960027
 30
0.0
 10
107.3285047474734
 20
-139.6042263105851
 30
0.0
 10
107.2437553985363
 20
-139.6083604251673
 30
0.0
 10
107.2437553985363
 20
-139.6083604251673
 30
0.0
 10
107.2437553985363
 20
-139.3882188236599
 30
0.0
 10
107.2437553985363
 20
-139.3882188236599
 30
0.0
 10
107.3178249514692
 20
-139.3861517663688
 30
0.0
 10
107.5524359540147
 20
-139.375816479913
 30
0.0
 10
107.5524359540147
 20
-139.0922851214769
 30
0.0
 10
107.5524359540147
 20
-138.9548258116155
 30
0.0
 10
107.4828450252126
 20
-138.8022080816189
 30
0.0
 10
107.2544351945406
 20
-138.8022080816189
 30
0.0
 10
107.1379909671391
 20
-138.8022080816189
 30
0.0
 10
107.0894151207971
 20
-138.8404486415052
 30
0.0
 10
107.0577202423328
 20
-138.8721435199695
 30
0.0
 10
106.9836506893999
 20
-138.9462130729023
 30
0.0
 10
106.9709038361045
 20
-139.0626573003038
 30
0.0
 10
106.9709038361045
 20
-139.1174343185193
 30
0.0
 10
106.9709038361045
 20
-139.1367268532367
 30
0.0
 10
106.9729708933957
 20
-139.1725558462832
 30
0.0
 10
106.977105007978
 20
-139.2001166101653
 30
0.0
 10
106.977105007978
 20
-139.2001166101653
 30
0.0
 10
106.7824571130613
 20
-139.2001166101653
 30
0.0
 10
106.7824571130613
 20
-139.2001166101653
 30
0.0
 10
106.7890027944833
 20
-139.161876050279
 30
0.0
 10
106.7910698517745
 20
-139.1198458853589
 30
0.0
 10
106.7910698517745
 20
-139.113300203937
 30
0.0
 10
106.7910698517745
 20
-139.0478433897172
 30
0.0
 10
106.7697102597659
 20
-138.8490613802183
 30
0.0
 10
106.5330321999293
 20
-138.8490613802183
 30
0.0
 10
106.3552652728903
 20
-138.8490613802183
 30
0.0
 10
106.3001437451264
 20
-138.9799750086578
 30
0.0
 10
106.3001437451264
 20
-139.0902180641858
 30
0.0
 10
106.3001437451264
 20
-139.3544568879045
 30
0.0
 10
106.5330321999293
 20
-139.3630696266176
 30
0.0
 10
106.6046901860224
 20
-139.3672037411999
 30
0.0
 10
106.6046901860224
 20
-139.3672037411999
 30
0.0
 10
106.6046901860224
 20
-139.5704643748296
 30
0.0
 10
106.6046901860224
 20
-139.5704643748296
 30
0.0
 10
106.4799777294564
 20
-139.5618516361165
 30
0.0
 10
106.1034287929186
 20
-139.5342908722345
 30
0.0
 10
106.1034287929186
 20
-139.0774712108904
 30
0.0
 10
106.1034287929186
 20
-138.8531954948006
 30
0.0
 10
106.2305528163243
 20
-138.6120388108331
 30
0.0
 10
106.5264865185073
 20
-138.6120388108331
 30
0.0
 10
106.7128661842593
 20
-138.6120388108331
 30
0.0
 10
106.7952039663568
 20
-138.707123446226
 30
0.0
 10
106.8565266659942
 20
-138.8066867057497
 30
0.0
 10
106.8840874298762
 20
-138.7453640061123
 30
0.0
 10
106.9643581546825
 20
-138.5634629644911
 30
0.0
 10
107.2416883412451
 20
-138.5634629644911
 30
0.0
 10
107.5799967178967
 20
-138.5634629644911
 30
0.0
 10
107.7470838489313
 20
-138.810820820332
 30
0.0
 10
107.7470838489313
 20
-139.0878064973461
 30
0.0
  0
HATCH
  5
B2
330
AD
100
AcDbEntity
  8
_U+30EC_U+30A4_U+30E4_U+30FC 1
 62
   179
420
  2234388
100
AcDbHatch
 10
0.0
 20
0.0
 30
0.0
210
0.0
220
0.0
230
1.0
  2
SOLID
 70
     1
 71
     0
 91
        1
 92
        1
 93
        1
 72
     4
 94
        3
 73
     0
 74
     1
 95
       62
 96
       58
 40
0.0
 40
0.0
 40
0.0
 40
0.0
 40
1.0
 40
1.0
 40
1.0
 40
2.0
 40
2.0
 40
2.0
 40
3.0
 40
3.0
 40
3.0
 40
4.0
 40
4.0
 40
4.0
 40
5.0
 40
5.0
 40
5.0
 40
6.0
 40
6.0
 40
6.0
 40
7.0
 40
7.0
 40
7.0
 40
8.0
 40
8.0
 40
8.0
 40
9.0
 40
9.0
 40
9.0
 40
10.0
 40
10.0
 40
10.0
 40
11.0
 40
11.0
 40
11.0
 40
12.0
 40
12.0
 40
12.0
 40
13.0
 40
13.0
 40
13.0
 40
14.0
 40
14.0
 40
14.0
 40
15.0
 40
15.0
 40
15.0
 40
16.0
 40
16.0
 40
16.0
 40
17.0
 40
17.0
 40
17.0
 40
18.0
 40
18.0
 40
18.0
 40
19.0
 40
19.0
 40
19.0
 40
19.0
 10
107.7470838489313
 20
-139.0878064973461
 10
107.7470838489313
 20
-139.1832356422875
 10
107.7260687664713
 20
-139.4009656769553
 10
107.5400336102678
 20
-139.5260226430699
 10
107.4277234974486
 20
-139.6000921960027
 10
107.3285047474734
 20
-139.6042263105851
 10
107.2437553985363
 20
-139.6083604251673
 10
107.2437553985363
 20
-139.6083604251673
 10
107.2437553985363
 20
-139.3882188236599
 10
107.2437553985363
 20
-139.3882188236599
 10
107.3178249514692
 20
-139.3861517663688
 10
107.5524359540147
 20
-139.375816479913
 10
107.5524359540147
 20
-139.0922851214769
 10
107.5524359540147
 20
-138.9548258116155
 10
107.4828450252126
 20
-138.8022080816189
 10
107.2544351945406
 20
-138.8022080816189
 10
107.1379909671391
 20
-138.8022080816189
 10
107.0894151207971
 20
-138.8404486415052
 10
107.0577202423328
 20
-138.8721435199695
 10
106.9836506893999
 20
-138.9462130729023
 10
106.9709038361045
 20
-139.0626573003038
 10
106.9709038361045
 20
-139.1174343185193
 10
106.9709038361045
 20
-139.1367268532367
 10
106.9729708933957
 20
-139.1725558462832
 10
106.977105007978
 20
-139.2001166101653
 10
106.977105007978
 20
-139.2001166101653
 10
106.7824571130613
 20
-139.2001166101653
 10
106.7824571130613
 20
-139.2001166101653
 10
106.7890027944833
 20
-139.161876050279
 10
106.7910698517745
 20
-139.1198458853589
 10
106.7910698517745
 20
-139.113300203937
 10
106.7910698517745
 20
-139.0478433897172
 10
106.7697102597659
 20
-138.8490613802183
 10
106.5330321999293
 20
-138.8490613802183
 10
106.3552652728903
 20
-138.8490613802183
 10
106.3001437451264
 20
-138.9799750086578
 10
106.3001437451264
 20
-139.0902180641858
 10
106.3001437451264
 20
-139.3544568879045
 10
106.5330321999293
 20
-139.3630696266176
 10
106.6046901860224
 20
-139.3672037411999
 10
106.6046901860224
 20
-139.3672037411999
 10
106.6046901860224
 20
-139.5704643748296
 10
106.6046901860224
 20
-139.5704643748296
 10
106.4799777294564
 20
-139.5618516361165
 10
106.1034287929186
 20
-139.5342908722345
 10
106.1034287929186
 20
-139.0774712108904
 10
106.1034287929186
 20
-138.8531954948006
 10
106.2305528163243
 20
-138.6120388108331
 10
106.5264865185073
 20
-138.6120388108331
 10
106.7128661842593
 20
-138.6120388108331
 10
106.7952039663568
 20
-138.707123446226
 10
106.8565266659942
 20
-138.8066867057497
 10
106.8840874298762
 20
-138.7453640061123
 10
106.9643581546825
 20
-138.5634629644911
 10
107.2416883412451
 20
-138.5634629644911
 10
107.5799967178967
 20
-138.5634629644911
 10
107.7470838489313
 20
-138.810820820332
 10
107.7470838489313
 20
-139.0878064973461
 97
        0
 97
        0
 75
     2
 76
     1
 98
        0
  0
POLYLINE
  5
B3
330
AD
100
AcDbEntity
  8
_U+30EC_U+30A4_U+30E4_U+30FC 1
370
     0
100
AcDb2dPolyline
 66
     1
 10
0.0
 20
0.0
 30
0.0
  0
VERTEX
  5
B4
330
B3
100
AcDbEntity
  8
_U+30EC_U+30A4_U+30E4_U+30FC 1
370
     0
100
AcDbVertex
100
AcDb2dVertex
 10
107.6964409452981
 20
-138.3426323438866
 30
0.0
  0
VERTEX
  5
B5
330
B3
100
AcDbEntity
  8
_U+30EC_U+30A4_U+30E4_U+30FC 1
370
     0
100
AcDbVertex
100
AcDb2dVertex
 10
107.4446044653263
 20
-138.3426323438866
 30
0.0
  0
VERTEX
  5
B6
330
B3
100
AcDbEntity
  8
_U+30EC_U+30A4_U+30E4_U+30FC 1
370
     0
100
AcDbVertex
100
AcDb2dVertex
 10
107.4446044653263
 20
-138.0907958639148
 30
0.0
  0
VERTEX
  5
B7
330
B3
100
AcDbEntity
  8
_U+30EC_U+30A4_U+30E4_U+30FC 1
370
     0
100
AcDbVertex
100
AcDb2dVertex
 10
107.6964409452981
 20
-138.0907958639148
 30
0.0
  0
VERTEX
  5
B8
330
B3
100
AcDbEntity
  8
_U+30EC_U+30A4_U+30E4_U+30FC 1
370
     0
100
AcDbVertex
100
AcDb2dVertex
 10
107.6964409452981
 20
-138.3426323438866
 30
0.0
  0
SEQEND
  5
B9
330
B3
100
AcDbEntity
  8
_U+30EC_U+30A4_U+30E4_U+30FC 1
370
     0
  0
HATCH
  5
BA
330
AD
100
AcDbEntity
  8
_U+30EC_U+30A4_U+30E4_U+30FC 1
 62
   179
420
  2234388
100
AcDbHatch
 10
0.0
 20
0.0
 30
0.0
210
0.0
220
0.0
230
1.0
  2
SOLID
 70
     1
 71
     0
 91
        1
 92
        1
 93
        4
 72
     1
 10
107.6964409452981
 20
-138.3426323438866
 11
107.4446044653263
 21
-138.3426323438866
 72
     1
 10
107.4446044653263
 20
-138.3426323438866
 11
107.4446044653263
 21
-138.0907958639148
 72
     1
 10
107.4446044653263
 20
-138.0907958639148
 11
107.6964409452981
 21
-138.0907958639148
 72
     1
 10
107.6964409452981
 20
-138.0907958639148
 11
107.6964409452981
 21
-138.3426323438866
 97
        0
 75
     2
 76
     1
 98
        0
  0
SPLINE
  5
BB
330
AD
100
AcDbEntity
  8
_U+30EC_U+30A4_U+30E4_U+30FC 1
370
     0
100
AcDbSpline
210
0.0
220
0.0
230
1.0
 70
    11
 71
     3
 72
    44
 73
    40
 74
     0
 42
0.0000000001
 43
0.0000000001
 12
1.0
 22
0.0
 32
0.0
 13
1.0
 23
0.0
 33
0.0
 40
0.0
 40
0.0
 40
0.0
 40
0.0
 40
1.0
 40
1.0
 40
1.0
 40
2.0
 40
2.0
 40
2.0
 40
3.0
 40
3.0
 40
3.0
 40
4.0
 40
4.0
 40
4.0
 40
5.0
 40
5.0
 40
5.0
 40
6.0
 40
6.0
 40
6.0
 40
7.0
 40
7.0
 40
7.0
 40
8.0
 40
8.0
 40
8.0
 40
9.0
 40
9.0
 40
9.0
 40
10.0
 40
10.0
 40
10.0
 40
11.0
 40
11.0
 40
11.0
 40
12.0
 40
12.0
 40
12.0
 40
13.0
 40
13.0
 40
13.0
 40
13.0
 10
107.1145643178394
 20
-137.2615613806152
 30
0.0
 10
107.2733832197094
 20
-137.479291415283
 30
0.0
 10
107.3474527726423
 20
-137.5723089933847
 30
0.0
 10
107.4911132543772
 20
-137.6212293492753
 30
0.0
 10
107.4911132543772
 20
-137.6212293492753
 30
0.0
 10
107.4911132543772
 20
-136.8426377696088
 30
0.0
 10
107.4911132543772
 20
-136.8426377696088
 30
0.0
 10
107.4911132543772
 20
-136.8426377696088
 30
0.0
 10
107.6964409452981
 20
-136.8426377696088
 30
0.0
 10
107.6964409452981
 20
-136.8426377696088
 30
0.0
 10
107.6964409452981
 20
-136.8426377696088
 30
0.0
 10
107.6964409452981
 20
-137.8706542624074
 30
0.0
 10
107.6964409452981
 20
-137.8706542624074
 30
0.0
 10
107.3388400339292
 20
-137.838959383943
 30
0.0
 10
107.260636366414
 20
-137.7735025697233
 30
0.0
 10
106.9622910973914
 20
-137.3883408944724
 30
0.0
 10
106.7635090878925
 20
-137.1323702999183
 30
0.0
 10
106.695640706833
 20
-137.0669134856986
 30
0.0
 10
106.5581813969716
 20
-137.0669134856986
 30
0.0
 10
106.439670112279
 20
-137.0669134856986
 30
0.0
 10
106.3087564838395
 20
-137.1389159813403
 30
0.0
 10
106.3087564838395
 20
-137.335630933548
 30
0.0
 10
106.3087564838395
 20
-137.5957356426844
 30
0.0
 10
106.5392333718027
 20
-137.604003871849
 30
0.0
 10
106.6556775992041
 20
-137.6084824959798
 30
0.0
 10
106.6556775992041
 20
-137.6084824959798
 30
0.0
 10
106.6556775992041
 20
-137.8327582120696
 30
0.0
 10
106.6556775992041
 20
-137.8327582120696
 30
0.0
 10
106.5285535757984
 20
-137.8241454733565
 30
0.0
 10
106.4165879725278
 20
-137.8134656773522
 30
0.0
 10
106.2980766878352
 20
-137.7331949525459
 30
0.0
 10
106.137190728674
 20
-137.6232964065664
 30
0.0
 10
106.1034287929186
 20
-137.4369167408144
 30
0.0
 10
106.1034287929186
 20
-137.3208170229615
 30
0.0
 10
106.1034287929186
 20
-137.0434868363989
 30
0.0
 10
106.2873968918309
 20
-136.8360920881868
 30
0.0
 10
106.5602484542627
 20
-136.8360920881868
 30
0.0
 10
106.7890027944833
 20
-136.8360920881868
 30
0.0
 10
106.8882215444585
 20
-136.9525363155882
 30
0.0
 10
107.1145643178394
 20
-137.2615613806152
 30
0.0
  0
HATCH
  5
BC
330
AD
100
AcDbEntity
  8
_U+30EC_U+30A4_U+30E4_U+30FC 1
 62
   179
420
  2234388
100
AcDbHatch
 10
0.0
 20
0.0
 30
0.0
210
0.0
220
0.0
230
1.0
  2
SOLID
 70
     1
 71
     0
 91
        1
 92
        1
 93
        1
 72
     4
 94
        3
 73
     0
 74
     1
 95
       44
 96
       40
 40
0.0
 40
0.0
 40
0.0
 40
0.0
 40
1.0
 40
1.0
 40
1.0
 40
2.0
 40
2.0
 40
2.0
 40
3.0
 40
3.0
 40
3.0
 40
4.0
 40
4.0
 40
4.0
 40
5.0
 40
5.0
 40
5.0
 40
6.0
 40
6.0
 40
6.0
 40
7.0
 40
7.0
 40
7.0
 40
8.0
 40
8.0
 40
8.0
 40
9.0
 40
9.0
 40
9.0
 40
10.0
 40
10.0
 40
10.0
 40
11.0
 40
11.0
 40
11.0
 40
12.0
 40
12.0
 40
12.0
 40
13.0
 40
13.0
 40
13.0
 40
13.0
 10
107.1145643178394
 20
-137.2615613806152
 10
107.2733832197094
 20
-137.479291415283
 10
107.3474527726423
 20
-137.5723089933847
 10
107.4911132543772
 20
-137.6212293492753
 10
107.4911132543772
 20
-137.6212293492753
 10
107.4911132543772
 20
-136.8426377696088
 10
107.4911132543772
 20
-136.8426377696088
 10
107.4911132543772
 20
-136.8426377696088
 10
107.6964409452981
 20
-136.8426377696088
 10
107.6964409452981
 20
-136.8426377696088
 10
107.6964409452981
 20
-136.8426377696088
 10
107.6964409452981
 20
-137.8706542624074
 10
107.6964409452981
 20
-137.8706542624074
 10
107.3388400339292
 20
-137.838959383943
 10
107.260636366414
 20
-137.7735025697233
 10
106.9622910973914
 20
-137.3883408944724
 10
106.7635090878925
 20
-137.1323702999183
 10
106.695640706833
 20
-137.0669134856986
 10
106.5581813969716
 20
-137.0669134856986
 10
106.439670112279
 20
-137.0669134856986
 10
106.3087564838395
 20
-137.1389159813403
 10
106.3087564838395
 20
-137.335630933548
 10
106.3087564838395
 20
-137.5957356426844
 10
106.5392333718027
 20
-137.604003871849
 10
106.6556775992041
 20
-137.6084824959798
 10
106.6556775992041
 20
-137.6084824959798
 10
106.6556775992041
 20
-137.8327582120696
 10
106.6556775992041
 20
-137.8327582120696
 10
106.5285535757984
 20
-137.8241454733565
 10
106.4165879725278
 20
-137.8134656773522
 10
106.2980766878352
 20
-137.7331949525459
 10
106.137190728674
 20
-137.6232964065664
 10
106.1034287929186
 20
-137.4369167408144
 10
106.1034287929186
 20
-137.3208170229615
 10
106.1034287929186
 20
-137.0434868363989
 10
106.2873968918309
 20
-136.8360920881868
 10
106.5602484542627
 20
-136.8360920881868
 10
106.7890027944833
 20
-136.8360920881868
 10
106.8882215444585
 20
-136.9525363155882
 10
107.1145643178394
 20
-137.2615613806152
 97
        0
 97
        0
 75
     2
 76
     1
 98
        0
  0
ENDBLK
  5
B0
330
AD
100
AcDbEntity
  8
0
100
AcDbBlockEnd
  0
BLOCK
  5
CD
330
CB
100
AcDbEntity
  8
0
100
AcDbBlockBegin
  2
block 7
 70
     0
 10
0.0
 20
0.0
 30
0.0
  3
block 7
  1

  0
SPLINE
  5
CF
330
CB
100
AcDbEntity
  8
_U+30EC_U+30A4_U+30E4_U+30FC 1
370
     0
100
AcDbSpline
210
0.0
220
0.0
230
1.0
 70
    11
 71
     3
 72
    62
 73
    58
 74
     0
 42
0.0000000001
 43
0.0000000001
 12
1.0
 22
0.0
 32
0.0
 13
1.0
 23
0.0
 33
0.0
 40
0.0
 40
0.0
 40
0.0
 40
0.0
 40
1.0
 40
1.0
 40
1.0
 40
2.0
 40
2.0
 40
2.0
 40
3.0
 40
3.0
 40
3.0
 40
4.0
 40
4.0
 40
4.0
 40
5.0
 40
5.0
 40
5.0
 40
6.0
 40
6.0
 40
6.0
 40
7.0
 40
7.0
 40
7.0
 40
8.0
 40
8.0
 40
8.0
 40
9.0
 40
9.0
 40
9.0
 40
10.0
 40
10.0
 40
10.0
 40
11.0
 40
11.0
 40
11.0
 40
12.0
 40
12.0
 40
12.0
 40
13.0
 40
13.0
 40
13.0
 40
14.0
 40
14.0
 40
14.0
 40
15.0
 40
15.0
 40
15.0
 40
16.0
 40
16.0
 40
16.0
 40
17.0
 40
17.0
 40
17.0
 40
18.0
 40
18.0
 40
18.0
 40
19.0
 40
19.0
 40
19.0
 40
19.0
 10
87.79929197023768
 20
-118.0031331085201
 30
0.0
 10
87.70386282529626
 20
-118.0031331085201
 30
0.0
 10
87.48613279062847
 20
-117.98211802606
 30
0.0
 10
87.3610758245139
 20
-117.7960828698565
 30
0.0
 10
87.28700627158103
 20
-117.6837727570374
 30
0.0
 10
87.28287215699874
 20
-117.5845540070622
 30
0.0
 10
87.27873804241644
 20
-117.4998046581251
 30
0.0
 10
87.27873804241644
 20
-117.4998046581251
 30
0.0
 10
87.4988796439239
 20
-117.4998046581251
 30
0.0
 10
87.4988796439239
 20
-117.4998046581251
 30
0.0
 10
87.50094670121504
 20
-117.5738742110579
 30
0.0
 10
87.5112819876708
 20
-117.8084852136034
 30
0.0
 10
87.79481334610685
 20
-117.8084852136034
 30
0.0
 10
87.93227265596832
 20
-117.8084852136034
 30
0.0
 10
88.0848903859649
 20
-117.7388942848014
 30
0.0
 10
88.0848903859649
 20
-117.5104844541293
 30
0.0
 10
88.0848903859649
 20
-117.3940402267279
 30
0.0
 10
88.04664982607862
 20
-117.3454643803859
 30
0.0
 10
88.01495494761433
 20
-117.3137695019216
 30
0.0
 10
87.94088539468144
 20
-117.2396999489887
 30
0.0
 10
87.82444116728
 20
-117.2269530956933
 30
0.0
 10
87.76966414906454
 20
-117.2269530956933
 30
0.0
 10
87.75037161434713
 20
-117.2269530956933
 30
0.0
 10
87.71454262130054
 20
-117.2290201529844
 30
0.0
 10
87.68698185741853
 20
-117.2331542675667
 30
0.0
 10
87.68698185741853
 20
-117.2331542675667
 30
0.0
 10
87.68698185741853
 20
-117.0385063726501
 30
0.0
 10
87.68698185741853
 20
-117.0385063726501
 30
0.0
 10
87.7252224173048
 20
-117.0450520540721
 30
0.0
 10
87.76725258222486
 20
-117.0471191113632
 30
0.0
 10
87.77379826364684
 20
-117.0471191113632
 30
0.0
 10
87.83925507786658
 20
-117.0471191113632
 30
0.0
 10
88.0380370873655
 20
-117.0257595193547
 30
0.0
 10
88.0380370873655
 20
-116.789081459518
 30
0.0
 10
88.0380370873655
 20
-116.6113145324791
 30
0.0
 10
87.907123458926
 20
-116.5561930047151
 30
0.0
 10
87.796880403398
 20
-116.5561930047151
 30
0.0
 10
87.53264157967935
 20
-116.5561930047151
 30
0.0
 10
87.52402884096622
 20
-116.789081459518
 30
0.0
 10
87.51989472638392
 20
-116.8607394456112
 30
0.0
 10
87.51989472638392
 20
-116.8607394456112
 30
0.0
 10
87.31663409275419
 20
-116.8607394456112
 30
0.0
 10
87.31663409275419
 20
-116.8607394456112
 30
0.0
 10
87.3252468314673
 20
-116.7360269890452
 30
0.0
 10
87.3528075953493
 20
-116.3594780525074
 30
0.0
 10
87.80962725669343
 20
-116.3594780525074
 30
0.0
 10
88.0339029727832
 20
-116.3594780525074
 30
0.0
 10
88.27505965675068
 20
-116.4866020759131
 30
0.0
 10
88.27505965675068
 20
-116.782535778096
 30
0.0
 10
88.27505965675068
 20
-116.968915443848
 30
0.0
 10
88.17997502135779
 20
-117.0512532259455
 30
0.0
 10
88.08041176183407
 20
-117.112575925583
 30
0.0
 10
88.14173446147151
 20
-117.140136689465
 30
0.0
 10
88.3236355030927
 20
-117.2204074142713
 30
0.0
 10
88.3236355030927
 20
-117.4977376008339
 30
0.0
 10
88.3236355030927
 20
-117.8360459774854
 30
0.0
 10
88.07627764725177
 20
-118.0031331085201
 30
0.0
 10
87.79929197023768
 20
-118.0031331085201
 30
0.0
  0
HATCH
  5
D0
330
CB
100
AcDbEntity
  8
_U+30EC_U+30A4_U+30E4_U+30FC 1
 62
   179
420
  2234388
100
AcDbHatch
 10
0.0
 20
0.0
 30
0.0
210
0.0
220
0.0
230
1.0
  2
SOLID
 70
     1
 71
     0
 91
        1
 92
        1
 93
        1
 72
     4
 94
        3
 73
     0
 74
     1
 95
       62
 96
       58
 40
0.0
 40
0.0
 40
0.0
 40
0.0
 40
1.0
 40
1.0
 40
1.0
 40
2.0
 40
2.0
 40
2.0
 40
3.0
 40
3.0
 40
3.0
 40
4.0
 40
4.0
 40
4.0
 40
5.0
 40
5.0
 40
5.0
 40
6.0
 40
6.0
 40
6.0
 40
7.0
 40
7.0
 40
7.0
 40
8.0
 40
8.0
 40
8.0
 40
9.0
 40
9.0
 40
9.0
 40
10.0
 40
10.0
 40
10.0
 40
11.0
 40
11.0
 40
11.0
 40
12.0
 40
12.0
 40
12.0
 40
13.0
 40
13.0
 40
13.0
 40
14.0
 40
14.0
 40
14.0
 40
15.0
 40
15.0
 40
15.0
 40
16.0
 40
16.0
 40
16.0
 40
17.0
 40
17.0
 40
17.0
 40
18.0
 40
18.0
 40
18.0
 40
19.0
 40
19.0
 40
19.0
 40
19.0
 10
87.79929197023768
 20
-118.0031331085201
 10
87.70386282529626
 20
-118.0031331085201
 10
87.48613279062847
 20
-117.98211802606
 10
87.3610758245139
 20
-117.7960828698565
 10
87.28700627158103
 20
-117.6837727570374
 10
87.28287215699874
 20
-117.5845540070622
 10
87.27873804241644
 20
-117.4998046581251
 10
87.27873804241644
 20
-117.4998046581251
 10
87.4988796439239
 20
-117.4998046581251
 10
87.4988796439239
 20
-117.4998046581251
 10
87.50094670121504
 20
-117.5738742110579
 10
87.5112819876708
 20
-117.8084852136034
 10
87.79481334610685
 20
-117.8084852136034
 10
87.93227265596832
 20
-117.8084852136034
 10
88.0848903859649
 20
-117.7388942848014
 10
88.0848903859649
 20
-117.5104844541293
 10
88.0848903859649
 20
-117.3940402267279
 10
88.04664982607862
 20
-117.3454643803859
 10
88.01495494761433
 20
-117.3137695019216
 10
87.94088539468144
 20
-117.2396999489887
 10
87.82444116728
 20
-117.2269530956933
 10
87.76966414906454
 20
-117.2269530956933
 10
87.75037161434713
 20
-117.2269530956933
 10
87.71454262130054
 20
-117.2290201529844
 10
87.68698185741853
 20
-117.2331542675667
 10
87.68698185741853
 20
-117.2331542675667
 10
87.68698185741853
 20
-117.0385063726501
 10
87.68698185741853
 20
-117.0385063726501
 10
87.7252224173048
 20
-117.0450520540721
 10
87.76725258222486
 20
-117.0471191113632
 10
87.77379826364684
 20
-117.0471191113632
 10
87.83925507786658
 20
-117.0471191113632
 10
88.0380370873655
 20
-117.0257595193547
 10
88.0380370873655
 20
-116.789081459518
 10
88.0380370873655
 20
-116.6113145324791
 10
87.907123458926
 20
-116.5561930047151
 10
87.796880403398
 20
-116.5561930047151
 10
87.53264157967935
 20
-116.5561930047151
 10
87.52402884096622
 20
-116.789081459518
 10
87.51989472638392
 20
-116.8607394456112
 10
87.51989472638392
 20
-116.8607394456112
 10
87.31663409275419
 20
-116.8607394456112
 10
87.31663409275419
 20
-116.8607394456112
 10
87.3252468314673
 20
-116.7360269890452
 10
87.3528075953493
 20
-116.3594780525074
 10
87.80962725669343
 20
-116.3594780525074
 10
88.0339029727832
 20
-116.3594780525074
 10
88.27505965675068
 20
-116.4866020759131
 10
88.27505965675068
 20
-116.782535778096
 10
88.27505965675068
 20
-116.968915443848
 10
88.17997502135779
 20
-117.0512532259455
 10
88.08041176183407
 20
-117.112575925583
 10
88.14173446147151
 20
-117.140136689465
 10
88.3236355030927
 20
-117.2204074142713
 10
88.3236355030927
 20
-117.4977376008339
 10
88.3236355030927
 20
-117.8360459774854
 10
88.07627764725177
 20
-118.0031331085201
 10
87.79929197023768
 20
-118.0031331085201
 97
        0
 97
        0
 75
     2
 76
     1
 98
        0
  0
SPLINE
  5
D1
330
CB
100
AcDbEntity
  8
_U+30EC_U+30A4_U+30E4_U+30FC 1
370
     0
100
AcDbSpline
210
0.0
220
0.0
230
1.0
 70
    11
 71
     3
 72
    44
 73
    40
 74
     0
 42
0.0000000001
 43
0.0000000001
 12
1.0
 22
0.0
 32
0.0
 13
1.0
 23
0.0
 33
0.0
 40
0.0
 40
0.0
 40
0.0
 40
0.0
 40
1.0
 40
1.0
 40
1.0
 40
2.0
 40
2.0
 40
2.0
 40
3.0
 40
3.0
 40
3.0
 40
4.0
 40
4.0
 40
4.0
 40
5.0
 40
5.0
 40
5.0
 40
6.0
 40
6.0
 40
6.0
 40
7.0
 40
7.0
 40
7.0
 40
8.0
 40
8.0
 40
8.0
 40
9.0
 40
9.0
 40
9.0
 40
10.0
 40
10.0
 40
10.0
 40
11.0
 40
11.0
 40
11.0
 40
12.0
 40
12.0
 40
12.0
 40
13.0
 40
13.0
 40
13.0
 40
13.0
 10
89.07742239526537
 20
-117.3706135774282
 30
0.0
 10
88.85969236059758
 20
-117.5294324792982
 30
0.0
 10
88.76667478249584
 20
-117.6035020322311
 30
0.0
 10
88.71775442660528
 20
-117.747162513966
 30
0.0
 10
88.71775442660528
 20
-117.747162513966
 30
0.0
 10
89.49634600627175
 20
-117.747162513966
 30
0.0
 10
89.49634600627175
 20
-117.747162513966
 30
0.0
 10
89.49634600627175
 20
-117.747162513966
 30
0.0
 10
89.49634600627175
 20
-117.9524902048869
 30
0.0
 10
89.49634600627175
 20
-117.9524902048869
 30
0.0
 10
89.49634600627175
 20
-117.9524902048869
 30
0.0
 10
88.4683295134732
 20
-117.9524902048869
 30
0.0
 10
88.4683295134732
 20
-117.9524902048869
 30
0.0
 10
88.5000243919375
 20
-117.594889293518
 30
0.0
 10
88.56548120615724
 20
-117.5166856260028
 30
0.0
 10
88.95064288140817
 20
-117.2183403569801
 30
0.0
 10
89.20661347596224
 20
-117.0195583474812
 30
0.0
 10
89.27207029018199
 20
-116.9516899664218
 30
0.0
 10
89.27207029018199
 20
-116.8142306565603
 30
0.0
 10
89.27207029018199
 20
-116.6957193718677
 30
0.0
 10
89.20006779454026
 20
-116.5648057434283
 30
0.0
 10
89.0033528423325
 20
-116.5648057434283
 30
0.0
 10
88.74324813319613
 20
-116.5648057434283
 30
0.0
 10
88.734635394483
 20
-116.7952826313915
 30
0.0
 10
88.73050127990071
 20
-116.9117268587929
 30
0.0
 10
88.73050127990071
 20
-116.9117268587929
 30
0.0
 10
88.50622556381094
 20
-116.9117268587929
 30
0.0
 10
88.50622556381094
 20
-116.9117268587929
 30
0.0
 10
88.51483830252407
 20
-116.7846028353872
 30
0.0
 10
88.52551809852835
 20
-116.6726372321166
 30
0.0
 10
88.60578882333466
 20
-116.554125947424
 30
0.0
 10
88.71568736931414
 20
-116.3932399882628
 30
0.0
 10
88.90206703506615
 20
-116.3594780525074
 30
0.0
 10
89.01816675291907
 20
-116.3594780525074
 30
0.0
 10
89.29549693948168
 20
-116.3594780525074
 30
0.0
 10
89.50289168769372
 20
-116.5434461514197
 30
0.0
 10
89.50289168769372
 20
-116.8162977138515
 30
0.0
 10
89.50289168769372
 20
-117.0450520540721
 30
0.0
 10
89.38644746029227
 20
-117.1442708040473
 30
0.0
 10
89.07742239526537
 20
-117.3706135774282
 30
0.0
  0
HATCH
  5
D2
330
CB
100
AcDbEntity
  8
_U+30EC_U+30A4_U+30E4_U+30FC 1
 62
   179
420
  2234388
100
AcDbHatch
 10
0.0
 20
0.0
 30
0.0
210
0.0
220
0.0
230
1.0
  2
SOLID
 70
     1
 71
     0
 91
        1
 92
        1
 93
        1
 72
     4
 94
        3
 73
     0
 74
     1
 95
       44
 96
       40
 40
0.0
 40
0.0
 40
0.0
 40
0.0
 40
1.0
 40
1.0
 40
1.0
 40
2.0
 40
2.0
 40
2.0
 40
3.0
 40
3.0
 40
3.0
 40
4.0
 40
4.0
 40
4.0
 40
5.0
 40
5.0
 40
5.0
 40
6.0
 40
6.0
 40
6.0
 40
7.0
 40
7.0
 40
7.0
 40
8.0
 40
8.0
 40
8.0
 40
9.0
 40
9.0
 40
9.0
 40
10.0
 40
10.0
 40
10.0
 40
11.0
 40
11.0
 40
11.0
 40
12.0
 40
12.0
 40
12.0
 40
13.0
 40
13.0
 40
13.0
 40
13.0
 10
89.07742239526537
 20
-117.3706135774282
 10
88.85969236059758
 20
-117.5294324792982
 10
88.76667478249584
 20
-117.6035020322311
 10
88.71775442660528
 20
-117.747162513966
 10
88.71775442660528
 20
-117.747162513966
 10
89.49634600627175
 20
-117.747162513966
 10
89.49634600627175
 20
-117.747162513966
 10
89.49634600627175
 20
-117.747162513966
 10
89.49634600627175
 20
-117.9524902048869
 10
89.49634600627175
 20
-117.9524902048869
 10
89.49634600627175
 20
-117.9524902048869
 10
88.4683295134732
 20
-117.9524902048869
 10
88.4683295134732
 20
-117.9524902048869
 10
88.5000243919375
 20
-117.594889293518
 10
88.56548120615724
 20
-117.5166856260028
 10
88.95064288140817
 20
-117.2183403569801
 10
89.20661347596224
 20
-117.0195583474812
 10
89.27207029018199
 20
-116.9516899664218
 10
89.27207029018199
 20
-116.8142306565603
 10
89.27207029018199
 20
-116.6957193718677
 10
89.20006779454026
 20
-116.5648057434283
 10
89.0033528423325
 20
-116.5648057434283
 10
88.74324813319613
 20
-116.5648057434283
 10
88.734635394483
 20
-116.7952826313915
 10
88.73050127990071
 20
-116.9117268587929
 10
88.73050127990071
 20
-116.9117268587929
 10
88.50622556381094
 20
-116.9117268587929
 10
88.50622556381094
 20
-116.9117268587929
 10
88.51483830252407
 20
-116.7846028353872
 10
88.52551809852835
 20
-116.6726372321166
 10
88.60578882333466
 20
-116.554125947424
 10
88.71568736931414
 20
-116.3932399882628
 10
88.90206703506615
 20
-116.3594780525074
 10
89.01816675291907
 20
-116.3594780525074
 10
89.29549693948168
 20
-116.3594780525074
 10
89.50289168769372
 20
-116.5434461514197
 10
89.50289168769372
 20
-116.8162977138515
 10
89.50289168769372
 20
-117.0450520540721
 10
89.38644746029227
 20
-117.1442708040473
 10
89.07742239526537
 20
-117.3706135774282
 97
        0
 97
        0
 75
     2
 76
     1
 98
        0
  0
ENDBLK
  5
CE
330
CB
100
AcDbEntity
  8
0
100
AcDbBlockEnd
  0
ENDSEC
  0
SECTION
  2
ENTITIES
  0
SPLINE
  5
41
330
1F
100
AcDbEntity
  8
_U+30EC_U+30A4_U+30E4_U+30FC 1
 62
   179
420
  2234388
370
     9
100
AcDbSpline
210
0.0
220
0.0
230
1.0
 70
    11
 71
     3
 72
    17
 73
    13
 74
     0
 42
0.0000000001
 43
0.0000000001
 12
1.0
 22
0.0
 32
0.0
 13
1.0
 23
0.0
 33
0.0
 40
0.0
 40
0.0
 40
0.0
 40
0.0
 40
1.0
 40
1.0
 40
1.0
 40
2.0
 40
2.0
 40
2.0
 40
3.0
 40
3.0
 40
3.0
 40
4.0
 40
4.0
 40
4.0
 40
4.0
 10
72.45275731824283
 20
-139.2314757985253
 30
0.0
 10
72.45275731824283
 20
-139.1763366318728
 30
0.0
 10
72.40799164856475
 20
-139.1315691318836
 30
0.0
 10
72.3525331541331
 20
-139.1315691318836
 30
0.0
 10
72.29739398887315
 20
-139.1315691318836
 30
0.0
 10
72.25259121223839
 20
-139.1763366318728
 30
0.0
 10
72.25259121223839
 20
-139.2314757985253
 30
0.0
 10
72.25259121223839
 20
-139.2865796874008
 30
0.0
 10
72.29739398887315
 20
-139.3313824651669
 30
0.0
 10
72.3525331541331
 20
-139.3313824651669
 30
0.0
 10
72.40799164856475
 20
-139.3313824651669
 30
0.0
 10
72.45275731824283
 20
-139.2865796874008
 30
0.0
 10
72.45275731824283
 20
-139.2314757985253
 30
0.0
  0
SPLINE
  5
42
330
1F
100
AcDbEntity
  8
_U+30EC_U+30A4_U+30E4_U+30FC 1
 62
   179
420
  2234388
370
     9
100
AcDbSpline
210
0.0
220
0.0
230
1.0
 70
    11
 71
     3
 72
    17
 73
    13
 74
     0
 42
0.0000000001
 43
0.0000000001
 12
1.0
 22
0.0
 32
0.0
 13
1.0
 23
0.0
 33
0.0
 40
0.0
 40
0.0
 40
0.0
 40
0.0
 40
1.0
 40
1.0
 40
1.0
 40
2.0
 40
2.0
 40
2.0
 40
3.0
 40
3.0
 40
3.0
 40
4.0
 40
4.0
 40
4.0
 40
4.0
 10
84.45256367876894
 20
-139.2314757985253
 30
0.0
 10
84.45256367876894
 20
-139.1763366318728
 30
0.0
 10
84.40776090213417
 20
-139.1315691318836
 30
0.0
 10
84.3526570146511
 20
-139.1315691318836
 30
0.0
 10
84.29751784939116
 20
-139.1315691318836
 30
0.0
 10
84.25275035053326
 20
-139.1763366318728
 30
0.0
 10
84.25275035053326
 20
-139.2314757985253
 30
0.0
 10
84.25275035053326
 20
-139.2865796874008
 30
0.0
 10
84.29751784939116
 20
-139.3313824651669
 30
0.0
 10
84.3526570146511
 20
-139.3313824651669
 30
0.0
 10
84.40776090213417
 20
-139.3313824651669
 30
0.0
 10
84.45256367876894
 20
-139.2865796874008
 30
0.0
 10
84.45256367876894
 20
-139.2314757985253
 30
0.0
  0
SPLINE
  5
43
330
1F
100
AcDbEntity
  8
_U+30EC_U+30A4_U+30E4_U+30FC 1
 62
   179
420
  2234388
370
     9
100
AcDbSpline
210
0.0
220
0.0
230
1.0
 70
    11
 71
     3
 72
    17
 73
    13
 74
     0
 42
0.0000000001
 43
0.0000000001
 12
1.0
 22
0.0
 32
0.0
 13
1.0
 23
0.0
 33
0.0
 40
0.0
 40
0.0
 40
0.0
 40
0.0
 40
1.0
 40
1.0
 40
1.0
 40
2.0
 40
2.0
 40
2.0
 40
3.0
 40
3.0
 40
3.0
 40
4.0
 40
4.0
 40
4.0
 40
4.0
 10
94.45212009032566
 20
-139.2314757985253
 30
0.0
 10
94.45212009032566
 20
-139.1763366318728
 30
0.0
 10
94.4073173136909
 20
-139.1315691318836
 30
0.0
 10
94.35221342620783
 20
-139.1315691318836
 30
0.0
 10
94.29707426094788
 20
-139.1315691318836
 30
0.0
 10
94.25230676209
 20
-139.1763366318728
 30
0.0
 10
94.25230676209
 20
-139.2314757985253
 30
0.0
 10
94.25230676209
 20
-139.2865796874008
 30
0.0
 10
94.29707426094788
 20
-139.3313824651669
 30
0.0
 10
94.35221342620783
 20
-139.3313824651669
 30
0.0
 10
94.4073173136909
 20
-139.3313824651669
 30
0.0
 10
94.45212009032566
 20
-139.2865796874008
 30
0.0
 10
94.45212009032566
 20
-139.2314757985253
 30
0.0
  0
POLYLINE
  5
44
330
1F
100
AcDbEntity
  8
_U+30EC_U+30A4_U+30E4_U+30FC 1
 62
   179
420
  2234388
370
     9
100
AcDb2dPolyline
 66
     1
 10
0.0
 20
0.0
 30
0.0
  0
VERTEX
  5
45
330
44
100
AcDbEntity
  8
_U+30EC_U+30A4_U+30E4_U+30FC 1
 62
   179
420
  2234388
370
     9
100
AcDbVertex
100
AcDb2dVertex
 10
72.3525331541331
 20
-139.2314757985253
 30
0.0
  0
VERTEX
  5
46
330
44
100
AcDbEntity
  8
_U+30EC_U+30A4_U+30E4_U+30FC 1
 62
   179
420
  2234388
370
     9
100
AcDbVertex
100
AcDb2dVertex
 10
84.3526570146511
 20
-139.2314757985253
 30
0.0
  0
SEQEND
  5
47
330
44
100
AcDbEntity
  8
_U+30EC_U+30A4_U+30E4_U+30FC 1
 62
   179
420
  2234388
370
     9
  0
POLYLINE
  5
48
330
1F
100
AcDbEntity
  8
_U+30EC_U+30A4_U+30E4_U+30FC 1
 62
   179
420
  2234388
370
     9
100
AcDb2dPolyline
 66
     1
 10
0.0
 20
0.0
 30
0.0
  0
VERTEX
  5
49
330
48
100
AcDbEntity
  8
_U+30EC_U+30A4_U+30E4_U+30FC 1
 62
   179
420
  2234388
370
     9
100
AcDbVertex
100
AcDb2dVertex
 10
72.3525331541331
 20
-126.0315896907143
 30
0.0
  0
VERTEX
  5
4A
330
48
100
AcDbEntity
  8
_U+30EC_U+30A4_U+30E4_U+30FC 1
 62
   179
420
  2234388
370
     9
100
AcDbVertex
100
AcDb2dVertex
 10
72.3525331541331
 20
-140.2312480204978
 30
0.0
  0
SEQEND
  5
4B
330
48
100
AcDbEntity
  8
_U+30EC_U+30A4_U+30E4_U+30FC 1
 62
   179
420
  2234388
370
     9
  0
POLYLINE
  5
4C
330
1F
100
AcDbEntity
  8
_U+30EC_U+30A4_U+30E4_U+30FC 1
 62
   179
420
  2234388
370
     9
100
AcDb2dPolyline
 66
     1
 10
0.0
 20
0.0
 30
0.0
  0
VERTEX
  5
4D
330
4C
100
AcDbEntity
  8
_U+30EC_U+30A4_U+30E4_U+30FC 1
 62
   179
420
  2234388
370
     9
100
AcDbVertex
100
AcDb2dVertex
 10
84.3526570146511
 20
-137.7710816322238
 30
0.0
  0
VERTEX
  5
4E
330
4C
100
AcDbEntity
  8
_U+30EC_U+30A4_U+30E4_U+30FC 1
 62
   179
420
  2234388
370
     9
100
AcDbVertex
100
AcDb2dVertex
 10
84.3526570146511
 20
-140.2312480204978
 30
0.0
  0
SEQEND
  5
4F
330
4C
100
AcDbEntity
  8
_U+30EC_U+30A4_U+30E4_U+30FC 1
 62
   179
420
  2234388
370
     9
  0
INSERT
  5
51
330
1F
100
AcDbEntity
  8
_U+30EC_U+30A4_U+30E4_U+30FC 1
100
AcDbBlockReference
  2
block 2
 10
0.0
 20
0.0
 30
0.0
  0
POLYLINE
  5
58
330
1F
100
AcDbEntity
  8
_U+30EC_U+30A4_U+30E4_U+30FC 1
 62
   179
420
  2234388
370
     9
100
AcDb2dPolyline
 66
     1
 10
0.0
 20
0.0
 30
0.0
  0
VERTEX
  5
59
330
58
100
AcDbEntity
  8
_U+30EC_U+30A4_U+30E4_U+30FC 1
 62
   179
420
  2234388
370
     9
100
AcDbVertex
100
AcDb2dVertex
 10
84.3526570146511
 20
-139.2314757985253
 30
0.0
  0
VERTEX
  5
5A
330
58
100
AcDbEntity
  8
_U+30EC_U+30A4_U+30E4_U+30FC 1
 62
   179
420
  2234388
370
     9
100
AcDbVertex
100
AcDb2dVertex
 10
94.35221342620783
 20
-139.2314757985253
 30
0.0
  0
SEQEND
  5
5B
330
58
100
AcDbEntity
  8
_U+30EC_U+30A4_U+30E4_U+30FC 1
 62
   179
420
  2234388
370
     9
  0
POLYLINE
  5
5C
330
1F
100
AcDbEntity
  8
_U+30EC_U+30A4_U+30E4_U+30FC 1
 62
   179
420
  2234388
370
     9
100
AcDb2dPolyline
 66
     1
 10
0.0
 20
0.0
 30
0.0
  0
VERTEX
  5
5D
330
5C
100
AcDbEntity
  8
_U+30EC_U+30A4_U+30E4_U+30FC 1
 62
   179
420
  2234388
370
     9
100
AcDbVertex
100
AcDb2dVertex
 10
94.35221342620783
 20
-137.7710816322238
 30
0.0
  0
VERTEX
  5
5E
330
5C
100
AcDbEntity
  8
_U+30EC_U+30A4_U+30E4_U+30FC 1
 62
   179
420
  2234388
370
     9
100
AcDbVertex
100
AcDb2dVertex
 10
94.35221342620783
 20
-140.2312480204978
 30
0.0
  0
SEQEND
  5
5F
330
5C
100
AcDbEntity
  8
_U+30EC_U+30A4_U+30E4_U+30FC 1
 62
   179
420
  2234388
370
     9
  0
INSERT
  5
61
330
1F
100
AcDbEntity
  8
_U+30EC_U+30A4_U+30E4_U+30FC 1
100
AcDbBlockReference
  2
block 3
 10
0.0
 20
0.0
 30
0.0
  0
POLYLINE
  5
69
330
1F
100
AcDbEntity
  8
_U+30EC_U+30A4_U+30E4_U+30FC 1
 62
   179
420
  2234388
370
    25
100
AcDb2dPolyline
 66
     1
 10
0.0
 20
0.0
 30
0.0
  0
VERTEX
  5
6A
330
69
100
AcDbEntity
  8
_U+30EC_U+30A4_U+30E4_U+30FC 1
 62
   179
420
  2234388
370
    25
100
AcDbVertex
100
AcDb2dVertex
 10
72.35267426524061
 20
-123.5318063580058
 30
0.0
  0
VERTEX
  5
6B
330
69
100
AcDbEntity
  8
_U+30EC_U+30A4_U+30E4_U+30FC 1
 62
   179
420
  2234388
370
    25
100
AcDbVertex
100
AcDb2dVertex
 10
72.35267426524061
 20
-122.5313638582559
 30
0.0
  0
VERTEX
  5
6C
330
69
100
AcDbEntity
  8
_U+30EC_U+30A4_U+30E4_U+30FC 1
 62
   179
420
  2234388
370
    25
100
AcDbVertex
100
AcDb2dVertex
 10
104.3526165044096
 20
-122.5313638582559
 30
0.0
  0
VERTEX
  5
6D
330
69
100
AcDbEntity
  8
_U+30EC_U+30A4_U+30E4_U+30FC 1
 62
   179
420
  2234388
370
    25
100
AcDbVertex
100
AcDb2dVertex
 10
104.3526165044096
 20
-123.5318063580058
 30
0.0
  0
VERTEX
  5
6E
330
69
100
AcDbEntity
  8
_U+30EC_U+30A4_U+30E4_U+30FC 1
 62
   179
420
  2234388
370
    25
100
AcDbVertex
100
AcDb2dVertex
 10
85.35239393359014
 20
-123.5318063580058
 30
0.0
  0
VERTEX
  5
6F
330
69
100
AcDbEntity
  8
_U+30EC_U+30A4_U+30E4_U+30FC 1
 62
   179
420
  2234388
370
    25
100
AcDbVertex
100
AcDb2dVertex
 10
85.35239393359014
 20
-134.2312388553309
 30
0.0
  0
VERTEX
  5
70
330
69
100
AcDbEntity
  8
_U+30EC_U+30A4_U+30E4_U+30FC 1
 62
   179
420
  2234388
370
    25
100
AcDbVertex
100
AcDb2dVertex
 10
85.35239393359014
 20
-134.2309213553313
 30
0.0
  0
VERTEX
  5
71
330
69
100
AcDbEntity
  8
_U+30EC_U+30A4_U+30E4_U+30FC 1
 62
   179
420
  2234388
370
    25
100
AcDbVertex
100
AcDb2dVertex
 10
93.35244122949192
 20
-134.2305685775536
 30
0.0
  0
VERTEX
  5
72
330
69
100
AcDbEntity
  8
_U+30EC_U+30A4_U+30E4_U+30FC 1
 62
   179
420
  2234388
370
    25
100
AcDbVertex
100
AcDb2dVertex
 10
93.35244122949192
 20
-133.03063024452
 30
0.0
  0
VERTEX
  5
73
330
69
100
AcDbEntity
  8
_U+30EC_U+30A4_U+30E4_U+30FC 1
 62
   179
420
  2234388
370
    25
100
AcDbVertex
100
AcDb2dVertex
 10
91.15258961894814
 20
-133.03063024452
 30
0.0
  0
VERTEX
  5
74
330
69
100
AcDbEntity
  8
_U+30EC_U+30A4_U+30E4_U+30FC 1
 62
   179
420
  2234388
370
    25
100
AcDbVertex
100
AcDb2dVertex
 10
91.15258961894814
 20
-132.0308580225481
 30
0.0
  0
VERTEX
  5
75
330
69
100
AcDbEntity
  8
_U+30EC_U+30A4_U+30E4_U+30FC 1
 62
   179
420
  2234388
370
    25
100
AcDbVertex
100
AcDb2dVertex
 10
94.35221342620783
 20
-132.0308580225481
 30
0.0
  0
VERTEX
  5
76
330
69
100
AcDbEntity
  8
_U+30EC_U+30A4_U+30E4_U+30FC 1
 62
   179
420
  2234388
370
    25
100
AcDbVertex
100
AcDb2dVertex
 10
94.35221342620783
 20
-135.2306935773032
 30
0.0
  0
VERTEX
  5
77
330
69
100
AcDbEntity
  8
_U+30EC_U+30A4_U+30E4_U+30FC 1
 62
   179
420
  2234388
370
    25
100
AcDbVertex
100
AcDb2dVertex
 10
84.3526570146511
 20
-135.2306935773032
 30
0.0
  0
VERTEX
  5
78
330
69
100
AcDbEntity
  8
_U+30EC_U+30A4_U+30E4_U+30FC 1
 62
   179
420
  2234388
370
    25
100
AcDbVertex
100
AcDb2dVertex
 10
84.3526570146511
 20
-135.2310110773035
 30
0.0
  0
VERTEX
  5
79
330
69
100
AcDbEntity
  8
_U+30EC_U+30A4_U+30E4_U+30FC 1
 62
   179
420
  2234388
370
    25
100
AcDbVertex
100
AcDb2dVertex
 10
84.3526570146511
 20
-123.5318063580058
 30
0.0
  0
VERTEX
  5
7A
330
69
100
AcDbEntity
  8
_U+30EC_U+30A4_U+30E4_U+30FC 1
 62
   179
420
  2234388
370
    25
100
AcDbVertex
100
AcDb2dVertex
 10
72.35267426524061
 20
-123.5318063580058
 30
0.0
  0
SEQEND
  5
7C
330
69
100
AcDbEntity
  8
_U+30EC_U+30A4_U+30E4_U+30FC 1
 62
   179
420
  2234388
370
    25
  0
HATCH
  5
7B
330
1F
100
AcDbEntity
  8
_U+30EC_U+30A4_U+30E4_U+30FC 1
 62
   179
420
  2234388
100
AcDbHatch
 10
0.0
 20
0.0
 30
0.0
210
0.0
220
0.0
230
1.0
  2
SOLID
 70
     1
 71
     0
 91
        1
 92
        1
 93
       16
 72
     1
 10
72.35267426524061
 20
-123.5318063580058
 11
72.35267426524061
 21
-122.5313638582559
 72
     1
 10
72.35267426524061
 20
-122.5313638582559
 11
104.3526165044096
 21
-122.5313638582559
 72
     1
 10
104.3526165044096
 20
-122.5313638582559
 11
104.3526165044096
 21
-123.5318063580058
 72
     1
 10
104.3526165044096
 20
-123.5318063580058
 11
85.35239393359014
 21
-123.5318063580058
 72
     1
 10
85.35239393359014
 20
-123.5318063580058
 11
85.35239393359014
 21
-134.2312388553309
 72
     1
 10
85.35239393359014
 20
-134.2312388553309
 11
85.35239393359014
 21
-134.2309213553313
 72
     1
 10
85.35239393359014
 20
-134.2309213553313
 11
93.35244122949192
 21
-134.2305685775536
 72
     1
 10
93.35244122949192
 20
-134.2305685775536
 11
93.35244122949192
 21
-133.03063024452
 72
     1
 10
93.35244122949192
 20
-133.03063024452
 11
91.15258961894814
 21
-133.03063024452
 72
     1
 10
91.15258961894814
 20
-133.03063024452
 11
91.15258961894814
 21
-132.0308580225481
 72
     1
 10
91.15258961894814
 20
-132.0308580225481
 11
94.35221342620783
 21
-132.0308580225481
 72
     1
 10
94.35221342620783
 20
-132.0308580225481
 11
94.35221342620783
 21
-135.2306935773032
 72
     1
 10
94.35221342620783
 20
-135.2306935773032
 11
84.3526570146511
 21
-135.2306935773032
 72
     1
 10
84.3526570146511
 20
-135.2306935773032
 11
84.3526570146511
 21
-135.2310110773035
 72
     1
 10
84.3526570146511
 20
-135.2310110773035
 11
84.3526570146511
 21
-123.5318063580058
 72
     1
 10
84.3526570146511
 20
-123.5318063580058
 11
72.35267426524061
 21
-123.5318063580058
 97
        0
 75
     2
 76
     1
 98
        0
  0
SPLINE
  5
7D
330
1F
100
AcDbEntity
  8
_U+30EC_U+30A4_U+30E4_U+30FC 1
 62
   179
420
  2234388
370
     9
100
AcDbSpline
210
0.0
220
0.0
230
1.0
 70
    11
 71
     3
 72
    17
 73
    13
 74
     0
 42
0.0000000001
 43
0.0000000001
 12
1.0
 22
0.0
 32
0.0
 13
1.0
 23
0.0
 33
0.0
 40
0.0
 40
0.0
 40
0.0
 40
0.0
 40
1.0
 40
1.0
 40
1.0
 40
2.0
 40
2.0
 40
2.0
 40
3.0
 40
3.0
 40
3.0
 40
4.0
 40
4.0
 40
4.0
 40
4.0
 10
108.2965661260133
 20
-135.2306935773032
 30
0.0
 10
108.2965661260133
 20
-135.2857974661788
 30
0.0
 10
108.3413689026481
 20
-135.3306002439449
 30
0.0
 10
108.3964727901311
 20
-135.3306002439449
 30
0.0
 10
108.4516119553911
 20
-135.3306002439449
 30
0.0
 10
108.496379454249
 20
-135.2857974661788
 30
0.0
 10
108.496379454249
 20
-135.2306935773032
 30
0.0
 10
108.496379454249
 20
-135.1755544106508
 30
0.0
 10
108.4516119553911
 20
-135.1307869106616
 30
0.0
 10
108.3964727901311
 20
-135.1307869106616
 30
0.0
 10
108.3413689026481
 20
-135.1307869106616
 30
0.0
 10
108.2965661260133
 20
-135.1755544106508
 30
0.0
 10
108.2965661260133
 20
-135.2306935773032
 30
0.0
  0
SPLINE
  5
7E
330
1F
100
AcDbEntity
  8
_U+30EC_U+30A4_U+30E4_U+30FC 1
 62
   179
420
  2234388
370
     9
100
AcDbSpline
210
0.0
220
0.0
230
1.0
 70
    11
 71
     3
 72
    17
 73
    13
 74
     0
 42
0.0000000001
 43
0.0000000001
 12
1.0
 22
0.0
 32
0.0
 13
1.0
 23
0.0
 33
0.0
 40
0.0
 40
0.0
 40
0.0
 40
0.0
 40
1.0
 40
1.0
 40
1.0
 40
2.0
 40
2.0
 40
2.0
 40
3.0
 40
3.0
 40
3.0
 40
4.0
 40
4.0
 40
4.0
 40
4.0
 10
108.2965661260133
 20
-123.5311360802285
 30
0.0
 10
108.2965661260133
 20
-123.5862399691034
 30
0.0
 10
108.3413689026481
 20
-123.6310427468701
 30
0.0
 10
108.3964727901311
 20
-123.6310427468701
 30
0.0
 10
108.4516119553911
 20
-123.6310427468701
 30
0.0
 10
108.496379454249
 20
-123.5862399691034
 30
0.0
 10
108.496379454249
 20
-123.5311360802285
 30
0.0
 10
108.496379454249
 20
-123.4753266357977
 30
0.0
 10
108.4516119553911
 20
-123.4305238580313
 30
0.0
 10
108.3964727901311
 20
-123.4305238580313
 30
0.0
 10
108.3413689026481
 20
-123.4305238580313
 30
0.0
 10
108.2965661260133
 20
-123.4753266357977
 30
0.0
 10
108.2965661260133
 20
-123.5311360802285
 30
0.0
  0
POLYLINE
  5
7F
330
1F
100
AcDbEntity
  8
_U+30EC_U+30A4_U+30E4_U+30FC 1
 62
   179
420
  2234388
370
     9
100
AcDb2dPolyline
 66
     1
 10
0.0
 20
0.0
 30
0.0
  0
VERTEX
  5
80
330
7F
100
AcDbEntity
  8
_U+30EC_U+30A4_U+30E4_U+30FC 1
 62
   179
420
  2234388
370
     9
100
AcDbVertex
100
AcDb2dVertex
 10
108.3964727901311
 20
-118.6611446925569
 30
0.0
  0
VERTEX
  5
81
330
7F
100
AcDbEntity
  8
_U+30EC_U+30A4_U+30E4_U+30FC 1
 62
   179
420
  2234388
370
     9
100
AcDbVertex
100
AcDb2dVertex
 10
108.3964727901311
 20
-140.4889169093224
 30
0.0
  0
SEQEND
  5
82
330
7F
100
AcDbEntity
  8
_U+30EC_U+30A4_U+30E4_U+30FC 1
 62
   179
420
  2234388
370
     9
  0
POLYLINE
  5
83
330
1F
100
AcDbEntity
  8
_U+30EC_U+30A4_U+30E4_U+30FC 1
 62
   179
420
  2234388
370
     9
100
AcDb2dPolyline
 66
     1
 10
0.0
 20
0.0
 30
0.0
  0
VERTEX
  5
84
330
83
100
AcDbEntity
  8
_U+30EC_U+30A4_U+30E4_U+30FC 1
 62
   179
420
  2234388
370
     9
100
AcDbVertex
100
AcDb2dVertex
 10
107.0542592132628
 20
-123.5311360802285
 30
0.0
  0
VERTEX
  5
85
330
83
100
AcDbEntity
  8
_U+30EC_U+30A4_U+30E4_U+30FC 1
 62
   179
420
  2234388
370
     9
100
AcDbVertex
100
AcDb2dVertex
 10
109.5147430393795
 20
-123.5311360802285
 30
0.0
  0
SEQEND
  5
86
330
83
100
AcDbEntity
  8
_U+30EC_U+30A4_U+30E4_U+30FC 1
 62
   179
420
  2234388
370
     9
  0
SPLINE
  5
87
330
1F
100
AcDbEntity
  8
_U+30EC_U+30A4_U+30E4_U+30FC 1
 62
   179
420
  2234388
370
     9
100
AcDbSpline
210
0.0
220
0.0
230
1.0
 70
    11
 71
     3
 72
    17
 73
    13
 74
     0
 42
0.0000000001
 43
0.0000000001
 12
1.0
 22
0.0
 32
0.0
 13
1.0
 23
0.0
 33
0.0
 40
0.0
 40
0.0
 40
0.0
 40
0.0
 40
1.0
 40
1.0
 40
1.0
 40
2.0
 40
2.0
 40
2.0
 40
3.0
 40
3.0
 40
3.0
 40
4.0
 40
4.0
 40
4.0
 40
4.0
 10
108.2965661260133
 20
-122.5313638582559
 30
0.0
 10
108.2965661260133
 20
-122.586503024909
 30
0.0
 10
108.3413689026481
 20
-122.6312705248979
 30
0.0
 10
108.3964727901311
 20
-122.6312705248979
 30
0.0
 10
108.4516119553911
 20
-122.6312705248979
 30
0.0
 10
108.496379454249
 20
-122.586503024909
 30
0.0
 10
108.496379454249
 20
-122.5313638582559
 30
0.0
 10
108.496379454249
 20
-122.4755544138255
 30
0.0
 10
108.4516119553911
 20
-122.4307869138366
 30
0.0
 10
108.3964727901311
 20
-122.4307869138366
 30
0.0
 10
108.3413689026481
 20
-122.4307869138366
 30
0.0
 10
108.2965661260133
 20
-122.4755544138255
 30
0.0
 10
108.2965661260133
 20
-122.5313638582559
 30
0.0
  0
POLYLINE
  5
88
330
1F
100
AcDbEntity
  8
_U+30EC_U+30A4_U+30E4_U+30FC 1
 62
   179
420
  2234388
370
     9
100
AcDb2dPolyline
 66
     1
 10
0.0
 20
0.0
 30
0.0
  0
VERTEX
  5
89
330
88
100
AcDbEntity
  8
_U+30EC_U+30A4_U+30E4_U+30FC 1
 62
   179
420
  2234388
370
     9
100
AcDbVertex
100
AcDb2dVertex
 10
107.0542592132628
 20
-122.5313638582559
 30
0.0
  0
VERTEX
  5
8A
330
88
100
AcDbEntity
  8
_U+30EC_U+30A4_U+30E4_U+30FC 1
 62
   179
420
  2234388
370
     9
100
AcDbVertex
100
AcDb2dVertex
 10
109.5147430393795
 20
-122.5313638582559
 30
0.0
  0
SEQEND
  5
8B
330
88
100
AcDbEntity
  8
_U+30EC_U+30A4_U+30E4_U+30FC 1
 62
   179
420
  2234388
370
     9
  0
POLYLINE
  5
8C
330
1F
100
AcDbEntity
  8
_U+30EC_U+30A4_U+30E4_U+30FC 1
 62
   179
420
  2234388
370
     9
100
AcDb2dPolyline
 66
     1
 10
0.0
 20
0.0
 30
0.0
  0
VERTEX
  5
8D
330
8C
100
AcDbEntity
  8
_U+30EC_U+30A4_U+30E4_U+30FC 1
 62
   179
420
  2234388
370
     9
100
AcDbVertex
100
AcDb2dVertex
 10
96.85266942023117
 20
-135.2306935773032
 30
0.0
  0
VERTEX
  5
8E
330
8C
100
AcDbEntity
  8
_U+30EC_U+30A4_U+30E4_U+30FC 1
 62
   179
420
  2234388
370
     9
100
AcDbVertex
100
AcDb2dVertex
 10
109.5147430393795
 20
-135.2306935773032
 30
0.0
  0
SEQEND
  5
8F
330
8C
100
AcDbEntity
  8
_U+30EC_U+30A4_U+30E4_U+30FC 1
 62
   179
420
  2234388
370
     9
  0
SPLINE
  5
90
330
1F
100
AcDbEntity
  8
_U+30EC_U+30A4_U+30E4_U+30FC 1
 62
   179
420
  2234388
370
     9
100
AcDbSpline
210
0.0
220
0.0
230
1.0
 70
    11
 71
     3
 72
    17
 73
    13
 74
     0
 42
0.0000000001
 43
0.0000000001
 12
1.0
 22
0.0
 32
0.0
 13
1.0
 23
0.0
 33
0.0
 40
0.0
 40
0.0
 40
0.0
 40
0.0
 40
1.0
 40
1.0
 40
1.0
 40
2.0
 40
2.0
 40
2.0
 40
3.0
 40
3.0
 40
3.0
 40
4.0
 40
4.0
 40
4.0
 40
4.0
 10
108.2965661260133
 20
-132.0305405225479
 30
0.0
 10
108.2965661260133
 20
-132.0856444114228
 30
0.0
 10
108.3413689026481
 20
-132.1304471891895
 30
0.0
 10
108.3964727901311
 20
-132.1304471891895
 30
0.0
 10
108.4516119553911
 20
-132.1304471891895
 30
0.0
 10
108.496379454249
 20
-132.0856444114228
 30
0.0
 10
108.496379454249
 20
-132.0305405225479
 30
0.0
 10
108.496379454249
 20
-131.9754013558948
 30
0.0
 10
108.4516119553911
 20
-131.9306338559062
 30
0.0
 10
108.3964727901311
 20
-131.9306338559062
 30
0.0
 10
108.3413689026481
 20
-131.9306338559062
 30
0.0
 10
108.2965661260133
 20
-131.9754013558948
 30
0.0
 10
108.2965661260133
 20
-132.0305405225479
 30
0.0
  0
POLYLINE
  5
91
330
1F
100
AcDbEntity
  8
_U+30EC_U+30A4_U+30E4_U+30FC 1
 62
   179
420
  2234388
370
     9
100
AcDb2dPolyline
 66
     1
 10
0.0
 20
0.0
 30
0.0
  0
VERTEX
  5
92
330
91
100
AcDbEntity
  8
_U+30EC_U+30A4_U+30E4_U+30FC 1
 62
   179
420
  2234388
370
     9
100
AcDbVertex
100
AcDb2dVertex
 10
96.85266942023117
 20
-132.0305405225479
 30
0.0
  0
VERTEX
  5
93
330
91
100
AcDbEntity
  8
_U+30EC_U+30A4_U+30E4_U+30FC 1
 62
   179
420
  2234388
370
     9
100
AcDbVertex
100
AcDb2dVertex
 10
109.5147430393795
 20
-132.0305405225479
 30
0.0
  0
SEQEND
  5
94
330
91
100
AcDbEntity
  8
_U+30EC_U+30A4_U+30E4_U+30FC 1
 62
   179
420
  2234388
370
     9
  0
INSERT
  5
96
330
1F
100
AcDbEntity
  8
_U+30EC_U+30A4_U+30E4_U+30FC 1
100
AcDbBlockReference
  2
block 4
 10
0.0
 20
0.0
 30
0.0
  0
INSERT
  5
A8
330
1F
100
AcDbEntity
  8
_U+30EC_U+30A4_U+30E4_U+30FC 1
100
AcDbBlockReference
  2
block 5
 10
0.0
 20
0.0
 30
0.0
  0
INSERT
  5
AE
330
1F
100
AcDbEntity
  8
_U+30EC_U+30A4_U+30E4_U+30FC 1
100
AcDbBlockReference
  2
block 6
 10
0.0
 20
0.0
 30
0.0
  0
POLYLINE
  5
BD
330
1F
100
AcDbEntity
  8
_U+30EC_U+30A4_U+30E4_U+30FC 1
 62
   179
420
  2234388
370
     9
100
AcDb2dPolyline
 66
     1
 10
0.0
 20
0.0
 30
0.0
  0
VERTEX
  5
BE
330
BD
100
AcDbEntity
  8
_U+30EC_U+30A4_U+30E4_U+30FC 1
 62
   179
420
  2234388
370
     9
100
AcDbVertex
100
AcDb2dVertex
 10
104.3409042824862
 20
-118.5316046925894
 30
0.0
  0
VERTEX
  5
BF
330
BD
100
AcDbEntity
  8
_U+30EC_U+30A4_U+30E4_U+30FC 1
 62
   179
420
  2234388
370
     9
100
AcDbVertex
100
AcDb2dVertex
 10
72.37147732031646
 20
-118.5316046925894
 30
0.0
  0
SEQEND
  5
C0
330
BD
100
AcDbEntity
  8
_U+30EC_U+30A4_U+30E4_U+30FC 1
 62
   179
420
  2234388
370
     9
  0
SPLINE
  5
C1
330
1F
100
AcDbEntity
  8
_U+30EC_U+30A4_U+30E4_U+30FC 1
 62
   179
420
  2234388
370
     9
100
AcDbSpline
210
0.0
220
0.0
230
1.0
 70
    11
 71
     3
 72
    17
 73
    13
 74
     0
 42
0.0000000001
 43
0.0000000001
 12
1.0
 22
0.0
 32
0.0
 13
1.0
 23
0.0
 33
0.0
 40
0.0
 40
0.0
 40
0.0
 40
0.0
 40
1.0
 40
1.0
 40
1.0
 40
2.0
 40
2.0
 40
2.0
 40
3.0
 40
3.0
 40
3.0
 40
4.0
 40
4.0
 40
4.0
 40
4.0
 10
72.3407856544328
 20
-118.4316980259477
 30
0.0
 10
72.28568176694974
 20
-118.4316980259477
 30
0.0
 10
72.24087899031497
 20
-118.4765008037141
 30
0.0
 10
72.24087899031497
 20
-118.5316046925894
 30
0.0
 10
72.24087899031497
 20
-118.5867438592421
 30
0.0
 10
72.28568176694974
 20
-118.631511359231
 30
0.0
 10
72.3407856544328
 20
-118.631511359231
 30
0.0
 10
72.39592481969275
 20
-118.631511359231
 30
0.0
 10
72.44072759632752
 20
-118.5867438592421
 30
0.0
 10
72.44072759632752
 20
-118.5316046925894
 30
0.0
 10
72.44072759632752
 20
-118.4765008037141
 30
0.0
 10
72.39592481969275
 20
-118.4316980259477
 30
0.0
 10
72.3407856544328
 20
-118.4316980259477
 30
0.0
  0
POLYLINE
  5
C2
330
1F
100
AcDbEntity
  8
_U+30EC_U+30A4_U+30E4_U+30FC 1
 62
   179
420
  2234388
370
     9
100
AcDb2dPolyline
 66
     1
 10
0.0
 20
0.0
 30
0.0
  0
VERTEX
  5
C3
330
C2
100
AcDbEntity
  8
_U+30EC_U+30A4_U+30E4_U+30FC 1
 62
   179
420
  2234388
370
     9
100
AcDbVertex
100
AcDb2dVertex
 10
72.3407856544328
 20
-117.724096359458
 30
0.0
  0
VERTEX
  5
C4
330
C2
100
AcDbEntity
  8
_U+30EC_U+30A4_U+30E4_U+30FC 1
 62
   179
420
  2234388
370
     9
100
AcDbVertex
100
AcDb2dVertex
 10
72.3407856544328
 20
-119.811799970047
 30
0.0
  0
SEQEND
  5
C5
330
C2
100
AcDbEntity
  8
_U+30EC_U+30A4_U+30E4_U+30FC 1
 62
   179
420
  2234388
370
     9
  0
SPLINE
  5
C6
330
1F
100
AcDbEntity
  8
_U+30EC_U+30A4_U+30E4_U+30FC 1
 62
   179
420
  2234388
370
     9
100
AcDbSpline
210
0.0
220
0.0
230
1.0
 70
    11
 71
     3
 72
    17
 73
    13
 74
     0
 42
0.0000000001
 43
0.0000000001
 12
1.0
 22
0.0
 32
0.0
 13
1.0
 23
0.0
 33
0.0
 40
0.0
 40
0.0
 40
0.0
 40
0.0
 40
1.0
 40
1.0
 40
1.0
 40
2.0
 40
2.0
 40
2.0
 40
3.0
 40
3.0
 40
3.0
 40
4.0
 40
4.0
 40
4.0
 40
4.0
 10
104.3402340047255
 20
-118.4316980259477
 30
0.0
 10
104.2850948394656
 20
-118.4316980259477
 30
0.0
 10
104.2403273406077
 20
-118.4765008037141
 30
0.0
 10
104.2403273406077
 20
-118.5316046925894
 30
0.0
 10
104.2403273406077
 20
-118.5867438592421
 30
0.0
 10
104.2850948394656
 20
-118.631511359231
 30
0.0
 10
104.3402340047255
 20
-118.631511359231
 30
0.0
 10
104.3953378922086
 20
-118.631511359231
 30
0.0
 10
104.4401406688434
 20
-118.5867438592421
 30
0.0
 10
104.4401406688434
 20
-118.5316046925894
 30
0.0
 10
104.4401406688434
 20
-118.4765008037141
 30
0.0
 10
104.3953378922086
 20
-118.4316980259477
 30
0.0
 10
104.3402340047255
 20
-118.4316980259477
 30
0.0
  0
POLYLINE
  5
C7
330
1F
100
AcDbEntity
  8
_U+30EC_U+30A4_U+30E4_U+30FC 1
 62
   179
420
  2234388
370
     9
100
AcDb2dPolyline
 66
     1
 10
0.0
 20
0.0
 30
0.0
  0
VERTEX
  5
C8
330
C7
100
AcDbEntity
  8
_U+30EC_U+30A4_U+30E4_U+30FC 1
 62
   179
420
  2234388
370
     9
100
AcDbVertex
100
AcDb2dVertex
 10
104.3402340047255
 20
-117.724096359458
 30
0.0
  0
VERTEX
  5
C9
330
C7
100
AcDbEntity
  8
_U+30EC_U+30A4_U+30E4_U+30FC 1
 62
   179
420
  2234388
370
     9
100
AcDbVertex
100
AcDb2dVertex
 10
104.3402340047255
 20
-119.811799970047
 30
0.0
  0
SEQEND
  5
CA
330
C7
100
AcDbEntity
  8
_U+30EC_U+30A4_U+30E4_U+30FC 1
 62
   179
420
  2234388
370
     9
  0
INSERT
  5
CC
330
1F
100
AcDbEntity
  8
_U+30EC_U+30A4_U+30E4_U+30FC 1
100
AcDbBlockReference
  2
block 7
 10
0.0
 20
0.0
 30
0.0
  0
ENDSEC
  0
SECTION
  2
OBJECTS
  0
DICTIONARY
  5
C
330
0
100
AcDbDictionary
281
     1
  3
ACAD_GROUP
350
D
  3
ACAD_LAYOUT
350
1A
  3
ACAD_MATERIAL
350
3B
  3
ACAD_MLEADERSTYLE
350
D4
  3
ACAD_MLINESTYLE
350
17
  3
ACAD_PLOTSETTINGS
350
19
  3
ACAD_PLOTSTYLENAME
350
E
  3
ACAD_TABLESTYLE
350
D3
  3
ACAD_VISUALSTYLE
350
2A
  0
SUN
  5
3F
330
29
100
AcDbSun
 90
        1
290
     0
 63
     7
421
 16777215
 40
1.0
291
     1
 91
  2455826
 92
 54000000
292
     0
 70
     2
 71
   256
280
     1
  0
DICTIONARY
  5
D
102
{ACAD_REACTORS
330
C
102
}
330
C
100
AcDbDictionary
281
     1
  0
DICTIONARY
  5
1A
102
{ACAD_REACTORS
330
C
102
}
330
C
100
AcDbDictionary
281
     1
  3
Layout1
350
1E
  3
Layout2
350
26
  3
Model
350
22
  0
DICTIONARY
  5
3B
102
{ACAD_REACTORS
330
C
102
}
330
C
100
AcDbDictionary
281
     1
  3
ByBlock
350
3D
  3
ByLayer
350
3C
  3
Global
350
3E
  0
DICTIONARY
  5
D4
102
{ACAD_REACTORS
330
C
102
}
330
C
100
AcDbDictionary
281
     1
  0
DICTIONARY
  5
17
102
{ACAD_REACTORS
330
C
102
}
330
C
100
AcDbDictionary
281
     1
  3
Standard
350
18
  0
DICTIONARY
  5
19
102
{ACAD_REACTORS
330
C
102
}
330
C
100
AcDbDictionary
281
     1
  0
ACDBDICTIONARYWDFLT
  5
E
102
{ACAD_REACTORS
330
C
102
}
330
C
100
AcDbDictionary
281
     1
  3
Normal
350
F
100
AcDbDictionaryWithDefault
340
F
  0
DICTIONARY
  5
D3
102
{ACAD_REACTORS
330
C
102
}
330
C
100
AcDbDictionary
281
     1
  0
DICTIONARY
  5
2A
102
{ACAD_REACTORS
330
C
102
}
330
C
100
AcDbDictionary
281
     1
  3
2dWireframe
350
2F
  3
3D Hidden
350
31
  3
3dWireframe
350
30
  3
Basic
350
32
  3
Brighten
350
36
  3
ColorChange
350
3A
  3
Conceptual
350
34
  3
Dim
350
35
  3
Facepattern
350
39
  3
Flat
350
2B
  3
FlatWithEdges
350
2C
  3
Gouraud
350
2D
  3
GouraudWithEdges
350
2E
  3
Linepattern
350
38
  3
Realistic
350
33
  3
Thicken
350
37
  0
LAYOUT
  5
1E
102
{ACAD_REACTORS
330
1A
102
}
330
1A
100
AcDbPlotSettings
  1

  2
none_device
  4

  6

 40
0.0
 41
0.0
 42
0.0
 43
0.0
 44
0.0
 45
0.0
 46
0.0
 47
0.0
 48
0.0
 49
0.0
140
0.0
141
0.0
142
1.0
143
1.0
 70
   688
 72
     0
 73
     0
 74
     5
  7

 75
    16
 76
     0
 77
     2
 78
   300
147
1.0
148
0.0
149
0.0
100
AcDbLayout
  1
Layout1
 70
     1
 71
     1
 10
0.0
 20
0.0
 11
12.0
 21
9.0
 12
0.0
 22
0.0
 32
0.0
 14
1.000000000000000E+20
 24
1.000000000000000E+20
 34
1.000000000000000E+20
 15
-1.000000000000000E+20
 25
-1.000000000000000E+20
 35
-1.000000000000000E+20
146
0.0
 13
0.0
 23
0.0
 33
0.0
 16
1.0
 26
0.0
 36
0.0
 17
0.0
 27
1.0
 37
0.0
 76
     0
330
1B
  0
LAYOUT
  5
26
102
{ACAD_REACTORS
330
1A
102
}
330
1A
100
AcDbPlotSettings
  1

  2
none_device
  4

  6

 40
0.0
 41
0.0
 42
0.0
 43
0.0
 44
0.0
 45
0.0
 46
0.0
 47
0.0
 48
0.0
 49
0.0
140
0.0
141
0.0
142
1.0
143
1.0
 70
   688
 72
     0
 73
     0
 74
     5
  7

 75
    16
 76
     0
 77
     2
 78
   300
147
1.0
148
0.0
149
0.0
100
AcDbLayout
  1
Layout2
 70
     1
 71
     2
 10
0.0
 20
0.0
 11
0.0
 21
0.0
 12
0.0
 22
0.0
 32
0.0
 14
0.0
 24
0.0
 34
0.0
 15
0.0
 25
0.0
 35
0.0
146
0.0
 13
0.0
 23
0.0
 33
0.0
 16
1.0
 26
0.0
 36
0.0
 17
0.0
 27
1.0
 37
0.0
 76
     0
330
23
  0
LAYOUT
  5
22
102
{ACAD_REACTORS
330
1A
102
}
330
1A
100
AcDbPlotSettings
  1

  2
none_device
  4

  6

 40
0.0
 41
0.0
 42
0.0
 43
0.0
 44
0.0
 45
0.0
 46
0.0
 47
0.0
 48
0.0
 49
0.0
140
0.0
141
0.0
142
1.0
143
1.0
 70
  1712
 72
     0
 73
     0
 74
     0
  7

 75
     0
 76
     0
 77
     2
 78
   300
147
1.0
148
0.0
149
0.0
100
AcDbLayout
  1
Model
 70
     1
 71
     0
 10
0.0
 20
0.0
 11
12.0
 21
9.0
 12
0.0
 22
0.0
 32
0.0
 14
1.000000000000000E+20
 24
1.000000000000000E+20
 34
1.000000000000000E+20
 15
-1.000000000000000E+20
 25
-1.000000000000000E+20
 35
-1.000000000000000E+20
146
0.0
 13
0.0
 23
0.0
 33
0.0
 16
1.0
 26
0.0
 36
0.0
 17
0.0
 27
1.0
 37
0.0
 76
     0
330
1F
331
29
  0
MATERIAL
  5
3D
102
{ACAD_REACTORS
330
3B
102
}
330
3B
100
AcDbMaterial
  1
ByBlock
 72
     1
 94
      127
  0
MATERIAL
  5
3C
102
{ACAD_REACTORS
330
3B
102
}
330
3B
100
AcDbMaterial
  1
ByLayer
 72
     1
 94
      127
  0
MATERIAL
  5
3E
102
{ACAD_REACTORS
330
3B
102
}
330
3B
100
AcDbMaterial
  1
Global
 72
     1
 94
      127
  0
MLINESTYLE
  5
18
102
{ACAD_REACTORS
330
17
102
}
330
17
100
AcDbMlineStyle
  2
Standard
 70
     0
  3

 62
   256
 51
90.0
 52
90.0
 71
     2
 49
0.5
 62
   256
  6
BYLAYER
 49
-0.5
 62
   256
  6
BYLAYER
  0
ACDBPLACEHOLDER
  5
F
102
{ACAD_REACTORS
330
E
102
}
330
E
  0
VISUALSTYLE
  5
2F
102
{ACAD_REACTORS
330
2A
102
}
330
2A
100
AcDbVisualStyle
  2
2dWireframe
 70
     4
177
     2
291
     0
 71
     0
176
     1
 72
     2
176
     1
 73
     0
176
     1
 90
        0
176
     1
 40
-0.6
176
     1
 41
-30.0
176
     1
 62
     5
 63
     7
421
 16777215
176
     1
 74
     1
176
     1
 91
        4
176
     1
 64
     7
176
     1
 65
   257
176
     1
 75
     1
176
     1
175
     1
176
     1
 42
1.0
176
     1
 92
        0
176
     1
 66
   257
176
     1
 43
1.0
176
     1
 76
     1
176
     1
 77
     6
176
     1
 78
     2
176
     1
 67
     7
176
     1
 79
     5
176
     1
170
     0
176
     1
171
     0
176
     1
290
     0
176
     1
 93
        1
176
     1
 44
0.0
176
     1
173
     0
176
     1
  0
VISUALSTYLE
  5
31
102
{ACAD_REACTORS
330
2A
102
}
330
2A
100
AcDbVisualStyle
  2
3D Hidden
 70
     6
177
     2
291
     0
 71
     1
176
     1
 72
     2
176
     1
 73
     2
176
     1
 90
        0
176
     1
 40
-0.6
176
     1
 41
-30.0
176
     1
 62
     5
 63
     7
421
 16777215
176
     1
 74
     2
176
     1
 91
        2
176
     1
 64
     7
176
     1
 65
   257
176
     1
 75
     2
176
     1
175
     1
176
     1
 42
40.0
176
     1
 92
        0
176
     1
 66
   257
176
     1
 43
1.0
176
     1
 76
     1
176
     1
 77
     6
176
     1
 78
     2
176
     1
 67
     7
176
     1
 79
     3
176
     1
170
     0
176
     1
171
     0
176
     1
290
     0
176
     1
 93
        1
176
     1
 44
0.0
176
     1
173
     0
176
     1
  0
VISUALSTYLE
  5
30
102
{ACAD_REACTORS
330
2A
102
}
330
2A
100
AcDbVisualStyle
  2
3dWireframe
 70
     5
177
     2
291
     0
 71
     0
176
     1
 72
     2
176
     1
 73
     0
176
     1
 90
        0
176
     1
 40
-0.6
176
     1
 41
-30.0
176
     1
 62
     5
 63
     7
421
 16777215
176
     1
 74
     1
176
     1
 91
        4
176
     1
 64
     7
176
     1
 65
   257
176
     1
 75
     1
176
     1
175
     1
176
     1
 42
1.0
176
     1
 92
        0
176
     1
 66
   257
176
     1
 43
1.0
176
     1
 76
     1
176
     1
 77
     6
176
     1
 78
     2
176
     1
 67
     7
176
     1
 79
     5
176
     1
170
     0
176
     1
171
     0
176
     1
290
     0
176
     1
 93
        1
176
     1
 44
0.0
176
     1
173
     0
176
     1
  0
VISUALSTYLE
  5
32
102
{ACAD_REACTORS
330
2A
102
}
330
2A
100
AcDbVisualStyle
  2
Basic
 70
     7
177
     2
291
     1
 71
     1
176
     1
 72
     0
176
     1
 73
     1
176
     1
 90
        0
176
     1
 40
-0.6
176
     1
 41
-30.0
176
     1
 62
     5
 63
     7
421
 16777215
176
     1
 74
     0
176
     1
 91
        4
176
     1
 64
     7
176
     1
 65
   257
176
     1
 75
     1
176
     1
175
     1
176
     1
 42
1.0
176
     1
 92
        8
176
     1
 66
     7
176
     1
 43
1.0
176
     1
 76
     1
176
     1
 77
     6
176
     1
 78
     2
176
     1
 67
     7
176
     1
 79
     5
176
     1
170
     0
176
     1
171
     0
176
     1
290
     0
176
     1
 93
        1
176
     1
 44
0.0
176
     1
173
     0
176
     1
  0
VISUALSTYLE
  5
36
102
{ACAD_REACTORS
330
2A
102
}
330
2A
100
AcDbVisualStyle
  2
Brighten
 70
    12
177
     2
291
     1
 71
     2
176
     1
 72
     2
176
     1
 73
     0
176
     1
 90
        0
176
     1
 40
-0.6
176
     1
 41
-30.0
176
     1
 62
     5
 63
     7
421
 16777215
176
     1
 74
     1
176
     1
 91
        4
176
     1
 64
     7
176
     1
 65
   257
176
     1
 75
     1
176
     1
175
     1
176
     1
 42
1.0
176
     1
 92
        8
176
     1
 66
     7
176
     1
 43
1.0
176
     1
 76
     1
176
     1
 77
     6
176
     1
 78
     2
176
     1
 67
     7
176
     1
 79
     5
176
     1
170
     0
176
     1
171
     0
176
     1
290
     0
176
     1
 93
        1
176
     1
 44
50.0
176
     1
173
     0
176
     1
  0
VISUALSTYLE
  5
3A
102
{ACAD_REACTORS
330
2A
102
}
330
2A
100
AcDbVisualStyle
  2
ColorChange
 70
    16
177
     2
291
     1
 71
     2
176
     1
 72
     2
176
     1
 73
     3
176
     1
 90
        0
176
     1
 40
-0.6
176
     1
 41
-30.0
176
     1
 62
     5
 63
     8
421
  8421504
176
     1
 74
     1
176
     1
 91
        4
176
     1
 64
     7
176
     1
 65
   257
176
     1
 75
     1
176
     1
175
     1
176
     1
 42
1.0
176
     1
 92
        8
176
     1
 66
     8
424
  8421504
176
     1
 43
1.0
176
     1
 76
     1
176
     1
 77
     6
176
     1
 78
     2
176
     1
 67
     7
176
     1
 79
     5
176
     1
170
     0
176
     1
171
     0
176
     1
290
     0
176
     1
 93
        1
176
     1
 44
0.0
176
     1
173
     0
176
     1
  0
VISUALSTYLE
  5
34
102
{ACAD_REACTORS
330
2A
102
}
330
2A
100
AcDbVisualStyle
  2
Conceptual
 70
     9
177
     2
291
     0
 71
     3
176
     1
 72
     2
176
     1
 73
     0
176
     1
 90
        0
176
     1
 40
-0.6
176
     1
 41
-30.0
176
     1
 62
     5
 63
     7
421
 16777215
176
     1
 74
     2
176
     1
 91
        2
176
     1
 64
     7
176
     1
 65
   257
176
     1
 75
     1
176
     1
175
     1
176
     1
 42
40.0
176
     1
 92
        8
176
     1
 66
     7
176
     1
 43
1.0
176
     1
 76
     1
176
     1
 77
     6
176
     1
 78
     2
176
     1
 67
     7
176
     1
 79
     3
176
     1
170
     0
176
     1
171
     0
176
     1
290
     0
176
     1
 93
        1
176
     1
 44
0.0
176
     1
173
     0
176
     1
  0
VISUALSTYLE
  5
35
102
{ACAD_REACTORS
330
2A
102
}
330
2A
100
AcDbVisualStyle
  2
Dim
 70
    11
177
     2
291
     1
 71
     2
176
     1
 72
     2
176
     1
 73
     0
176
     1
 90
        0
176
     1
 40
-0.6
176
     1
 41
-30.0
176
     1
 62
     5
 63
     7
421
 16777215
176
     1
 74
     1
176
     1
 91
        4
176
     1
 64
     7
176
     1
 65
   257
176
     1
 75
     1
176
     1
175
     1
176
     1
 42
1.0
176
     1
 92
        8
176
     1
 66
     7
176
     1
 43
1.0
176
     1
 76
     1
176
     1
 77
     6
176
     1
 78
     2
176
     1
 67
     7
176
     1
 79
     5
176
     1
170
     0
176
     1
171
     0
176
     1
290
     0
176
     1
 93
        1
176
     1
 44
-50.0
176
     1
173
     0
176
     1
  0
VISUALSTYLE
  5
39
102
{ACAD_REACTORS
330
2A
102
}
330
2A
100
AcDbVisualStyle
  2
Facepattern
 70
    15
177
     2
291
     1
 71
     2
176
     1
 72
     2
176
     1
 73
     0
176
     1
 90
        0
176
     1
 40
-0.6
176
     1
 41
-30.0
176
     1
 62
     5
 63
     7
421
 16777215
176
     1
 74
     1
176
     1
 91
        4
176
     1
 64
     7
176
     1
 65
   257
176
     1
 75
     1
176
     1
175
     1
176
     1
 42
1.0
176
     1
 92
        8
176
     1
 66
     7
176
     1
 43
1.0
176
     1
 76
     1
176
     1
 77
     6
176
     1
 78
     2
176
     1
 67
     7
176
     1
 79
     5
176
     1
170
     0
176
     1
171
     0
176
     1
290
     0
176
     1
 93
        1
176
     1
 44
0.0
176
     1
173
     0
176
     1
  0
VISUALSTYLE
  5
2B
102
{ACAD_REACTORS
330
2A
102
}
330
2A
100
AcDbVisualStyle
  2
Flat
 70
     0
177
     2
291
     1
 71
     2
176
     1
 72
     1
176
     1
 73
     1
176
     1
 90
        2
176
     1
 40
-0.6
176
     1
 41
30.0
176
     1
 62
     5
 63
     7
421
 16777215
176
     1
 74
     0
176
     1
 91
        4
176
     1
 64
     7
176
     1
 65
   257
176
     1
 75
     1
176
     1
175
     1
176
     1
 42
1.0
176
     1
 92
        8
176
     1
 66
     7
176
     1
 43
1.0
176
     1
 76
     1
176
     1
 77
     6
176
     1
 78
     2
176
     1
 67
     7
176
     1
 79
     5
176
     1
170
     0
176
     1
171
     0
176
     1
290
     0
176
     1
 93
       13
176
     1
 44
0.0
176
     1
173
     0
176
     1
  0
VISUALSTYLE
  5
2C
102
{ACAD_REACTORS
330
2A
102
}
330
2A
100
AcDbVisualStyle
  2
FlatWithEdges
 70
     1
177
     2
291
     1
 71
     2
176
     1
 72
     1
176
     1
 73
     1
176
     1
 90
        2
176
     1
 40
-0.6
176
     1
 41
30.0
176
     1
 62
     5
 63
     7
421
 16777215
176
     1
 74
     1
176
     1
 91
        4
176
     1
 64
     7
176
     1
 65
   257
176
     1
 75
     1
176
     1
175
     1
176
     1
 42
1.0
176
     1
 92
        0
176
     1
 66
   257
176
     1
 43
1.0
176
     1
 76
     1
176
     1
 77
     6
176
     1
 78
     2
176
     1
 67
     7
176
     1
 79
     5
176
     1
170
     0
176
     1
171
     0
176
     1
290
     0
176
     1
 93
       13
176
     1
 44
0.0
176
     1
173
     0
176
     1
  0
VISUALSTYLE
  5
2D
102
{ACAD_REACTORS
330
2A
102
}
330
2A
100
AcDbVisualStyle
  2
Gouraud
 70
     2
177
     2
291
     1
 71
     2
176
     1
 72
     2
176
     1
 73
     1
176
     1
 90
        2
176
     1
 40
-0.6
176
     1
 41
30.0
176
     1
 62
     5
 63
     7
421
 16777215
176
     1
 74
     0
176
     1
 91
        4
176
     1
 64
     7
176
     1
 65
   257
176
     1
 75
     1
176
     1
175
     1
176
     1
 42
1.0
176
     1
 92
        0
176
     1
 66
     7
176
     1
 43
1.0
176
     1
 76
     1
176
     1
 77
     6
176
     1
 78
     2
176
     1
 67
     7
176
     1
 79
     5
176
     1
170
     0
176
     1
171
     0
176
     1
290
     0
176
     1
 93
       13
176
     1
 44
0.0
176
     1
173
     0
176
     1
  0
VISUALSTYLE
  5
2E
102
{ACAD_REACTORS
330
2A
102
}
330
2A
100
AcDbVisualStyle
  2
GouraudWithEdges
 70
     3
177
     2
291
     1
 71
     2
176
     1
 72
     2
176
     1
 73
     1
176
     1
 90
        2
176
     1
 40
-0.6
176
     1
 41
30.0
176
     1
 62
     5
 63
     7
421
 16777215
176
     1
 74
     1
176
     1
 91
        4
176
     1
 64
     7
176
     1
 65
   257
176
     1
 75
     1
176
     1
175
     1
176
     1
 42
1.0
176
     1
 92
        0
176
     1
 66
   257
176
     1
 43
1.0
176
     1
 76
     1
176
     1
 77
     6
176
     1
 78
     2
176
     1
 67
     7
176
     1
 79
     5
176
     1
170
     0
176
     1
171
     0
176
     1
290
     0
176
     1
 93
       13
176
     1
 44
0.0
176
     1
173
     0
176
     1
  0
VISUALSTYLE
  5
38
102
{ACAD_REACTORS
330
2A
102
}
330
2A
100
AcDbVisualStyle
  2
Linepattern
 70
    14
177
     2
291
     1
 71
     2
176
     1
 72
     2
176
     1
 73
     0
176
     1
 90
        0
176
     1
 40
-0.6
176
     1
 41
-30.0
176
     1
 62
     5
 63
     7
421
 16777215
176
     1
 74
     1
176
     1
 91
        4
176
     1
 64
     7
176
     1
 65
   257
176
     1
 75
     7
176
     1
175
     7
176
     1
 42
1.0
176
     1
 92
        8
176
     1
 66
     7
176
     1
 43
1.0
176
     1
 76
     1
176
     1
 77
     6
176
     1
 78
     2
176
     1
 67
     7
176
     1
 79
     5
176
     1
170
     0
176
     1
171
     0
176
     1
290
     0
176
     1
 93
        1
176
     1
 44
0.0
176
     1
173
     0
176
     1
  0
VISUALSTYLE
  5
33
102
{ACAD_REACTORS
330
2A
102
}
330
2A
100
AcDbVisualStyle
  2
Realistic
 70
     8
177
     2
291
     0
 71
     2
176
     1
 72
     2
176
     1
 73
     0
176
     1
 90
        0
176
     1
 40
-0.6
176
     1
 41
-30.0
176
     1
 62
     5
 63
     7
421
 16777215
176
     1
 74
     1
176
     1
 91
        0
176
     1
 64
     7
176
     1
 65
   257
176
     1
 75
     1
176
     1
175
     1
176
     1
 42
1.0
176
     1
 92
        8
176
     1
 66
     8
424
  7895160
176
     1
 43
1.0
176
     1
 76
     1
176
     1
 77
     6
176
     1
 78
     2
176
     1
 67
     7
176
     1
 79
     5
176
     1
170
     0
176
     1
171
     0
176
     1
290
     0
176
     1
 93
       13
176
     1
 44
0.0
176
     1
173
     0
176
     1
  0
VISUALSTYLE
  5
37
102
{ACAD_REACTORS
330
2A
102
}
330
2A
100
AcDbVisualStyle
  2
Thicken
 70
    13
177
     2
291
     1
 71
     2
176
     1
 72
     2
176
     1
 73
     0
176
     1
 90
        0
176
     1
 40
-0.6
176
     1
 41
-30.0
176
     1
 62
     5
 63
     7
421
 16777215
176
     1
 74
     1
176
     1
 91
        4
176
     1
 64
     7
176
     1
 65
   257
176
     1
 75
     1
176
     1
175
     1
176
     1
 42
1.0
176
     1
 92
       12
176
     1
 66
     7
176
     1
 43
1.0
176
     1
 76
     1
176
     1
 77
     6
176
     1
 78
     2
176
     1
 67
     7
176
     1
 79
     5
176
     1
170
     0
176
     1
171
     0
176
     1
290
     0
176
     1
 93
        1
176
     1
 44
0.0
176
     1
173
     0
176
     1
  0
ENDSEC
  0
EOF
