  0
SECTION
  2
HEADER
  9
$ACADVER
  1
AC1024
  9
$ACADMAINTVER
 70
     6
  9
$DWGCODEPAGE
  3
UNDEFINED
  9
$INSBASE
 10
0.0
 20
0.0
 30
0.0
  9
$EXTMIN
 10
1.000000000000000E+20
 20
1.000000000000000E+20
 30
1.000000000000000E+20
  9
$EXTMAX
 10
-1.000000000000000E+20
 20
-1.000000000000000E+20
 30
-1.000000000000000E+20
  9
$LIMMIN
 10
0.0
 20
0.0
  9
$LIMMAX
 10
12.0
 20
9.0
  9
$ORTHOMODE
 70
     0
  9
$REGENMODE
 70
     1
  9
$FILLMODE
 70
     1
  9
$QTEXTMODE
 70
     0
  9
$MIRRTEXT
 70
     1
  9
$LTSCALE
 40
1.0
  9
$ATTMODE
 70
     1
  9
$TEXTSIZE
 40
0.2
  9
$TRACEWID
 40
0.05
  9
$TEXTSTYLE
  7
Standard
  9
$CLAYER
  8
0
  9
$CELTYPE
  6
ByLayer
  9
$CECOLOR
 62
   256
  9
$CELTSCALE
 40
1.0
  9
$DISPSILH
 70
     0
  9
$DIMSCALE
 40
1.0
  9
$DIMASZ
 40
0.18
  9
$DIMEXO
 40
0.0625
  9
$DIMDLI
 40
0.38
  9
$DIMRND
 40
0.0
  9
$DIMDLE
 40
0.0
  9
$DIMEXE
 40
0.18
  9
$DIMTP
 40
0.0
  9
$DIMTM
 40
0.0
  9
$DIMTXT
 40
0.18
  9
$DIMCEN
 40
0.09
  9
$DIMTSZ
 40
0.0
  9
$DIMTOL
 70
     0
  9
$DIMLIM
 70
     0
  9
$DIMTIH
 70
     1
  9
$DIMTOH
 70
     1
  9
$DIMSE1
 70
     0
  9
$DIMSE2
 70
     0
  9
$DIMTAD
 70
     0
  9
$DIMZIN
 70
     0
  9
$DIMBLK
  1

  9
$DIMASO
 70
     1
  9
$DIMSHO
 70
     1
  9
$DIMPOST
  1

  9
$DIMAPOST
  1

  9
$DIMALT
 70
     0
  9
$DIMALTD
 70
     2
  9
$DIMALTF
 40
25.4
  9
$DIMLFAC
 40
1.0
  9
$DIMTOFL
 70
     0
  9
$DIMTVP
 40
0.0
  9
$DIMTIX
 70
     0
  9
$DIMSOXD
 70
     0
  9
$DIMSAH
 70
     0
  9
$DIMBLK1
  1

  9
$DIMBLK2
  1

  9
$DIMSTYLE
  2
Standard
  9
$DIMCLRD
 70
     0
  9
$DIMCLRE
 70
     0
  9
$DIMCLRT
 70
     0
  9
$DIMTFAC
 40
1.0
  9
$DIMGAP
 40
0.09
  9
$DIMJUST
 70
     0
  9
$DIMSD1
 70
     0
  9
$DIMSD2
 70
     0
  9
$DIMTOLJ
 70
     1
  9
$DIMTZIN
 70
     0
  9
$DIMALTZ
 70
     0
  9
$DIMALTTZ
 70
     0
  9
$DIMUPT
 70
     0
  9
$DIMDEC
 70
     4
  9
$DIMTDEC
 70
     4
  9
$DIMALTU
 70
     2
  9
$DIMALTTD
 70
     2
  9
$DIMTXSTY
  7
Standard
  9
$DIMAUNIT
 70
     0
  9
$DIMADEC
 70
     0
  9
$DIMALTRND
 40
0.0
  9
$DIMAZIN
 70
     0
  9
$DIMDSEP
 70
    46
  9
$DIMATFIT
 70
     3
  9
$DIMFRAC
 70
     0
  9
$DIMLDRBLK
  1

  9
$DIMLUNIT
 70
     2
  9
$DIMLWD
 70
    -2
  9
$DIMLWE
 70
    -2
  9
$DIMTMOVE
 70
     0
  9
$DIMFXL
 40
1.0
  9
$DIMFXLON
 70
     0
  9
$DIMJOGANG
 40
0.7853981633974483
  9
$DIMTFILL
 70
     0
  9
$DIMTFILLCLR
 70
     0
  9
$DIMARCSYM
 70
     0
  9
$DIMLTYPE
  6

  9
$DIMLTEX1
  6

  9
$DIMLTEX2
  6

  9
$DIMTXTDIRECTION
 70
     0
  9
$LUNITS
 70
     2
  9
$LUPREC
 70
     4
  9
$SKETCHINC
 40
0.1
  9
$FILLETRAD
 40
0.5
  9
$AUNITS
 70
     0
  9
$AUPREC
 70
     0
  9
$MENU
  1
.
  9
$ELEVATION
 40
0.0
  9
$PELEVATION
 40
0.0
  9
$THICKNESS
 40
0.0
  9
$LIMCHECK
 70
     0
  9
$CHAMFERA
 40
0.5
  9
$CHAMFERB
 40
0.5
  9
$CHAMFERC
 40
1.0
  9
$CHAMFERD
 40
0.0
  9
$SKPOLY
 70
     0
  9
$TDCREATE
 40
2457917.592199074
  9
$TDUCREATE
 40
2457917.217199074
  9
$TDUPDATE
 40
2457917.592199074
  9
$TDUUPDATE
 40
2457917.217199074
  9
$TDINDWG
 40
0.0000000116
  9
$TDUSRTIMER
 40
0.0000000116
  9
$USRTIMER
 70
     1
  9
$ANGBASE
 50
0.0
  9
$ANGDIR
 70
     0
  9
$PDMODE
 70
     0
  9
$PDSIZE
 40
0.0
  9
$PLINEWID
 40
0.0
  9
$SPLFRAME
 70
     0
  9
$SPLINETYPE
 70
     6
  9
$SPLINESEGS
 70
     8
  9
$HANDSEED
  5
148
  9
$SURFTAB1
 70
     6
  9
$SURFTAB2
 70
     6
  9
$SURFTYPE
 70
     6
  9
$SURFU
 70
     6
  9
$SURFV
 70
     6
  9
$UCSBASE
  2

  9
$UCSNAME
  2

  9
$UCSORG
 10
0.0
 20
0.0
 30
0.0
  9
$UCSXDIR
 10
1.0
 20
0.0
 30
0.0
  9
$UCSYDIR
 10
0.0
 20
1.0
 30
0.0
  9
$UCSORTHOREF
  2

  9
$UCSORTHOVIEW
 70
     0
  9
$UCSORGTOP
 10
0.0
 20
0.0
 30
0.0
  9
$UCSORGBOTTOM
 10
0.0
 20
0.0
 30
0.0
  9
$UCSORGLEFT
 10
0.0
 20
0.0
 30
0.0
  9
$UCSORGRIGHT
 10
0.0
 20
0.0
 30
0.0
  9
$UCSORGFRONT
 10
0.0
 20
0.0
 30
0.0
  9
$UCSORGBACK
 10
0.0
 20
0.0
 30
0.0
  9
$PUCSBASE
  2

  9
$PUCSNAME
  2

  9
$PUCSORG
 10
0.0
 20
0.0
 30
0.0
  9
$PUCSXDIR
 10
1.0
 20
0.0
 30
0.0
  9
$PUCSYDIR
 10
0.0
 20
1.0
 30
0.0
  9
$PUCSORTHOREF
  2

  9
$PUCSORTHOVIEW
 70
     0
  9
$PUCSORGTOP
 10
0.0
 20
0.0
 30
0.0
  9
$PUCSORGBOTTOM
 10
0.0
 20
0.0
 30
0.0
  9
$PUCSORGLEFT
 10
0.0
 20
0.0
 30
0.0
  9
$PUCSORGRIGHT
 10
0.0
 20
0.0
 30
0.0
  9
$PUCSORGFRONT
 10
0.0
 20
0.0
 30
0.0
  9
$PUCSORGBACK
 10
0.0
 20
0.0
 30
0.0
  9
$USERI1
 70
     0
  9
$USERI2
 70
     0
  9
$USERI3
 70
     0
  9
$USERI4
 70
     0
  9
$USERI5
 70
     0
  9
$USERR1
 40
0.0
  9
$USERR2
 40
0.0
  9
$USERR3
 40
0.0
  9
$USERR4
 40
0.0
  9
$USERR5
 40
0.0
  9
$WORLDVIEW
 70
     1
  9
$SHADEDGE
 70
     3
  9
$SHADEDIF
 70
    70
  9
$TILEMODE
 70
     1
  9
$MAXACTVP
 70
    64
  9
$PINSBASE
 10
0.0
 20
0.0
 30
0.0
  9
$PLIMCHECK
 70
     0
  9
$PEXTMIN
 10
1.000000000000000E+20
 20
1.000000000000000E+20
 30
1.000000000000000E+20
  9
$PEXTMAX
 10
-1.000000000000000E+20
 20
-1.000000000000000E+20
 30
-1.000000000000000E+20
  9
$PLIMMIN
 10
0.0
 20
0.0
  9
$PLIMMAX
 10
12.0
 20
9.0
  9
$UNITMODE
 70
     0
  9
$VISRETAIN
 70
     1
  9
$PLINEGEN
 70
     0
  9
$PSLTSCALE
 70
     1
  9
$TREEDEPTH
 70
  3020
  9
$CMLSTYLE
  2
Standard
  9
$CMLJUST
 70
     0
  9
$CMLSCALE
 40
1.0
  9
$PROXYGRAPHICS
 70
     1
  9
$MEASUREMENT
 70
     0
  9
$CELWEIGHT
370
    -1
  9
$ENDCAPS
280
     0
  9
$JOINSTYLE
280
     0
  9
$LWDISPLAY
290
     1
  9
$INSUNITS
 70
     1
  9
$HYPERLINKBASE
  1

  9
$STYLESHEET
  1

  9
$XEDIT
290
     1
  9
$CEPSNTYPE
380
     0
  9
$PSTYLEMODE
290
     1
  9
$FINGERPRINTGUID
  2
{A5777F21-7A49-DA07-E0DC-33D848FAF10E}
  9
$VERSIONGUID
  2
{FAEB1C32-E019-11D5-929B-00C0DF256EC4}
  9
$EXTNAMES
290
     1
  9
$PSVPSCALE
 40
0.0
  9
$OLESTARTUP
290
     0
  9
$SORTENTS
280
   127
  9
$INDEXCTL
280
     0
  9
$HIDETEXT
280
     1
  9
$XCLIPFRAME
280
     2
  9
$HALOGAP
280
     0
  9
$OBSCOLOR
 70
   257
  9
$OBSLTYPE
280
     0
  9
$INTERSECTIONDISPLAY
280
     0
  9
$INTERSECTIONCOLOR
 70
   257
  9
$DIMASSOC
280
     2
  9
$PROJECTNAME
  1

  9
$CAMERADISPLAY
290
     0
  9
$LENSLENGTH
 40
50.0
  9
$CAMERAHEIGHT
 40
0.0
  9
$STEPSPERSEC
 40
2.0
  9
$STEPSIZE
 40
6.0
  9
$3DDWFPREC
 40
2.0
  9
$PSOLWIDTH
 40
0.25
  9
$PSOLHEIGHT
 40
4.0
  9
$LOFTANG1
 40
1.570796326794897
  9
$LOFTANG2
 40
1.570796326794897
  9
$LOFTMAG1
 40
0.0
  9
$LOFTMAG2
 40
0.0
  9
$LOFTPARAM
 70
     7
  9
$LOFTNORMALS
280
     1
  9
$LATITUDE
 40
37.795
  9
$LONGITUDE
 40
-122.394
  9
$NORTHDIRECTION
 40
0.0
  9
$TIMEZONE
 70
 -8000
  9
$LIGHTGLYPHDISPLAY
280
     1
  9
$TILEMODELIGHTSYNCH
280
     1
  9
$CMATERIAL
347
3C
  9
$SOLIDHIST
280
     1
  9
$SHOWHIST
280
     1
  9
$DWFFRAME
280
     2
  9
$DGNFRAME
280
     2
  9
$REALWORLDSCALE
290
     1
  9
$INTERFERECOLOR
 62
   256
  9
$CSHADOW
280
     0
  9
$SHADOWPLANELOCATION
 40
0.0
  0
ENDSEC
  0
SECTION
  2
CLASSES
  0
CLASS
  1
ACDBDICTIONARYWDFLT
  2
AcDbDictionaryWithDefault
  3
ObjectDBX Classes
 90
        0
 91
        4
280
     0
281
     0
  0
CLASS
  1
VISUALSTYLE
  2
AcDbVisualStyle
  3
ObjectDBX Classes
 90
     4095
 91
        4
280
     0
281
     0
  0
CLASS
  1
MATERIAL
  2
AcDbMaterial
  3
ObjectDBX Classes
 90
     1153
 91
        4
280
     0
281
     0
  0
CLASS
  1
SUN
  2
AcDbSun
  3
SCENEOE
 90
     1024
 91
        4
280
     0
281
     0
  0
ENDSEC
  0
SECTION
  2
TABLES
  0
TABLE
  2
VPORT
  5
8
330
0
100
AcDbSymbolTable
 70
     1
  0
VPORT
  5
29
330
8
100
AcDbSymbolTableRecord
100
AcDbViewportTableRecord
  2
*Active
 70
     0
 10
0.0
 20
0.0
 11
1.0
 21
1.0
 12
0.0
 22
0.0
 13
0.0
 23
0.0
 14
0.5
 24
0.5
 15
0.5
 25
0.5
 16
0.0
 26
0.0
 36
1.0
 17
91.00082462281999
 27
-128.4993055234307
 37
0.0
 40
256.9986110468615
 41
0.7081814508812795
 42
50.0
 43
0.0
 44
0.0
 50
0.0
 51
0.0
 71
     0
 72
   100
 73
     1
 74
     3
 75
     0
 76
     0
 77
     0
 78
     0
281
     0
 65
     1
110
0.0
120
0.0
130
0.0
111
1.0
121
0.0
131
0.0
112
0.0
122
1.0
132
0.0
 79
     0
146
0.0
 60
     3
 61
     5
292
     1
282
     1
141
0.0
142
0.0
 63
   250
361
3F
  0
ENDTAB
  0
TABLE
  2
LTYPE
  5
5
330
0
100
AcDbSymbolTable
 70
     1
  0
LTYPE
  5
14
330
5
100
AcDbSymbolTableRecord
100
AcDbLinetypeTableRecord
  2
ByBlock
 70
     0
  3

 72
    65
 73
     0
 40
0.0
  0
LTYPE
  5
15
330
5
100
AcDbSymbolTableRecord
100
AcDbLinetypeTableRecord
  2
ByLayer
 70
     0
  3

 72
    65
 73
     0
 40
0.0
  0
LTYPE
  5
16
330
5
100
AcDbSymbolTableRecord
100
AcDbLinetypeTableRecord
  2
Continuous
 70
     0
  3
Solid line
 72
    65
 73
     0
 40
0.0
  0
ENDTAB
  0
TABLE
  2
LAYER
  5
2
330
0
100
AcDbSymbolTable
 70
     2
  0
LAYER
  5
10
330
2
100
AcDbSymbolTableRecord
100
AcDbLayerTableRecord
  2
0
 70
     0
 62
     7
  6
Continuous
370
    -3
390
F
347
3E
  0
LAYER
  5
40
330
2
100
AcDbSymbolTableRecord
100
AcDbLayerTableRecord
  2
_U+30EC_U+30A4_U+30E4_U+30FC 1
 70
     0
 62
     7
  6
Continuous
370
    -3
390
F
347
3E
  0
ENDTAB
  0
TABLE
  2
STYLE
  5
3
330
0
100
AcDbSymbolTable
 70
     1
  0
STYLE
  5
11
330
3
100
AcDbSymbolTableRecord
100
AcDbTextStyleTableRecord
  2
Standard
 70
     0
 40
0.0
 41
1.0
 50
0.0
 71
     0
 42
0.2
  3
txt
  4

  0
ENDTAB
  0
TABLE
  2
VIEW
  5
6
330
0
100
AcDbSymbolTable
 70
     0
  0
ENDTAB
  0
TABLE
  2
UCS
  5
7
330
0
100
AcDbSymbolTable
 70
     0
  0
ENDTAB
  0
TABLE
  2
APPID
  5
9
330
0
100
AcDbSymbolTable
 70
     1
  0
APPID
  5
12
330
9
100
AcDbSymbolTableRecord
100
AcDbRegAppTableRecord
  2
ACAD
 70
     0
  0
ENDTAB
  0
TABLE
  2
DIMSTYLE
  5
A
330
0
100
AcDbSymbolTable
 70
     1
100
AcDbDimStyleTable
  0
DIMSTYLE
105
27
330
A
100
AcDbSymbolTableRecord
100
AcDbDimStyleTableRecord
  2
Standard
 70
     0
178
     0
340
11
  0
ENDTAB
  0
TABLE
  2
BLOCK_RECORD
  5
1
330
0
100
AcDbSymbolTable
 70
     8
  0
BLOCK_RECORD
  5
1F
330
1
100
AcDbSymbolTableRecord
100
AcDbBlockTableRecord
  2
*Model_Space
340
22
 70
     0
280
     1
281
     0
  0
BLOCK_RECORD
  5
1B
330
1
100
AcDbSymbolTableRecord
100
AcDbBlockTableRecord
  2
*Paper_Space
340
1E
 70
     0
280
     1
281
     0
  0
BLOCK_RECORD
  5
23
330
1
100
AcDbSymbolTableRecord
100
AcDbBlockTableRecord
  2
*Paper_Space0
340
26
 70
     0
280
     1
281
     0
  0
BLOCK_RECORD
  5
FD
330
1
100
AcDbSymbolTableRecord
100
AcDbBlockTableRecord
  2
block 2
340
0
102
{BLKREFS
331
FE
102
}
 70
     0
280
     1
281
     0
  0
BLOCK_RECORD
  5
105
330
1
100
AcDbSymbolTableRecord
100
AcDbBlockTableRecord
  2
block 3
340
0
102
{BLKREFS
331
106
102
}
 70
     0
280
     1
281
     0
  0
BLOCK_RECORD
  5
10E
330
1
100
AcDbSymbolTableRecord
100
AcDbBlockTableRecord
  2
block 4
340
0
102
{BLKREFS
331
10F
102
}
 70
     0
280
     1
281
     0
  0
BLOCK_RECORD
  5
11E
330
1
100
AcDbSymbolTableRecord
100
AcDbBlockTableRecord
  2
block 5
340
0
102
{BLKREFS
331
11F
102
}
 70
     0
280
     1
281
     0
  0
BLOCK_RECORD
  5
12E
330
1
100
AcDbSymbolTableRecord
100
AcDbBlockTableRecord
  2
block 6
340
0
102
{BLKREFS
331
12F
102
}
 70
     0
280
     1
281
     0
  0
BLOCK_RECORD
  5
137
330
1
100
AcDbSymbolTableRecord
100
AcDbBlockTableRecord
  2
block 7
340
0
102
{BLKREFS
331
138
102
}
 70
     0
280
     1
281
     0
  0
BLOCK_RECORD
  5
140
330
1
100
AcDbSymbolTableRecord
100
AcDbBlockTableRecord
  2
block 8
340
0
102
{BLKREFS
331
141
102
}
 70
     0
280
     1
281
     0
  0
ENDTAB
  0
ENDSEC
  0
SECTION
  2
BLOCKS
  0
BLOCK
  5
20
330
1F
100
AcDbEntity
  8
0
100
AcDbBlockBegin
  2
*Model_Space
 70
     0
 10
0.0
 20
0.0
 30
0.0
  3
*Model_Space
  1

  0
ENDBLK
  5
21
330
1F
100
AcDbEntity
  8
0
100
AcDbBlockEnd
  0
BLOCK
  5
1C
330
1B
100
AcDbEntity
 67
     1
  8
0
100
AcDbBlockBegin
  2
*Paper_Space
 70
     0
 10
0.0
 20
0.0
 30
0.0
  3
*Paper_Space
  1

  0
ENDBLK
  5
1D
330
1B
100
AcDbEntity
 67
     1
  8
0
100
AcDbBlockEnd
  0
BLOCK
  5
24
330
23
100
AcDbEntity
  8
0
100
AcDbBlockBegin
  2
*Paper_Space0
 70
     0
 10
0.0
 20
0.0
 30
0.0
  3
*Paper_Space0
  1

  0
ENDBLK
  5
25
330
23
100
AcDbEntity
  8
0
100
AcDbBlockEnd
  0
BLOCK
  5
FF
330
FD
100
AcDbEntity
  8
0
100
AcDbBlockBegin
  2
block 2
 70
     0
 10
0.0
 20
0.0
 30
0.0
  3
block 2
  1

  0
SPLINE
  5
101
330
FD
100
AcDbEntity
  8
_U+30EC_U+30A4_U+30E4_U+30FC 1
370
     0
100
AcDbSpline
210
0.0
220
0.0
230
1.0
 70
    11
 71
     3
 72
    62
 73
    58
 74
     0
 42
0.0000000001
 43
0.0000000001
 12
1.0
 22
0.0
 32
0.0
 13
1.0
 23
0.0
 33
0.0
 40
0.0
 40
0.0
 40
0.0
 40
0.0
 40
1.0
 40
1.0
 40
1.0
 40
2.0
 40
2.0
 40
2.0
 40
3.0
 40
3.0
 40
3.0
 40
4.0
 40
4.0
 40
4.0
 40
5.0
 40
5.0
 40
5.0
 40
6.0
 40
6.0
 40
6.0
 40
7.0
 40
7.0
 40
7.0
 40
8.0
 40
8.0
 40
8.0
 40
9.0
 40
9.0
 40
9.0
 40
10.0
 40
10.0
 40
10.0
 40
11.0
 40
11.0
 40
11.0
 40
12.0
 40
12.0
 40
12.0
 40
13.0
 40
13.0
 40
13.0
 40
14.0
 40
14.0
 40
14.0
 40
15.0
 40
15.0
 40
15.0
 40
16.0
 40
16.0
 40
16.0
 40
17.0
 40
17.0
 40
17.0
 40
18.0
 40
18.0
 40
18.0
 40
19.0
 40
19.0
 40
19.0
 40
19.0
 10
90.55002846043541
 20
-115.9450330656318
 30
0.0
 10
90.44839814362054
 20
-115.9450330656318
 30
0.0
 10
90.21550968881766
 20
-115.9240179831718
 30
0.0
 10
90.08201223876422
 20
-115.7379828269683
 30
0.0
 10
90.00294729737774
 20
-115.6256727141491
 30
0.0
 10
89.99846867324692
 20
-115.526453964174
 30
0.0
 10
89.99381779434182
 20
-115.4417046152368
 30
0.0
 10
89.99381779434182
 20
-115.4417046152368
 30
0.0
 10
90.2291178159844
 20
-115.4417046152368
 30
0.0
 10
90.2291178159844
 20
-115.4417046152368
 30
0.0
 10
90.23135712804981
 20
-115.5157741681697
 30
0.0
 10
90.24255368837686
 20
-115.7503851707152
 30
0.0
 10
90.54554983630459
 20
-115.7503851707152
 30
0.0
 10
90.69248315875049
 20
-115.7503851707152
 30
0.0
 10
90.85526392042856
 20
-115.6807942419131
 30
0.0
 10
90.85526392042856
 20
-115.4523844112411
 30
0.0
 10
90.85526392042856
 20
-115.3359401838396
 30
0.0
 10
90.8146117937026
 20
-115.2873643374976
 30
0.0
 10
90.78067760317289
 20
-115.2556694590333
 30
0.0
 10
90.70161266178641
 20
-115.1815999061004
 30
0.0
 10
90.57724471476888
 20
-115.168853052805
 30
0.0
 10
90.51850583674538
 20
-115.168853052805
 30
0.0
 10
90.49800751860815
 20
-115.168853052805
 30
0.0
 10
90.4595947039476
 20
-115.1709201100962
 30
0.0
 10
90.43031139232298
 20
-115.1750542246785
 30
0.0
 10
90.43031139232298
 20
-115.1750542246785
 30
0.0
 10
90.43031139232298
 20
-114.9804063297618
 30
0.0
 10
90.43031139232298
 20
-114.9804063297618
 30
0.0
 10
90.47096351904894
 20
-114.9869520111838
 30
0.0
 10
90.51609426990571
 20
-114.989019068475
 30
0.0
 10
90.5229844608762
 20
-114.989019068475
 30
0.0
 10
90.59309215400104
 20
-114.989019068475
 30
0.0
 10
90.80548229066669
 20
-114.9676594764664
 30
0.0
 10
90.80548229066669
 20
-114.7309814166298
 30
0.0
 10
90.80548229066669
 20
-114.5532144895909
 30
0.0
 10
90.66543915919128
 20
-114.4980929618269
 30
0.0
 10
90.54778914837
 20
-114.4980929618269
 30
0.0
 10
90.26529131857951
 20
-114.4980929618269
 30
0.0
 10
90.2561618155436
 20
-114.7309814166298
 30
0.0
 10
90.25168319141278
 20
-114.802639402723
 30
0.0
 10
90.25168319141278
 20
-114.802639402723
 30
0.0
 10
90.03464217584204
 20
-114.802639402723
 30
0.0
 10
90.03464217584204
 20
-114.802639402723
 30
0.0
 10
90.04359942410369
 20
-114.6779269461569
 30
0.0
 10
90.07305499050257
 20
-114.3013780096191
 30
0.0
 10
90.56139727553673
 20
-114.3013780096191
 30
0.0
 10
90.80100366653586
 20
-114.3013780096191
 30
0.0
 10
91.05869680883255
 20
-114.4285020330248
 30
0.0
 10
91.05869680883255
 20
-114.7244357352078
 30
0.0
 10
91.05869680883255
 20
-114.9108154009598
 30
0.0
 10
90.95706649201769
 20
-114.9931531830573
 30
0.0
 10
90.85078529629773
 20
-115.0544758826947
 30
0.0
 10
90.91641436529173
 20
-115.0820366465767
 30
0.0
 10
91.11071775065983
 20
-115.162307371383
 30
0.0
 10
91.11071775065983
 20
-115.4396375579456
 30
0.0
 10
91.11071775065983
 20
-115.7779459345972
 30
0.0
 10
90.8463066721669
 20
-115.9450330656318
 30
0.0
 10
90.55002846043541
 20
-115.9450330656318
 30
0.0
  0
HATCH
  5
102
330
FD
100
AcDbEntity
  8
_U+30EC_U+30A4_U+30E4_U+30FC 1
 62
   179
420
  2234388
100
AcDbHatch
 10
0.0
 20
0.0
 30
0.0
210
0.0
220
0.0
230
1.0
  2
SOLID
 70
     1
 71
     0
 91
        1
 92
        1
 93
        1
 72
     4
 94
        3
 73
     0
 74
     1
 95
       62
 96
       58
 40
0.0
 40
0.0
 40
0.0
 40
0.0
 40
1.0
 40
1.0
 40
1.0
 40
2.0
 40
2.0
 40
2.0
 40
3.0
 40
3.0
 40
3.0
 40
4.0
 40
4.0
 40
4.0
 40
5.0
 40
5.0
 40
5.0
 40
6.0
 40
6.0
 40
6.0
 40
7.0
 40
7.0
 40
7.0
 40
8.0
 40
8.0
 40
8.0
 40
9.0
 40
9.0
 40
9.0
 40
10.0
 40
10.0
 40
10.0
 40
11.0
 40
11.0
 40
11.0
 40
12.0
 40
12.0
 40
12.0
 40
13.0
 40
13.0
 40
13.0
 40
14.0
 40
14.0
 40
14.0
 40
15.0
 40
15.0
 40
15.0
 40
16.0
 40
16.0
 40
16.0
 40
17.0
 40
17.0
 40
17.0
 40
18.0
 40
18.0
 40
18.0
 40
19.0
 40
19.0
 40
19.0
 40
19.0
 10
90.55002846043541
 20
-115.9450330656318
 10
90.44839814362054
 20
-115.9450330656318
 10
90.21550968881766
 20
-115.9240179831718
 10
90.08201223876422
 20
-115.7379828269683
 10
90.00294729737774
 20
-115.6256727141491
 10
89.99846867324692
 20
-115.526453964174
 10
89.99381779434182
 20
-115.4417046152368
 10
89.99381779434182
 20
-115.4417046152368
 10
90.2291178159844
 20
-115.4417046152368
 10
90.2291178159844
 20
-115.4417046152368
 10
90.23135712804981
 20
-115.5157741681697
 10
90.24255368837686
 20
-115.7503851707152
 10
90.54554983630459
 20
-115.7503851707152
 10
90.69248315875049
 20
-115.7503851707152
 10
90.85526392042856
 20
-115.6807942419131
 10
90.85526392042856
 20
-115.4523844112411
 10
90.85526392042856
 20
-115.3359401838396
 10
90.8146117937026
 20
-115.2873643374976
 10
90.78067760317289
 20
-115.2556694590333
 10
90.70161266178641
 20
-115.1815999061004
 10
90.57724471476888
 20
-115.168853052805
 10
90.51850583674538
 20
-115.168853052805
 10
90.49800751860815
 20
-115.168853052805
 10
90.4595947039476
 20
-115.1709201100962
 10
90.43031139232298
 20
-115.1750542246785
 10
90.43031139232298
 20
-115.1750542246785
 10
90.43031139232298
 20
-114.9804063297618
 10
90.43031139232298
 20
-114.9804063297618
 10
90.47096351904894
 20
-114.9869520111838
 10
90.51609426990571
 20
-114.989019068475
 10
90.5229844608762
 20
-114.989019068475
 10
90.59309215400104
 20
-114.989019068475
 10
90.80548229066669
 20
-114.9676594764664
 10
90.80548229066669
 20
-114.7309814166298
 10
90.80548229066669
 20
-114.5532144895909
 10
90.66543915919128
 20
-114.4980929618269
 10
90.54778914837
 20
-114.4980929618269
 10
90.26529131857951
 20
-114.4980929618269
 10
90.2561618155436
 20
-114.7309814166298
 10
90.25168319141278
 20
-114.802639402723
 10
90.25168319141278
 20
-114.802639402723
 10
90.03464217584204
 20
-114.802639402723
 10
90.03464217584204
 20
-114.802639402723
 10
90.04359942410369
 20
-114.6779269461569
 10
90.07305499050257
 20
-114.3013780096191
 10
90.56139727553673
 20
-114.3013780096191
 10
90.80100366653586
 20
-114.3013780096191
 10
91.05869680883255
 20
-114.4285020330248
 10
91.05869680883255
 20
-114.7244357352078
 10
91.05869680883255
 20
-114.9108154009598
 10
90.95706649201769
 20
-114.9931531830573
 10
90.85078529629773
 20
-115.0544758826947
 10
90.91641436529173
 20
-115.0820366465767
 10
91.11071775065983
 20
-115.162307371383
 10
91.11071775065983
 20
-115.4396375579456
 10
91.11071775065983
 20
-115.7779459345972
 10
90.8463066721669
 20
-115.9450330656318
 10
90.55002846043541
 20
-115.9450330656318
 97
        0
 97
        0
 75
     2
 76
     1
 98
        0
  0
SPLINE
  5
103
330
FD
100
AcDbEntity
  8
_U+30EC_U+30A4_U+30E4_U+30FC 1
370
     0
100
AcDbSpline
210
0.0
220
0.0
230
1.0
 70
    11
 71
     3
 72
    53
 73
    49
 74
     0
 42
0.0000000001
 43
0.0000000001
 12
1.0
 22
0.0
 32
0.0
 13
1.0
 23
0.0
 33
0.0
 40
0.0
 40
0.0
 40
0.0
 40
0.0
 40
1.0
 40
1.0
 40
1.0
 40
2.0
 40
2.0
 40
2.0
 40
3.0
 40
3.0
 40
3.0
 40
4.0
 40
4.0
 40
4.0
 40
5.0
 40
5.0
 40
5.0
 40
6.0
 40
6.0
 40
6.0
 40
7.0
 40
7.0
 40
7.0
 40
8.0
 40
8.0
 40
8.0
 40
9.0
 40
9.0
 40
9.0
 40
10.0
 40
10.0
 40
10.0
 40
11.0
 40
11.0
 40
11.0
 40
12.0
 40
12.0
 40
12.0
 40
13.0
 40
13.0
 40
13.0
 40
14.0
 40
14.0
 40
14.0
 40
15.0
 40
15.0
 40
15.0
 40
16.0
 40
16.0
 40
16.0
 40
16.0
 10
91.79663626177307
 20
-115.9450330656318
 30
0.0
 10
91.7129204414815
 20
-115.9450330656318
 30
0.0
 10
91.60439993369613
 20
-115.9281520977541
 30
0.0
 10
91.49587942591076
 20
-115.8647623408255
 30
0.0
 10
91.31053328880432
 20
-115.754863794846
 30
0.0
 10
91.28779565860167
 20
-115.623605656858
 30
0.0
 10
91.2674695952387
 20
-115.5157741681697
 30
0.0
 10
91.2674695952387
 20
-115.5157741681697
 30
0.0
 10
91.50483667417241
 20
-115.5157741681697
 30
0.0
 10
91.50483667417241
 20
-115.5157741681697
 30
0.0
 10
91.56374780697018
 20
-115.7145561776686
 30
0.0
 10
91.69948456908902
 20
-115.7441839988417
 30
0.0
 10
91.79870331906422
 20
-115.7441839988417
 30
0.0
 10
91.94822046312406
 20
-115.7441839988417
 30
0.0
 10
92.11082897002785
 20
-115.644620739318
 30
0.0
 10
92.11082897002785
 20
-115.4120767940637
 30
0.0
 10
92.11082897002785
 20
-115.1561061995096
 30
0.0
 10
91.91859264195091
 20
-115.086170761159
 30
0.0
 10
91.78974607080256
 20
-115.086170761159
 30
0.0
 10
91.75598413504711
 20
-115.086170761159
 30
0.0
 10
91.60439993369613
 20
-115.086170761159
 30
0.0
 10
91.50931529830324
 20
-115.2153618418559
 30
0.0
 10
91.50931529830324
 20
-115.2153618418559
 30
0.0
 10
91.32172984913137
 20
-115.196413816687
 30
0.0
 10
91.32172984913137
 20
-115.196413816687
 30
0.0
 10
91.32172984913137
 20
-115.196413816687
 30
0.0
 10
91.45074867505399
 20
-114.3499538559611
 30
0.0
 10
91.45074867505399
 20
-114.3499538559611
 30
0.0
 10
91.45074867505399
 20
-114.3499538559611
 30
0.0
 10
92.28273923474183
 20
-114.3499538559611
 30
0.0
 10
92.28273923474183
 20
-114.3499538559611
 30
0.0
 10
92.28273923474183
 20
-114.3499538559611
 30
0.0
 10
92.28273923474183
 20
-114.5446017508777
 30
0.0
 10
92.28273923474183
 20
-114.5446017508777
 30
0.0
 10
92.28273923474183
 20
-114.5446017508777
 30
0.0
 10
91.6247259970591
 20
-114.5446017508777
 30
0.0
 10
91.6247259970591
 20
-114.5446017508777
 30
0.0
 10
91.6247259970591
 20
-114.5446017508777
 30
0.0
 10
91.55479055870853
 20
-114.9676594764664
 30
0.0
 10
91.55479055870853
 20
-114.9676594764664
 30
0.0
 10
91.62024737292828
 20
-114.933897540711
 30
0.0
 10
91.70844181735067
 20
-114.8935899235336
 30
0.0
 10
91.83522133120786
 20
-114.8935899235336
 30
0.0
 10
92.10635034589703
 20
-114.8935899235336
 30
0.0
 10
92.35956486406289
 20
-115.0799695892856
 30
0.0
 10
92.35956486406289
 20
-115.3931287688948
 30
0.0
 10
92.35956486406289
 20
-115.7104220630863
 30
0.0
 10
92.1197862182895
 20
-115.9450330656318
 30
0.0
 10
91.79663626177307
 20
-115.9450330656318
 30
0.0
  0
HATCH
  5
104
330
FD
100
AcDbEntity
  8
_U+30EC_U+30A4_U+30E4_U+30FC 1
 62
   179
420
  2234388
100
AcDbHatch
 10
0.0
 20
0.0
 30
0.0
210
0.0
220
0.0
230
1.0
  2
SOLID
 70
     1
 71
     0
 91
        1
 92
        1
 93
        1
 72
     4
 94
        3
 73
     0
 74
     1
 95
       53
 96
       49
 40
0.0
 40
0.0
 40
0.0
 40
0.0
 40
1.0
 40
1.0
 40
1.0
 40
2.0
 40
2.0
 40
2.0
 40
3.0
 40
3.0
 40
3.0
 40
4.0
 40
4.0
 40
4.0
 40
5.0
 40
5.0
 40
5.0
 40
6.0
 40
6.0
 40
6.0
 40
7.0
 40
7.0
 40
7.0
 40
8.0
 40
8.0
 40
8.0
 40
9.0
 40
9.0
 40
9.0
 40
10.0
 40
10.0
 40
10.0
 40
11.0
 40
11.0
 40
11.0
 40
12.0
 40
12.0
 40
12.0
 40
13.0
 40
13.0
 40
13.0
 40
14.0
 40
14.0
 40
14.0
 40
15.0
 40
15.0
 40
15.0
 40
16.0
 40
16.0
 40
16.0
 40
16.0
 10
91.79663626177307
 20
-115.9450330656318
 10
91.7129204414815
 20
-115.9450330656318
 10
91.60439993369613
 20
-115.9281520977541
 10
91.49587942591076
 20
-115.8647623408255
 10
91.31053328880432
 20
-115.754863794846
 10
91.28779565860167
 20
-115.623605656858
 10
91.2674695952387
 20
-115.5157741681697
 10
91.2674695952387
 20
-115.5157741681697
 10
91.50483667417241
 20
-115.5157741681697
 10
91.50483667417241
 20
-115.5157741681697
 10
91.56374780697018
 20
-115.7145561776686
 10
91.69948456908902
 20
-115.7441839988417
 10
91.79870331906422
 20
-115.7441839988417
 10
91.94822046312406
 20
-115.7441839988417
 10
92.11082897002785
 20
-115.644620739318
 10
92.11082897002785
 20
-115.4120767940637
 10
92.11082897002785
 20
-115.1561061995096
 10
91.91859264195091
 20
-115.086170761159
 10
91.78974607080256
 20
-115.086170761159
 10
91.75598413504711
 20
-115.086170761159
 10
91.60439993369613
 20
-115.086170761159
 10
91.50931529830324
 20
-115.2153618418559
 10
91.50931529830324
 20
-115.2153618418559
 10
91.32172984913137
 20
-115.196413816687
 10
91.32172984913137
 20
-115.196413816687
 10
91.32172984913137
 20
-115.196413816687
 10
91.45074867505399
 20
-114.3499538559611
 10
91.45074867505399
 20
-114.3499538559611
 10
91.45074867505399
 20
-114.3499538559611
 10
92.28273923474183
 20
-114.3499538559611
 10
92.28273923474183
 20
-114.3499538559611
 10
92.28273923474183
 20
-114.3499538559611
 10
92.28273923474183
 20
-114.5446017508777
 10
92.28273923474183
 20
-114.5446017508777
 10
92.28273923474183
 20
-114.5446017508777
 10
91.6247259970591
 20
-114.5446017508777
 10
91.6247259970591
 20
-114.5446017508777
 10
91.6247259970591
 20
-114.5446017508777
 10
91.55479055870853
 20
-114.9676594764664
 10
91.55479055870853
 20
-114.9676594764664
 10
91.62024737292828
 20
-114.933897540711
 10
91.70844181735067
 20
-114.8935899235336
 10
91.83522133120786
 20
-114.8935899235336
 10
92.10635034589703
 20
-114.8935899235336
 10
92.35956486406289
 20
-115.0799695892856
 10
92.35956486406289
 20
-115.3931287688948
 10
92.35956486406289
 20
-115.7104220630863
 10
92.1197862182895
 20
-115.9450330656318
 10
91.79663626177307
 20
-115.9450330656318
 97
        0
 97
        0
 75
     2
 76
     1
 98
        0
  0
ENDBLK
  5
100
330
FD
100
AcDbEntity
  8
0
100
AcDbBlockEnd
  0
BLOCK
  5
107
330
105
100
AcDbEntity
  8
0
100
AcDbBlockBegin
  2
block 3
 70
     0
 10
0.0
 20
0.0
 30
0.0
  3
block 3
  1

  0
SPLINE
  5
109
330
105
100
AcDbEntity
  8
_U+30EC_U+30A4_U+30E4_U+30FC 1
370
     0
100
AcDbSpline
210
0.0
220
0.0
230
1.0
 70
    11
 71
     3
 72
    44
 73
    40
 74
     0
 42
0.0000000001
 43
0.0000000001
 12
1.0
 22
0.0
 32
0.0
 13
1.0
 23
0.0
 33
0.0
 40
0.0
 40
0.0
 40
0.0
 40
0.0
 40
1.0
 40
1.0
 40
1.0
 40
2.0
 40
2.0
 40
2.0
 40
3.0
 40
3.0
 40
3.0
 40
4.0
 40
4.0
 40
4.0
 40
5.0
 40
5.0
 40
5.0
 40
6.0
 40
6.0
 40
6.0
 40
7.0
 40
7.0
 40
7.0
 40
8.0
 40
8.0
 40
8.0
 40
9.0
 40
9.0
 40
9.0
 40
10.0
 40
10.0
 40
10.0
 40
11.0
 40
11.0
 40
11.0
 40
12.0
 40
12.0
 40
12.0
 40
13.0
 40
13.0
 40
13.0
 40
13.0
 10
83.15926511592893
 20
-143.7993190829738
 30
0.0
 10
82.92637666112604
 20
-143.9581379848438
 30
0.0
 10
82.82698565637659
 20
-144.0322075377767
 30
0.0
 10
82.77496471454931
 20
-144.1758680195116
 30
0.0
 10
82.77496471454931
 20
-144.1758680195116
 30
0.0
 10
83.60695527423715
 20
-144.1758680195116
 30
0.0
 10
83.60695527423715
 20
-144.1758680195116
 30
0.0
 10
83.60695527423715
 20
-144.1758680195116
 30
0.0
 10
83.60695527423715
 20
-144.3811957104325
 30
0.0
 10
83.60695527423715
 20
-144.3811957104325
 30
0.0
 10
83.60695527423715
 20
-144.3811957104325
 30
0.0
 10
82.50814206921672
 20
-144.3811957104325
 30
0.0
 10
82.50814206921672
 20
-144.3811957104325
 30
0.0
 10
82.54207625974642
 20
-144.0235947990635
 30
0.0
 10
82.61218395287126
 20
-143.9453911315484
 30
0.0
 10
83.02370060858436
 20
-143.6470458625257
 30
0.0
 10
83.2972411901132
 20
-143.4482638530268
 30
0.0
 10
83.36734888323802
 20
-143.3803954719674
 30
0.0
 10
83.36734888323802
 20
-143.2429361621059
 30
0.0
 10
83.36734888323802
 20
-143.1244248774133
 30
0.0
 10
83.29035099914269
 20
-142.9935112489738
 30
0.0
 10
83.08020017454245
 20
-142.9935112489738
 30
0.0
 10
82.8021809688828
 20
-142.9935112489738
 30
0.0
 10
82.79305146584689
 20
-143.2239881369371
 30
0.0
 10
82.78857284171606
 20
-143.3404323643385
 30
0.0
 10
82.78857284171606
 20
-143.3404323643385
 30
0.0
 10
82.54896645071693
 20
-143.3404323643385
 30
0.0
 10
82.54896645071693
 20
-143.3404323643385
 30
0.0
 10
82.55792369897858
 20
-143.2133083409328
 30
0.0
 10
82.5692925140799
 20
-143.1013427376622
 30
0.0
 10
82.65507539166262
 20
-142.9828314529696
 30
0.0
 10
82.7727254024839
 20
-142.8219454938084
 30
0.0
 10
82.97167966675708
 20
-142.788183558053
 30
0.0
 10
83.0960476137746
 20
-142.788183558053
 30
0.0
 10
83.39215357073182
 20
-142.788183558053
 30
0.0
 10
83.61367321043339
 20
-142.9721516569653
 30
0.0
 10
83.61367321043339
 20
-143.2450032193971
 30
0.0
 10
83.61367321043339
 20
-143.4737575596177
 30
0.0
 10
83.48947751819013
 20
-143.5729763095929
 30
0.0
 10
83.15926511592893
 20
-143.7993190829738
 30
0.0
  0
HATCH
  5
10A
330
105
100
AcDbEntity
  8
_U+30EC_U+30A4_U+30E4_U+30FC 1
 62
   179
420
  2234388
100
AcDbHatch
 10
0.0
 20
0.0
 30
0.0
210
0.0
220
0.0
230
1.0
  2
SOLID
 70
     1
 71
     0
 91
        1
 92
        1
 93
        1
 72
     4
 94
        3
 73
     0
 74
     1
 95
       44
 96
       40
 40
0.0
 40
0.0
 40
0.0
 40
0.0
 40
1.0
 40
1.0
 40
1.0
 40
2.0
 40
2.0
 40
2.0
 40
3.0
 40
3.0
 40
3.0
 40
4.0
 40
4.0
 40
4.0
 40
5.0
 40
5.0
 40
5.0
 40
6.0
 40
6.0
 40
6.0
 40
7.0
 40
7.0
 40
7.0
 40
8.0
 40
8.0
 40
8.0
 40
9.0
 40
9.0
 40
9.0
 40
10.0
 40
10.0
 40
10.0
 40
11.0
 40
11.0
 40
11.0
 40
12.0
 40
12.0
 40
12.0
 40
13.0
 40
13.0
 40
13.0
 40
13.0
 10
83.15926511592893
 20
-143.7993190829738
 10
82.92637666112604
 20
-143.9581379848438
 10
82.82698565637659
 20
-144.0322075377767
 10
82.77496471454931
 20
-144.1758680195116
 10
82.77496471454931
 20
-144.1758680195116
 10
83.60695527423715
 20
-144.1758680195116
 10
83.60695527423715
 20
-144.1758680195116
 10
83.60695527423715
 20
-144.1758680195116
 10
83.60695527423715
 20
-144.3811957104325
 10
83.60695527423715
 20
-144.3811957104325
 10
83.60695527423715
 20
-144.3811957104325
 10
82.50814206921672
 20
-144.3811957104325
 10
82.50814206921672
 20
-144.3811957104325
 10
82.54207625974642
 20
-144.0235947990635
 10
82.61218395287126
 20
-143.9453911315484
 10
83.02370060858436
 20
-143.6470458625257
 10
83.2972411901132
 20
-143.4482638530268
 10
83.36734888323802
 20
-143.3803954719674
 10
83.36734888323802
 20
-143.2429361621059
 10
83.36734888323802
 20
-143.1244248774133
 10
83.29035099914269
 20
-142.9935112489738
 10
83.08020017454245
 20
-142.9935112489738
 10
82.8021809688828
 20
-142.9935112489738
 10
82.79305146584689
 20
-143.2239881369371
 10
82.78857284171606
 20
-143.3404323643385
 10
82.78857284171606
 20
-143.3404323643385
 10
82.54896645071693
 20
-143.3404323643385
 10
82.54896645071693
 20
-143.3404323643385
 10
82.55792369897858
 20
-143.2133083409328
 10
82.5692925140799
 20
-143.1013427376622
 10
82.65507539166262
 20
-142.9828314529696
 10
82.7727254024839
 20
-142.8219454938084
 10
82.97167966675708
 20
-142.788183558053
 10
83.0960476137746
 20
-142.788183558053
 10
83.39215357073182
 20
-142.788183558053
 10
83.61367321043339
 20
-142.9721516569653
 10
83.61367321043339
 20
-143.2450032193971
 10
83.61367321043339
 20
-143.4737575596177
 10
83.48947751819013
 20
-143.5729763095929
 10
83.15926511592893
 20
-143.7993190829738
 97
        0
 97
        0
 75
     2
 76
     1
 98
        0
  0
SPLINE
  5
10B
330
105
100
AcDbEntity
  8
_U+30EC_U+30A4_U+30E4_U+30FC 1
370
     0
100
AcDbSpline
210
0.0
220
0.0
230
1.0
 70
    11
 71
     3
 72
    29
 73
    25
 74
     0
 42
0.0000000001
 43
0.0000000001
 12
1.0
 22
0.0
 32
0.0
 13
1.0
 23
0.0
 33
0.0
 40
0.0
 40
0.0
 40
0.0
 40
0.0
 40
1.0
 40
1.0
 40
1.0
 40
2.0
 40
2.0
 40
2.0
 40
3.0
 40
3.0
 40
3.0
 40
4.0
 40
4.0
 40
4.0
 40
5.0
 40
5.0
 40
5.0
 40
6.0
 40
6.0
 40
6.0
 40
7.0
 40
7.0
 40
7.0
 40
8.0
 40
8.0
 40
8.0
 40
8.0
 10
84.74263100094976
 20
-144.2034287833936
 30
0.0
 10
84.62739255696816
 20
-144.4128905888968
 30
0.0
 10
84.44204641986171
 20
-144.4318386140657
 30
0.0
 10
84.3176784728442
 20
-144.4318386140657
 30
0.0
 10
84.14576820813024
 20
-144.4318386140657
 30
0.0
 10
83.99435626155349
 20
-144.3853298250148
 30
0.0
 10
83.89255368996436
 20
-144.2034287833936
 30
0.0
 10
83.78179387011359
 20
-144.008780888477
 30
0.0
 10
83.7614678067506
 20
-143.7717583190918
 30
0.0
 10
83.7614678067506
 20
-143.609149812188
 30
0.0
 10
83.7614678067506
 20
-143.4651448209046
 30
0.0
 10
83.77955455804818
 20
-143.2133083409328
 30
0.0
 10
83.89255368996436
 20
-143.0145263314339
 30
0.0
 10
84.00796438872024
 20
-142.8116102073527
 30
0.0
 10
84.17970239865994
 20
-142.788183558053
 30
0.0
 10
84.3176784728442
 20
-142.788183558053
 30
0.0
 10
84.48717717071848
 20
-142.788183558053
 30
0.0
 10
84.6410006841349
 20
-142.8326252898127
 30
0.0
 10
84.74263100094976
 20
-143.0145263314339
 30
0.0
 10
84.84891219666972
 20
-143.2071071690593
 30
0.0
 10
84.87371688416351
 20
-143.4355169997314
 30
0.0
 10
84.87371688416351
 20
-143.609149812188
 30
0.0
 10
84.87371688416351
 20
-143.7803710578049
 30
0.0
 10
84.85115150873513
 20
-144.0108479457681
 30
0.0
 10
84.74263100094976
 20
-144.2034287833936
 30
0.0
  0
SPLINE
  5
10C
330
105
100
AcDbEntity
  8
_U+30EC_U+30A4_U+30E4_U+30FC 1
370
     0
100
AcDbSpline
210
0.0
220
0.0
230
1.0
 70
    11
 71
     3
 72
    17
 73
    13
 74
     0
 42
0.0000000001
 43
0.0000000001
 12
1.0
 22
0.0
 32
0.0
 13
1.0
 23
0.0
 33
0.0
 40
0.0
 40
0.0
 40
0.0
 40
0.0
 40
1.0
 40
1.0
 40
1.0
 40
2.0
 40
2.0
 40
2.0
 40
3.0
 40
3.0
 40
3.0
 40
4.0
 40
4.0
 40
4.0
 40
4.0
 10
84.3176784728442
 20
-142.9807643956784
 30
0.0
 10
84.0508558275116
 20
-142.9807643956784
 30
0.0
 10
84.00107419774973
 20
-143.2642957541145
 30
0.0
 10
84.00107419774973
 20
-143.609149812188
 30
0.0
 10
84.00107419774973
 20
-143.9285101636707
 30
0.0
 10
84.03948701241028
 20
-144.2371907191491
 30
0.0
 10
84.3176784728442
 20
-144.2371907191491
 30
0.0
 10
84.58208955133712
 20
-144.2371907191491
 30
0.0
 10
84.6341104931644
 20
-143.9560709275526
 30
0.0
 10
84.6341104931644
 20
-143.609149812188
 30
0.0
 10
84.6341104931644
 20
-143.2894449511568
 30
0.0
 10
84.59345836643844
 20
-142.9807643956784
 30
0.0
 10
84.3176784728442
 20
-142.9807643956784
 30
0.0
  0
HATCH
  5
10D
330
105
100
AcDbEntity
  8
_U+30EC_U+30A4_U+30E4_U+30FC 1
 62
   179
420
  2234388
100
AcDbHatch
 10
0.0
 20
0.0
 30
0.0
210
0.0
220
0.0
230
1.0
  2
SOLID
 70
     1
 71
     0
 91
        2
 92
        1
 93
        1
 72
     4
 94
        3
 73
     0
 74
     1
 95
       29
 96
       25
 40
0.0
 40
0.0
 40
0.0
 40
0.0
 40
1.0
 40
1.0
 40
1.0
 40
2.0
 40
2.0
 40
2.0
 40
3.0
 40
3.0
 40
3.0
 40
4.0
 40
4.0
 40
4.0
 40
5.0
 40
5.0
 40
5.0
 40
6.0
 40
6.0
 40
6.0
 40
7.0
 40
7.0
 40
7.0
 40
8.0
 40
8.0
 40
8.0
 40
8.0
 10
84.74263100094976
 20
-144.2034287833936
 10
84.62739255696816
 20
-144.4128905888968
 10
84.44204641986171
 20
-144.4318386140657
 10
84.3176784728442
 20
-144.4318386140657
 10
84.14576820813024
 20
-144.4318386140657
 10
83.99435626155349
 20
-144.3853298250148
 10
83.89255368996436
 20
-144.2034287833936
 10
83.78179387011359
 20
-144.008780888477
 10
83.7614678067506
 20
-143.7717583190918
 10
83.7614678067506
 20
-143.609149812188
 10
83.7614678067506
 20
-143.4651448209046
 10
83.77955455804818
 20
-143.2133083409328
 10
83.89255368996436
 20
-143.0145263314339
 10
84.00796438872024
 20
-142.8116102073527
 10
84.17970239865994
 20
-142.788183558053
 10
84.3176784728442
 20
-142.788183558053
 10
84.48717717071848
 20
-142.788183558053
 10
84.6410006841349
 20
-142.8326252898127
 10
84.74263100094976
 20
-143.0145263314339
 10
84.84891219666972
 20
-143.2071071690593
 10
84.87371688416351
 20
-143.4355169997314
 10
84.87371688416351
 20
-143.609149812188
 10
84.87371688416351
 20
-143.7803710578049
 10
84.85115150873513
 20
-144.0108479457681
 10
84.74263100094976
 20
-144.2034287833936
 97
        0
 97
        0
 92
        1
 93
        1
 72
     4
 94
        3
 73
     0
 74
     1
 95
       17
 96
       13
 40
0.0
 40
0.0
 40
0.0
 40
0.0
 40
1.0
 40
1.0
 40
1.0
 40
2.0
 40
2.0
 40
2.0
 40
3.0
 40
3.0
 40
3.0
 40
4.0
 40
4.0
 40
4.0
 40
4.0
 10
84.3176784728442
 20
-142.9807643956784
 10
84.0508558275116
 20
-142.9807643956784
 10
84.00107419774973
 20
-143.2642957541145
 10
84.00107419774973
 20
-143.609149812188
 10
84.00107419774973
 20
-143.9285101636707
 10
84.03948701241028
 20
-144.2371907191491
 10
84.3176784728442
 20
-144.2371907191491
 10
84.58208955133712
 20
-144.2371907191491
 10
84.6341104931644
 20
-143.9560709275526
 10
84.6341104931644
 20
-143.609149812188
 10
84.6341104931644
 20
-143.2894449511568
 10
84.59345836643844
 20
-142.9807643956784
 10
84.3176784728442
 20
-142.9807643956784
 97
        0
 97
        0
 75
     2
 76
     1
 98
        0
  0
ENDBLK
  5
108
330
105
100
AcDbEntity
  8
0
100
AcDbBlockEnd
  0
BLOCK
  5
110
330
10E
100
AcDbEntity
  8
0
100
AcDbBlockBegin
  2
block 4
 70
     0
 10
0.0
 20
0.0
 30
0.0
  3
block 4
  1

  0
SPLINE
  5
112
330
10E
100
AcDbEntity
  8
_U+30EC_U+30A4_U+30E4_U+30FC 1
370
     0
100
AcDbSpline
210
0.0
220
0.0
230
1.0
 70
    11
 71
     3
 72
    26
 73
    22
 74
     0
 42
0.0000000001
 43
0.0000000001
 12
1.0
 22
0.0
 32
0.0
 13
1.0
 23
0.0
 33
0.0
 40
0.0
 40
0.0
 40
0.0
 40
0.0
 40
1.0
 40
1.0
 40
1.0
 40
2.0
 40
2.0
 40
2.0
 40
3.0
 40
3.0
 40
3.0
 40
4.0
 40
4.0
 40
4.0
 40
5.0
 40
5.0
 40
5.0
 40
6.0
 40
6.0
 40
6.0
 40
7.0
 40
7.0
 40
7.0
 40
7.0
 10
73.25272079331877
 20
-112.851681829426
 30
0.0
 10
73.25272079331877
 20
-112.851681829426
 30
0.0
 10
73.25272079331877
 20
-111.7475287264034
 30
0.0
 10
73.25272079331877
 20
-111.7475287264034
 30
0.0
 10
73.25272079331877
 20
-111.7475287264034
 30
0.0
 10
72.89994301562919
 20
-111.7475287264034
 30
0.0
 10
72.89994301562919
 20
-111.7475287264034
 30
0.0
 10
72.89994301562919
 20
-111.7475287264034
 30
0.0
 10
72.89994301562919
 20
-111.5993896205377
 30
0.0
 10
72.89994301562919
 20
-111.5993896205377
 30
0.0
 10
73.25496010538419
 20
-111.5845757099511
 30
0.0
 10
73.30474173514604
 20
-111.4216226934988
 30
0.0
 10
73.33643661361035
 20
-111.3072455233885
 30
0.0
 10
73.33643661361035
 20
-111.3072455233885
 30
0.0
 10
73.49232718431789
 20
-111.3072455233885
 30
0.0
 10
73.49232718431789
 20
-111.3072455233885
 30
0.0
 10
73.49232718431789
 20
-111.3072455233885
 30
0.0
 10
73.49232718431789
 20
-112.851681829426
 30
0.0
 10
73.49232718431789
 20
-112.851681829426
 30
0.0
 10
73.49232718431789
 20
-112.851681829426
 30
0.0
 10
73.25272079331877
 20
-112.851681829426
 30
0.0
 10
73.25272079331877
 20
-112.851681829426
 30
0.0
  0
HATCH
  5
113
330
10E
100
AcDbEntity
  8
_U+30EC_U+30A4_U+30E4_U+30FC 1
 62
   179
420
  2234388
100
AcDbHatch
 10
0.0
 20
0.0
 30
0.0
210
0.0
220
0.0
230
1.0
  2
SOLID
 70
     1
 71
     0
 91
        1
 92
        1
 93
        1
 72
     4
 94
        3
 73
     0
 74
     1
 95
       26
 96
       22
 40
0.0
 40
0.0
 40
0.0
 40
0.0
 40
1.0
 40
1.0
 40
1.0
 40
2.0
 40
2.0
 40
2.0
 40
3.0
 40
3.0
 40
3.0
 40
4.0
 40
4.0
 40
4.0
 40
5.0
 40
5.0
 40
5.0
 40
6.0
 40
6.0
 40
6.0
 40
7.0
 40
7.0
 40
7.0
 40
7.0
 10
73.25272079331877
 20
-112.851681829426
 10
73.25272079331877
 20
-112.851681829426
 10
73.25272079331877
 20
-111.7475287264034
 10
73.25272079331877
 20
-111.7475287264034
 10
73.25272079331877
 20
-111.7475287264034
 10
72.89994301562919
 20
-111.7475287264034
 10
72.89994301562919
 20
-111.7475287264034
 10
72.89994301562919
 20
-111.7475287264034
 10
72.89994301562919
 20
-111.5993896205377
 10
72.89994301562919
 20
-111.5993896205377
 10
73.25496010538419
 20
-111.5845757099511
 10
73.30474173514604
 20
-111.4216226934988
 10
73.33643661361035
 20
-111.3072455233885
 10
73.33643661361035
 20
-111.3072455233885
 10
73.49232718431789
 20
-111.3072455233885
 10
73.49232718431789
 20
-111.3072455233885
 10
73.49232718431789
 20
-111.3072455233885
 10
73.49232718431789
 20
-112.851681829426
 10
73.49232718431789
 20
-112.851681829426
 10
73.49232718431789
 20
-112.851681829426
 10
73.25272079331877
 20
-112.851681829426
 10
73.25272079331877
 20
-112.851681829426
 97
        0
 97
        0
 75
     2
 76
     1
 98
        0
  0
POLYLINE
  5
114
330
10E
100
AcDbEntity
  8
_U+30EC_U+30A4_U+30E4_U+30FC 1
370
     0
100
AcDb2dPolyline
 66
     1
 10
0.0
 20
0.0
 30
0.0
  0
VERTEX
  5
115
330
114
100
AcDbEntity
  8
_U+30EC_U+30A4_U+30E4_U+30FC 1
370
     0
100
AcDbVertex
100
AcDb2dVertex
 10
74.09229056307416
 20
-112.851681829426
 30
0.0
  0
VERTEX
  5
116
330
114
100
AcDbEntity
  8
_U+30EC_U+30A4_U+30E4_U+30FC 1
370
     0
100
AcDbVertex
100
AcDb2dVertex
 10
74.09229056307416
 20
-112.5998453494542
 30
0.0
  0
VERTEX
  5
117
330
114
100
AcDbEntity
  8
_U+30EC_U+30A4_U+30E4_U+30FC 1
370
     0
100
AcDbVertex
100
AcDb2dVertex
 10
74.36135252047217
 20
-112.5998453494542
 30
0.0
  0
VERTEX
  5
118
330
114
100
AcDbEntity
  8
_U+30EC_U+30A4_U+30E4_U+30FC 1
370
     0
100
AcDbVertex
100
AcDb2dVertex
 10
74.36135252047217
 20
-112.851681829426
 30
0.0
  0
VERTEX
  5
119
330
114
100
AcDbEntity
  8
_U+30EC_U+30A4_U+30E4_U+30FC 1
370
     0
100
AcDbVertex
100
AcDb2dVertex
 10
74.09229056307416
 20
-112.851681829426
 30
0.0
  0
SEQEND
  5
11A
330
114
100
AcDbEntity
  8
_U+30EC_U+30A4_U+30E4_U+30FC 1
370
     0
  0
HATCH
  5
11B
330
10E
100
AcDbEntity
  8
_U+30EC_U+30A4_U+30E4_U+30FC 1
 62
   179
420
  2234388
100
AcDbHatch
 10
0.0
 20
0.0
 30
0.0
210
0.0
220
0.0
230
1.0
  2
SOLID
 70
     1
 71
     0
 91
        1
 92
        1
 93
        4
 72
     1
 10
74.09229056307416
 20
-112.851681829426
 11
74.09229056307416
 21
-112.5998453494542
 72
     1
 10
74.09229056307416
 20
-112.5998453494542
 11
74.36135252047217
 21
-112.5998453494542
 72
     1
 10
74.36135252047217
 20
-112.5998453494542
 11
74.36135252047217
 21
-112.851681829426
 72
     1
 10
74.36135252047217
 20
-112.851681829426
 11
74.09229056307416
 21
-112.851681829426
 97
        0
 75
     2
 76
     1
 98
        0
  0
SPLINE
  5
11C
330
10E
100
AcDbEntity
  8
_U+30EC_U+30A4_U+30E4_U+30FC 1
370
     0
100
AcDbSpline
210
0.0
220
0.0
230
1.0
 70
    11
 71
     3
 72
    53
 73
    49
 74
     0
 42
0.0000000001
 43
0.0000000001
 12
1.0
 22
0.0
 32
0.0
 13
1.0
 23
0.0
 33
0.0
 40
0.0
 40
0.0
 40
0.0
 40
0.0
 40
1.0
 40
1.0
 40
1.0
 40
2.0
 40
2.0
 40
2.0
 40
3.0
 40
3.0
 40
3.0
 40
4.0
 40
4.0
 40
4.0
 40
5.0
 40
5.0
 40
5.0
 40
6.0
 40
6.0
 40
6.0
 40
7.0
 40
7.0
 40
7.0
 40
8.0
 40
8.0
 40
8.0
 40
9.0
 40
9.0
 40
9.0
 40
10.0
 40
10.0
 40
10.0
 40
11.0
 40
11.0
 40
11.0
 40
12.0
 40
12.0
 40
12.0
 40
13.0
 40
13.0
 40
13.0
 40
14.0
 40
14.0
 40
14.0
 40
15.0
 40
15.0
 40
15.0
 40
16.0
 40
16.0
 40
16.0
 40
16.0
 10
75.12823077548877
 20
-112.9023247330591
 30
0.0
 10
75.04451495519722
 20
-112.9023247330591
 30
0.0
 10
74.93599444741184
 20
-112.8854437651814
 30
0.0
 10
74.82747393962647
 20
-112.8220540082528
 30
0.0
 10
74.64212780252002
 20
-112.7121554622734
 30
0.0
 10
74.61939017231738
 20
-112.5808973242853
 30
0.0
 10
74.59906410895441
 20
-112.473065835597
 30
0.0
 10
74.59906410895441
 20
-112.473065835597
 30
0.0
 10
74.83643118788812
 20
-112.473065835597
 30
0.0
 10
74.83643118788812
 20
-112.473065835597
 30
0.0
 10
74.89534232068588
 20
-112.6718478450959
 30
0.0
 10
75.03090682803047
 20
-112.7014756662691
 30
0.0
 10
75.13047008755419
 20
-112.7014756662691
 30
0.0
 10
75.2796427220655
 20
-112.7014756662691
 30
0.0
 10
75.44242348374357
 20
-112.6019124067454
 30
0.0
 10
75.44242348374357
 20
-112.369368461491
 30
0.0
 10
75.44242348374357
 20
-112.1133978669369
 30
0.0
 10
75.25018715566662
 20
-112.0434624285864
 30
0.0
 10
75.12134058451828
 20
-112.0434624285864
 30
0.0
 10
75.08740639398857
 20
-112.0434624285864
 30
0.0
 10
74.93599444741184
 20
-112.0434624285864
 30
0.0
 10
74.8410820667932
 20
-112.1726535092832
 30
0.0
 10
74.8410820667932
 20
-112.1726535092832
 30
0.0
 10
74.65332436284709
 20
-112.1537054841144
 30
0.0
 10
74.65332436284709
 20
-112.1537054841144
 30
0.0
 10
74.65332436284709
 20
-112.1537054841144
 30
0.0
 10
74.7823431887697
 20
-111.3072455233885
 30
0.0
 10
74.7823431887697
 20
-111.3072455233885
 30
0.0
 10
74.7823431887697
 20
-111.3072455233885
 30
0.0
 10
75.61433374845753
 20
-111.3072455233885
 30
0.0
 10
75.61433374845753
 20
-111.3072455233885
 30
0.0
 10
75.61433374845753
 20
-111.3072455233885
 30
0.0
 10
75.61433374845753
 20
-111.5018934183051
 30
0.0
 10
75.61433374845753
 20
-111.5018934183051
 30
0.0
 10
75.61433374845753
 20
-111.5018934183051
 30
0.0
 10
74.95632051077482
 20
-111.5018934183051
 30
0.0
 10
74.95632051077482
 20
-111.5018934183051
 30
0.0
 10
74.95632051077482
 20
-111.5018934183051
 30
0.0
 10
74.88621281764998
 20
-111.9249511438938
 30
0.0
 10
74.88621281764998
 20
-111.9249511438938
 30
0.0
 10
74.95184188664399
 20
-111.8911892081383
 30
0.0
 10
75.04003633106639
 20
-111.8508815909609
 30
0.0
 10
75.16664359014932
 20
-111.8508815909609
 30
0.0
 10
75.43794485961274
 20
-111.8508815909609
 30
0.0
 10
75.6911593777786
 20
-112.0372612567129
 30
0.0
 10
75.6911593777786
 20
-112.3504204363221
 30
0.0
 10
75.6911593777786
 20
-112.6677137305136
 30
0.0
 10
75.45138073200522
 20
-112.9023247330591
 30
0.0
 10
75.12823077548877
 20
-112.9023247330591
 30
0.0
  0
HATCH
  5
11D
330
10E
100
AcDbEntity
  8
_U+30EC_U+30A4_U+30E4_U+30FC 1
 62
   179
420
  2234388
100
AcDbHatch
 10
0.0
 20
0.0
 30
0.0
210
0.0
220
0.0
230
1.0
  2
SOLID
 70
     1
 71
     0
 91
        1
 92
        1
 93
        1
 72
     4
 94
        3
 73
     0
 74
     1
 95
       53
 96
       49
 40
0.0
 40
0.0
 40
0.0
 40
0.0
 40
1.0
 40
1.0
 40
1.0
 40
2.0
 40
2.0
 40
2.0
 40
3.0
 40
3.0
 40
3.0
 40
4.0
 40
4.0
 40
4.0
 40
5.0
 40
5.0
 40
5.0
 40
6.0
 40
6.0
 40
6.0
 40
7.0
 40
7.0
 40
7.0
 40
8.0
 40
8.0
 40
8.0
 40
9.0
 40
9.0
 40
9.0
 40
10.0
 40
10.0
 40
10.0
 40
11.0
 40
11.0
 40
11.0
 40
12.0
 40
12.0
 40
12.0
 40
13.0
 40
13.0
 40
13.0
 40
14.0
 40
14.0
 40
14.0
 40
15.0
 40
15.0
 40
15.0
 40
16.0
 40
16.0
 40
16.0
 40
16.0
 10
75.12823077548877
 20
-112.9023247330591
 10
75.04451495519722
 20
-112.9023247330591
 10
74.93599444741184
 20
-112.8854437651814
 10
74.82747393962647
 20
-112.8220540082528
 10
74.64212780252002
 20
-112.7121554622734
 10
74.61939017231738
 20
-112.5808973242853
 10
74.59906410895441
 20
-112.473065835597
 10
74.59906410895441
 20
-112.473065835597
 10
74.83643118788812
 20
-112.473065835597
 10
74.83643118788812
 20
-112.473065835597
 10
74.89534232068588
 20
-112.6718478450959
 10
75.03090682803047
 20
-112.7014756662691
 10
75.13047008755419
 20
-112.7014756662691
 10
75.2796427220655
 20
-112.7014756662691
 10
75.44242348374357
 20
-112.6019124067454
 10
75.44242348374357
 20
-112.369368461491
 10
75.44242348374357
 20
-112.1133978669369
 10
75.25018715566662
 20
-112.0434624285864
 10
75.12134058451828
 20
-112.0434624285864
 10
75.08740639398857
 20
-112.0434624285864
 10
74.93599444741184
 20
-112.0434624285864
 10
74.8410820667932
 20
-112.1726535092832
 10
74.8410820667932
 20
-112.1726535092832
 10
74.65332436284709
 20
-112.1537054841144
 10
74.65332436284709
 20
-112.1537054841144
 10
74.65332436284709
 20
-112.1537054841144
 10
74.7823431887697
 20
-111.3072455233885
 10
74.7823431887697
 20
-111.3072455233885
 10
74.7823431887697
 20
-111.3072455233885
 10
75.61433374845753
 20
-111.3072455233885
 10
75.61433374845753
 20
-111.3072455233885
 10
75.61433374845753
 20
-111.3072455233885
 10
75.61433374845753
 20
-111.5018934183051
 10
75.61433374845753
 20
-111.5018934183051
 10
75.61433374845753
 20
-111.5018934183051
 10
74.95632051077482
 20
-111.5018934183051
 10
74.95632051077482
 20
-111.5018934183051
 10
74.95632051077482
 20
-111.5018934183051
 10
74.88621281764998
 20
-111.9249511438938
 10
74.88621281764998
 20
-111.9249511438938
 10
74.95184188664399
 20
-111.8911892081383
 10
75.04003633106639
 20
-111.8508815909609
 10
75.16664359014932
 20
-111.8508815909609
 10
75.43794485961274
 20
-111.8508815909609
 10
75.6911593777786
 20
-112.0372612567129
 10
75.6911593777786
 20
-112.3504204363221
 10
75.6911593777786
 20
-112.6677137305136
 10
75.45138073200522
 20
-112.9023247330591
 10
75.12823077548877
 20
-112.9023247330591
 97
        0
 97
        0
 75
     2
 76
     1
 98
        0
  0
ENDBLK
  5
111
330
10E
100
AcDbEntity
  8
0
100
AcDbBlockEnd
  0
BLOCK
  5
120
330
11E
100
AcDbEntity
  8
0
100
AcDbBlockBegin
  2
block 5
 70
     0
 10
0.0
 20
0.0
 30
0.0
  3
block 5
  1

  0
SPLINE
  5
122
330
11E
100
AcDbEntity
  8
_U+30EC_U+30A4_U+30E4_U+30FC 1
370
     0
100
AcDbSpline
210
0.0
220
0.0
230
1.0
 70
    11
 71
     3
 72
    26
 73
    22
 74
     0
 42
0.0000000001
 43
0.0000000001
 12
1.0
 22
0.0
 32
0.0
 13
1.0
 23
0.0
 33
0.0
 40
0.0
 40
0.0
 40
0.0
 40
0.0
 40
1.0
 40
1.0
 40
1.0
 40
2.0
 40
2.0
 40
2.0
 40
3.0
 40
3.0
 40
3.0
 40
4.0
 40
4.0
 40
4.0
 40
5.0
 40
5.0
 40
5.0
 40
6.0
 40
6.0
 40
6.0
 40
7.0
 40
7.0
 40
7.0
 40
7.0
 10
115.0468966726272
 20
-145.1460069081579
 30
0.0
 10
115.0468966726272
 20
-145.1460069081579
 30
0.0
 10
113.9427435696046
 20
-145.1460069081579
 30
0.0
 10
113.9427435696046
 20
-145.1460069081579
 30
0.0
 10
113.9427435696046
 20
-145.1460069081579
 30
0.0
 10
113.9427435696046
 20
-145.498440176299
 30
0.0
 10
113.9427435696046
 20
-145.498440176299
 30
0.0
 10
113.9427435696046
 20
-145.498440176299
 30
0.0
 10
113.7946044637388
 20
-145.498440176299
 30
0.0
 10
113.7946044637388
 20
-145.498440176299
 30
0.0
 10
113.7797905531523
 20
-145.1435953413183
 30
0.0
 10
113.6168375367
 20
-145.0939859663307
 30
0.0
 10
113.5024603665897
 20
-145.0622910878664
 30
0.0
 10
113.5024603665897
 20
-145.0622910878664
 30
0.0
 10
113.5024603665897
 20
-144.9062282623846
 30
0.0
 10
113.5024603665897
 20
-144.9062282623846
 30
0.0
 10
113.5024603665897
 20
-144.9062282623846
 30
0.0
 10
115.0468966726272
 20
-144.9062282623846
 30
0.0
 10
115.0468966726272
 20
-144.9062282623846
 30
0.0
 10
115.0468966726272
 20
-144.9062282623846
 30
0.0
 10
115.0468966726272
 20
-145.1460069081579
 30
0.0
 10
115.0468966726272
 20
-145.1460069081579
 30
0.0
  0
HATCH
  5
123
330
11E
100
AcDbEntity
  8
_U+30EC_U+30A4_U+30E4_U+30FC 1
 62
   179
420
  2234388
100
AcDbHatch
 10
0.0
 20
0.0
 30
0.0
210
0.0
220
0.0
230
1.0
  2
SOLID
 70
     1
 71
     0
 91
        1
 92
        1
 93
        1
 72
     4
 94
        3
 73
     0
 74
     1
 95
       26
 96
       22
 40
0.0
 40
0.0
 40
0.0
 40
0.0
 40
1.0
 40
1.0
 40
1.0
 40
2.0
 40
2.0
 40
2.0
 40
3.0
 40
3.0
 40
3.0
 40
4.0
 40
4.0
 40
4.0
 40
5.0
 40
5.0
 40
5.0
 40
6.0
 40
6.0
 40
6.0
 40
7.0
 40
7.0
 40
7.0
 40
7.0
 10
115.0468966726272
 20
-145.1460069081579
 10
115.0468966726272
 20
-145.1460069081579
 10
113.9427435696046
 20
-145.1460069081579
 10
113.9427435696046
 20
-145.1460069081579
 10
113.9427435696046
 20
-145.1460069081579
 10
113.9427435696046
 20
-145.498440176299
 10
113.9427435696046
 20
-145.498440176299
 10
113.9427435696046
 20
-145.498440176299
 10
113.7946044637388
 20
-145.498440176299
 10
113.7946044637388
 20
-145.498440176299
 10
113.7797905531523
 20
-145.1435953413183
 10
113.6168375367
 20
-145.0939859663307
 10
113.5024603665897
 20
-145.0622910878664
 10
113.5024603665897
 20
-145.0622910878664
 10
113.5024603665897
 20
-144.9062282623846
 10
113.5024603665897
 20
-144.9062282623846
 10
113.5024603665897
 20
-144.9062282623846
 10
115.0468966726272
 20
-144.9062282623846
 10
115.0468966726272
 20
-144.9062282623846
 10
115.0468966726272
 20
-144.9062282623846
 10
115.0468966726272
 20
-145.1460069081579
 10
115.0468966726272
 20
-145.1460069081579
 97
        0
 97
        0
 75
     2
 76
     1
 98
        0
  0
POLYLINE
  5
124
330
11E
100
AcDbEntity
  8
_U+30EC_U+30A4_U+30E4_U+30FC 1
370
     0
100
AcDb2dPolyline
 66
     1
 10
0.0
 20
0.0
 30
0.0
  0
VERTEX
  5
125
330
124
100
AcDbEntity
  8
_U+30EC_U+30A4_U+30E4_U+30FC 1
370
     0
100
AcDbVertex
100
AcDb2dVertex
 10
115.0468966726272
 20
-144.3064371384026
 30
0.0
  0
VERTEX
  5
126
330
124
100
AcDbEntity
  8
_U+30EC_U+30A4_U+30E4_U+30FC 1
370
     0
100
AcDbVertex
100
AcDb2dVertex
 10
114.7950601926554
 20
-144.3064371384026
 30
0.0
  0
VERTEX
  5
127
330
124
100
AcDbEntity
  8
_U+30EC_U+30A4_U+30E4_U+30FC 1
370
     0
100
AcDbVertex
100
AcDb2dVertex
 10
114.7950601926554
 20
-144.0373751810046
 30
0.0
  0
VERTEX
  5
128
330
124
100
AcDbEntity
  8
_U+30EC_U+30A4_U+30E4_U+30FC 1
370
     0
100
AcDbVertex
100
AcDb2dVertex
 10
115.0468966726272
 20
-144.0373751810046
 30
0.0
  0
VERTEX
  5
129
330
124
100
AcDbEntity
  8
_U+30EC_U+30A4_U+30E4_U+30FC 1
370
     0
100
AcDbVertex
100
AcDb2dVertex
 10
115.0468966726272
 20
-144.3064371384026
 30
0.0
  0
SEQEND
  5
12A
330
124
100
AcDbEntity
  8
_U+30EC_U+30A4_U+30E4_U+30FC 1
370
     0
  0
HATCH
  5
12B
330
11E
100
AcDbEntity
  8
_U+30EC_U+30A4_U+30E4_U+30FC 1
 62
   179
420
  2234388
100
AcDbHatch
 10
0.0
 20
0.0
 30
0.0
210
0.0
220
0.0
230
1.0
  2
SOLID
 70
     1
 71
     0
 91
        1
 92
        1
 93
        4
 72
     1
 10
115.0468966726272
 20
-144.3064371384026
 11
114.7950601926554
 21
-144.3064371384026
 72
     1
 10
114.7950601926554
 20
-144.3064371384026
 11
114.7950601926554
 21
-144.0373751810046
 72
     1
 10
114.7950601926554
 20
-144.0373751810046
 11
115.0468966726272
 21
-144.0373751810046
 72
     1
 10
115.0468966726272
 20
-144.0373751810046
 11
115.0468966726272
 21
-144.3064371384026
 97
        0
 75
     2
 76
     1
 98
        0
  0
SPLINE
  5
12C
330
11E
100
AcDbEntity
  8
_U+30EC_U+30A4_U+30E4_U+30FC 1
370
     0
100
AcDbSpline
210
0.0
220
0.0
230
1.0
 70
    11
 71
     3
 72
    53
 73
    49
 74
     0
 42
0.0000000001
 43
0.0000000001
 12
1.0
 22
0.0
 32
0.0
 13
1.0
 23
0.0
 33
0.0
 40
0.0
 40
0.0
 40
0.0
 40
0.0
 40
1.0
 40
1.0
 40
1.0
 40
2.0
 40
2.0
 40
2.0
 40
3.0
 40
3.0
 40
3.0
 40
4.0
 40
4.0
 40
4.0
 40
5.0
 40
5.0
 40
5.0
 40
6.0
 40
6.0
 40
6.0
 40
7.0
 40
7.0
 40
7.0
 40
8.0
 40
8.0
 40
8.0
 40
9.0
 40
9.0
 40
9.0
 40
10.0
 40
10.0
 40
10.0
 40
11.0
 40
11.0
 40
11.0
 40
12.0
 40
12.0
 40
12.0
 40
13.0
 40
13.0
 40
13.0
 40
14.0
 40
14.0
 40
14.0
 40
15.0
 40
15.0
 40
15.0
 40
16.0
 40
16.0
 40
16.0
 40
16.0
 10
115.0975395762603
 20
-143.2704969259879
 30
0.0
 10
115.0975395762603
 20
-143.353868236731
 30
0.0
 10
115.0806586083826
 20
-143.4627332540649
 30
0.0
 10
115.017268851454
 20
-143.5709092523017
 30
0.0
 10
114.9073703054746
 20
-143.7565998989567
 30
0.0
 10
114.7761121674865
 20
-143.7789930196108
 30
0.0
 10
114.6682806787982
 20
-143.7993190829738
 30
0.0
 10
114.6682806787982
 20
-143.7993190829738
 30
0.0
 10
114.6682806787982
 20
-143.5619520040401
 30
0.0
 10
114.6682806787982
 20
-143.5619520040401
 30
0.0
 10
114.8670626882971
 20
-143.5033853807908
 30
0.0
 10
114.8966905094703
 20
-143.367648618672
 30
0.0
 10
114.8966905094703
 20
-143.2680853591483
 30
0.0
 10
114.8966905094703
 20
-143.1189127246369
 30
0.0
 10
114.7971272499466
 20
-142.9563042177332
 30
0.0
 10
114.5645833046922
 20
-142.9563042177332
 30
0.0
 10
114.3086127101381
 20
-142.9563042177332
 30
0.0
 10
114.2386772717876
 20
-143.1481960362616
 30
0.0
 10
114.2386772717876
 20
-143.2770426074099
 30
0.0
 10
114.2386772717876
 20
-143.3111490527139
 30
0.0
 10
114.2386772717876
 20
-143.4627332540649
 30
0.0
 10
114.3678683524844
 20
-143.5574733799093
 30
0.0
 10
114.3678683524844
 20
-143.5574733799093
 30
0.0
 10
114.3489203273156
 20
-143.7452310838554
 30
0.0
 10
114.3489203273156
 20
-143.7452310838554
 30
0.0
 10
114.3489203273156
 20
-143.7452310838554
 30
0.0
 10
113.5024603665897
 20
-143.616384512707
 30
0.0
 10
113.5024603665897
 20
-143.616384512707
 30
0.0
 10
113.5024603665897
 20
-143.616384512707
 30
0.0
 10
113.5024603665897
 20
-142.7843939530192
 30
0.0
 10
113.5024603665897
 20
-142.7843939530192
 30
0.0
 10
113.5024603665897
 20
-142.7843939530192
 30
0.0
 10
113.6971082615063
 20
-142.7843939530192
 30
0.0
 10
113.6971082615063
 20
-142.7843939530192
 30
0.0
 10
113.6971082615063
 20
-142.7843939530192
 30
0.0
 10
113.6971082615063
 20
-143.4420626811534
 30
0.0
 10
113.6971082615063
 20
-143.4420626811534
 30
0.0
 10
113.6971082615063
 20
-143.4420626811534
 30
0.0
 10
114.120165987095
 20
-143.5123426290525
 30
0.0
 10
114.120165987095
 20
-143.5123426290525
 30
0.0
 10
114.0864040513395
 20
-143.4468858148327
 30
0.0
 10
114.0460964341621
 20
-143.3586913704103
 30
0.0
 10
114.0460964341621
 20
-143.2319118565531
 30
0.0
 10
114.0460964341621
 20
-142.960782841864
 30
0.0
 10
114.2324760999141
 20
-142.7075683236981
 30
0.0
 10
114.5456352795233
 20
-142.7075683236981
 30
0.0
 10
114.8629285737148
 20
-142.7075683236981
 30
0.0
 10
115.0975395762603
 20
-142.947002459923
 30
0.0
 10
115.0975395762603
 20
-143.2704969259879
 30
0.0
  0
HATCH
  5
12D
330
11E
100
AcDbEntity
  8
_U+30EC_U+30A4_U+30E4_U+30FC 1
 62
   179
420
  2234388
100
AcDbHatch
 10
0.0
 20
0.0
 30
0.0
210
0.0
220
0.0
230
1.0
  2
SOLID
 70
     1
 71
     0
 91
        1
 92
        1
 93
        1
 72
     4
 94
        3
 73
     0
 74
     1
 95
       53
 96
       49
 40
0.0
 40
0.0
 40
0.0
 40
0.0
 40
1.0
 40
1.0
 40
1.0
 40
2.0
 40
2.0
 40
2.0
 40
3.0
 40
3.0
 40
3.0
 40
4.0
 40
4.0
 40
4.0
 40
5.0
 40
5.0
 40
5.0
 40
6.0
 40
6.0
 40
6.0
 40
7.0
 40
7.0
 40
7.0
 40
8.0
 40
8.0
 40
8.0
 40
9.0
 40
9.0
 40
9.0
 40
10.0
 40
10.0
 40
10.0
 40
11.0
 40
11.0
 40
11.0
 40
12.0
 40
12.0
 40
12.0
 40
13.0
 40
13.0
 40
13.0
 40
14.0
 40
14.0
 40
14.0
 40
15.0
 40
15.0
 40
15.0
 40
16.0
 40
16.0
 40
16.0
 40
16.0
 10
115.0975395762603
 20
-143.2704969259879
 10
115.0975395762603
 20
-143.353868236731
 10
115.0806586083826
 20
-143.4627332540649
 10
115.017268851454
 20
-143.5709092523017
 10
114.9073703054746
 20
-143.7565998989567
 10
114.7761121674865
 20
-143.7789930196108
 10
114.6682806787982
 20
-143.7993190829738
 10
114.6682806787982
 20
-143.7993190829738
 10
114.6682806787982
 20
-143.5619520040401
 10
114.6682806787982
 20
-143.5619520040401
 10
114.8670626882971
 20
-143.5033853807908
 10
114.8966905094703
 20
-143.367648618672
 10
114.8966905094703
 20
-143.2680853591483
 10
114.8966905094703
 20
-143.1189127246369
 10
114.7971272499466
 20
-142.9563042177332
 10
114.5645833046922
 20
-142.9563042177332
 10
114.3086127101381
 20
-142.9563042177332
 10
114.2386772717876
 20
-143.1481960362616
 10
114.2386772717876
 20
-143.2770426074099
 10
114.2386772717876
 20
-143.3111490527139
 10
114.2386772717876
 20
-143.4627332540649
 10
114.3678683524844
 20
-143.5574733799093
 10
114.3678683524844
 20
-143.5574733799093
 10
114.3489203273156
 20
-143.7452310838554
 10
114.3489203273156
 20
-143.7452310838554
 10
114.3489203273156
 20
-143.7452310838554
 10
113.5024603665897
 20
-143.616384512707
 10
113.5024603665897
 20
-143.616384512707
 10
113.5024603665897
 20
-143.616384512707
 10
113.5024603665897
 20
-142.7843939530192
 10
113.5024603665897
 20
-142.7843939530192
 10
113.5024603665897
 20
-142.7843939530192
 10
113.6971082615063
 20
-142.7843939530192
 10
113.6971082615063
 20
-142.7843939530192
 10
113.6971082615063
 20
-142.7843939530192
 10
113.6971082615063
 20
-143.4420626811534
 10
113.6971082615063
 20
-143.4420626811534
 10
113.6971082615063
 20
-143.4420626811534
 10
114.120165987095
 20
-143.5123426290525
 10
114.120165987095
 20
-143.5123426290525
 10
114.0864040513395
 20
-143.4468858148327
 10
114.0460964341621
 20
-143.3586913704103
 10
114.0460964341621
 20
-143.2319118565531
 10
114.0460964341621
 20
-142.960782841864
 10
114.2324760999141
 20
-142.7075683236981
 10
114.5456352795233
 20
-142.7075683236981
 10
114.8629285737148
 20
-142.7075683236981
 10
115.0975395762603
 20
-142.947002459923
 10
115.0975395762603
 20
-143.2704969259879
 97
        0
 97
        0
 75
     2
 76
     1
 98
        0
  0
ENDBLK
  5
121
330
11E
100
AcDbEntity
  8
0
100
AcDbBlockEnd
  0
BLOCK
  5
130
330
12E
100
AcDbEntity
  8
0
100
AcDbBlockBegin
  2
block 6
 70
     0
 10
0.0
 20
0.0
 30
0.0
  3
block 6
  1

  0
SPLINE
  5
132
330
12E
100
AcDbEntity
  8
_U+30EC_U+30A4_U+30E4_U+30FC 1
370
     0
100
AcDbSpline
210
0.0
220
0.0
230
1.0
 70
    11
 71
     3
 72
    26
 73
    22
 74
     0
 42
0.0000000001
 43
0.0000000001
 12
1.0
 22
0.0
 32
0.0
 13
1.0
 23
0.0
 33
0.0
 40
0.0
 40
0.0
 40
0.0
 40
0.0
 40
1.0
 40
1.0
 40
1.0
 40
2.0
 40
2.0
 40
2.0
 40
3.0
 40
3.0
 40
3.0
 40
4.0
 40
4.0
 40
4.0
 40
5.0
 40
5.0
 40
5.0
 40
6.0
 40
6.0
 40
6.0
 40
7.0
 40
7.0
 40
7.0
 40
7.0
 10
115.0468966726272
 20
-135.6210069105392
 30
0.0
 10
115.0468966726272
 20
-135.6210069105392
 30
0.0
 10
113.9427435696046
 20
-135.6210069105392
 30
0.0
 10
113.9427435696046
 20
-135.6210069105392
 30
0.0
 10
113.9427435696046
 20
-135.6210069105392
 30
0.0
 10
113.9427435696046
 20
-135.9734401786802
 30
0.0
 10
113.9427435696046
 20
-135.9734401786802
 30
0.0
 10
113.9427435696046
 20
-135.9734401786802
 30
0.0
 10
113.7946044637388
 20
-135.9734401786802
 30
0.0
 10
113.7946044637388
 20
-135.9734401786802
 30
0.0
 10
113.7797905531523
 20
-135.6185953436995
 30
0.0
 10
113.6168375367
 20
-135.5689859687119
 30
0.0
 10
113.5024603665897
 20
-135.5372910902476
 30
0.0
 10
113.5024603665897
 20
-135.5372910902476
 30
0.0
 10
113.5024603665897
 20
-135.3812282647658
 30
0.0
 10
113.5024603665897
 20
-135.3812282647658
 30
0.0
 10
113.5024603665897
 20
-135.3812282647658
 30
0.0
 10
115.0468966726272
 20
-135.3812282647658
 30
0.0
 10
115.0468966726272
 20
-135.3812282647658
 30
0.0
 10
115.0468966726272
 20
-135.3812282647658
 30
0.0
 10
115.0468966726272
 20
-135.6210069105392
 30
0.0
 10
115.0468966726272
 20
-135.6210069105392
 30
0.0
  0
HATCH
  5
133
330
12E
100
AcDbEntity
  8
_U+30EC_U+30A4_U+30E4_U+30FC 1
 62
   179
420
  2234388
100
AcDbHatch
 10
0.0
 20
0.0
 30
0.0
210
0.0
220
0.0
230
1.0
  2
SOLID
 70
     1
 71
     0
 91
        1
 92
        1
 93
        1
 72
     4
 94
        3
 73
     0
 74
     1
 95
       26
 96
       22
 40
0.0
 40
0.0
 40
0.0
 40
0.0
 40
1.0
 40
1.0
 40
1.0
 40
2.0
 40
2.0
 40
2.0
 40
3.0
 40
3.0
 40
3.0
 40
4.0
 40
4.0
 40
4.0
 40
5.0
 40
5.0
 40
5.0
 40
6.0
 40
6.0
 40
6.0
 40
7.0
 40
7.0
 40
7.0
 40
7.0
 10
115.0468966726272
 20
-135.6210069105392
 10
115.0468966726272
 20
-135.6210069105392
 10
113.9427435696046
 20
-135.6210069105392
 10
113.9427435696046
 20
-135.6210069105392
 10
113.9427435696046
 20
-135.6210069105392
 10
113.9427435696046
 20
-135.9734401786802
 10
113.9427435696046
 20
-135.9734401786802
 10
113.9427435696046
 20
-135.9734401786802
 10
113.7946044637388
 20
-135.9734401786802
 10
113.7946044637388
 20
-135.9734401786802
 10
113.7797905531523
 20
-135.6185953436995
 10
113.6168375367
 20
-135.5689859687119
 10
113.5024603665897
 20
-135.5372910902476
 10
113.5024603665897
 20
-135.5372910902476
 10
113.5024603665897
 20
-135.3812282647658
 10
113.5024603665897
 20
-135.3812282647658
 10
113.5024603665897
 20
-135.3812282647658
 10
115.0468966726272
 20
-135.3812282647658
 10
115.0468966726272
 20
-135.3812282647658
 10
115.0468966726272
 20
-135.3812282647658
 10
115.0468966726272
 20
-135.6210069105392
 10
115.0468966726272
 20
-135.6210069105392
 97
        0
 97
        0
 75
     2
 76
     1
 98
        0
  0
SPLINE
  5
134
330
12E
100
AcDbEntity
  8
_U+30EC_U+30A4_U+30E4_U+30FC 1
370
     0
100
AcDbSpline
210
0.0
220
0.0
230
1.0
 70
    11
 71
     3
 72
    29
 73
    25
 74
     0
 42
0.0000000001
 43
0.0000000001
 12
1.0
 22
0.0
 32
0.0
 13
1.0
 23
0.0
 33
0.0
 40
0.0
 40
0.0
 40
0.0
 40
0.0
 40
1.0
 40
1.0
 40
1.0
 40
2.0
 40
2.0
 40
2.0
 40
3.0
 40
3.0
 40
3.0
 40
4.0
 40
4.0
 40
4.0
 40
5.0
 40
5.0
 40
5.0
 40
6.0
 40
6.0
 40
6.0
 40
7.0
 40
7.0
 40
7.0
 40
8.0
 40
8.0
 40
8.0
 40
8.0
 10
114.8691297455883
 20
-133.8860568241674
 30
0.0
 10
115.0785915510915
 20
-134.0014675229233
 30
0.0
 10
115.0975395762603
 20
-134.1868136600297
 30
0.0
 10
115.0975395762603
 20
-134.3111816070472
 30
0.0
 10
115.0975395762603
 20
-134.4827473622126
 30
0.0
 10
115.0510307872095
 20
-134.6343315635636
 30
0.0
 10
114.8691297455883
 20
-134.7359618803785
 30
0.0
 10
114.6744818506717
 20
-134.8468939550036
 30
0.0
 10
114.4374592812865
 20
-134.8672200183665
 30
0.0
 10
114.2748507743827
 20
-134.8672200183665
 30
0.0
 10
114.1308457830992
 20
-134.8672200183665
 30
0.0
 10
113.8790093031275
 20
-134.8493055218432
 30
0.0
 10
113.6802272936286
 20
-134.7359618803785
 30
0.0
 10
113.4769666599988
 20
-134.6208956911712
 30
0.0
 10
113.4538845202476
 20
-134.4489854264572
 30
0.0
 10
113.4538845202476
 20
-134.3111816070472
 30
0.0
 10
113.4538845202476
 20
-134.1413383996244
 30
0.0
 10
113.4983262520074
 20
-133.9876871409822
 30
0.0
 10
113.6802272936286
 20
-133.8860568241674
 30
0.0
 10
113.872808131254
 20
-133.7796033736732
 30
0.0
 10
114.1012179619261
 20
-133.7547986861794
 30
0.0
 10
114.2748507743827
 20
-133.7547986861794
 30
0.0
 10
114.4460720199996
 20
-133.7547986861794
 30
0.0
 10
114.6765489079628
 20
-133.777536316382
 30
0.0
 10
114.8691297455883
 20
-133.8860568241674
 30
0.0
  0
SPLINE
  5
135
330
12E
100
AcDbEntity
  8
_U+30EC_U+30A4_U+30E4_U+30FC 1
370
     0
100
AcDbSpline
210
0.0
220
0.0
230
1.0
 70
    11
 71
     3
 72
    17
 73
    13
 74
     0
 42
0.0000000001
 43
0.0000000001
 12
1.0
 22
0.0
 32
0.0
 13
1.0
 23
0.0
 33
0.0
 40
0.0
 40
0.0
 40
0.0
 40
0.0
 40
1.0
 40
1.0
 40
1.0
 40
2.0
 40
2.0
 40
2.0
 40
3.0
 40
3.0
 40
3.0
 40
4.0
 40
4.0
 40
4.0
 40
4.0
 10
113.6464653578731
 20
-134.3111816070472
 30
0.0
 10
113.6464653578731
 20
-134.5778319976056
 30
0.0
 10
113.9299967163092
 20
-134.6274413725932
 30
0.0
 10
114.2748507743827
 20
-134.6274413725932
 30
0.0
 10
114.5942111258653
 20
-134.6274413725932
 30
0.0
 10
114.9028916813437
 20
-134.5892008127069
 30
0.0
 10
114.9028916813437
 20
-134.3111816070472
 30
0.0
 10
114.9028916813437
 20
-134.04659827378
 30
0.0
 10
114.6217718897473
 20
-133.9945773319527
 30
0.0
 10
114.2748507743827
 20
-133.9945773319527
 30
0.0
 10
113.9551459133515
 20
-133.9945773319527
 30
0.0
 10
113.6464653578731
 20
-134.0352294586787
 30
0.0
 10
113.6464653578731
 20
-134.3111816070472
 30
0.0
  0
HATCH
  5
136
330
12E
100
AcDbEntity
  8
_U+30EC_U+30A4_U+30E4_U+30FC 1
 62
   179
420
  2234388
100
AcDbHatch
 10
0.0
 20
0.0
 30
0.0
210
0.0
220
0.0
230
1.0
  2
SOLID
 70
     1
 71
     0
 91
        2
 92
        1
 93
        1
 72
     4
 94
        3
 73
     0
 74
     1
 95
       29
 96
       25
 40
0.0
 40
0.0
 40
0.0
 40
0.0
 40
1.0
 40
1.0
 40
1.0
 40
2.0
 40
2.0
 40
2.0
 40
3.0
 40
3.0
 40
3.0
 40
4.0
 40
4.0
 40
4.0
 40
5.0
 40
5.0
 40
5.0
 40
6.0
 40
6.0
 40
6.0
 40
7.0
 40
7.0
 40
7.0
 40
8.0
 40
8.0
 40
8.0
 40
8.0
 10
114.8691297455883
 20
-133.8860568241674
 10
115.0785915510915
 20
-134.0014675229233
 10
115.0975395762603
 20
-134.1868136600297
 10
115.0975395762603
 20
-134.3111816070472
 10
115.0975395762603
 20
-134.4827473622126
 10
115.0510307872095
 20
-134.6343315635636
 10
114.8691297455883
 20
-134.7359618803785
 10
114.6744818506717
 20
-134.8468939550036
 10
114.4374592812865
 20
-134.8672200183665
 10
114.2748507743827
 20
-134.8672200183665
 10
114.1308457830992
 20
-134.8672200183665
 10
113.8790093031275
 20
-134.8493055218432
 10
113.6802272936286
 20
-134.7359618803785
 10
113.4769666599988
 20
-134.6208956911712
 10
113.4538845202476
 20
-134.4489854264572
 10
113.4538845202476
 20
-134.3111816070472
 10
113.4538845202476
 20
-134.1413383996244
 10
113.4983262520074
 20
-133.9876871409822
 10
113.6802272936286
 20
-133.8860568241674
 10
113.872808131254
 20
-133.7796033736732
 10
114.1012179619261
 20
-133.7547986861794
 10
114.2748507743827
 20
-133.7547986861794
 10
114.4460720199996
 20
-133.7547986861794
 10
114.6765489079628
 20
-133.777536316382
 10
114.8691297455883
 20
-133.8860568241674
 97
        0
 97
        0
 92
        1
 93
        1
 72
     4
 94
        3
 73
     0
 74
     1
 95
       17
 96
       13
 40
0.0
 40
0.0
 40
0.0
 40
0.0
 40
1.0
 40
1.0
 40
1.0
 40
2.0
 40
2.0
 40
2.0
 40
3.0
 40
3.0
 40
3.0
 40
4.0
 40
4.0
 40
4.0
 40
4.0
 10
113.6464653578731
 20
-134.3111816070472
 10
113.6464653578731
 20
-134.5778319976056
 10
113.9299967163092
 20
-134.6274413725932
 10
114.2748507743827
 20
-134.6274413725932
 10
114.5942111258653
 20
-134.6274413725932
 10
114.9028916813437
 20
-134.5892008127069
 10
114.9028916813437
 20
-134.3111816070472
 10
114.9028916813437
 20
-134.04659827378
 10
114.6217718897473
 20
-133.9945773319527
 10
114.2748507743827
 20
-133.9945773319527
 10
113.9551459133515
 20
-133.9945773319527
 10
113.6464653578731
 20
-134.0352294586787
 10
113.6464653578731
 20
-134.3111816070472
 97
        0
 97
        0
 75
     2
 76
     1
 98
        0
  0
ENDBLK
  5
131
330
12E
100
AcDbEntity
  8
0
100
AcDbBlockEnd
  0
BLOCK
  5
139
330
137
100
AcDbEntity
  8
0
100
AcDbBlockBegin
  2
block 7
 70
     0
 10
0.0
 20
0.0
 30
0.0
  3
block 7
  1

  0
SPLINE
  5
13B
330
137
100
AcDbEntity
  8
_U+30EC_U+30A4_U+30E4_U+30FC 1
370
     0
100
AcDbSpline
210
0.0
220
0.0
230
1.0
 70
    11
 71
     3
 72
    44
 73
    40
 74
     0
 42
0.0000000001
 43
0.0000000001
 12
1.0
 22
0.0
 32
0.0
 13
1.0
 23
0.0
 33
0.0
 40
0.0
 40
0.0
 40
0.0
 40
0.0
 40
1.0
 40
1.0
 40
1.0
 40
2.0
 40
2.0
 40
2.0
 40
3.0
 40
3.0
 40
3.0
 40
4.0
 40
4.0
 40
4.0
 40
5.0
 40
5.0
 40
5.0
 40
6.0
 40
6.0
 40
6.0
 40
7.0
 40
7.0
 40
7.0
 40
8.0
 40
8.0
 40
8.0
 40
9.0
 40
9.0
 40
9.0
 40
10.0
 40
10.0
 40
10.0
 40
11.0
 40
11.0
 40
11.0
 40
12.0
 40
12.0
 40
12.0
 40
13.0
 40
13.0
 40
13.0
 40
13.0
 10
67.89835339014347
 20
-131.5930012691851
 30
0.0
 10
68.05717229201349
 20
-131.825889723988
 30
0.0
 10
68.13124184494636
 20
-131.9254529835117
 30
0.0
 10
68.27490232668127
 20
-131.977473925339
 30
0.0
 10
68.27490232668127
 20
-131.977473925339
 30
0.0
 10
68.27490232668127
 20
-131.1451388561026
 30
0.0
 10
68.27490232668127
 20
-131.1451388561026
 30
0.0
 10
68.27490232668127
 20
-131.1451388561026
 30
0.0
 10
68.48023001760217
 20
-131.1451388561026
 30
0.0
 10
68.48023001760217
 20
-131.1451388561026
 30
0.0
 10
68.48023001760217
 20
-131.1451388561026
 30
0.0
 10
68.48023001760217
 20
-132.2441243158973
 30
0.0
 10
68.48023001760217
 20
-132.2441243158973
 30
0.0
 10
68.12262910623323
 20
-132.2103623801419
 30
0.0
 10
68.04442543871806
 20
-132.1400824322428
 30
0.0
 10
67.74608016969543
 20
-131.7287380313039
 30
0.0
 10
67.54729816019652
 20
-131.4551974497751
 30
0.0
 10
67.47942977913709
 20
-131.384917501876
 30
0.0
 10
67.34197046927562
 20
-131.384917501876
 30
0.0
 10
67.22363143935729
 20
-131.384917501876
 30
0.0
 10
67.09254555614353
 20
-131.4617431311971
 30
0.0
 10
67.09254555614353
 20
-131.6722384653458
 30
0.0
 10
67.09254555614353
 20
-131.9502576710055
 30
0.0
 10
67.32302244410674
 20
-131.9592149192671
 30
0.0
 10
67.43946667150819
 20
-131.963693543398
 30
0.0
 10
67.43946667150819
 20
-131.963693543398
 30
0.0
 10
67.43946667150819
 20
-132.2034721891714
 30
0.0
 10
67.43946667150819
 20
-132.2034721891714
 30
0.0
 10
67.31251490287674
 20
-132.1945149409097
 30
0.0
 10
67.20037704483185
 20
-132.1828016162599
 30
0.0
 10
67.08186576013927
 20
-132.0970187386771
 30
0.0
 10
66.92115205575236
 20
-131.9795409826301
 30
0.0
 10
66.88721786522264
 20
-131.7807589731312
 30
0.0
 10
66.88721786522264
 20
-131.6563910261137
 30
0.0
 10
66.88721786522264
 20
-131.3601128143822
 30
0.0
 10
67.07135821890925
 20
-131.1385931746806
 30
0.0
 10
67.34403752656677
 20
-131.1385931746806
 30
0.0
 10
67.57279186678736
 20
-131.1385931746806
 30
0.0
 10
67.67201061676256
 20
-131.2629611216982
 30
0.0
 10
67.89835339014347
 20
-131.5930012691851
 30
0.0
  0
HATCH
  5
13C
330
137
100
AcDbEntity
  8
_U+30EC_U+30A4_U+30E4_U+30FC 1
 62
   179
420
  2234388
100
AcDbHatch
 10
0.0
 20
0.0
 30
0.0
210
0.0
220
0.0
230
1.0
  2
SOLID
 70
     1
 71
     0
 91
        1
 92
        1
 93
        1
 72
     4
 94
        3
 73
     0
 74
     1
 95
       44
 96
       40
 40
0.0
 40
0.0
 40
0.0
 40
0.0
 40
1.0
 40
1.0
 40
1.0
 40
2.0
 40
2.0
 40
2.0
 40
3.0
 40
3.0
 40
3.0
 40
4.0
 40
4.0
 40
4.0
 40
5.0
 40
5.0
 40
5.0
 40
6.0
 40
6.0
 40
6.0
 40
7.0
 40
7.0
 40
7.0
 40
8.0
 40
8.0
 40
8.0
 40
9.0
 40
9.0
 40
9.0
 40
10.0
 40
10.0
 40
10.0
 40
11.0
 40
11.0
 40
11.0
 40
12.0
 40
12.0
 40
12.0
 40
13.0
 40
13.0
 40
13.0
 40
13.0
 10
67.89835339014347
 20
-131.5930012691851
 10
68.05717229201349
 20
-131.825889723988
 10
68.13124184494636
 20
-131.9254529835117
 10
68.27490232668127
 20
-131.977473925339
 10
68.27490232668127
 20
-131.977473925339
 10
68.27490232668127
 20
-131.1451388561026
 10
68.27490232668127
 20
-131.1451388561026
 10
68.27490232668127
 20
-131.1451388561026
 10
68.48023001760217
 20
-131.1451388561026
 10
68.48023001760217
 20
-131.1451388561026
 10
68.48023001760217
 20
-131.1451388561026
 10
68.48023001760217
 20
-132.2441243158973
 10
68.48023001760217
 20
-132.2441243158973
 10
68.12262910623323
 20
-132.2103623801419
 10
68.04442543871806
 20
-132.1400824322428
 10
67.74608016969543
 20
-131.7287380313039
 10
67.54729816019652
 20
-131.4551974497751
 10
67.47942977913709
 20
-131.384917501876
 10
67.34197046927562
 20
-131.384917501876
 10
67.22363143935729
 20
-131.384917501876
 10
67.09254555614353
 20
-131.4617431311971
 10
67.09254555614353
 20
-131.6722384653458
 10
67.09254555614353
 20
-131.9502576710055
 10
67.32302244410674
 20
-131.9592149192671
 10
67.43946667150819
 20
-131.963693543398
 10
67.43946667150819
 20
-131.963693543398
 10
67.43946667150819
 20
-132.2034721891714
 10
67.43946667150819
 20
-132.2034721891714
 10
67.31251490287674
 20
-132.1945149409097
 10
67.20037704483185
 20
-132.1828016162599
 10
67.08186576013927
 20
-132.0970187386771
 10
66.92115205575236
 20
-131.9795409826301
 10
66.88721786522264
 20
-131.7807589731312
 10
66.88721786522264
 20
-131.6563910261137
 10
66.88721786522264
 20
-131.3601128143822
 10
67.07135821890925
 20
-131.1385931746806
 10
67.34403752656677
 20
-131.1385931746806
 10
67.57279186678736
 20
-131.1385931746806
 10
67.67201061676256
 20
-131.2629611216982
 10
67.89835339014347
 20
-131.5930012691851
 97
        0
 97
        0
 75
     2
 76
     1
 98
        0
  0
SPLINE
  5
13D
330
137
100
AcDbEntity
  8
_U+30EC_U+30A4_U+30E4_U+30FC 1
370
     0
100
AcDbSpline
210
0.0
220
0.0
230
1.0
 70
    11
 71
     3
 72
    29
 73
    25
 74
     0
 42
0.0000000001
 43
0.0000000001
 12
1.0
 22
0.0
 32
0.0
 13
1.0
 23
0.0
 33
0.0
 40
0.0
 40
0.0
 40
0.0
 40
0.0
 40
1.0
 40
1.0
 40
1.0
 40
2.0
 40
2.0
 40
2.0
 40
3.0
 40
3.0
 40
3.0
 40
4.0
 40
4.0
 40
4.0
 40
5.0
 40
5.0
 40
5.0
 40
6.0
 40
6.0
 40
6.0
 40
7.0
 40
7.0
 40
7.0
 40
8.0
 40
8.0
 40
8.0
 40
8.0
 10
68.30246309056328
 20
-130.0096353841643
 30
0.0
 10
68.51192489606646
 20
-130.1250460829201
 30
0.0
 10
68.53087292123534
 20
-130.3103922200266
 30
0.0
 10
68.53087292123534
 20
-130.4347601670441
 30
0.0
 10
68.53087292123534
 20
-130.6063259222095
 30
0.0
 10
68.48436413218447
 20
-130.7579101235605
 30
0.0
 10
68.30246309056328
 20
-130.8595404403754
 30
0.0
 10
68.10781519564667
 20
-130.9704725150004
 30
0.0
 10
67.87079262626148
 20
-130.9907985783634
 30
0.0
 10
67.70818411935768
 20
-130.9907985783634
 30
0.0
 10
67.56417912807423
 20
-130.9907985783634
 30
0.0
 10
67.31251490287674
 20
-130.9728840818401
 30
0.0
 10
67.11356063860356
 20
-130.8595404403754
 30
0.0
 10
66.91047225974808
 20
-130.744474251168
 30
0.0
 10
66.88721786522264
 20
-130.5725639864541
 30
0.0
 10
66.88721786522264
 20
-130.4347601670441
 30
0.0
 10
66.88721786522264
 20
-130.2649169596213
 30
0.0
 10
66.93165959698237
 20
-130.1112657009791
 30
0.0
 10
67.11356063860356
 20
-130.0096353841643
 30
0.0
 10
67.30614147622903
 20
-129.9031819336701
 30
0.0
 10
67.5345513069011
 20
-129.8783772461763
 30
0.0
 10
67.70818411935768
 20
-129.8783772461763
 30
0.0
 10
67.8794053649746
 20
-129.8783772461763
 30
0.0
 10
68.10988225293781
 20
-129.9011148763789
 30
0.0
 10
68.30246309056328
 20
-130.0096353841643
 30
0.0
  0
SPLINE
  5
13E
330
137
100
AcDbEntity
  8
_U+30EC_U+30A4_U+30E4_U+30FC 1
370
     0
100
AcDbSpline
210
0.0
220
0.0
230
1.0
 70
    11
 71
     3
 72
    17
 73
    13
 74
     0
 42
0.0000000001
 43
0.0000000001
 12
1.0
 22
0.0
 32
0.0
 13
1.0
 23
0.0
 33
0.0
 40
0.0
 40
0.0
 40
0.0
 40
0.0
 40
1.0
 40
1.0
 40
1.0
 40
2.0
 40
2.0
 40
2.0
 40
3.0
 40
3.0
 40
3.0
 40
4.0
 40
4.0
 40
4.0
 40
4.0
 10
67.07979870284811
 20
-130.4347601670441
 30
0.0
 10
67.07979870284811
 20
-130.7014105576024
 30
0.0
 10
67.36333006128417
 20
-130.75101993259
 30
0.0
 10
67.70818411935768
 20
-130.75101993259
 30
0.0
 10
68.02754447084034
 20
-130.75101993259
 30
0.0
 10
68.33622502631873
 20
-130.7127793727037
 30
0.0
 10
68.33622502631873
 20
-130.4347601670441
 30
0.0
 10
68.33622502631873
 20
-130.1701768337769
 30
0.0
 10
68.05510523472233
 20
-130.1181558919496
 30
0.0
 10
67.70818411935768
 20
-130.1181558919496
 30
0.0
 10
67.3884792583265
 20
-130.1181558919496
 30
0.0
 10
67.07979870284811
 20
-130.1588080186756
 30
0.0
 10
67.07979870284811
 20
-130.4347601670441
 30
0.0
  0
HATCH
  5
13F
330
137
100
AcDbEntity
  8
_U+30EC_U+30A4_U+30E4_U+30FC 1
 62
   179
420
  2234388
100
AcDbHatch
 10
0.0
 20
0.0
 30
0.0
210
0.0
220
0.0
230
1.0
  2
SOLID
 70
     1
 71
     0
 91
        2
 92
        1
 93
        1
 72
     4
 94
        3
 73
     0
 74
     1
 95
       29
 96
       25
 40
0.0
 40
0.0
 40
0.0
 40
0.0
 40
1.0
 40
1.0
 40
1.0
 40
2.0
 40
2.0
 40
2.0
 40
3.0
 40
3.0
 40
3.0
 40
4.0
 40
4.0
 40
4.0
 40
5.0
 40
5.0
 40
5.0
 40
6.0
 40
6.0
 40
6.0
 40
7.0
 40
7.0
 40
7.0
 40
8.0
 40
8.0
 40
8.0
 40
8.0
 10
68.30246309056328
 20
-130.0096353841643
 10
68.51192489606646
 20
-130.1250460829201
 10
68.53087292123534
 20
-130.3103922200266
 10
68.53087292123534
 20
-130.4347601670441
 10
68.53087292123534
 20
-130.6063259222095
 10
68.48436413218447
 20
-130.7579101235605
 10
68.30246309056328
 20
-130.8595404403754
 10
68.10781519564667
 20
-130.9704725150004
 10
67.87079262626148
 20
-130.9907985783634
 10
67.70818411935768
 20
-130.9907985783634
 10
67.56417912807423
 20
-130.9907985783634
 10
67.31251490287674
 20
-130.9728840818401
 10
67.11356063860356
 20
-130.8595404403754
 10
66.91047225974808
 20
-130.744474251168
 10
66.88721786522264
 20
-130.5725639864541
 10
66.88721786522264
 20
-130.4347601670441
 10
66.88721786522264
 20
-130.2649169596213
 10
66.93165959698237
 20
-130.1112657009791
 10
67.11356063860356
 20
-130.0096353841643
 10
67.30614147622903
 20
-129.9031819336701
 10
67.5345513069011
 20
-129.8783772461763
 10
67.70818411935768
 20
-129.8783772461763
 10
67.8794053649746
 20
-129.8783772461763
 10
68.10988225293781
 20
-129.9011148763789
 10
68.30246309056328
 20
-130.0096353841643
 97
        0
 97
        0
 92
        1
 93
        1
 72
     4
 94
        3
 73
     0
 74
     1
 95
       17
 96
       13
 40
0.0
 40
0.0
 40
0.0
 40
0.0
 40
1.0
 40
1.0
 40
1.0
 40
2.0
 40
2.0
 40
2.0
 40
3.0
 40
3.0
 40
3.0
 40
4.0
 40
4.0
 40
4.0
 40
4.0
 10
67.07979870284811
 20
-130.4347601670441
 10
67.07979870284811
 20
-130.7014105576024
 10
67.36333006128417
 20
-130.75101993259
 10
67.70818411935768
 20
-130.75101993259
 10
68.02754447084034
 20
-130.75101993259
 10
68.33622502631873
 20
-130.7127793727037
 10
68.33622502631873
 20
-130.4347601670441
 10
68.33622502631873
 20
-130.1701768337769
 10
68.05510523472233
 20
-130.1181558919496
 10
67.70818411935768
 20
-130.1181558919496
 10
67.3884792583265
 20
-130.1181558919496
 10
67.07979870284811
 20
-130.1588080186756
 10
67.07979870284811
 20
-130.4347601670441
 97
        0
 97
        0
 75
     2
 76
     1
 98
        0
  0
ENDBLK
  5
13A
330
137
100
AcDbEntity
  8
0
100
AcDbBlockEnd
  0
BLOCK
  5
142
330
140
100
AcDbEntity
  8
0
100
AcDbBlockBegin
  2
block 8
 70
     0
 10
0.0
 20
0.0
 30
0.0
  3
block 8
  1

  0
SPLINE
  5
144
330
140
100
AcDbEntity
  8
_U+30EC_U+30A4_U+30E4_U+30FC 1
370
     0
100
AcDbSpline
210
0.0
220
0.0
230
1.0
 70
    11
 71
     3
 72
    26
 73
    22
 74
     0
 42
0.0000000001
 43
0.0000000001
 12
1.0
 22
0.0
 32
0.0
 13
1.0
 23
0.0
 33
0.0
 40
0.0
 40
0.0
 40
0.0
 40
0.0
 40
1.0
 40
1.0
 40
1.0
 40
2.0
 40
2.0
 40
2.0
 40
3.0
 40
3.0
 40
3.0
 40
4.0
 40
4.0
 40
4.0
 40
5.0
 40
5.0
 40
5.0
 40
6.0
 40
6.0
 40
6.0
 40
7.0
 40
7.0
 40
7.0
 40
7.0
 10
115.0468966726272
 20
-126.9779513571444
 30
0.0
 10
115.0468966726272
 20
-126.9779513571444
 30
0.0
 10
113.9427435696046
 20
-126.9779513571444
 30
0.0
 10
113.9427435696046
 20
-126.9779513571444
 30
0.0
 10
113.9427435696046
 20
-126.9779513571444
 30
0.0
 10
113.9427435696046
 20
-127.3303846252855
 30
0.0
 10
113.9427435696046
 20
-127.3303846252855
 30
0.0
 10
113.9427435696046
 20
-127.3303846252855
 30
0.0
 10
113.7946044637388
 20
-127.3303846252855
 30
0.0
 10
113.7946044637388
 20
-127.3303846252855
 30
0.0
 10
113.7797905531523
 20
-126.9755397903047
 30
0.0
 10
113.6168375367
 20
-126.9259304153171
 30
0.0
 10
113.5024603665897
 20
-126.8942355368528
 30
0.0
 10
113.5024603665897
 20
-126.8942355368528
 30
0.0
 10
113.5024603665897
 20
-126.738172711371
 30
0.0
 10
113.5024603665897
 20
-126.738172711371
 30
0.0
 10
113.5024603665897
 20
-126.738172711371
 30
0.0
 10
115.0468966726272
 20
-126.738172711371
 30
0.0
 10
115.0468966726272
 20
-126.738172711371
 30
0.0
 10
115.0468966726272
 20
-126.738172711371
 30
0.0
 10
115.0468966726272
 20
-126.9779513571444
 30
0.0
 10
115.0468966726272
 20
-126.9779513571444
 30
0.0
  0
HATCH
  5
145
330
140
100
AcDbEntity
  8
_U+30EC_U+30A4_U+30E4_U+30FC 1
 62
   179
420
  2234388
100
AcDbHatch
 10
0.0
 20
0.0
 30
0.0
210
0.0
220
0.0
230
1.0
  2
SOLID
 70
     1
 71
     0
 91
        1
 92
        1
 93
        1
 72
     4
 94
        3
 73
     0
 74
     1
 95
       26
 96
       22
 40
0.0
 40
0.0
 40
0.0
 40
0.0
 40
1.0
 40
1.0
 40
1.0
 40
2.0
 40
2.0
 40
2.0
 40
3.0
 40
3.0
 40
3.0
 40
4.0
 40
4.0
 40
4.0
 40
5.0
 40
5.0
 40
5.0
 40
6.0
 40
6.0
 40
6.0
 40
7.0
 40
7.0
 40
7.0
 40
7.0
 10
115.0468966726272
 20
-126.9779513571444
 10
115.0468966726272
 20
-126.9779513571444
 10
113.9427435696046
 20
-126.9779513571444
 10
113.9427435696046
 20
-126.9779513571444
 10
113.9427435696046
 20
-126.9779513571444
 10
113.9427435696046
 20
-127.3303846252855
 10
113.9427435696046
 20
-127.3303846252855
 10
113.9427435696046
 20
-127.3303846252855
 10
113.7946044637388
 20
-127.3303846252855
 10
113.7946044637388
 20
-127.3303846252855
 10
113.7797905531523
 20
-126.9755397903047
 10
113.6168375367
 20
-126.9259304153171
 10
113.5024603665897
 20
-126.8942355368528
 10
113.5024603665897
 20
-126.8942355368528
 10
113.5024603665897
 20
-126.738172711371
 10
113.5024603665897
 20
-126.738172711371
 10
113.5024603665897
 20
-126.738172711371
 10
115.0468966726272
 20
-126.738172711371
 10
115.0468966726272
 20
-126.738172711371
 10
115.0468966726272
 20
-126.738172711371
 10
115.0468966726272
 20
-126.9779513571444
 10
115.0468966726272
 20
-126.9779513571444
 97
        0
 97
        0
 75
     2
 76
     1
 98
        0
  0
ENDBLK
  5
143
330
140
100
AcDbEntity
  8
0
100
AcDbBlockEnd
  0
ENDSEC
  0
SECTION
  2
ENTITIES
  0
POLYLINE
  5
41
330
1F
100
AcDbEntity
  8
_U+30EC_U+30A4_U+30E4_U+30FC 1
 62
   179
420
  2234388
370
    25
100
AcDb2dPolyline
 66
     1
 10
0.0
 20
0.0
 30
0.0
  0
VERTEX
  5
42
330
41
100
AcDbEntity
  8
_U+30EC_U+30A4_U+30E4_U+30FC 1
 62
   179
420
  2234388
370
    25
100
AcDbVertex
100
AcDb2dVertex
 10
73.688537842271
 20
-121.0632438586231
 30
0.0
  0
VERTEX
  5
43
330
41
100
AcDbEntity
  8
_U+30EC_U+30A4_U+30E4_U+30FC 1
 62
   179
420
  2234388
370
    25
100
AcDbVertex
100
AcDb2dVertex
 10
73.688537842271
 20
-141.0635566314008
 30
0.0
  0
SEQEND
  5
44
330
41
100
AcDbEntity
  8
_U+30EC_U+30A4_U+30E4_U+30FC 1
 62
   179
420
  2234388
370
    25
  0
POLYLINE
  5
45
330
1F
100
AcDbEntity
  8
_U+30EC_U+30A4_U+30E4_U+30FC 1
 62
   179
420
  2234388
370
    25
100
AcDb2dPolyline
 66
     1
 10
0.0
 20
0.0
 30
0.0
  0
VERTEX
  5
46
330
45
100
AcDbEntity
  8
_U+30EC_U+30A4_U+30E4_U+30FC 1
 62
   179
420
  2234388
370
    25
100
AcDbVertex
100
AcDb2dVertex
 10
108.6886433382328
 20
-128.563546356748
 30
0.0
  0
VERTEX
  5
47
330
45
100
AcDbEntity
  8
_U+30EC_U+30A4_U+30E4_U+30FC 1
 62
   179
420
  2234388
370
    25
100
AcDbVertex
100
AcDb2dVertex
 10
108.6886433382328
 20
-129.5638477453865
 30
0.0
  0
SEQEND
  5
48
330
45
100
AcDbEntity
  8
_U+30EC_U+30A4_U+30E4_U+30FC 1
 62
   179
420
  2234388
370
    25
  0
POLYLINE
  5
49
330
1F
100
AcDbEntity
  8
_U+30EC_U+30A4_U+30E4_U+30FC 1
 62
   179
420
  2234388
370
    25
100
AcDb2dPolyline
 66
     1
 10
0.0
 20
0.0
 30
0.0
  0
VERTEX
  5
4A
330
49
100
AcDbEntity
  8
_U+30EC_U+30A4_U+30E4_U+30FC 1
 62
   179
420
  2234388
370
    25
100
AcDbVertex
100
AcDb2dVertex
 10
73.688537842271
 20
-121.0632438586231
 30
0.0
  0
VERTEX
  5
4B
330
49
100
AcDbEntity
  8
_U+30EC_U+30A4_U+30E4_U+30FC 1
 62
   179
420
  2234388
370
    25
100
AcDbVertex
100
AcDb2dVertex
 10
75.18851363733677
 20
-121.0632438586231
 30
0.0
  0
SEQEND
  5
4C
330
49
100
AcDbEntity
  8
_U+30EC_U+30A4_U+30E4_U+30FC 1
 62
   179
420
  2234388
370
    25
  0
POLYLINE
  5
4D
330
1F
100
AcDbEntity
  8
_U+30EC_U+30A4_U+30E4_U+30FC 1
 62
   179
420
  2234388
370
    25
100
AcDb2dPolyline
 66
     1
 10
0.0
 20
0.0
 30
0.0
  0
VERTEX
  5
4E
330
4D
100
AcDbEntity
  8
_U+30EC_U+30A4_U+30E4_U+30FC 1
 62
   179
420
  2234388
370
    25
100
AcDbVertex
100
AcDb2dVertex
 10
73.688537842271
 20
-141.0635566314008
 30
0.0
  0
VERTEX
  5
4F
330
4D
100
AcDbEntity
  8
_U+30EC_U+30A4_U+30E4_U+30FC 1
 62
   179
420
  2234388
370
    25
100
AcDbVertex
100
AcDb2dVertex
 10
93.68867372091391
 20
-141.0635566314008
 30
0.0
  0
SEQEND
  5
50
330
4D
100
AcDbEntity
  8
_U+30EC_U+30A4_U+30E4_U+30FC 1
 62
   179
420
  2234388
370
    25
  0
POLYLINE
  5
51
330
1F
100
AcDbEntity
  8
_U+30EC_U+30A4_U+30E4_U+30FC 1
 62
   179
420
  2234388
370
    25
100
AcDb2dPolyline
 66
     1
 10
0.0
 20
0.0
 30
0.0
  0
VERTEX
  5
52
330
51
100
AcDbEntity
  8
_U+30EC_U+30A4_U+30E4_U+30FC 1
 62
   179
420
  2234388
370
    25
100
AcDbVertex
100
AcDb2dVertex
 10
75.18851363733677
 20
-136.5635938547478
 30
0.0
  0
VERTEX
  5
53
330
51
100
AcDbEntity
  8
_U+30EC_U+30A4_U+30E4_U+30FC 1
 62
   179
420
  2234388
370
    25
100
AcDbVertex
100
AcDb2dVertex
 10
75.18851363733677
 20
-140.0638196872065
 30
0.0
  0
SEQEND
  5
54
330
51
100
AcDbEntity
  8
_U+30EC_U+30A4_U+30E4_U+30FC 1
 62
   179
420
  2234388
370
    25
  0
POLYLINE
  5
55
330
1F
100
AcDbEntity
  8
_U+30EC_U+30A4_U+30E4_U+30FC 1
 62
   179
420
  2234388
370
    25
100
AcDb2dPolyline
 66
     1
 10
0.0
 20
0.0
 30
0.0
  0
VERTEX
  5
56
330
55
100
AcDbEntity
  8
_U+30EC_U+30A4_U+30E4_U+30FC 1
 62
   179
420
  2234388
370
    25
100
AcDbVertex
100
AcDb2dVertex
 10
93.68867372091391
 20
-139.5635807984428
 30
0.0
  0
VERTEX
  5
57
330
55
100
AcDbEntity
  8
_U+30EC_U+30A4_U+30E4_U+30FC 1
 62
   179
420
  2234388
370
    25
100
AcDbVertex
100
AcDb2dVertex
 10
93.68867372091391
 20
-141.0635566314008
 30
0.0
  0
SEQEND
  5
58
330
55
100
AcDbEntity
  8
_U+30EC_U+30A4_U+30E4_U+30FC 1
 62
   179
420
  2234388
370
    25
  0
POLYLINE
  5
59
330
1F
100
AcDbEntity
  8
_U+30EC_U+30A4_U+30E4_U+30FC 1
 62
   179
420
  2234388
370
    25
100
AcDb2dPolyline
 66
     1
 10
0.0
 20
0.0
 30
0.0
  0
VERTEX
  5
5A
330
59
100
AcDbEntity
  8
_U+30EC_U+30A4_U+30E4_U+30FC 1
 62
   179
420
  2234388
370
    25
100
AcDbVertex
100
AcDb2dVertex
 10
92.68823124643733
 20
-139.5635807984428
 30
0.0
  0
VERTEX
  5
5B
330
59
100
AcDbEntity
  8
_U+30EC_U+30A4_U+30E4_U+30FC 1
 62
   179
420
  2234388
370
    25
100
AcDbVertex
100
AcDb2dVertex
 10
93.68867372091391
 20
-139.5635807984428
 30
0.0
  0
SEQEND
  5
5C
330
59
100
AcDbEntity
  8
_U+30EC_U+30A4_U+30E4_U+30FC 1
 62
   179
420
  2234388
370
    25
  0
POLYLINE
  5
5D
330
1F
100
AcDbEntity
  8
_U+30EC_U+30A4_U+30E4_U+30FC 1
 62
   179
420
  2234388
370
    25
100
AcDb2dPolyline
 66
     1
 10
0.0
 20
0.0
 30
0.0
  0
VERTEX
  5
5E
330
5D
100
AcDbEntity
  8
_U+30EC_U+30A4_U+30E4_U+30FC 1
 62
   179
420
  2234388
370
    25
100
AcDbVertex
100
AcDb2dVertex
 10
74.68827476121004
 20
-129.5638477453865
 30
0.0
  0
VERTEX
  5
5F
330
5D
100
AcDbEntity
  8
_U+30EC_U+30A4_U+30E4_U+30FC 1
 62
   179
420
  2234388
370
    25
100
AcDbVertex
100
AcDb2dVertex
 10
108.6886433382328
 20
-129.5638477453865
 30
0.0
  0
SEQEND
  5
60
330
5D
100
AcDbEntity
  8
_U+30EC_U+30A4_U+30E4_U+30FC 1
 62
   179
420
  2234388
370
    25
  0
POLYLINE
  5
61
330
1F
100
AcDbEntity
  8
_U+30EC_U+30A4_U+30E4_U+30FC 1
 62
   179
420
  2234388
370
    25
100
AcDb2dPolyline
 66
     1
 10
0.0
 20
0.0
 30
0.0
  0
VERTEX
  5
62
330
61
100
AcDbEntity
  8
_U+30EC_U+30A4_U+30E4_U+30FC 1
 62
   179
420
  2234388
370
    25
100
AcDbVertex
100
AcDb2dVertex
 10
74.68827476121004
 20
-128.563546356748
 30
0.0
  0
VERTEX
  5
63
330
61
100
AcDbEntity
  8
_U+30EC_U+30A4_U+30E4_U+30FC 1
 62
   179
420
  2234388
370
    25
100
AcDbVertex
100
AcDb2dVertex
 10
108.6886433382328
 20
-128.563546356748
 30
0.0
  0
SEQEND
  5
64
330
61
100
AcDbEntity
  8
_U+30EC_U+30A4_U+30E4_U+30FC 1
 62
   179
420
  2234388
370
    25
  0
POLYLINE
  5
65
330
1F
100
AcDbEntity
  8
_U+30EC_U+30A4_U+30E4_U+30FC 1
 62
   179
420
  2234388
370
    25
100
AcDb2dPolyline
 66
     1
 10
0.0
 20
0.0
 30
0.0
  0
VERTEX
  5
66
330
65
100
AcDbEntity
  8
_U+30EC_U+30A4_U+30E4_U+30FC 1
 62
   179
420
  2234388
370
    25
100
AcDbVertex
100
AcDb2dVertex
 10
74.68827476121004
 20
-122.063686358373
 30
0.0
  0
VERTEX
  5
67
330
65
100
AcDbEntity
  8
_U+30EC_U+30A4_U+30E4_U+30FC 1
 62
   179
420
  2234388
370
    25
100
AcDbVertex
100
AcDb2dVertex
 10
74.68827476121004
 20
-128.563546356748
 30
0.0
  0
SEQEND
  5
68
330
65
100
AcDbEntity
  8
_U+30EC_U+30A4_U+30E4_U+30FC 1
 62
   179
420
  2234388
370
    25
  0
POLYLINE
  5
69
330
1F
100
AcDbEntity
  8
_U+30EC_U+30A4_U+30E4_U+30FC 1
 62
   179
420
  2234388
370
    25
100
AcDb2dPolyline
 66
     1
 10
0.0
 20
0.0
 30
0.0
  0
VERTEX
  5
6A
330
69
100
AcDbEntity
  8
_U+30EC_U+30A4_U+30E4_U+30FC 1
 62
   179
420
  2234388
370
    25
100
AcDbVertex
100
AcDb2dVertex
 10
74.68827476121004
 20
-133.0633680222897
 30
0.0
  0
VERTEX
  5
6B
330
69
100
AcDbEntity
  8
_U+30EC_U+30A4_U+30E4_U+30FC 1
 62
   179
420
  2234388
370
    25
100
AcDbVertex
100
AcDb2dVertex
 10
74.68827476121004
 20
-140.0638196872065
 30
0.0
  0
SEQEND
  5
6C
330
69
100
AcDbEntity
  8
_U+30EC_U+30A4_U+30E4_U+30FC 1
 62
   179
420
  2234388
370
    25
  0
POLYLINE
  5
6D
330
1F
100
AcDbEntity
  8
_U+30EC_U+30A4_U+30E4_U+30FC 1
 62
   179
420
  2234388
370
    25
100
AcDb2dPolyline
 66
     1
 10
0.0
 20
0.0
 30
0.0
  0
VERTEX
  5
6E
330
6D
100
AcDbEntity
  8
_U+30EC_U+30A4_U+30E4_U+30FC 1
 62
   179
420
  2234388
370
    25
100
AcDbVertex
100
AcDb2dVertex
 10
74.68827476121004
 20
-140.0638196872065
 30
0.0
  0
VERTEX
  5
6F
330
6D
100
AcDbEntity
  8
_U+30EC_U+30A4_U+30E4_U+30FC 1
 62
   179
420
  2234388
370
    25
100
AcDbVertex
100
AcDb2dVertex
 10
75.18851363733677
 20
-140.0638196872065
 30
0.0
  0
SEQEND
  5
70
330
6D
100
AcDbEntity
  8
_U+30EC_U+30A4_U+30E4_U+30FC 1
 62
   179
420
  2234388
370
    25
  0
POLYLINE
  5
71
330
1F
100
AcDbEntity
  8
_U+30EC_U+30A4_U+30E4_U+30FC 1
 62
   179
420
  2234388
370
    25
100
AcDb2dPolyline
 66
     1
 10
0.0
 20
0.0
 30
0.0
  0
VERTEX
  5
72
330
71
100
AcDbEntity
  8
_U+30EC_U+30A4_U+30E4_U+30FC 1
 62
   179
420
  2234388
370
    25
100
AcDbVertex
100
AcDb2dVertex
 10
92.68823124643733
 20
-139.5635807984428
 30
0.0
  0
VERTEX
  5
73
330
71
100
AcDbEntity
  8
_U+30EC_U+30A4_U+30E4_U+30FC 1
 62
   179
420
  2234388
370
    25
100
AcDbVertex
100
AcDb2dVertex
 10
92.68823124643733
 20
-140.0638196872065
 30
0.0
  0
SEQEND
  5
74
330
71
100
AcDbEntity
  8
_U+30EC_U+30A4_U+30E4_U+30FC 1
 62
   179
420
  2234388
370
    25
  0
POLYLINE
  5
75
330
1F
100
AcDbEntity
  8
_U+30EC_U+30A4_U+30E4_U+30FC 1
 62
   179
420
  2234388
370
    25
100
AcDb2dPolyline
 66
     1
 10
0.0
 20
0.0
 30
0.0
  0
VERTEX
  5
76
330
75
100
AcDbEntity
  8
_U+30EC_U+30A4_U+30E4_U+30FC 1
 62
   179
420
  2234388
370
    25
100
AcDbVertex
100
AcDb2dVertex
 10
75.18851363733677
 20
-136.5635938547478
 30
0.0
  0
VERTEX
  5
77
330
75
100
AcDbEntity
  8
_U+30EC_U+30A4_U+30E4_U+30FC 1
 62
   179
420
  2234388
370
    25
100
AcDbVertex
100
AcDb2dVertex
 10
76.18828583405268
 20
-136.5635938547478
 30
0.0
  0
SEQEND
  5
78
330
75
100
AcDbEntity
  8
_U+30EC_U+30A4_U+30E4_U+30FC 1
 62
   179
420
  2234388
370
    25
  0
POLYLINE
  5
79
330
1F
100
AcDbEntity
  8
_U+30EC_U+30A4_U+30E4_U+30FC 1
 62
   179
420
  2234388
370
    25
100
AcDb2dPolyline
 66
     1
 10
0.0
 20
0.0
 30
0.0
  0
VERTEX
  5
7A
330
79
100
AcDbEntity
  8
_U+30EC_U+30A4_U+30E4_U+30FC 1
 62
   179
420
  2234388
370
    25
100
AcDbVertex
100
AcDb2dVertex
 10
75.18921919287432
 20
-121.0632438586231
 30
0.0
  0
VERTEX
  5
7B
330
79
100
AcDbEntity
  8
_U+30EC_U+30A4_U+30E4_U+30FC 1
 62
   179
420
  2234388
370
    25
100
AcDbVertex
100
AcDb2dVertex
 10
75.18921919287432
 20
-122.063686358373
 30
0.0
  0
SEQEND
  5
7C
330
79
100
AcDbEntity
  8
_U+30EC_U+30A4_U+30E4_U+30FC 1
 62
   179
420
  2234388
370
    25
  0
POLYLINE
  5
7D
330
1F
100
AcDbEntity
  8
_U+30EC_U+30A4_U+30E4_U+30FC 1
 62
   179
420
  2234388
370
    25
100
AcDb2dPolyline
 66
     1
 10
0.0
 20
0.0
 30
0.0
  0
VERTEX
  5
7E
330
7D
100
AcDbEntity
  8
_U+30EC_U+30A4_U+30E4_U+30FC 1
 62
   179
420
  2234388
370
    25
100
AcDbVertex
100
AcDb2dVertex
 10
74.68827476121004
 20
-122.063686358373
 30
0.0
  0
VERTEX
  5
7F
330
7D
100
AcDbEntity
  8
_U+30EC_U+30A4_U+30E4_U+30FC 1
 62
   179
420
  2234388
370
    25
100
AcDbVertex
100
AcDb2dVertex
 10
75.1775069709509
 20
-122.063686358373
 30
0.0
  0
SEQEND
  5
80
330
7D
100
AcDbEntity
  8
_U+30EC_U+30A4_U+30E4_U+30FC 1
 62
   179
420
  2234388
370
    25
  0
POLYLINE
  5
81
330
1F
100
AcDbEntity
  8
_U+30EC_U+30A4_U+30E4_U+30FC 1
 62
   179
420
  2234388
370
    25
100
AcDb2dPolyline
 66
     1
 10
0.0
 20
0.0
 30
0.0
  0
VERTEX
  5
82
330
81
100
AcDbEntity
  8
_U+30EC_U+30A4_U+30E4_U+30FC 1
 62
   179
420
  2234388
370
    25
100
AcDbVertex
100
AcDb2dVertex
 10
76.18828583405268
 20
-136.5635938547478
 30
0.0
  0
VERTEX
  5
83
330
81
100
AcDbEntity
  8
_U+30EC_U+30A4_U+30E4_U+30FC 1
 62
   179
420
  2234388
370
    25
100
AcDbVertex
100
AcDb2dVertex
 10
76.18828583405268
 20
-140.0638196872065
 30
0.0
  0
SEQEND
  5
84
330
81
100
AcDbEntity
  8
_U+30EC_U+30A4_U+30E4_U+30FC 1
 62
   179
420
  2234388
370
    25
  0
POLYLINE
  5
85
330
1F
100
AcDbEntity
  8
_U+30EC_U+30A4_U+30E4_U+30FC 1
 62
   179
420
  2234388
370
    25
100
AcDb2dPolyline
 66
     1
 10
0.0
 20
0.0
 30
0.0
  0
VERTEX
  5
86
330
85
100
AcDbEntity
  8
_U+30EC_U+30A4_U+30E4_U+30FC 1
 62
   179
420
  2234388
370
    25
100
AcDbVertex
100
AcDb2dVertex
 10
76.18828583405268
 20
-140.0638196872065
 30
0.0
  0
VERTEX
  5
87
330
85
100
AcDbEntity
  8
_U+30EC_U+30A4_U+30E4_U+30FC 1
 62
   179
420
  2234388
370
    25
100
AcDbVertex
100
AcDb2dVertex
 10
92.71751180124588
 20
-140.0638196872065
 30
0.0
  0
SEQEND
  5
88
330
85
100
AcDbEntity
  8
_U+30EC_U+30A4_U+30E4_U+30FC 1
 62
   179
420
  2234388
370
    25
  0
POLYLINE
  5
89
330
1F
100
AcDbEntity
  8
_U+30EC_U+30A4_U+30E4_U+30FC 1
 62
   179
420
  2234388
370
    25
100
AcDb2dPolyline
 66
     1
 10
0.0
 20
0.0
 30
0.0
  0
VERTEX
  5
8A
330
89
100
AcDbEntity
  8
_U+30EC_U+30A4_U+30E4_U+30FC 1
 62
   179
420
  2234388
370
    25
100
AcDbVertex
100
AcDb2dVertex
 10
74.68827476121004
 20
-132.0635958003172
 30
0.0
  0
VERTEX
  5
8B
330
89
100
AcDbEntity
  8
_U+30EC_U+30A4_U+30E4_U+30FC 1
 62
   179
420
  2234388
370
    25
100
AcDbVertex
100
AcDb2dVertex
 10
75.6887525134635
 20
-132.0635958003172
 30
0.0
  0
SEQEND
  5
8C
330
89
100
AcDbEntity
  8
_U+30EC_U+30A4_U+30E4_U+30FC 1
 62
   179
420
  2234388
370
    25
  0
POLYLINE
  5
8D
330
1F
100
AcDbEntity
  8
_U+30EC_U+30A4_U+30E4_U+30FC 1
 62
   179
420
  2234388
370
    25
100
AcDb2dPolyline
 66
     1
 10
0.0
 20
0.0
 30
0.0
  0
VERTEX
  5
8E
330
8D
100
AcDbEntity
  8
_U+30EC_U+30A4_U+30E4_U+30FC 1
 62
   179
420
  2234388
370
    25
100
AcDbVertex
100
AcDb2dVertex
 10
74.68827476121004
 20
-133.0633680222897
 30
0.0
  0
VERTEX
  5
8F
330
8D
100
AcDbEntity
  8
_U+30EC_U+30A4_U+30E4_U+30FC 1
 62
   179
420
  2234388
370
    25
100
AcDbVertex
100
AcDb2dVertex
 10
75.6887525134635
 20
-133.0633680222897
 30
0.0
  0
SEQEND
  5
90
330
8D
100
AcDbEntity
  8
_U+30EC_U+30A4_U+30E4_U+30FC 1
 62
   179
420
  2234388
370
    25
  0
POLYLINE
  5
91
330
1F
100
AcDbEntity
  8
_U+30EC_U+30A4_U+30E4_U+30FC 1
 62
   179
420
  2234388
370
    25
100
AcDb2dPolyline
 66
     1
 10
0.0
 20
0.0
 30
0.0
  0
VERTEX
  5
92
330
91
100
AcDbEntity
  8
_U+30EC_U+30A4_U+30E4_U+30FC 1
 62
   179
420
  2234388
370
    25
100
AcDbVertex
100
AcDb2dVertex
 10
75.6887525134635
 20
-132.0635958003172
 30
0.0
  0
VERTEX
  5
93
330
91
100
AcDbEntity
  8
_U+30EC_U+30A4_U+30E4_U+30FC 1
 62
   179
420
  2234388
370
    25
100
AcDbVertex
100
AcDb2dVertex
 10
75.6887525134635
 20
-133.0633680222897
 30
0.0
  0
SEQEND
  5
94
330
91
100
AcDbEntity
  8
_U+30EC_U+30A4_U+30E4_U+30FC 1
 62
   179
420
  2234388
370
    25
  0
POLYLINE
  5
95
330
1F
100
AcDbEntity
  8
_U+30EC_U+30A4_U+30E4_U+30FC 1
 62
   179
420
  2234388
370
    25
100
AcDb2dPolyline
 66
     1
 10
0.0
 20
0.0
 30
0.0
  0
VERTEX
  5
96
330
95
100
AcDbEntity
  8
_U+30EC_U+30A4_U+30E4_U+30FC 1
 62
   179
420
  2234388
370
    25
100
AcDbVertex
100
AcDb2dVertex
 10
74.68827476121004
 20
-129.5638477453865
 30
0.0
  0
VERTEX
  5
97
330
95
100
AcDbEntity
  8
_U+30EC_U+30A4_U+30E4_U+30FC 1
 62
   179
420
  2234388
370
    25
100
AcDbVertex
100
AcDb2dVertex
 10
74.68827476121004
 20
-132.0635958003172
 30
0.0
  0
SEQEND
  5
98
330
95
100
AcDbEntity
  8
_U+30EC_U+30A4_U+30E4_U+30FC 1
 62
   179
420
  2234388
370
    25
  0
SPLINE
  5
99
330
1F
100
AcDbEntity
  8
_U+30EC_U+30A4_U+30E4_U+30FC 1
 62
   179
420
  2234388
370
     9
100
AcDbSpline
210
0.0
220
0.0
230
1.0
 70
    11
 71
     3
 72
    17
 73
    13
 74
     0
 42
0.0000000001
 43
0.0000000001
 12
1.0
 22
0.0
 32
0.0
 13
1.0
 23
0.0
 33
0.0
 40
0.0
 40
0.0
 40
0.0
 40
0.0
 40
1.0
 40
1.0
 40
1.0
 40
2.0
 40
2.0
 40
2.0
 40
3.0
 40
3.0
 40
3.0
 40
4.0
 40
4.0
 40
4.0
 40
4.0
 10
112.7882737891981
 20
-128.563546356748
 30
0.0
 10
112.7882737891981
 20
-128.5080896900953
 30
0.0
 10
112.7435062903402
 20
-128.4632869123286
 30
0.0
 10
112.6883671250802
 20
-128.4632869123286
 30
0.0
 10
112.6332632375972
 20
-128.4632869123286
 30
0.0
 10
112.5884604609624
 20
-128.5080896900953
 30
0.0
 10
112.5884604609624
 20
-128.563546356748
 30
0.0
 10
112.5884604609624
 20
-128.6186855234008
 30
0.0
 10
112.6332632375972
 20
-128.6634530233896
 30
0.0
 10
112.6883671250802
 20
-128.6634530233896
 30
0.0
 10
112.7435062903402
 20
-128.6634530233896
 30
0.0
 10
112.7882737891981
 20
-128.6186855234008
 30
0.0
 10
112.7882737891981
 20
-128.563546356748
 30
0.0
  0
SPLINE
  5
9A
330
1F
100
AcDbEntity
  8
_U+30EC_U+30A4_U+30E4_U+30FC 1
 62
   179
420
  2234388
370
     9
100
AcDbSpline
210
0.0
220
0.0
230
1.0
 70
    11
 71
     3
 72
    17
 73
    13
 74
     0
 42
0.0000000001
 43
0.0000000001
 12
1.0
 22
0.0
 32
0.0
 13
1.0
 23
0.0
 33
0.0
 40
0.0
 40
0.0
 40
0.0
 40
0.0
 40
1.0
 40
1.0
 40
1.0
 40
2.0
 40
2.0
 40
2.0
 40
3.0
 40
3.0
 40
3.0
 40
4.0
 40
4.0
 40
4.0
 40
4.0
 10
112.7882737891981
 20
-129.5638477453865
 30
0.0
 10
112.7882737891981
 20
-129.5080383009561
 30
0.0
 10
112.7435062903402
 20
-129.46323552319
 30
0.0
 10
112.6883671250802
 20
-129.46323552319
 30
0.0
 10
112.6332632375972
 20
-129.46323552319
 30
0.0
 10
112.5884604609624
 20
-129.5080383009561
 30
0.0
 10
112.5884604609624
 20
-129.5638477453865
 30
0.0
 10
112.5884604609624
 20
-129.6189516342621
 30
0.0
 10
112.6332632375972
 20
-129.6637544120288
 30
0.0
 10
112.6883671250802
 20
-129.6637544120288
 30
0.0
 10
112.7435062903402
 20
-129.6637544120288
 30
0.0
 10
112.7882737891981
 20
-129.6189516342621
 30
0.0
 10
112.7882737891981
 20
-129.5638477453865
 30
0.0
  0
SPLINE
  5
9B
330
1F
100
AcDbEntity
  8
_U+30EC_U+30A4_U+30E4_U+30FC 1
 62
   179
420
  2234388
370
     9
100
AcDbSpline
210
0.0
220
0.0
230
1.0
 70
    11
 71
     3
 72
    17
 73
    13
 74
     0
 42
0.0000000001
 43
0.0000000001
 12
1.0
 22
0.0
 32
0.0
 13
1.0
 23
0.0
 33
0.0
 40
0.0
 40
0.0
 40
0.0
 40
0.0
 40
1.0
 40
1.0
 40
1.0
 40
2.0
 40
2.0
 40
2.0
 40
3.0
 40
3.0
 40
3.0
 40
4.0
 40
4.0
 40
4.0
 40
4.0
 10
112.7882737891981
 20
-139.5635807984428
 30
0.0
 10
112.7882737891981
 20
-139.5084416317897
 30
0.0
 10
112.7435062903402
 20
-139.4636741318005
 30
0.0
 10
112.6883671250802
 20
-139.4636741318005
 30
0.0
 10
112.6332632375972
 20
-139.4636741318005
 30
0.0
 10
112.5884604609624
 20
-139.5084416317897
 30
0.0
 10
112.5884604609624
 20
-139.5635807984428
 30
0.0
 10
112.5884604609624
 20
-139.6186846873177
 30
0.0
 10
112.6332632375972
 20
-139.6634874650844
 30
0.0
 10
112.6883671250802
 20
-139.6634874650844
 30
0.0
 10
112.7435062903402
 20
-139.6634874650844
 30
0.0
 10
112.7882737891981
 20
-139.6186846873177
 30
0.0
 10
112.7882737891981
 20
-139.5635807984428
 30
0.0
  0
SPLINE
  5
9C
330
1F
100
AcDbEntity
  8
_U+30EC_U+30A4_U+30E4_U+30FC 1
 62
   179
420
  2234388
370
     9
100
AcDbSpline
210
0.0
220
0.0
230
1.0
 70
    11
 71
     3
 72
    17
 73
    13
 74
     0
 42
0.0000000001
 43
0.0000000001
 12
1.0
 22
0.0
 32
0.0
 13
1.0
 23
0.0
 33
0.0
 40
0.0
 40
0.0
 40
0.0
 40
0.0
 40
1.0
 40
1.0
 40
1.0
 40
2.0
 40
2.0
 40
2.0
 40
3.0
 40
3.0
 40
3.0
 40
4.0
 40
4.0
 40
4.0
 40
4.0
 10
112.7882737891981
 20
-141.0635566314008
 30
0.0
 10
112.7882737891981
 20
-141.0084527425259
 30
0.0
 10
112.7435062903402
 20
-140.9636499647592
 30
0.0
 10
112.6883671250802
 20
-140.9636499647592
 30
0.0
 10
112.6332632375972
 20
-140.9636499647592
 30
0.0
 10
112.5884604609624
 20
-141.0084527425259
 30
0.0
 10
112.5884604609624
 20
-141.0635566314008
 30
0.0
 10
112.5884604609624
 20
-141.1186957980539
 30
0.0
 10
112.6332632375972
 20
-141.1634632980425
 30
0.0
 10
112.6883671250802
 20
-141.1634632980425
 30
0.0
 10
112.7435062903402
 20
-141.1634632980425
 30
0.0
 10
112.7882737891981
 20
-141.1186957980539
 30
0.0
 10
112.7882737891981
 20
-141.0635566314008
 30
0.0
  0
SPLINE
  5
9D
330
1F
100
AcDbEntity
  8
_U+30EC_U+30A4_U+30E4_U+30FC 1
 62
   179
420
  2234388
370
     9
100
AcDbSpline
210
0.0
220
0.0
230
1.0
 70
    11
 71
     3
 72
    17
 73
    13
 74
     0
 42
0.0000000001
 43
0.0000000001
 12
1.0
 22
0.0
 32
0.0
 13
1.0
 23
0.0
 33
0.0
 40
0.0
 40
0.0
 40
0.0
 40
0.0
 40
1.0
 40
1.0
 40
1.0
 40
2.0
 40
2.0
 40
2.0
 40
3.0
 40
3.0
 40
3.0
 40
4.0
 40
4.0
 40
4.0
 40
4.0
 10
93.78858038503175
 20
-145.0633157970677
 30
0.0
 10
93.78858038503175
 20
-145.0082119081922
 30
0.0
 10
93.74381288617387
 20
-144.9634091304261
 30
0.0
 10
93.68867372091391
 20
-144.9634091304261
 30
0.0
 10
93.63357219881371
 20
-144.9634091304261
 30
0.0
 10
93.58876942104699
 20
-145.0082119081922
 30
0.0
 10
93.58876942104699
 20
-145.0633157970677
 30
0.0
 10
93.58876942104699
 20
-145.1184549637202
 30
0.0
 10
93.63357219881371
 20
-145.1632224637094
 30
0.0
 10
93.68867372091391
 20
-145.1632224637094
 30
0.0
 10
93.74381288617387
 20
-145.1632224637094
 30
0.0
 10
93.78858038503175
 20
-145.1184549637202
 30
0.0
 10
93.78858038503175
 20
-145.0633157970677
 30
0.0
  0
SPLINE
  5
9E
330
1F
100
AcDbEntity
  8
_U+30EC_U+30A4_U+30E4_U+30FC 1
 62
   179
420
  2234388
370
     9
100
AcDbSpline
210
0.0
220
0.0
230
1.0
 70
    11
 71
     3
 72
    17
 73
    13
 74
     0
 42
0.0000000001
 43
0.0000000001
 12
1.0
 22
0.0
 32
0.0
 13
1.0
 23
0.0
 33
0.0
 40
0.0
 40
0.0
 40
0.0
 40
0.0
 40
1.0
 40
1.0
 40
1.0
 40
2.0
 40
2.0
 40
2.0
 40
3.0
 40
3.0
 40
3.0
 40
4.0
 40
4.0
 40
4.0
 40
4.0
 10
73.78844450638884
 20
-145.0633157970677
 30
0.0
 10
73.78844450638884
 20
-145.0082119081922
 30
0.0
 10
73.74364172975407
 20
-144.9634091304261
 30
0.0
 10
73.688537842271
 20
-144.9634091304261
 30
0.0
 10
73.63339867701106
 20
-144.9634091304261
 30
0.0
 10
73.58863117815316
 20
-145.0082119081922
 30
0.0
 10
73.58863117815316
 20
-145.0633157970677
 30
0.0
 10
73.58863117815316
 20
-145.1184549637202
 30
0.0
 10
73.63339867701106
 20
-145.1632224637094
 30
0.0
 10
73.688537842271
 20
-145.1632224637094
 30
0.0
 10
73.74364172975407
 20
-145.1632224637094
 30
0.0
 10
73.78844450638884
 20
-145.1184549637202
 30
0.0
 10
73.78844450638884
 20
-145.0633157970677
 30
0.0
  0
SPLINE
  5
9F
330
1F
100
AcDbEntity
  8
_U+30EC_U+30A4_U+30E4_U+30FC 1
 62
   179
420
  2234388
370
     9
100
AcDbSpline
210
0.0
220
0.0
230
1.0
 70
    11
 71
     3
 72
    17
 73
    13
 74
     0
 42
0.0000000001
 43
0.0000000001
 12
1.0
 22
0.0
 32
0.0
 13
1.0
 23
0.0
 33
0.0
 40
0.0
 40
0.0
 40
0.0
 40
0.0
 40
1.0
 40
1.0
 40
1.0
 40
2.0
 40
2.0
 40
2.0
 40
3.0
 40
3.0
 40
3.0
 40
4.0
 40
4.0
 40
4.0
 40
4.0
 10
69.78868544176453
 20
-141.0635566314008
 30
0.0
 10
69.78868544176453
 20
-141.0084527425259
 30
0.0
 10
69.74388266512976
 20
-140.9636499647592
 30
0.0
 10
69.68878053813324
 20
-140.9636499647592
 30
0.0
 10
69.63296933462607
 20
-140.9636499647592
 30
0.0
 10
69.58887211352885
 20
-141.0084527425259
 30
0.0
 10
69.58887211352885
 20
-141.0635566314008
 30
0.0
 10
69.58887211352885
 20
-141.1186957980539
 30
0.0
 10
69.63296933462607
 20
-141.1634632980425
 30
0.0
 10
69.68878053813324
 20
-141.1634632980425
 30
0.0
 10
69.74388266512976
 20
-141.1634632980425
 30
0.0
 10
69.78868544176453
 20
-141.1186957980539
 30
0.0
 10
69.78868544176453
 20
-141.0635566314008
 30
0.0
  0
SPLINE
  5
A0
330
1F
100
AcDbEntity
  8
_U+30EC_U+30A4_U+30E4_U+30FC 1
 62
   179
420
  2234388
370
     9
100
AcDbSpline
210
0.0
220
0.0
230
1.0
 70
    11
 71
     3
 72
    17
 73
    13
 74
     0
 42
0.0000000001
 43
0.0000000001
 12
1.0
 22
0.0
 32
0.0
 13
1.0
 23
0.0
 33
0.0
 40
0.0
 40
0.0
 40
0.0
 40
0.0
 40
1.0
 40
1.0
 40
1.0
 40
2.0
 40
2.0
 40
2.0
 40
3.0
 40
3.0
 40
3.0
 40
4.0
 40
4.0
 40
4.0
 40
4.0
 10
69.78868544176453
 20
-121.0632438586231
 30
0.0
 10
69.78868544176453
 20
-121.0081046919701
 30
0.0
 10
69.74388266512976
 20
-120.9633371919815
 30
0.0
 10
69.68878053813324
 20
-120.9633371919815
 30
0.0
 10
69.63296933462607
 20
-120.9633371919815
 30
0.0
 10
69.58887211352885
 20
-121.0081046919701
 30
0.0
 10
69.58887211352885
 20
-121.0632438586231
 30
0.0
 10
69.58887211352885
 20
-121.1187005252758
 30
0.0
 10
69.63296933462607
 20
-121.1635033030425
 30
0.0
 10
69.68878053813324
 20
-121.1635033030425
 30
0.0
 10
69.74388266512976
 20
-121.1635033030425
 30
0.0
 10
69.78868544176453
 20
-121.1187005252758
 30
0.0
 10
69.78868544176453
 20
-121.0632438586231
 30
0.0
  0
SPLINE
  5
A1
330
1F
100
AcDbEntity
  8
_U+30EC_U+30A4_U+30E4_U+30FC 1
 62
   179
420
  2234388
370
     9
100
AcDbSpline
210
0.0
220
0.0
230
1.0
 70
    11
 71
     3
 72
    17
 73
    13
 74
     0
 42
0.0000000001
 43
0.0000000001
 12
1.0
 22
0.0
 32
0.0
 13
1.0
 23
0.0
 33
0.0
 40
0.0
 40
0.0
 40
0.0
 40
0.0
 40
1.0
 40
1.0
 40
1.0
 40
2.0
 40
2.0
 40
2.0
 40
3.0
 40
3.0
 40
3.0
 40
4.0
 40
4.0
 40
4.0
 40
4.0
 10
73.78844450638884
 20
-117.0634846929563
 30
0.0
 10
73.78844450638884
 20
-117.0083455263035
 30
0.0
 10
73.74364172975407
 20
-116.9635780263146
 30
0.0
 10
73.688537842271
 20
-116.9635780263146
 30
0.0
 10
73.63339867701106
 20
-116.9635780263146
 30
0.0
 10
73.58863117815316
 20
-117.0083455263035
 30
0.0
 10
73.58863117815316
 20
-117.0634846929563
 30
0.0
 10
73.58863117815316
 20
-117.1185885818315
 30
0.0
 10
73.63339867701106
 20
-117.1633913595982
 30
0.0
 10
73.688537842271
 20
-117.1633913595982
 30
0.0
 10
73.74364172975407
 20
-117.1633913595982
 30
0.0
 10
73.78844450638884
 20
-117.1185885818315
 30
0.0
 10
73.78844450638884
 20
-117.0634846929563
 30
0.0
  0
SPLINE
  5
A2
330
1F
100
AcDbEntity
  8
_U+30EC_U+30A4_U+30E4_U+30FC 1
 62
   179
420
  2234388
370
     9
100
AcDbSpline
210
0.0
220
0.0
230
1.0
 70
    11
 71
     3
 72
    17
 73
    13
 74
     0
 42
0.0000000001
 43
0.0000000001
 12
1.0
 22
0.0
 32
0.0
 13
1.0
 23
0.0
 33
0.0
 40
0.0
 40
0.0
 40
0.0
 40
0.0
 40
1.0
 40
1.0
 40
1.0
 40
2.0
 40
2.0
 40
2.0
 40
3.0
 40
3.0
 40
3.0
 40
4.0
 40
4.0
 40
4.0
 40
4.0
 10
108.7885527505808
 20
-117.0634846929563
 30
0.0
 10
108.7885527505808
 20
-117.0083455263035
 30
0.0
 10
108.7437499728141
 20
-116.9635780263146
 30
0.0
 10
108.6886433382328
 20
-116.9635780263146
 30
0.0
 10
108.6335041729729
 20
-116.9635780263146
 30
0.0
 10
108.5887013963381
 20
-117.0083455263035
 30
0.0
 10
108.5887013963381
 20
-117.0634846929563
 30
0.0
 10
108.5887013963381
 20
-117.1185885818315
 30
0.0
 10
108.6335041729729
 20
-117.1633913595982
 30
0.0
 10
108.6886433382328
 20
-117.1633913595982
 30
0.0
 10
108.7437499728141
 20
-117.1633913595982
 30
0.0
 10
108.7885527505808
 20
-117.1185885818315
 30
0.0
 10
108.7885527505808
 20
-117.0634846929563
 30
0.0
  0
POLYLINE
  5
A3
330
1F
100
AcDbEntity
  8
_U+30EC_U+30A4_U+30E4_U+30FC 1
 62
   179
420
  2234388
370
     9
100
AcDb2dPolyline
 66
     1
 10
0.0
 20
0.0
 30
0.0
  0
VERTEX
  5
A4
330
A3
100
AcDbEntity
  8
_U+30EC_U+30A4_U+30E4_U+30FC 1
 62
   179
420
  2234388
370
     9
100
AcDbVertex
100
AcDb2dVertex
 10
112.6883671250802
 20
-128.563546356748
 30
0.0
  0
VERTEX
  5
A5
330
A3
100
AcDbEntity
  8
_U+30EC_U+30A4_U+30E4_U+30FC 1
 62
   179
420
  2234388
370
     9
100
AcDbVertex
100
AcDb2dVertex
 10
112.6883671250802
 20
-124.7932338576906
 30
0.0
  0
SEQEND
  5
A6
330
A3
100
AcDbEntity
  8
_U+30EC_U+30A4_U+30E4_U+30FC 1
 62
   179
420
  2234388
370
     9
  0
POLYLINE
  5
A7
330
1F
100
AcDbEntity
  8
_U+30EC_U+30A4_U+30E4_U+30FC 1
 62
   179
420
  2234388
370
     9
100
AcDb2dPolyline
 66
     1
 10
0.0
 20
0.0
 30
0.0
  0
VERTEX
  5
A8
330
A7
100
AcDbEntity
  8
_U+30EC_U+30A4_U+30E4_U+30FC 1
 62
   179
420
  2234388
370
     9
100
AcDbVertex
100
AcDb2dVertex
 10
112.6883671250802
 20
-128.563546356748
 30
0.0
  0
VERTEX
  5
A9
330
A7
100
AcDbEntity
  8
_U+30EC_U+30A4_U+30E4_U+30FC 1
 62
   179
420
  2234388
370
     9
100
AcDbVertex
100
AcDb2dVertex
 10
112.6883671250802
 20
-129.5638477453865
 30
0.0
  0
SEQEND
  5
AA
330
A7
100
AcDbEntity
  8
_U+30EC_U+30A4_U+30E4_U+30FC 1
 62
   179
420
  2234388
370
     9
  0
POLYLINE
  5
AB
330
1F
100
AcDbEntity
  8
_U+30EC_U+30A4_U+30E4_U+30FC 1
 62
   179
420
  2234388
370
     9
100
AcDb2dPolyline
 66
     1
 10
0.0
 20
0.0
 30
0.0
  0
VERTEX
  5
AC
330
AB
100
AcDbEntity
  8
_U+30EC_U+30A4_U+30E4_U+30FC 1
 62
   179
420
  2234388
370
     9
100
AcDbVertex
100
AcDb2dVertex
 10
111.2283638610817
 20
-128.563546356748
 30
0.0
  0
VERTEX
  5
AD
330
AB
100
AcDbEntity
  8
_U+30EC_U+30A4_U+30E4_U+30FC 1
 62
   179
420
  2234388
370
     9
100
AcDbVertex
100
AcDb2dVertex
 10
113.6881393217962
 20
-128.563546356748
 30
0.0
  0
SEQEND
  5
AE
330
AB
100
AcDbEntity
  8
_U+30EC_U+30A4_U+30E4_U+30FC 1
 62
   179
420
  2234388
370
     9
  0
POLYLINE
  5
AF
330
1F
100
AcDbEntity
  8
_U+30EC_U+30A4_U+30E4_U+30FC 1
 62
   179
420
  2234388
370
     9
100
AcDb2dPolyline
 66
     1
 10
0.0
 20
0.0
 30
0.0
  0
VERTEX
  5
B0
330
AF
100
AcDbEntity
  8
_U+30EC_U+30A4_U+30E4_U+30FC 1
 62
   179
420
  2234388
370
     9
100
AcDbVertex
100
AcDb2dVertex
 10
111.2283638610817
 20
-129.5638477453865
 30
0.0
  0
VERTEX
  5
B1
330
AF
100
AcDbEntity
  8
_U+30EC_U+30A4_U+30E4_U+30FC 1
 62
   179
420
  2234388
370
     9
100
AcDbVertex
100
AcDb2dVertex
 10
113.6881393217962
 20
-129.5638477453865
 30
0.0
  0
SEQEND
  5
B2
330
AF
100
AcDbEntity
  8
_U+30EC_U+30A4_U+30E4_U+30FC 1
 62
   179
420
  2234388
370
     9
  0
POLYLINE
  5
B3
330
1F
100
AcDbEntity
  8
_U+30EC_U+30A4_U+30E4_U+30FC 1
 62
   179
420
  2234388
370
     9
100
AcDb2dPolyline
 66
     1
 10
0.0
 20
0.0
 30
0.0
  0
VERTEX
  5
B4
330
B3
100
AcDbEntity
  8
_U+30EC_U+30A4_U+30E4_U+30FC 1
 62
   179
420
  2234388
370
     9
100
AcDbVertex
100
AcDb2dVertex
 10
112.6883671250802
 20
-141.0635566314008
 30
0.0
  0
VERTEX
  5
B5
330
B3
100
AcDbEntity
  8
_U+30EC_U+30A4_U+30E4_U+30FC 1
 62
   179
420
  2234388
370
     9
100
AcDbVertex
100
AcDb2dVertex
 10
112.6883671250802
 20
-146.3214624634197
 30
0.0
  0
SEQEND
  5
B6
330
B3
100
AcDbEntity
  8
_U+30EC_U+30A4_U+30E4_U+30FC 1
 62
   179
420
  2234388
370
     9
  0
POLYLINE
  5
B7
330
1F
100
AcDbEntity
  8
_U+30EC_U+30A4_U+30E4_U+30FC 1
 62
   179
420
  2234388
370
     9
100
AcDb2dPolyline
 66
     1
 10
0.0
 20
0.0
 30
0.0
  0
VERTEX
  5
B8
330
B7
100
AcDbEntity
  8
_U+30EC_U+30A4_U+30E4_U+30FC 1
 62
   179
420
  2234388
370
     9
100
AcDbVertex
100
AcDb2dVertex
 10
112.6883671250802
 20
-139.5635807984428
 30
0.0
  0
VERTEX
  5
B9
330
B7
100
AcDbEntity
  8
_U+30EC_U+30A4_U+30E4_U+30FC 1
 62
   179
420
  2234388
370
     9
100
AcDbVertex
100
AcDb2dVertex
 10
112.6883671250802
 20
-141.0635566314008
 30
0.0
  0
SEQEND
  5
BA
330
B7
100
AcDbEntity
  8
_U+30EC_U+30A4_U+30E4_U+30FC 1
 62
   179
420
  2234388
370
     9
  0
POLYLINE
  5
BB
330
1F
100
AcDbEntity
  8
_U+30EC_U+30A4_U+30E4_U+30FC 1
 62
   179
420
  2234388
370
     9
100
AcDb2dPolyline
 66
     1
 10
0.0
 20
0.0
 30
0.0
  0
VERTEX
  5
BC
330
BB
100
AcDbEntity
  8
_U+30EC_U+30A4_U+30E4_U+30FC 1
 62
   179
420
  2234388
370
     9
100
AcDbVertex
100
AcDb2dVertex
 10
97.72840250674074
 20
-141.0635566314008
 30
0.0
  0
VERTEX
  5
BD
330
BB
100
AcDbEntity
  8
_U+30EC_U+30A4_U+30E4_U+30FC 1
 62
   179
420
  2234388
370
     9
100
AcDbVertex
100
AcDb2dVertex
 10
113.6881393217962
 20
-141.0635566314008
 30
0.0
  0
SEQEND
  5
BE
330
BB
100
AcDbEntity
  8
_U+30EC_U+30A4_U+30E4_U+30FC 1
 62
   179
420
  2234388
370
     9
  0
POLYLINE
  5
BF
330
1F
100
AcDbEntity
  8
_U+30EC_U+30A4_U+30E4_U+30FC 1
 62
   179
420
  2234388
370
     9
100
AcDb2dPolyline
 66
     1
 10
0.0
 20
0.0
 30
0.0
  0
VERTEX
  5
C0
330
BF
100
AcDbEntity
  8
_U+30EC_U+30A4_U+30E4_U+30FC 1
 62
   179
420
  2234388
370
     9
100
AcDbVertex
100
AcDb2dVertex
 10
69.68878053813324
 20
-121.0632438586231
 30
0.0
  0
VERTEX
  5
C1
330
BF
100
AcDbEntity
  8
_U+30EC_U+30A4_U+30E4_U+30FC 1
 62
   179
420
  2234388
370
     9
100
AcDbVertex
100
AcDb2dVertex
 10
69.68878053813324
 20
-141.0635566314008
 30
0.0
  0
SEQEND
  5
C2
330
BF
100
AcDbEntity
  8
_U+30EC_U+30A4_U+30E4_U+30FC 1
 62
   179
420
  2234388
370
     9
  0
POLYLINE
  5
C3
330
1F
100
AcDbEntity
  8
_U+30EC_U+30A4_U+30E4_U+30FC 1
 62
   179
420
  2234388
370
     9
100
AcDb2dPolyline
 66
     1
 10
0.0
 20
0.0
 30
0.0
  0
VERTEX
  5
C4
330
C3
100
AcDbEntity
  8
_U+30EC_U+30A4_U+30E4_U+30FC 1
 62
   179
420
  2234388
370
     9
100
AcDbVertex
100
AcDb2dVertex
 10
71.14878485150994
 20
-121.0632438586231
 30
0.0
  0
VERTEX
  5
C5
330
C3
100
AcDbEntity
  8
_U+30EC_U+30A4_U+30E4_U+30FC 1
 62
   179
420
  2234388
370
     9
100
AcDbVertex
100
AcDb2dVertex
 10
68.68830276060582
 20
-121.0632438586231
 30
0.0
  0
SEQEND
  5
C6
330
C3
100
AcDbEntity
  8
_U+30EC_U+30A4_U+30E4_U+30FC 1
 62
   179
420
  2234388
370
     9
  0
POLYLINE
  5
C7
330
1F
100
AcDbEntity
  8
_U+30EC_U+30A4_U+30E4_U+30FC 1
 62
   179
420
  2234388
370
     9
100
AcDb2dPolyline
 66
     1
 10
0.0
 20
0.0
 30
0.0
  0
VERTEX
  5
C8
330
C7
100
AcDbEntity
  8
_U+30EC_U+30A4_U+30E4_U+30FC 1
 62
   179
420
  2234388
370
     9
100
AcDbVertex
100
AcDb2dVertex
 10
71.14878485150994
 20
-141.0635566314008
 30
0.0
  0
VERTEX
  5
C9
330
C7
100
AcDbEntity
  8
_U+30EC_U+30A4_U+30E4_U+30FC 1
 62
   179
420
  2234388
370
     9
100
AcDbVertex
100
AcDb2dVertex
 10
68.68830276060582
 20
-141.0635566314008
 30
0.0
  0
SEQEND
  5
CA
330
C7
100
AcDbEntity
  8
_U+30EC_U+30A4_U+30E4_U+30FC 1
 62
   179
420
  2234388
370
     9
  0
POLYLINE
  5
CB
330
1F
100
AcDbEntity
  8
_U+30EC_U+30A4_U+30E4_U+30FC 1
 62
   179
420
  2234388
370
     9
100
AcDb2dPolyline
 66
     1
 10
0.0
 20
0.0
 30
0.0
  0
VERTEX
  5
CC
330
CB
100
AcDbEntity
  8
_U+30EC_U+30A4_U+30E4_U+30FC 1
 62
   179
420
  2234388
370
     9
100
AcDbVertex
100
AcDb2dVertex
 10
73.688537842271
 20
-143.6033096863216
 30
0.0
  0
VERTEX
  5
CD
330
CB
100
AcDbEntity
  8
_U+30EC_U+30A4_U+30E4_U+30FC 1
 62
   179
420
  2234388
370
     9
100
AcDbVertex
100
AcDb2dVertex
 10
73.688537842271
 20
-146.0637935745952
 30
0.0
  0
SEQEND
  5
CE
330
CB
100
AcDbEntity
  8
_U+30EC_U+30A4_U+30E4_U+30FC 1
 62
   179
420
  2234388
370
     9
  0
POLYLINE
  5
CF
330
1F
100
AcDbEntity
  8
_U+30EC_U+30A4_U+30E4_U+30FC 1
 62
   179
420
  2234388
370
     9
100
AcDb2dPolyline
 66
     1
 10
0.0
 20
0.0
 30
0.0
  0
VERTEX
  5
D0
330
CF
100
AcDbEntity
  8
_U+30EC_U+30A4_U+30E4_U+30FC 1
 62
   179
420
  2234388
370
     9
100
AcDbVertex
100
AcDb2dVertex
 10
73.688537842271
 20
-145.0633157970677
 30
0.0
  0
VERTEX
  5
D1
330
CF
100
AcDbEntity
  8
_U+30EC_U+30A4_U+30E4_U+30FC 1
 62
   179
420
  2234388
370
     9
100
AcDbVertex
100
AcDb2dVertex
 10
93.68867372091391
 20
-145.0633157970677
 30
0.0
  0
SEQEND
  5
D2
330
CF
100
AcDbEntity
  8
_U+30EC_U+30A4_U+30E4_U+30FC 1
 62
   179
420
  2234388
370
     9
  0
POLYLINE
  5
D3
330
1F
100
AcDbEntity
  8
_U+30EC_U+30A4_U+30E4_U+30FC 1
 62
   179
420
  2234388
370
     9
100
AcDb2dPolyline
 66
     1
 10
0.0
 20
0.0
 30
0.0
  0
VERTEX
  5
D4
330
D3
100
AcDbEntity
  8
_U+30EC_U+30A4_U+30E4_U+30FC 1
 62
   179
420
  2234388
370
     9
100
AcDbVertex
100
AcDb2dVertex
 10
93.68867372091391
 20
-143.6033096863216
 30
0.0
  0
VERTEX
  5
D5
330
D3
100
AcDbEntity
  8
_U+30EC_U+30A4_U+30E4_U+30FC 1
 62
   179
420
  2234388
370
     9
100
AcDbVertex
100
AcDb2dVertex
 10
93.68867372091391
 20
-146.0637935745952
 30
0.0
  0
SEQEND
  5
D6
330
D3
100
AcDbEntity
  8
_U+30EC_U+30A4_U+30E4_U+30FC 1
 62
   179
420
  2234388
370
     9
  0
POLYLINE
  5
D7
330
1F
100
AcDbEntity
  8
_U+30EC_U+30A4_U+30E4_U+30FC 1
 62
   179
420
  2234388
370
     9
100
AcDb2dPolyline
 66
     1
 10
0.0
 20
0.0
 30
0.0
  0
VERTEX
  5
D8
330
D7
100
AcDbEntity
  8
_U+30EC_U+30A4_U+30E4_U+30FC 1
 62
   179
420
  2234388
370
     9
100
AcDbVertex
100
AcDb2dVertex
 10
73.688537842271
 20
-117.0634846929563
 30
0.0
  0
VERTEX
  5
D9
330
D7
100
AcDbEntity
  8
_U+30EC_U+30A4_U+30E4_U+30FC 1
 62
   179
420
  2234388
370
     9
100
AcDbVertex
100
AcDb2dVertex
 10
108.6886433382328
 20
-117.0634846929563
 30
0.0
  0
SEQEND
  5
DA
330
D7
100
AcDbEntity
  8
_U+30EC_U+30A4_U+30E4_U+30FC 1
 62
   179
420
  2234388
370
     9
  0
POLYLINE
  5
DB
330
1F
100
AcDbEntity
  8
_U+30EC_U+30A4_U+30E4_U+30FC 1
 62
   179
420
  2234388
370
     9
100
AcDb2dPolyline
 66
     1
 10
0.0
 20
0.0
 30
0.0
  0
VERTEX
  5
DC
330
DB
100
AcDbEntity
  8
_U+30EC_U+30A4_U+30E4_U+30FC 1
 62
   179
420
  2234388
370
     9
100
AcDbVertex
100
AcDb2dVertex
 10
73.688537842271
 20
-118.5235260814803
 30
0.0
  0
VERTEX
  5
DD
330
DB
100
AcDbEntity
  8
_U+30EC_U+30A4_U+30E4_U+30FC 1
 62
   179
420
  2234388
370
     9
100
AcDbVertex
100
AcDb2dVertex
 10
73.688537842271
 20
-116.063712470984
 30
0.0
  0
SEQEND
  5
DE
330
DB
100
AcDbEntity
  8
_U+30EC_U+30A4_U+30E4_U+30FC 1
 62
   179
420
  2234388
370
     9
  0
POLYLINE
  5
DF
330
1F
100
AcDbEntity
  8
_U+30EC_U+30A4_U+30E4_U+30FC 1
 62
   179
420
  2234388
370
     9
100
AcDb2dPolyline
 66
     1
 10
0.0
 20
0.0
 30
0.0
  0
VERTEX
  5
E0
330
DF
100
AcDbEntity
  8
_U+30EC_U+30A4_U+30E4_U+30FC 1
 62
   179
420
  2234388
370
     9
100
AcDbVertex
100
AcDb2dVertex
 10
108.6886433382328
 20
-126.0234758018274
 30
0.0
  0
VERTEX
  5
E1
330
DF
100
AcDbEntity
  8
_U+30EC_U+30A4_U+30E4_U+30FC 1
 62
   179
420
  2234388
370
     9
100
AcDbVertex
100
AcDb2dVertex
 10
108.6886433382328
 20
-116.063712470984
 30
0.0
  0
SEQEND
  5
E2
330
DF
100
AcDbEntity
  8
_U+30EC_U+30A4_U+30E4_U+30FC 1
 62
   179
420
  2234388
370
     9
  0
POLYLINE
  5
E3
330
1F
100
AcDbEntity
  8
_U+30EC_U+30A4_U+30E4_U+30FC 1
 62
   179
420
  2234388
370
     9
100
AcDb2dPolyline
 66
     1
 10
0.0
 20
0.0
 30
0.0
  0
VERTEX
  5
E4
330
E3
100
AcDbEntity
  8
_U+30EC_U+30A4_U+30E4_U+30FC 1
 62
   179
420
  2234388
370
     9
100
AcDbVertex
100
AcDb2dVertex
 10
112.6883671250802
 20
-129.5638477453865
 30
0.0
  0
VERTEX
  5
E5
330
E3
100
AcDbEntity
  8
_U+30EC_U+30A4_U+30E4_U+30FC 1
 62
   179
420
  2234388
370
     9
100
AcDbVertex
100
AcDb2dVertex
 10
112.6883671250802
 20
-139.5635807984428
 30
0.0
  0
SEQEND
  5
E6
330
E3
100
AcDbEntity
  8
_U+30EC_U+30A4_U+30E4_U+30FC 1
 62
   179
420
  2234388
370
     9
  0
POLYLINE
  5
E7
330
1F
100
AcDbEntity
  8
_U+30EC_U+30A4_U+30E4_U+30FC 1
 62
   179
420
  2234388
370
     9
100
AcDb2dPolyline
 66
     1
 10
0.0
 20
0.0
 30
0.0
  0
VERTEX
  5
E8
330
E7
100
AcDbEntity
  8
_U+30EC_U+30A4_U+30E4_U+30FC 1
 62
   179
420
  2234388
370
     9
100
AcDbVertex
100
AcDb2dVertex
 10
111.2283638610817
 20
-129.5638477453865
 30
0.0
  0
VERTEX
  5
E9
330
E7
100
AcDbEntity
  8
_U+30EC_U+30A4_U+30E4_U+30FC 1
 62
   179
420
  2234388
370
     9
100
AcDbVertex
100
AcDb2dVertex
 10
113.6881393217962
 20
-129.5638477453865
 30
0.0
  0
SEQEND
  5
EA
330
E7
100
AcDbEntity
  8
_U+30EC_U+30A4_U+30E4_U+30FC 1
 62
   179
420
  2234388
370
     9
  0
POLYLINE
  5
EB
330
1F
100
AcDbEntity
  8
_U+30EC_U+30A4_U+30E4_U+30FC 1
 62
   179
420
  2234388
370
     9
100
AcDb2dPolyline
 66
     1
 10
0.0
 20
0.0
 30
0.0
  0
VERTEX
  5
EC
330
EB
100
AcDbEntity
  8
_U+30EC_U+30A4_U+30E4_U+30FC 1
 62
   179
420
  2234388
370
     9
100
AcDbVertex
100
AcDb2dVertex
 10
97.72840250674074
 20
-139.5635807984428
 30
0.0
  0
VERTEX
  5
ED
330
EB
100
AcDbEntity
  8
_U+30EC_U+30A4_U+30E4_U+30FC 1
 62
   179
420
  2234388
370
     9
100
AcDbVertex
100
AcDb2dVertex
 10
113.6881393217962
 20
-139.5635807984428
 30
0.0
  0
SEQEND
  5
EE
330
EB
100
AcDbEntity
  8
_U+30EC_U+30A4_U+30E4_U+30FC 1
 62
   179
420
  2234388
370
     9
  0
SPLINE
  5
EF
330
1F
100
AcDbEntity
  8
_U+30EC_U+30A4_U+30E4_U+30FC 1
 62
   179
420
  2234388
370
     9
100
AcDbSpline
210
0.0
220
0.0
230
1.0
 70
    11
 71
     3
 72
    17
 73
    13
 74
     0
 42
0.0000000001
 43
0.0000000001
 12
1.0
 22
0.0
 32
0.0
 13
1.0
 23
0.0
 33
0.0
 40
0.0
 40
0.0
 40
0.0
 40
0.0
 40
1.0
 40
1.0
 40
1.0
 40
2.0
 40
2.0
 40
2.0
 40
3.0
 40
3.0
 40
3.0
 40
4.0
 40
4.0
 40
4.0
 40
4.0
 10
75.27741363506874
 20
-114.8689599712827
 30
0.0
 10
75.27741363506874
 20
-114.8131505268523
 30
0.0
 10
75.23261085843397
 20
-114.7683477490856
 30
0.0
 10
75.1775069709509
 20
-114.7683477490856
 30
0.0
 10
75.12236780569096
 20
-114.7683477490856
 30
0.0
 10
75.07760030683306
 20
-114.8131505268523
 30
0.0
 10
75.07760030683306
 20
-114.8689599712827
 30
0.0
 10
75.07760030683306
 20
-114.924063860158
 30
0.0
 10
75.12236780569096
 20
-114.9688666379244
 30
0.0
 10
75.1775069709509
 20
-114.9688666379244
 30
0.0
 10
75.23261085843397
 20
-114.9688666379244
 30
0.0
 10
75.27741363506874
 20
-114.924063860158
 30
0.0
 10
75.27741363506874
 20
-114.8689599712827
 30
0.0
  0
SPLINE
  5
F0
330
1F
100
AcDbEntity
  8
_U+30EC_U+30A4_U+30E4_U+30FC 1
 62
   179
420
  2234388
370
     9
100
AcDbSpline
210
0.0
220
0.0
230
1.0
 70
    11
 71
     3
 72
    17
 73
    13
 74
     0
 42
0.0000000001
 43
0.0000000001
 12
1.0
 22
0.0
 32
0.0
 13
1.0
 23
0.0
 33
0.0
 40
0.0
 40
0.0
 40
0.0
 40
0.0
 40
1.0
 40
1.0
 40
1.0
 40
2.0
 40
2.0
 40
2.0
 40
3.0
 40
3.0
 40
3.0
 40
4.0
 40
4.0
 40
4.0
 40
4.0
 10
73.60171923337482
 20
-114.8689599712827
 30
0.0
 10
73.60171923337482
 20
-114.8131505268523
 30
0.0
 10
73.55691645674005
 20
-114.7683477490856
 30
0.0
 10
73.50181256925698
 20
-114.7683477490856
 30
0.0
 10
73.44667340399704
 20
-114.7683477490856
 30
0.0
 10
73.40190590513915
 20
-114.8131505268523
 30
0.0
 10
73.40190590513915
 20
-114.8689599712827
 30
0.0
 10
73.40190590513915
 20
-114.924063860158
 30
0.0
 10
73.44667340399704
 20
-114.9688666379244
 30
0.0
 10
73.50181256925698
 20
-114.9688666379244
 30
0.0
 10
73.55691645674005
 20
-114.9688666379244
 30
0.0
 10
73.60171923337482
 20
-114.924063860158
 30
0.0
 10
73.60171923337482
 20
-114.8689599712827
 30
0.0
  0
POLYLINE
  5
F1
330
1F
100
AcDbEntity
  8
_U+30EC_U+30A4_U+30E4_U+30FC 1
 62
   179
420
  2234388
370
     9
100
AcDb2dPolyline
 66
     1
 10
0.0
 20
0.0
 30
0.0
  0
VERTEX
  5
F2
330
F1
100
AcDbEntity
  8
_U+30EC_U+30A4_U+30E4_U+30FC 1
 62
   179
420
  2234388
370
     9
100
AcDbVertex
100
AcDb2dVertex
 10
73.50181256925698
 20
-114.1634044159036
 30
0.0
  0
VERTEX
  5
F3
330
F1
100
AcDbEntity
  8
_U+30EC_U+30A4_U+30E4_U+30FC 1
 62
   179
420
  2234388
370
     9
100
AcDbVertex
100
AcDb2dVertex
 10
73.50181256925698
 20
-115.3981266378171
 30
0.0
  0
SEQEND
  5
F4
330
F1
100
AcDbEntity
  8
_U+30EC_U+30A4_U+30E4_U+30FC 1
 62
   179
420
  2234388
370
     9
  0
POLYLINE
  5
F5
330
1F
100
AcDbEntity
  8
_U+30EC_U+30A4_U+30E4_U+30FC 1
 62
   179
420
  2234388
370
     9
100
AcDb2dPolyline
 66
     1
 10
0.0
 20
0.0
 30
0.0
  0
VERTEX
  5
F6
330
F5
100
AcDbEntity
  8
_U+30EC_U+30A4_U+30E4_U+30FC 1
 62
   179
420
  2234388
370
     9
100
AcDbVertex
100
AcDb2dVertex
 10
75.1775069709509
 20
-114.1634044159036
 30
0.0
  0
VERTEX
  5
F7
330
F5
100
AcDbEntity
  8
_U+30EC_U+30A4_U+30E4_U+30FC 1
 62
   179
420
  2234388
370
     9
100
AcDbVertex
100
AcDb2dVertex
 10
75.1775069709509
 20
-115.3981266378171
 30
0.0
  0
SEQEND
  5
F8
330
F5
100
AcDbEntity
  8
_U+30EC_U+30A4_U+30E4_U+30FC 1
 62
   179
420
  2234388
370
     9
  0
POLYLINE
  5
F9
330
1F
100
AcDbEntity
  8
_U+30EC_U+30A4_U+30E4_U+30FC 1
 62
   179
420
  2234388
370
     9
100
AcDb2dPolyline
 66
     1
 10
0.0
 20
0.0
 30
0.0
  0
VERTEX
  5
FA
330
F9
100
AcDbEntity
  8
_U+30EC_U+30A4_U+30E4_U+30FC 1
 62
   179
420
  2234388
370
     9
100
AcDbVertex
100
AcDb2dVertex
 10
72.28913898908375
 20
-114.8689599712827
 30
0.0
  0
VERTEX
  5
FB
330
F9
100
AcDbEntity
  8
_U+30EC_U+30A4_U+30E4_U+30FC 1
 62
   179
420
  2234388
370
     9
100
AcDbVertex
100
AcDb2dVertex
 10
76.47837499331855
 20
-114.8689599712827
 30
0.0
  0
SEQEND
  5
FC
330
F9
100
AcDbEntity
  8
_U+30EC_U+30A4_U+30E4_U+30FC 1
 62
   179
420
  2234388
370
     9
  0
INSERT
  5
FE
330
1F
100
AcDbEntity
  8
_U+30EC_U+30A4_U+30E4_U+30FC 1
100
AcDbBlockReference
  2
block 2
 10
0.0
 20
0.0
 30
0.0
  0
INSERT
  5
106
330
1F
100
AcDbEntity
  8
_U+30EC_U+30A4_U+30E4_U+30FC 1
100
AcDbBlockReference
  2
block 3
 10
0.0
 20
0.0
 30
0.0
  0
INSERT
  5
10F
330
1F
100
AcDbEntity
  8
_U+30EC_U+30A4_U+30E4_U+30FC 1
100
AcDbBlockReference
  2
block 4
 10
0.0
 20
0.0
 30
0.0
  0
INSERT
  5
11F
330
1F
100
AcDbEntity
  8
_U+30EC_U+30A4_U+30E4_U+30FC 1
100
AcDbBlockReference
  2
block 5
 10
0.0
 20
0.0
 30
0.0
  0
INSERT
  5
12F
330
1F
100
AcDbEntity
  8
_U+30EC_U+30A4_U+30E4_U+30FC 1
100
AcDbBlockReference
  2
block 6
 10
0.0
 20
0.0
 30
0.0
  0
INSERT
  5
138
330
1F
100
AcDbEntity
  8
_U+30EC_U+30A4_U+30E4_U+30FC 1
100
AcDbBlockReference
  2
block 7
 10
0.0
 20
0.0
 30
0.0
  0
INSERT
  5
141
330
1F
100
AcDbEntity
  8
_U+30EC_U+30A4_U+30E4_U+30FC 1
100
AcDbBlockReference
  2
block 8
 10
0.0
 20
0.0
 30
0.0
  0
ENDSEC
  0
SECTION
  2
OBJECTS
  0
DICTIONARY
  5
C
330
0
100
AcDbDictionary
281
     1
  3
ACAD_GROUP
350
D
  3
ACAD_LAYOUT
350
1A
  3
ACAD_MATERIAL
350
3B
  3
ACAD_MLEADERSTYLE
350
147
  3
ACAD_MLINESTYLE
350
17
  3
ACAD_PLOTSETTINGS
350
19
  3
ACAD_PLOTSTYLENAME
350
E
  3
ACAD_TABLESTYLE
350
146
  3
ACAD_VISUALSTYLE
350
2A
  0
SUN
  5
3F
330
29
100
AcDbSun
 90
        1
290
     0
 63
     7
421
 16777215
 40
1.0
291
     1
 91
  2455826
 92
 54000000
292
     0
 70
     2
 71
   256
280
     1
  0
DICTIONARY
  5
D
102
{ACAD_REACTORS
330
C
102
}
330
C
100
AcDbDictionary
281
     1
  0
DICTIONARY
  5
1A
102
{ACAD_REACTORS
330
C
102
}
330
C
100
AcDbDictionary
281
     1
  3
Layout1
350
1E
  3
Layout2
350
26
  3
Model
350
22
  0
DICTIONARY
  5
3B
102
{ACAD_REACTORS
330
C
102
}
330
C
100
AcDbDictionary
281
     1
  3
ByBlock
350
3D
  3
ByLayer
350
3C
  3
Global
350
3E
  0
DICTIONARY
  5
147
102
{ACAD_REACTORS
330
C
102
}
330
C
100
AcDbDictionary
281
     1
  0
DICTIONARY
  5
17
102
{ACAD_REACTORS
330
C
102
}
330
C
100
AcDbDictionary
281
     1
  3
Standard
350
18
  0
DICTIONARY
  5
19
102
{ACAD_REACTORS
330
C
102
}
330
C
100
AcDbDictionary
281
     1
  0
ACDBDICTIONARYWDFLT
  5
E
102
{ACAD_REACTORS
330
C
102
}
330
C
100
AcDbDictionary
281
     1
  3
Normal
350
F
100
AcDbDictionaryWithDefault
340
F
  0
DICTIONARY
  5
146
102
{ACAD_REACTORS
330
C
102
}
330
C
100
AcDbDictionary
281
     1
  0
DICTIONARY
  5
2A
102
{ACAD_REACTORS
330
C
102
}
330
C
100
AcDbDictionary
281
     1
  3
2dWireframe
350
2F
  3
3D Hidden
350
31
  3
3dWireframe
350
30
  3
Basic
350
32
  3
Brighten
350
36
  3
ColorChange
350
3A
  3
Conceptual
350
34
  3
Dim
350
35
  3
Facepattern
350
39
  3
Flat
350
2B
  3
FlatWithEdges
350
2C
  3
Gouraud
350
2D
  3
GouraudWithEdges
350
2E
  3
Linepattern
350
38
  3
Realistic
350
33
  3
Thicken
350
37
  0
LAYOUT
  5
1E
102
{ACAD_REACTORS
330
1A
102
}
330
1A
100
AcDbPlotSettings
  1

  2
none_device
  4

  6

 40
0.0
 41
0.0
 42
0.0
 43
0.0
 44
0.0
 45
0.0
 46
0.0
 47
0.0
 48
0.0
 49
0.0
140
0.0
141
0.0
142
1.0
143
1.0
 70
   688
 72
     0
 73
     0
 74
     5
  7

 75
    16
 76
     0
 77
     2
 78
   300
147
1.0
148
0.0
149
0.0
100
AcDbLayout
  1
Layout1
 70
     1
 71
     1
 10
0.0
 20
0.0
 11
12.0
 21
9.0
 12
0.0
 22
0.0
 32
0.0
 14
1.000000000000000E+20
 24
1.000000000000000E+20
 34
1.000000000000000E+20
 15
-1.000000000000000E+20
 25
-1.000000000000000E+20
 35
-1.000000000000000E+20
146
0.0
 13
0.0
 23
0.0
 33
0.0
 16
1.0
 26
0.0
 36
0.0
 17
0.0
 27
1.0
 37
0.0
 76
     0
330
1B
  0
LAYOUT
  5
26
102
{ACAD_REACTORS
330
1A
102
}
330
1A
100
AcDbPlotSettings
  1

  2
none_device
  4

  6

 40
0.0
 41
0.0
 42
0.0
 43
0.0
 44
0.0
 45
0.0
 46
0.0
 47
0.0
 48
0.0
 49
0.0
140
0.0
141
0.0
142
1.0
143
1.0
 70
   688
 72
     0
 73
     0
 74
     5
  7

 75
    16
 76
     0
 77
     2
 78
   300
147
1.0
148
0.0
149
0.0
100
AcDbLayout
  1
Layout2
 70
     1
 71
     2
 10
0.0
 20
0.0
 11
0.0
 21
0.0
 12
0.0
 22
0.0
 32
0.0
 14
0.0
 24
0.0
 34
0.0
 15
0.0
 25
0.0
 35
0.0
146
0.0
 13
0.0
 23
0.0
 33
0.0
 16
1.0
 26
0.0
 36
0.0
 17
0.0
 27
1.0
 37
0.0
 76
     0
330
23
  0
LAYOUT
  5
22
102
{ACAD_REACTORS
330
1A
102
}
330
1A
100
AcDbPlotSettings
  1

  2
none_device
  4

  6

 40
0.0
 41
0.0
 42
0.0
 43
0.0
 44
0.0
 45
0.0
 46
0.0
 47
0.0
 48
0.0
 49
0.0
140
0.0
141
0.0
142
1.0
143
1.0
 70
  1712
 72
     0
 73
     0
 74
     0
  7

 75
     0
 76
     0
 77
     2
 78
   300
147
1.0
148
0.0
149
0.0
100
AcDbLayout
  1
Model
 70
     1
 71
     0
 10
0.0
 20
0.0
 11
12.0
 21
9.0
 12
0.0
 22
0.0
 32
0.0
 14
1.000000000000000E+20
 24
1.000000000000000E+20
 34
1.000000000000000E+20
 15
-1.000000000000000E+20
 25
-1.000000000000000E+20
 35
-1.000000000000000E+20
146
0.0
 13
0.0
 23
0.0
 33
0.0
 16
1.0
 26
0.0
 36
0.0
 17
0.0
 27
1.0
 37
0.0
 76
     0
330
1F
331
29
  0
MATERIAL
  5
3D
102
{ACAD_REACTORS
330
3B
102
}
330
3B
100
AcDbMaterial
  1
ByBlock
 72
     1
 94
      127
  0
MATERIAL
  5
3C
102
{ACAD_REACTORS
330
3B
102
}
330
3B
100
AcDbMaterial
  1
ByLayer
 72
     1
 94
      127
  0
MATERIAL
  5
3E
102
{ACAD_REACTORS
330
3B
102
}
330
3B
100
AcDbMaterial
  1
Global
 72
     1
 94
      127
  0
MLINESTYLE
  5
18
102
{ACAD_REACTORS
330
17
102
}
330
17
100
AcDbMlineStyle
  2
Standard
 70
     0
  3

 62
   256
 51
90.0
 52
90.0
 71
     2
 49
0.5
 62
   256
  6
BYLAYER
 49
-0.5
 62
   256
  6
BYLAYER
  0
ACDBPLACEHOLDER
  5
F
102
{ACAD_REACTORS
330
E
102
}
330
E
  0
VISUALSTYLE
  5
2F
102
{ACAD_REACTORS
330
2A
102
}
330
2A
100
AcDbVisualStyle
  2
2dWireframe
 70
     4
177
     2
291
     0
 71
     0
176
     1
 72
     2
176
     1
 73
     0
176
     1
 90
        0
176
     1
 40
-0.6
176
     1
 41
-30.0
176
     1
 62
     5
 63
     7
421
 16777215
176
     1
 74
     1
176
     1
 91
        4
176
     1
 64
     7
176
     1
 65
   257
176
     1
 75
     1
176
     1
175
     1
176
     1
 42
1.0
176
     1
 92
        0
176
     1
 66
   257
176
     1
 43
1.0
176
     1
 76
     1
176
     1
 77
     6
176
     1
 78
     2
176
     1
 67
     7
176
     1
 79
     5
176
     1
170
     0
176
     1
171
     0
176
     1
290
     0
176
     1
 93
        1
176
     1
 44
0.0
176
     1
173
     0
176
     1
  0
VISUALSTYLE
  5
31
102
{ACAD_REACTORS
330
2A
102
}
330
2A
100
AcDbVisualStyle
  2
3D Hidden
 70
     6
177
     2
291
     0
 71
     1
176
     1
 72
     2
176
     1
 73
     2
176
     1
 90
        0
176
     1
 40
-0.6
176
     1
 41
-30.0
176
     1
 62
     5
 63
     7
421
 16777215
176
     1
 74
     2
176
     1
 91
        2
176
     1
 64
     7
176
     1
 65
   257
176
     1
 75
     2
176
     1
175
     1
176
     1
 42
40.0
176
     1
 92
        0
176
     1
 66
   257
176
     1
 43
1.0
176
     1
 76
     1
176
     1
 77
     6
176
     1
 78
     2
176
     1
 67
     7
176
     1
 79
     3
176
     1
170
     0
176
     1
171
     0
176
     1
290
     0
176
     1
 93
        1
176
     1
 44
0.0
176
     1
173
     0
176
     1
  0
VISUALSTYLE
  5
30
102
{ACAD_REACTORS
330
2A
102
}
330
2A
100
AcDbVisualStyle
  2
3dWireframe
 70
     5
177
     2
291
     0
 71
     0
176
     1
 72
     2
176
     1
 73
     0
176
     1
 90
        0
176
     1
 40
-0.6
176
     1
 41
-30.0
176
     1
 62
     5
 63
     7
421
 16777215
176
     1
 74
     1
176
     1
 91
        4
176
     1
 64
     7
176
     1
 65
   257
176
     1
 75
     1
176
     1
175
     1
176
     1
 42
1.0
176
     1
 92
        0
176
     1
 66
   257
176
     1
 43
1.0
176
     1
 76
     1
176
     1
 77
     6
176
     1
 78
     2
176
     1
 67
     7
176
     1
 79
     5
176
     1
170
     0
176
     1
171
     0
176
     1
290
     0
176
     1
 93
        1
176
     1
 44
0.0
176
     1
173
     0
176
     1
  0
VISUALSTYLE
  5
32
102
{ACAD_REACTORS
330
2A
102
}
330
2A
100
AcDbVisualStyle
  2
Basic
 70
     7
177
     2
291
     1
 71
     1
176
     1
 72
     0
176
     1
 73
     1
176
     1
 90
        0
176
     1
 40
-0.6
176
     1
 41
-30.0
176
     1
 62
     5
 63
     7
421
 16777215
176
     1
 74
     0
176
     1
 91
        4
176
     1
 64
     7
176
     1
 65
   257
176
     1
 75
     1
176
     1
175
     1
176
     1
 42
1.0
176
     1
 92
        8
176
     1
 66
     7
176
     1
 43
1.0
176
     1
 76
     1
176
     1
 77
     6
176
     1
 78
     2
176
     1
 67
     7
176
     1
 79
     5
176
     1
170
     0
176
     1
171
     0
176
     1
290
     0
176
     1
 93
        1
176
     1
 44
0.0
176
     1
173
     0
176
     1
  0
VISUALSTYLE
  5
36
102
{ACAD_REACTORS
330
2A
102
}
330
2A
100
AcDbVisualStyle
  2
Brighten
 70
    12
177
     2
291
     1
 71
     2
176
     1
 72
     2
176
     1
 73
     0
176
     1
 90
        0
176
     1
 40
-0.6
176
     1
 41
-30.0
176
     1
 62
     5
 63
     7
421
 16777215
176
     1
 74
     1
176
     1
 91
        4
176
     1
 64
     7
176
     1
 65
   257
176
     1
 75
     1
176
     1
175
     1
176
     1
 42
1.0
176
     1
 92
        8
176
     1
 66
     7
176
     1
 43
1.0
176
     1
 76
     1
176
     1
 77
     6
176
     1
 78
     2
176
     1
 67
     7
176
     1
 79
     5
176
     1
170
     0
176
     1
171
     0
176
     1
290
     0
176
     1
 93
        1
176
     1
 44
50.0
176
     1
173
     0
176
     1
  0
VISUALSTYLE
  5
3A
102
{ACAD_REACTORS
330
2A
102
}
330
2A
100
AcDbVisualStyle
  2
ColorChange
 70
    16
177
     2
291
     1
 71
     2
176
     1
 72
     2
176
     1
 73
     3
176
     1
 90
        0
176
     1
 40
-0.6
176
     1
 41
-30.0
176
     1
 62
     5
 63
     8
421
  8421504
176
     1
 74
     1
176
     1
 91
        4
176
     1
 64
     7
176
     1
 65
   257
176
     1
 75
     1
176
     1
175
     1
176
     1
 42
1.0
176
     1
 92
        8
176
     1
 66
     8
424
  8421504
176
     1
 43
1.0
176
     1
 76
     1
176
     1
 77
     6
176
     1
 78
     2
176
     1
 67
     7
176
     1
 79
     5
176
     1
170
     0
176
     1
171
     0
176
     1
290
     0
176
     1
 93
        1
176
     1
 44
0.0
176
     1
173
     0
176
     1
  0
VISUALSTYLE
  5
34
102
{ACAD_REACTORS
330
2A
102
}
330
2A
100
AcDbVisualStyle
  2
Conceptual
 70
     9
177
     2
291
     0
 71
     3
176
     1
 72
     2
176
     1
 73
     0
176
     1
 90
        0
176
     1
 40
-0.6
176
     1
 41
-30.0
176
     1
 62
     5
 63
     7
421
 16777215
176
     1
 74
     2
176
     1
 91
        2
176
     1
 64
     7
176
     1
 65
   257
176
     1
 75
     1
176
     1
175
     1
176
     1
 42
40.0
176
     1
 92
        8
176
     1
 66
     7
176
     1
 43
1.0
176
     1
 76
     1
176
     1
 77
     6
176
     1
 78
     2
176
     1
 67
     7
176
     1
 79
     3
176
     1
170
     0
176
     1
171
     0
176
     1
290
     0
176
     1
 93
        1
176
     1
 44
0.0
176
     1
173
     0
176
     1
  0
VISUALSTYLE
  5
35
102
{ACAD_REACTORS
330
2A
102
}
330
2A
100
AcDbVisualStyle
  2
Dim
 70
    11
177
     2
291
     1
 71
     2
176
     1
 72
     2
176
     1
 73
     0
176
     1
 90
        0
176
     1
 40
-0.6
176
     1
 41
-30.0
176
     1
 62
     5
 63
     7
421
 16777215
176
     1
 74
     1
176
     1
 91
        4
176
     1
 64
     7
176
     1
 65
   257
176
     1
 75
     1
176
     1
175
     1
176
     1
 42
1.0
176
     1
 92
        8
176
     1
 66
     7
176
     1
 43
1.0
176
     1
 76
     1
176
     1
 77
     6
176
     1
 78
     2
176
     1
 67
     7
176
     1
 79
     5
176
     1
170
     0
176
     1
171
     0
176
     1
290
     0
176
     1
 93
        1
176
     1
 44
-50.0
176
     1
173
     0
176
     1
  0
VISUALSTYLE
  5
39
102
{ACAD_REACTORS
330
2A
102
}
330
2A
100
AcDbVisualStyle
  2
Facepattern
 70
    15
177
     2
291
     1
 71
     2
176
     1
 72
     2
176
     1
 73
     0
176
     1
 90
        0
176
     1
 40
-0.6
176
     1
 41
-30.0
176
     1
 62
     5
 63
     7
421
 16777215
176
     1
 74
     1
176
     1
 91
        4
176
     1
 64
     7
176
     1
 65
   257
176
     1
 75
     1
176
     1
175
     1
176
     1
 42
1.0
176
     1
 92
        8
176
     1
 66
     7
176
     1
 43
1.0
176
     1
 76
     1
176
     1
 77
     6
176
     1
 78
     2
176
     1
 67
     7
176
     1
 79
     5
176
     1
170
     0
176
     1
171
     0
176
     1
290
     0
176
     1
 93
        1
176
     1
 44
0.0
176
     1
173
     0
176
     1
  0
VISUALSTYLE
  5
2B
102
{ACAD_REACTORS
330
2A
102
}
330
2A
100
AcDbVisualStyle
  2
Flat
 70
     0
177
     2
291
     1
 71
     2
176
     1
 72
     1
176
     1
 73
     1
176
     1
 90
        2
176
     1
 40
-0.6
176
     1
 41
30.0
176
     1
 62
     5
 63
     7
421
 16777215
176
     1
 74
     0
176
     1
 91
        4
176
     1
 64
     7
176
     1
 65
   257
176
     1
 75
     1
176
     1
175
     1
176
     1
 42
1.0
176
     1
 92
        8
176
     1
 66
     7
176
     1
 43
1.0
176
     1
 76
     1
176
     1
 77
     6
176
     1
 78
     2
176
     1
 67
     7
176
     1
 79
     5
176
     1
170
     0
176
     1
171
     0
176
     1
290
     0
176
     1
 93
       13
176
     1
 44
0.0
176
     1
173
     0
176
     1
  0
VISUALSTYLE
  5
2C
102
{ACAD_REACTORS
330
2A
102
}
330
2A
100
AcDbVisualStyle
  2
FlatWithEdges
 70
     1
177
     2
291
     1
 71
     2
176
     1
 72
     1
176
     1
 73
     1
176
     1
 90
        2
176
     1
 40
-0.6
176
     1
 41
30.0
176
     1
 62
     5
 63
     7
421
 16777215
176
     1
 74
     1
176
     1
 91
        4
176
     1
 64
     7
176
     1
 65
   257
176
     1
 75
     1
176
     1
175
     1
176
     1
 42
1.0
176
     1
 92
        0
176
     1
 66
   257
176
     1
 43
1.0
176
     1
 76
     1
176
     1
 77
     6
176
     1
 78
     2
176
     1
 67
     7
176
     1
 79
     5
176
     1
170
     0
176
     1
171
     0
176
     1
290
     0
176
     1
 93
       13
176
     1
 44
0.0
176
     1
173
     0
176
     1
  0
VISUALSTYLE
  5
2D
102
{ACAD_REACTORS
330
2A
102
}
330
2A
100
AcDbVisualStyle
  2
Gouraud
 70
     2
177
     2
291
     1
 71
     2
176
     1
 72
     2
176
     1
 73
     1
176
     1
 90
        2
176
     1
 40
-0.6
176
     1
 41
30.0
176
     1
 62
     5
 63
     7
421
 16777215
176
     1
 74
     0
176
     1
 91
        4
176
     1
 64
     7
176
     1
 65
   257
176
     1
 75
     1
176
     1
175
     1
176
     1
 42
1.0
176
     1
 92
        0
176
     1
 66
     7
176
     1
 43
1.0
176
     1
 76
     1
176
     1
 77
     6
176
     1
 78
     2
176
     1
 67
     7
176
     1
 79
     5
176
     1
170
     0
176
     1
171
     0
176
     1
290
     0
176
     1
 93
       13
176
     1
 44
0.0
176
     1
173
     0
176
     1
  0
VISUALSTYLE
  5
2E
102
{ACAD_REACTORS
330
2A
102
}
330
2A
100
AcDbVisualStyle
  2
GouraudWithEdges
 70
     3
177
     2
291
     1
 71
     2
176
     1
 72
     2
176
     1
 73
     1
176
     1
 90
        2
176
     1
 40
-0.6
176
     1
 41
30.0
176
     1
 62
     5
 63
     7
421
 16777215
176
     1
 74
     1
176
     1
 91
        4
176
     1
 64
     7
176
     1
 65
   257
176
     1
 75
     1
176
     1
175
     1
176
     1
 42
1.0
176
     1
 92
        0
176
     1
 66
   257
176
     1
 43
1.0
176
     1
 76
     1
176
     1
 77
     6
176
     1
 78
     2
176
     1
 67
     7
176
     1
 79
     5
176
     1
170
     0
176
     1
171
     0
176
     1
290
     0
176
     1
 93
       13
176
     1
 44
0.0
176
     1
173
     0
176
     1
  0
VISUALSTYLE
  5
38
102
{ACAD_REACTORS
330
2A
102
}
330
2A
100
AcDbVisualStyle
  2
Linepattern
 70
    14
177
     2
291
     1
 71
     2
176
     1
 72
     2
176
     1
 73
     0
176
     1
 90
        0
176
     1
 40
-0.6
176
     1
 41
-30.0
176
     1
 62
     5
 63
     7
421
 16777215
176
     1
 74
     1
176
     1
 91
        4
176
     1
 64
     7
176
     1
 65
   257
176
     1
 75
     7
176
     1
175
     7
176
     1
 42
1.0
176
     1
 92
        8
176
     1
 66
     7
176
     1
 43
1.0
176
     1
 76
     1
176
     1
 77
     6
176
     1
 78
     2
176
     1
 67
     7
176
     1
 79
     5
176
     1
170
     0
176
     1
171
     0
176
     1
290
     0
176
     1
 93
        1
176
     1
 44
0.0
176
     1
173
     0
176
     1
  0
VISUALSTYLE
  5
33
102
{ACAD_REACTORS
330
2A
102
}
330
2A
100
AcDbVisualStyle
  2
Realistic
 70
     8
177
     2
291
     0
 71
     2
176
     1
 72
     2
176
     1
 73
     0
176
     1
 90
        0
176
     1
 40
-0.6
176
     1
 41
-30.0
176
     1
 62
     5
 63
     7
421
 16777215
176
     1
 74
     1
176
     1
 91
        0
176
     1
 64
     7
176
     1
 65
   257
176
     1
 75
     1
176
     1
175
     1
176
     1
 42
1.0
176
     1
 92
        8
176
     1
 66
     8
424
  7895160
176
     1
 43
1.0
176
     1
 76
     1
176
     1
 77
     6
176
     1
 78
     2
176
     1
 67
     7
176
     1
 79
     5
176
     1
170
     0
176
     1
171
     0
176
     1
290
     0
176
     1
 93
       13
176
     1
 44
0.0
176
     1
173
     0
176
     1
  0
VISUALSTYLE
  5
37
102
{ACAD_REACTORS
330
2A
102
}
330
2A
100
AcDbVisualStyle
  2
Thicken
 70
    13
177
     2
291
     1
 71
     2
176
     1
 72
     2
176
     1
 73
     0
176
     1
 90
        0
176
     1
 40
-0.6
176
     1
 41
-30.0
176
     1
 62
     5
 63
     7
421
 16777215
176
     1
 74
     1
176
     1
 91
        4
176
     1
 64
     7
176
     1
 65
   257
176
     1
 75
     1
176
     1
175
     1
176
     1
 42
1.0
176
     1
 92
       12
176
     1
 66
     7
176
     1
 43
1.0
176
     1
 76
     1
176
     1
 77
     6
176
     1
 78
     2
176
     1
 67
     7
176
     1
 79
     5
176
     1
170
     0
176
     1
171
     0
176
     1
290
     0
176
     1
 93
        1
176
     1
 44
0.0
176
     1
173
     0
176
     1
  0
ENDSEC
  0
EOF
