  0
SECTION
  2
HEADER
  9
$ACADVER
  1
AC1024
  9
$ACADMAINTVER
 70
     6
  9
$DWGCODEPAGE
  3
UNDEFINED
  9
$INSBASE
 10
0.0
 20
0.0
 30
0.0
  9
$EXTMIN
 10
1.000000000000000E+20
 20
1.000000000000000E+20
 30
1.000000000000000E+20
  9
$EXTMAX
 10
-1.000000000000000E+20
 20
-1.000000000000000E+20
 30
-1.000000000000000E+20
  9
$LIMMIN
 10
0.0
 20
0.0
  9
$LIMMAX
 10
12.0
 20
9.0
  9
$ORTHOMODE
 70
     0
  9
$REGENMODE
 70
     1
  9
$FILLMODE
 70
     1
  9
$QTEXTMODE
 70
     0
  9
$MIRRTEXT
 70
     1
  9
$LTSCALE
 40
1.0
  9
$ATTMODE
 70
     1
  9
$TEXTSIZE
 40
0.2
  9
$TRACEWID
 40
0.05
  9
$TEXTSTYLE
  7
Standard
  9
$CLAYER
  8
0
  9
$CELTYPE
  6
ByLayer
  9
$CECOLOR
 62
   256
  9
$CELTSCALE
 40
1.0
  9
$DISPSILH
 70
     0
  9
$DIMSCALE
 40
1.0
  9
$DIMASZ
 40
0.18
  9
$DIMEXO
 40
0.0625
  9
$DIMDLI
 40
0.38
  9
$DIMRND
 40
0.0
  9
$DIMDLE
 40
0.0
  9
$DIMEXE
 40
0.18
  9
$DIMTP
 40
0.0
  9
$DIMTM
 40
0.0
  9
$DIMTXT
 40
0.18
  9
$DIMCEN
 40
0.09
  9
$DIMTSZ
 40
0.0
  9
$DIMTOL
 70
     0
  9
$DIMLIM
 70
     0
  9
$DIMTIH
 70
     1
  9
$DIMTOH
 70
     1
  9
$DIMSE1
 70
     0
  9
$DIMSE2
 70
     0
  9
$DIMTAD
 70
     0
  9
$DIMZIN
 70
     0
  9
$DIMBLK
  1

  9
$DIMASO
 70
     1
  9
$DIMSHO
 70
     1
  9
$DIMPOST
  1

  9
$DIMAPOST
  1

  9
$DIMALT
 70
     0
  9
$DIMALTD
 70
     2
  9
$DIMALTF
 40
25.4
  9
$DIMLFAC
 40
1.0
  9
$DIMTOFL
 70
     0
  9
$DIMTVP
 40
0.0
  9
$DIMTIX
 70
     0
  9
$DIMSOXD
 70
     0
  9
$DIMSAH
 70
     0
  9
$DIMBLK1
  1

  9
$DIMBLK2
  1

  9
$DIMSTYLE
  2
Standard
  9
$DIMCLRD
 70
     0
  9
$DIMCLRE
 70
     0
  9
$DIMCLRT
 70
     0
  9
$DIMTFAC
 40
1.0
  9
$DIMGAP
 40
0.09
  9
$DIMJUST
 70
     0
  9
$DIMSD1
 70
     0
  9
$DIMSD2
 70
     0
  9
$DIMTOLJ
 70
     1
  9
$DIMTZIN
 70
     0
  9
$DIMALTZ
 70
     0
  9
$DIMALTTZ
 70
     0
  9
$DIMUPT
 70
     0
  9
$DIMDEC
 70
     4
  9
$DIMTDEC
 70
     4
  9
$DIMALTU
 70
     2
  9
$DIMALTTD
 70
     2
  9
$DIMTXSTY
  7
Standard
  9
$DIMAUNIT
 70
     0
  9
$DIMADEC
 70
     0
  9
$DIMALTRND
 40
0.0
  9
$DIMAZIN
 70
     0
  9
$DIMDSEP
 70
    46
  9
$DIMATFIT
 70
     3
  9
$DIMFRAC
 70
     0
  9
$DIMLDRBLK
  1

  9
$DIMLUNIT
 70
     2
  9
$DIMLWD
 70
    -2
  9
$DIMLWE
 70
    -2
  9
$DIMTMOVE
 70
     0
  9
$DIMFXL
 40
1.0
  9
$DIMFXLON
 70
     0
  9
$DIMJOGANG
 40
0.7853981633974483
  9
$DIMTFILL
 70
     0
  9
$DIMTFILLCLR
 70
     0
  9
$DIMARCSYM
 70
     0
  9
$DIMLTYPE
  6

  9
$DIMLTEX1
  6

  9
$DIMLTEX2
  6

  9
$DIMTXTDIRECTION
 70
     0
  9
$LUNITS
 70
     2
  9
$LUPREC
 70
     4
  9
$SKETCHINC
 40
0.1
  9
$FILLETRAD
 40
0.5
  9
$AUNITS
 70
     0
  9
$AUPREC
 70
     0
  9
$MENU
  1
.
  9
$ELEVATION
 40
0.0
  9
$PELEVATION
 40
0.0
  9
$THICKNESS
 40
0.0
  9
$LIMCHECK
 70
     0
  9
$CHAMFERA
 40
0.5
  9
$CHAMFERB
 40
0.5
  9
$CHAMFERC
 40
1.0
  9
$CHAMFERD
 40
0.0
  9
$SKPOLY
 70
     0
  9
$TDCREATE
 40
2457917.5921875
  9
$TDUCREATE
 40
2457917.2171875
  9
$TDUPDATE
 40
2457917.5921875
  9
$TDUUPDATE
 40
2457917.2171875
  9
$TDINDWG
 40
0.0000000116
  9
$TDUSRTIMER
 40
0.0000000116
  9
$USRTIMER
 70
     1
  9
$ANGBASE
 50
0.0
  9
$ANGDIR
 70
     0
  9
$PDMODE
 70
     0
  9
$PDSIZE
 40
0.0
  9
$PLINEWID
 40
0.0
  9
$SPLFRAME
 70
     0
  9
$SPLINETYPE
 70
     6
  9
$SPLINESEGS
 70
     8
  9
$HANDSEED
  5
140
  9
$SURFTAB1
 70
     6
  9
$SURFTAB2
 70
     6
  9
$SURFTYPE
 70
     6
  9
$SURFU
 70
     6
  9
$SURFV
 70
     6
  9
$UCSBASE
  2

  9
$UCSNAME
  2

  9
$UCSORG
 10
0.0
 20
0.0
 30
0.0
  9
$UCSXDIR
 10
1.0
 20
0.0
 30
0.0
  9
$UCSYDIR
 10
0.0
 20
1.0
 30
0.0
  9
$UCSORTHOREF
  2

  9
$UCSORTHOVIEW
 70
     0
  9
$UCSORGTOP
 10
0.0
 20
0.0
 30
0.0
  9
$UCSORGBOTTOM
 10
0.0
 20
0.0
 30
0.0
  9
$UCSORGLEFT
 10
0.0
 20
0.0
 30
0.0
  9
$UCSORGRIGHT
 10
0.0
 20
0.0
 30
0.0
  9
$UCSORGFRONT
 10
0.0
 20
0.0
 30
0.0
  9
$UCSORGBACK
 10
0.0
 20
0.0
 30
0.0
  9
$PUCSBASE
  2

  9
$PUCSNAME
  2

  9
$PUCSORG
 10
0.0
 20
0.0
 30
0.0
  9
$PUCSXDIR
 10
1.0
 20
0.0
 30
0.0
  9
$PUCSYDIR
 10
0.0
 20
1.0
 30
0.0
  9
$PUCSORTHOREF
  2

  9
$PUCSORTHOVIEW
 70
     0
  9
$PUCSORGTOP
 10
0.0
 20
0.0
 30
0.0
  9
$PUCSORGBOTTOM
 10
0.0
 20
0.0
 30
0.0
  9
$PUCSORGLEFT
 10
0.0
 20
0.0
 30
0.0
  9
$PUCSORGRIGHT
 10
0.0
 20
0.0
 30
0.0
  9
$PUCSORGFRONT
 10
0.0
 20
0.0
 30
0.0
  9
$PUCSORGBACK
 10
0.0
 20
0.0
 30
0.0
  9
$USERI1
 70
     0
  9
$USERI2
 70
     0
  9
$USERI3
 70
     0
  9
$USERI4
 70
     0
  9
$USERI5
 70
     0
  9
$USERR1
 40
0.0
  9
$USERR2
 40
0.0
  9
$USERR3
 40
0.0
  9
$USERR4
 40
0.0
  9
$USERR5
 40
0.0
  9
$WORLDVIEW
 70
     1
  9
$SHADEDGE
 70
     3
  9
$SHADEDIF
 70
    70
  9
$TILEMODE
 70
     1
  9
$MAXACTVP
 70
    64
  9
$PINSBASE
 10
0.0
 20
0.0
 30
0.0
  9
$PLIMCHECK
 70
     0
  9
$PEXTMIN
 10
1.000000000000000E+20
 20
1.000000000000000E+20
 30
1.000000000000000E+20
  9
$PEXTMAX
 10
-1.000000000000000E+20
 20
-1.000000000000000E+20
 30
-1.000000000000000E+20
  9
$PLIMMIN
 10
0.0
 20
0.0
  9
$PLIMMAX
 10
12.0
 20
9.0
  9
$UNITMODE
 70
     0
  9
$VISRETAIN
 70
     1
  9
$PLINEGEN
 70
     0
  9
$PSLTSCALE
 70
     1
  9
$TREEDEPTH
 70
  3020
  9
$CMLSTYLE
  2
Standard
  9
$CMLJUST
 70
     0
  9
$CMLSCALE
 40
1.0
  9
$PROXYGRAPHICS
 70
     1
  9
$MEASUREMENT
 70
     0
  9
$CELWEIGHT
370
    -1
  9
$ENDCAPS
280
     0
  9
$JOINSTYLE
280
     0
  9
$LWDISPLAY
290
     1
  9
$INSUNITS
 70
     1
  9
$HYPERLINKBASE
  1

  9
$STYLESHEET
  1

  9
$XEDIT
290
     1
  9
$CEPSNTYPE
380
     0
  9
$PSTYLEMODE
290
     1
  9
$FINGERPRINTGUID
  2
{D927733D-4025-D269-60DA-B05F8D062941}
  9
$VERSIONGUID
  2
{FAEB1C32-E019-11D5-929B-00C0DF256EC4}
  9
$EXTNAMES
290
     1
  9
$PSVPSCALE
 40
0.0
  9
$OLESTARTUP
290
     0
  9
$SORTENTS
280
   127
  9
$INDEXCTL
280
     0
  9
$HIDETEXT
280
     1
  9
$XCLIPFRAME
280
     2
  9
$HALOGAP
280
     0
  9
$OBSCOLOR
 70
   257
  9
$OBSLTYPE
280
     0
  9
$INTERSECTIONDISPLAY
280
     0
  9
$INTERSECTIONCOLOR
 70
   257
  9
$DIMASSOC
280
     2
  9
$PROJECTNAME
  1

  9
$CAMERADISPLAY
290
     0
  9
$LENSLENGTH
 40
50.0
  9
$CAMERAHEIGHT
 40
0.0
  9
$STEPSPERSEC
 40
2.0
  9
$STEPSIZE
 40
6.0
  9
$3DDWFPREC
 40
2.0
  9
$PSOLWIDTH
 40
0.25
  9
$PSOLHEIGHT
 40
4.0
  9
$LOFTANG1
 40
1.570796326794897
  9
$LOFTANG2
 40
1.570796326794897
  9
$LOFTMAG1
 40
0.0
  9
$LOFTMAG2
 40
0.0
  9
$LOFTPARAM
 70
     7
  9
$LOFTNORMALS
280
     1
  9
$LATITUDE
 40
37.795
  9
$LONGITUDE
 40
-122.394
  9
$NORTHDIRECTION
 40
0.0
  9
$TIMEZONE
 70
 -8000
  9
$LIGHTGLYPHDISPLAY
280
     1
  9
$TILEMODELIGHTSYNCH
280
     1
  9
$CMATERIAL
347
3C
  9
$SOLIDHIST
280
     1
  9
$SHOWHIST
280
     1
  9
$DWFFRAME
280
     2
  9
$DGNFRAME
280
     2
  9
$REALWORLDSCALE
290
     1
  9
$INTERFERECOLOR
 62
   256
  9
$CSHADOW
280
     0
  9
$SHADOWPLANELOCATION
 40
0.0
  0
ENDSEC
  0
SECTION
  2
CLASSES
  0
CLASS
  1
ACDBDICTIONARYWDFLT
  2
AcDbDictionaryWithDefault
  3
ObjectDBX Classes
 90
        0
 91
        4
280
     0
281
     0
  0
CLASS
  1
VISUALSTYLE
  2
AcDbVisualStyle
  3
ObjectDBX Classes
 90
     4095
 91
        4
280
     0
281
     0
  0
CLASS
  1
MATERIAL
  2
AcDbMaterial
  3
ObjectDBX Classes
 90
     1153
 91
        4
280
     0
281
     0
  0
CLASS
  1
SUN
  2
AcDbSun
  3
SCENEOE
 90
     1024
 91
        4
280
     0
281
     0
  0
ENDSEC
  0
SECTION
  2
TABLES
  0
TABLE
  2
VPORT
  5
8
330
0
100
AcDbSymbolTable
 70
     1
  0
VPORT
  5
29
330
8
100
AcDbSymbolTableRecord
100
AcDbViewportTableRecord
  2
*Active
 70
     0
 10
0.0
 20
0.0
 11
1.0
 21
1.0
 12
0.0
 22
0.0
 13
0.0
 23
0.0
 14
0.5
 24
0.5
 15
0.5
 25
0.5
 16
0.0
 26
0.0
 36
1.0
 17
91.00082462281999
 27
-128.4993055234307
 37
0.0
 40
256.9986110468615
 41
0.7081814508812795
 42
50.0
 43
0.0
 44
0.0
 50
0.0
 51
0.0
 71
     0
 72
   100
 73
     1
 74
     3
 75
     0
 76
     0
 77
     0
 78
     0
281
     0
 65
     1
110
0.0
120
0.0
130
0.0
111
1.0
121
0.0
131
0.0
112
0.0
122
1.0
132
0.0
 79
     0
146
0.0
 60
     3
 61
     5
292
     1
282
     1
141
0.0
142
0.0
 63
   250
361
3F
  0
ENDTAB
  0
TABLE
  2
LTYPE
  5
5
330
0
100
AcDbSymbolTable
 70
     1
  0
LTYPE
  5
14
330
5
100
AcDbSymbolTableRecord
100
AcDbLinetypeTableRecord
  2
ByBlock
 70
     0
  3

 72
    65
 73
     0
 40
0.0
  0
LTYPE
  5
15
330
5
100
AcDbSymbolTableRecord
100
AcDbLinetypeTableRecord
  2
ByLayer
 70
     0
  3

 72
    65
 73
     0
 40
0.0
  0
LTYPE
  5
16
330
5
100
AcDbSymbolTableRecord
100
AcDbLinetypeTableRecord
  2
Continuous
 70
     0
  3
Solid line
 72
    65
 73
     0
 40
0.0
  0
ENDTAB
  0
TABLE
  2
LAYER
  5
2
330
0
100
AcDbSymbolTable
 70
     2
  0
LAYER
  5
10
330
2
100
AcDbSymbolTableRecord
100
AcDbLayerTableRecord
  2
0
 70
     0
 62
     7
  6
Continuous
370
    -3
390
F
347
3E
  0
LAYER
  5
40
330
2
100
AcDbSymbolTableRecord
100
AcDbLayerTableRecord
  2
_U+30EC_U+30A4_U+30E4_U+30FC 1
 70
     0
 62
     7
  6
Continuous
370
    -3
390
F
347
3E
  0
ENDTAB
  0
TABLE
  2
STYLE
  5
3
330
0
100
AcDbSymbolTable
 70
     1
  0
STYLE
  5
11
330
3
100
AcDbSymbolTableRecord
100
AcDbTextStyleTableRecord
  2
Standard
 70
     0
 40
0.0
 41
1.0
 50
0.0
 71
     0
 42
0.2
  3
txt
  4

  0
ENDTAB
  0
TABLE
  2
VIEW
  5
6
330
0
100
AcDbSymbolTable
 70
     0
  0
ENDTAB
  0
TABLE
  2
UCS
  5
7
330
0
100
AcDbSymbolTable
 70
     0
  0
ENDTAB
  0
TABLE
  2
APPID
  5
9
330
0
100
AcDbSymbolTable
 70
     1
  0
APPID
  5
12
330
9
100
AcDbSymbolTableRecord
100
AcDbRegAppTableRecord
  2
ACAD
 70
     0
  0
ENDTAB
  0
TABLE
  2
DIMSTYLE
  5
A
330
0
100
AcDbSymbolTable
 70
     1
100
AcDbDimStyleTable
  0
DIMSTYLE
105
27
330
A
100
AcDbSymbolTableRecord
100
AcDbDimStyleTableRecord
  2
Standard
 70
     0
178
     0
340
11
  0
ENDTAB
  0
TABLE
  2
BLOCK_RECORD
  5
1
330
0
100
AcDbSymbolTable
 70
     9
  0
BLOCK_RECORD
  5
1F
330
1
100
AcDbSymbolTableRecord
100
AcDbBlockTableRecord
  2
*Model_Space
340
22
 70
     0
280
     1
281
     0
  0
BLOCK_RECORD
  5
1B
330
1
100
AcDbSymbolTableRecord
100
AcDbBlockTableRecord
  2
*Paper_Space
340
1E
 70
     0
280
     1
281
     0
  0
BLOCK_RECORD
  5
23
330
1
100
AcDbSymbolTableRecord
100
AcDbBlockTableRecord
  2
*Paper_Space0
340
26
 70
     0
280
     1
281
     0
  0
BLOCK_RECORD
  5
41
330
1
100
AcDbSymbolTableRecord
100
AcDbBlockTableRecord
  2
block 2
340
0
102
{BLKREFS
331
42
102
}
 70
     0
280
     1
281
     0
  0
BLOCK_RECORD
  5
ED
330
1
100
AcDbSymbolTableRecord
100
AcDbBlockTableRecord
  2
block 3
340
0
102
{BLKREFS
331
EE
102
}
 70
     0
280
     1
281
     0
  0
BLOCK_RECORD
  5
FD
330
1
100
AcDbSymbolTableRecord
100
AcDbBlockTableRecord
  2
block 4
340
0
102
{BLKREFS
331
FE
102
}
 70
     0
280
     1
281
     0
  0
BLOCK_RECORD
  5
10E
330
1
100
AcDbSymbolTableRecord
100
AcDbBlockTableRecord
  2
block 5
340
0
102
{BLKREFS
331
10F
102
}
 70
     0
280
     1
281
     0
  0
BLOCK_RECORD
  5
117
330
1
100
AcDbSymbolTableRecord
100
AcDbBlockTableRecord
  2
block 6
340
0
102
{BLKREFS
331
118
102
}
 70
     0
280
     1
281
     0
  0
BLOCK_RECORD
  5
11D
330
1
100
AcDbSymbolTableRecord
100
AcDbBlockTableRecord
  2
block 7
340
0
102
{BLKREFS
331
11E
102
}
 70
     0
280
     1
281
     0
  0
BLOCK_RECORD
  5
125
330
1
100
AcDbSymbolTableRecord
100
AcDbBlockTableRecord
  2
block 8
340
0
102
{BLKREFS
331
126
102
}
 70
     0
280
     1
281
     0
  0
BLOCK_RECORD
  5
12E
330
1
100
AcDbSymbolTableRecord
100
AcDbBlockTableRecord
  2
block 9
340
0
102
{BLKREFS
331
12F
102
}
 70
     0
280
     1
281
     0
  0
ENDTAB
  0
ENDSEC
  0
SECTION
  2
BLOCKS
  0
BLOCK
  5
20
330
1F
100
AcDbEntity
  8
0
100
AcDbBlockBegin
  2
*Model_Space
 70
     0
 10
0.0
 20
0.0
 30
0.0
  3
*Model_Space
  1

  0
ENDBLK
  5
21
330
1F
100
AcDbEntity
  8
0
100
AcDbBlockEnd
  0
BLOCK
  5
1C
330
1B
100
AcDbEntity
 67
     1
  8
0
100
AcDbBlockBegin
  2
*Paper_Space
 70
     0
 10
0.0
 20
0.0
 30
0.0
  3
*Paper_Space
  1

  0
ENDBLK
  5
1D
330
1B
100
AcDbEntity
 67
     1
  8
0
100
AcDbBlockEnd
  0
BLOCK
  5
24
330
23
100
AcDbEntity
  8
0
100
AcDbBlockBegin
  2
*Paper_Space0
 70
     0
 10
0.0
 20
0.0
 30
0.0
  3
*Paper_Space0
  1

  0
ENDBLK
  5
25
330
23
100
AcDbEntity
  8
0
100
AcDbBlockEnd
  0
BLOCK
  5
43
330
41
100
AcDbEntity
  8
0
100
AcDbBlockBegin
  2
block 2
 70
     0
 10
0.0
 20
0.0
 30
0.0
  3
block 2
  1

  0
POLYLINE
  5
45
330
41
100
AcDbEntity
  8
_U+30EC_U+30A4_U+30E4_U+30FC 1
 62
   179
420
  2234388
370
    25
100
AcDb2dPolyline
 66
     1
 10
0.0
 20
0.0
 30
0.0
  0
VERTEX
  5
46
330
45
100
AcDbEntity
  8
_U+30EC_U+30A4_U+30E4_U+30FC 1
 62
   179
420
  2234388
370
    25
100
AcDbVertex
100
AcDb2dVertex
 10
73.6447581211657
 20
-120.9419588586533
 30
0.0
  0
VERTEX
  5
47
330
45
100
AcDbEntity
  8
_U+30EC_U+30A4_U+30E4_U+30FC 1
 62
   179
420
  2234388
370
    25
100
AcDbVertex
100
AcDb2dVertex
 10
73.6447581211657
 20
-140.9423069092091
 30
0.0
  0
SEQEND
  5
48
330
45
100
AcDbEntity
  8
_U+30EC_U+30A4_U+30E4_U+30FC 1
 62
   179
420
  2234388
370
    25
  0
POLYLINE
  5
49
330
41
100
AcDbEntity
  8
_U+30EC_U+30A4_U+30E4_U+30FC 1
 62
   179
420
  2234388
370
    25
100
AcDb2dPolyline
 66
     1
 10
0.0
 20
0.0
 30
0.0
  0
VERTEX
  5
4A
330
49
100
AcDbEntity
  8
_U+30EC_U+30A4_U+30E4_U+30FC 1
 62
   179
420
  2234388
370
    25
100
AcDbVertex
100
AcDb2dVertex
 10
108.6455691726651
 20
-131.9423460781255
 30
0.0
  0
VERTEX
  5
4B
330
49
100
AcDbEntity
  8
_U+30EC_U+30A4_U+30E4_U+30FC 1
 62
   179
420
  2234388
370
    25
100
AcDbVertex
100
AcDb2dVertex
 10
108.6455691726651
 20
-132.9427885778754
 30
0.0
  0
SEQEND
  5
4C
330
49
100
AcDbEntity
  8
_U+30EC_U+30A4_U+30E4_U+30FC 1
 62
   179
420
  2234388
370
    25
  0
POLYLINE
  5
4D
330
41
100
AcDbEntity
  8
_U+30EC_U+30A4_U+30E4_U+30FC 1
 62
   179
420
  2234388
370
    25
100
AcDb2dPolyline
 66
     1
 10
0.0
 20
0.0
 30
0.0
  0
VERTEX
  5
4E
330
4D
100
AcDbEntity
  8
_U+30EC_U+30A4_U+30E4_U+30FC 1
 62
   179
420
  2234388
370
    25
100
AcDbVertex
100
AcDb2dVertex
 10
73.6447581211657
 20
-120.9419588586533
 30
0.0
  0
VERTEX
  5
4F
330
4D
100
AcDbEntity
  8
_U+30EC_U+30A4_U+30E4_U+30FC 1
 62
   179
420
  2234388
370
    25
100
AcDbVertex
100
AcDb2dVertex
 10
75.14476919400833
 20
-120.9419588586533
 30
0.0
  0
SEQEND
  5
50
330
4D
100
AcDbEntity
  8
_U+30EC_U+30A4_U+30E4_U+30FC 1
 62
   179
420
  2234388
370
    25
  0
POLYLINE
  5
51
330
41
100
AcDbEntity
  8
_U+30EC_U+30A4_U+30E4_U+30FC 1
 62
   179
420
  2234388
370
    25
100
AcDb2dPolyline
 66
     1
 10
0.0
 20
0.0
 30
0.0
  0
VERTEX
  5
52
330
51
100
AcDbEntity
  8
_U+30EC_U+30A4_U+30E4_U+30FC 1
 62
   179
420
  2234388
370
    25
100
AcDbVertex
100
AcDb2dVertex
 10
73.6447581211657
 20
-140.9423069092091
 30
0.0
  0
VERTEX
  5
53
330
51
100
AcDbEntity
  8
_U+30EC_U+30A4_U+30E4_U+30FC 1
 62
   179
420
  2234388
370
    25
100
AcDbVertex
100
AcDb2dVertex
 10
93.64492927758549
 20
-140.9423069092091
 30
0.0
  0
SEQEND
  5
54
330
51
100
AcDbEntity
  8
_U+30EC_U+30A4_U+30E4_U+30FC 1
 62
   179
420
  2234388
370
    25
  0
POLYLINE
  5
55
330
41
100
AcDbEntity
  8
_U+30EC_U+30A4_U+30E4_U+30FC 1
 62
   179
420
  2234388
370
    25
100
AcDb2dPolyline
 66
     1
 10
0.0
 20
0.0
 30
0.0
  0
VERTEX
  5
56
330
55
100
AcDbEntity
  8
_U+30EC_U+30A4_U+30E4_U+30FC 1
 62
   179
420
  2234388
370
    25
100
AcDbVertex
100
AcDb2dVertex
 10
75.14543947176901
 20
-136.4423088547785
 30
0.0
  0
VERTEX
  5
57
330
55
100
AcDbEntity
  8
_U+30EC_U+30A4_U+30E4_U+30FC 1
 62
   179
420
  2234388
370
    25
100
AcDbVertex
100
AcDb2dVertex
 10
75.14543947176901
 20
-139.9425346872366
 30
0.0
  0
SEQEND
  5
58
330
55
100
AcDbEntity
  8
_U+30EC_U+30A4_U+30E4_U+30FC 1
 62
   179
420
  2234388
370
    25
  0
POLYLINE
  5
59
330
41
100
AcDbEntity
  8
_U+30EC_U+30A4_U+30E4_U+30FC 1
 62
   179
420
  2234388
370
    25
100
AcDb2dPolyline
 66
     1
 10
0.0
 20
0.0
 30
0.0
  0
VERTEX
  5
5A
330
59
100
AcDbEntity
  8
_U+30EC_U+30A4_U+30E4_U+30FC 1
 62
   179
420
  2234388
370
    25
100
AcDbVertex
100
AcDb2dVertex
 10
93.64492927758549
 20
-139.4422957984729
 30
0.0
  0
VERTEX
  5
5B
330
59
100
AcDbEntity
  8
_U+30EC_U+30A4_U+30E4_U+30FC 1
 62
   179
420
  2234388
370
    25
100
AcDbVertex
100
AcDb2dVertex
 10
93.64492927758549
 20
-140.9423069092091
 30
0.0
  0
SEQEND
  5
5C
330
59
100
AcDbEntity
  8
_U+30EC_U+30A4_U+30E4_U+30FC 1
 62
   179
420
  2234388
370
    25
  0
POLYLINE
  5
5D
330
41
100
AcDbEntity
  8
_U+30EC_U+30A4_U+30E4_U+30FC 1
 62
   179
420
  2234388
370
    25
100
AcDb2dPolyline
 66
     1
 10
0.0
 20
0.0
 30
0.0
  0
VERTEX
  5
5E
330
5D
100
AcDbEntity
  8
_U+30EC_U+30A4_U+30E4_U+30FC 1
 62
   179
420
  2234388
370
    25
100
AcDbVertex
100
AcDb2dVertex
 10
92.64515708086958
 20
-139.4422957984729
 30
0.0
  0
VERTEX
  5
5F
330
5D
100
AcDbEntity
  8
_U+30EC_U+30A4_U+30E4_U+30FC 1
 62
   179
420
  2234388
370
    25
100
AcDbVertex
100
AcDb2dVertex
 10
93.64492927758549
 20
-139.4422957984729
 30
0.0
  0
SEQEND
  5
60
330
5D
100
AcDbEntity
  8
_U+30EC_U+30A4_U+30E4_U+30FC 1
 62
   179
420
  2234388
370
    25
  0
POLYLINE
  5
61
330
41
100
AcDbEntity
  8
_U+30EC_U+30A4_U+30E4_U+30FC 1
 62
   179
420
  2234388
370
    25
100
AcDb2dPolyline
 66
     1
 10
0.0
 20
0.0
 30
0.0
  0
VERTEX
  5
62
330
61
100
AcDbEntity
  8
_U+30EC_U+30A4_U+30E4_U+30FC 1
 62
   179
420
  2234388
370
    25
100
AcDbVertex
100
AcDb2dVertex
 10
74.64523587341915
 20
-132.9427885778754
 30
0.0
  0
VERTEX
  5
63
330
61
100
AcDbEntity
  8
_U+30EC_U+30A4_U+30E4_U+30FC 1
 62
   179
420
  2234388
370
    25
100
AcDbVertex
100
AcDb2dVertex
 10
108.6455691726651
 20
-132.9427885778754
 30
0.0
  0
SEQEND
  5
64
330
61
100
AcDbEntity
  8
_U+30EC_U+30A4_U+30E4_U+30FC 1
 62
   179
420
  2234388
370
    25
  0
POLYLINE
  5
65
330
41
100
AcDbEntity
  8
_U+30EC_U+30A4_U+30E4_U+30FC 1
 62
   179
420
  2234388
370
    25
100
AcDb2dPolyline
 66
     1
 10
0.0
 20
0.0
 30
0.0
  0
VERTEX
  5
66
330
65
100
AcDbEntity
  8
_U+30EC_U+30A4_U+30E4_U+30FC 1
 62
   179
420
  2234388
370
    25
100
AcDbVertex
100
AcDb2dVertex
 10
74.64523587341915
 20
-131.9423460781255
 30
0.0
  0
VERTEX
  5
67
330
65
100
AcDbEntity
  8
_U+30EC_U+30A4_U+30E4_U+30FC 1
 62
   179
420
  2234388
370
    25
100
AcDbVertex
100
AcDb2dVertex
 10
108.6455691726651
 20
-131.9423460781255
 30
0.0
  0
SEQEND
  5
68
330
65
100
AcDbEntity
  8
_U+30EC_U+30A4_U+30E4_U+30FC 1
 62
   179
420
  2234388
370
    25
  0
POLYLINE
  5
69
330
41
100
AcDbEntity
  8
_U+30EC_U+30A4_U+30E4_U+30FC 1
 62
   179
420
  2234388
370
    25
100
AcDb2dPolyline
 66
     1
 10
0.0
 20
0.0
 30
0.0
  0
VERTEX
  5
6A
330
69
100
AcDbEntity
  8
_U+30EC_U+30A4_U+30E4_U+30FC 1
 62
   179
420
  2234388
370
    25
100
AcDbVertex
100
AcDb2dVertex
 10
74.64523587341915
 20
-121.942436636181
 30
0.0
  0
VERTEX
  5
6B
330
69
100
AcDbEntity
  8
_U+30EC_U+30A4_U+30E4_U+30FC 1
 62
   179
420
  2234388
370
    25
100
AcDbVertex
100
AcDb2dVertex
 10
74.64523587341915
 20
-131.9423460781255
 30
0.0
  0
SEQEND
  5
6C
330
69
100
AcDbEntity
  8
_U+30EC_U+30A4_U+30E4_U+30FC 1
 62
   179
420
  2234388
370
    25
  0
POLYLINE
  5
6D
330
41
100
AcDbEntity
  8
_U+30EC_U+30A4_U+30E4_U+30FC 1
 62
   179
420
  2234388
370
    25
100
AcDb2dPolyline
 66
     1
 10
0.0
 20
0.0
 30
0.0
  0
VERTEX
  5
6E
330
6D
100
AcDbEntity
  8
_U+30EC_U+30A4_U+30E4_U+30FC 1
 62
   179
420
  2234388
370
    25
100
AcDbVertex
100
AcDb2dVertex
 10
74.64523587341915
 20
-132.9427885778754
 30
0.0
  0
VERTEX
  5
6F
330
6D
100
AcDbEntity
  8
_U+30EC_U+30A4_U+30E4_U+30FC 1
 62
   179
420
  2234388
370
    25
100
AcDbVertex
100
AcDb2dVertex
 10
74.64523587341915
 20
-139.9425346872366
 30
0.0
  0
SEQEND
  5
70
330
6D
100
AcDbEntity
  8
_U+30EC_U+30A4_U+30E4_U+30FC 1
 62
   179
420
  2234388
370
    25
  0
POLYLINE
  5
71
330
41
100
AcDbEntity
  8
_U+30EC_U+30A4_U+30E4_U+30FC 1
 62
   179
420
  2234388
370
    25
100
AcDb2dPolyline
 66
     1
 10
0.0
 20
0.0
 30
0.0
  0
VERTEX
  5
72
330
71
100
AcDbEntity
  8
_U+30EC_U+30A4_U+30E4_U+30FC 1
 62
   179
420
  2234388
370
    25
100
AcDbVertex
100
AcDb2dVertex
 10
74.64523587341915
 20
-139.9425346872366
 30
0.0
  0
VERTEX
  5
73
330
71
100
AcDbEntity
  8
_U+30EC_U+30A4_U+30E4_U+30FC 1
 62
   179
420
  2234388
370
    25
100
AcDbVertex
100
AcDb2dVertex
 10
75.14543947176901
 20
-139.9425346872366
 30
0.0
  0
SEQEND
  5
74
330
71
100
AcDbEntity
  8
_U+30EC_U+30A4_U+30E4_U+30FC 1
 62
   179
420
  2234388
370
    25
  0
POLYLINE
  5
75
330
41
100
AcDbEntity
  8
_U+30EC_U+30A4_U+30E4_U+30FC 1
 62
   179
420
  2234388
370
    25
100
AcDb2dPolyline
 66
     1
 10
0.0
 20
0.0
 30
0.0
  0
VERTEX
  5
76
330
75
100
AcDbEntity
  8
_U+30EC_U+30A4_U+30E4_U+30FC 1
 62
   179
420
  2234388
370
    25
100
AcDbVertex
100
AcDb2dVertex
 10
92.64515708086958
 20
-139.4422957984729
 30
0.0
  0
VERTEX
  5
77
330
75
100
AcDbEntity
  8
_U+30EC_U+30A4_U+30E4_U+30FC 1
 62
   179
420
  2234388
370
    25
100
AcDbVertex
100
AcDb2dVertex
 10
92.64515708086958
 20
-139.9425346872366
 30
0.0
  0
SEQEND
  5
78
330
75
100
AcDbEntity
  8
_U+30EC_U+30A4_U+30E4_U+30FC 1
 62
   179
420
  2234388
370
    25
  0
POLYLINE
  5
79
330
41
100
AcDbEntity
  8
_U+30EC_U+30A4_U+30E4_U+30FC 1
 62
   179
420
  2234388
370
    25
100
AcDb2dPolyline
 66
     1
 10
0.0
 20
0.0
 30
0.0
  0
VERTEX
  5
7A
330
79
100
AcDbEntity
  8
_U+30EC_U+30A4_U+30E4_U+30FC 1
 62
   179
420
  2234388
370
    25
100
AcDbVertex
100
AcDb2dVertex
 10
75.14543947176901
 20
-136.4423088547785
 30
0.0
  0
VERTEX
  5
7B
330
79
100
AcDbEntity
  8
_U+30EC_U+30A4_U+30E4_U+30FC 1
 62
   179
420
  2234388
370
    25
100
AcDbVertex
100
AcDb2dVertex
 10
76.14521166848492
 20
-136.4423088547785
 30
0.0
  0
SEQEND
  5
7C
330
79
100
AcDbEntity
  8
_U+30EC_U+30A4_U+30E4_U+30FC 1
 62
   179
420
  2234388
370
    25
  0
POLYLINE
  5
7D
330
41
100
AcDbEntity
  8
_U+30EC_U+30A4_U+30E4_U+30FC 1
 62
   179
420
  2234388
370
    25
100
AcDb2dPolyline
 66
     1
 10
0.0
 20
0.0
 30
0.0
  0
VERTEX
  5
7E
330
7D
100
AcDbEntity
  8
_U+30EC_U+30A4_U+30E4_U+30FC 1
 62
   179
420
  2234388
370
    25
100
AcDbVertex
100
AcDb2dVertex
 10
75.3225339116954
 20
-120.9419588586533
 30
0.0
  0
VERTEX
  5
7F
330
7D
100
AcDbEntity
  8
_U+30EC_U+30A4_U+30E4_U+30FC 1
 62
   179
420
  2234388
370
    25
100
AcDbVertex
100
AcDb2dVertex
 10
75.3225339116954
 20
-121.942436636181
 30
0.0
  0
SEQEND
  5
80
330
7D
100
AcDbEntity
  8
_U+30EC_U+30A4_U+30E4_U+30FC 1
 62
   179
420
  2234388
370
    25
  0
POLYLINE
  5
81
330
41
100
AcDbEntity
  8
_U+30EC_U+30A4_U+30E4_U+30FC 1
 62
   179
420
  2234388
370
    25
100
AcDb2dPolyline
 66
     1
 10
0.0
 20
0.0
 30
0.0
  0
VERTEX
  5
82
330
81
100
AcDbEntity
  8
_U+30EC_U+30A4_U+30E4_U+30FC 1
 62
   179
420
  2234388
370
    25
100
AcDbVertex
100
AcDb2dVertex
 10
74.64523587341915
 20
-121.942436636181
 30
0.0
  0
VERTEX
  5
83
330
81
100
AcDbEntity
  8
_U+30EC_U+30A4_U+30E4_U+30FC 1
 62
   179
420
  2234388
370
    25
100
AcDbVertex
100
AcDb2dVertex
 10
75.23642085833677
 20
-121.942436636181
 30
0.0
  0
SEQEND
  5
84
330
81
100
AcDbEntity
  8
_U+30EC_U+30A4_U+30E4_U+30FC 1
 62
   179
420
  2234388
370
    25
  0
POLYLINE
  5
85
330
41
100
AcDbEntity
  8
_U+30EC_U+30A4_U+30E4_U+30FC 1
 62
   179
420
  2234388
370
    25
100
AcDb2dPolyline
 66
     1
 10
0.0
 20
0.0
 30
0.0
  0
VERTEX
  5
86
330
85
100
AcDbEntity
  8
_U+30EC_U+30A4_U+30E4_U+30FC 1
 62
   179
420
  2234388
370
    25
100
AcDbVertex
100
AcDb2dVertex
 10
76.14521166848492
 20
-136.4423088547785
 30
0.0
  0
VERTEX
  5
87
330
85
100
AcDbEntity
  8
_U+30EC_U+30A4_U+30E4_U+30FC 1
 62
   179
420
  2234388
370
    25
100
AcDbVertex
100
AcDb2dVertex
 10
76.14521166848492
 20
-139.9425346872366
 30
0.0
  0
SEQEND
  5
88
330
85
100
AcDbEntity
  8
_U+30EC_U+30A4_U+30E4_U+30FC 1
 62
   179
420
  2234388
370
    25
  0
POLYLINE
  5
89
330
41
100
AcDbEntity
  8
_U+30EC_U+30A4_U+30E4_U+30FC 1
 62
   179
420
  2234388
370
    25
100
AcDb2dPolyline
 66
     1
 10
0.0
 20
0.0
 30
0.0
  0
VERTEX
  5
8A
330
89
100
AcDbEntity
  8
_U+30EC_U+30A4_U+30E4_U+30FC 1
 62
   179
420
  2234388
370
    25
100
AcDbVertex
100
AcDb2dVertex
 10
76.1455644462537
 20
-139.9425346872366
 30
0.0
  0
VERTEX
  5
8B
330
89
100
AcDbEntity
  8
_U+30EC_U+30A4_U+30E4_U+30FC 1
 62
   179
420
  2234388
370
    25
100
AcDbVertex
100
AcDb2dVertex
 10
92.61622930382981
 20
-139.9425346872366
 30
0.0
  0
SEQEND
  5
8C
330
89
100
AcDbEntity
  8
_U+30EC_U+30A4_U+30E4_U+30FC 1
 62
   179
420
  2234388
370
    25
  0
SPLINE
  5
8D
330
41
100
AcDbEntity
  8
_U+30EC_U+30A4_U+30E4_U+30FC 1
 62
   179
420
  2234388
370
     9
100
AcDbSpline
210
0.0
220
0.0
230
1.0
 70
    11
 71
     3
 72
    17
 73
    13
 74
     0
 42
0.0000000001
 43
0.0000000001
 12
1.0
 22
0.0
 32
0.0
 13
1.0
 23
0.0
 33
0.0
 40
0.0
 40
0.0
 40
0.0
 40
0.0
 40
1.0
 40
1.0
 40
1.0
 40
2.0
 40
2.0
 40
2.0
 40
3.0
 40
3.0
 40
3.0
 40
4.0
 40
4.0
 40
4.0
 40
4.0
 10
112.7452349014072
 20
-131.9423460781255
 30
0.0
 10
112.7452349014072
 20
-131.8872069114724
 30
0.0
 10
112.7004321247724
 20
-131.8424394114838
 30
0.0
 10
112.6453282372894
 20
-131.8424394114838
 30
0.0
 10
112.5901890720294
 20
-131.8424394114838
 30
0.0
 10
112.5454215731715
 20
-131.8872069114724
 30
0.0
 10
112.5454215731715
 20
-131.9423460781255
 30
0.0
 10
112.5454215731715
 20
-131.9974499670004
 30
0.0
 10
112.5901890720294
 20
-132.0422527447671
 30
0.0
 10
112.6453282372894
 20
-132.0422527447671
 30
0.0
 10
112.7004321247724
 20
-132.0422527447671
 30
0.0
 10
112.7452349014072
 20
-131.9974499670004
 30
0.0
 10
112.7452349014072
 20
-131.9423460781255
 30
0.0
  0
SPLINE
  5
8E
330
41
100
AcDbEntity
  8
_U+30EC_U+30A4_U+30E4_U+30FC 1
 62
   179
420
  2234388
370
     9
100
AcDbSpline
210
0.0
220
0.0
230
1.0
 70
    11
 71
     3
 72
    17
 73
    13
 74
     0
 42
0.0000000001
 43
0.0000000001
 12
1.0
 22
0.0
 32
0.0
 13
1.0
 23
0.0
 33
0.0
 40
0.0
 40
0.0
 40
0.0
 40
0.0
 40
1.0
 40
1.0
 40
1.0
 40
2.0
 40
2.0
 40
2.0
 40
3.0
 40
3.0
 40
3.0
 40
4.0
 40
4.0
 40
4.0
 40
4.0
 10
112.7452349014072
 20
-132.9427885778754
 30
0.0
 10
112.7452349014072
 20
-132.8869791334449
 30
0.0
 10
112.7004321247724
 20
-132.8428819112337
 30
0.0
 10
112.6453282372894
 20
-132.8428819112337
 30
0.0
 10
112.5901890720294
 20
-132.8428819112337
 30
0.0
 10
112.5454215731715
 20
-132.8869791334449
 30
0.0
 10
112.5454215731715
 20
-132.9427885778754
 30
0.0
 10
112.5454215731715
 20
-132.9979277445285
 30
0.0
 10
112.5901890720294
 20
-133.042695244517
 30
0.0
 10
112.6453282372894
 20
-133.042695244517
 30
0.0
 10
112.7004321247724
 20
-133.042695244517
 30
0.0
 10
112.7452349014072
 20
-132.9979277445285
 30
0.0
 10
112.7452349014072
 20
-132.9427885778754
 30
0.0
  0
SPLINE
  5
8F
330
41
100
AcDbEntity
  8
_U+30EC_U+30A4_U+30E4_U+30FC 1
 62
   179
420
  2234388
370
     9
100
AcDbSpline
210
0.0
220
0.0
230
1.0
 70
    11
 71
     3
 72
    17
 73
    13
 74
     0
 42
0.0000000001
 43
0.0000000001
 12
1.0
 22
0.0
 32
0.0
 13
1.0
 23
0.0
 33
0.0
 40
0.0
 40
0.0
 40
0.0
 40
0.0
 40
1.0
 40
1.0
 40
1.0
 40
2.0
 40
2.0
 40
2.0
 40
3.0
 40
3.0
 40
3.0
 40
4.0
 40
4.0
 40
4.0
 40
4.0
 10
112.7452349014072
 20
-139.4422957984729
 30
0.0
 10
112.7452349014072
 20
-139.387191909598
 30
0.0
 10
112.7004321247724
 20
-139.3423891318313
 30
0.0
 10
112.6453282372894
 20
-139.3423891318313
 30
0.0
 10
112.5901890720294
 20
-139.3423891318313
 30
0.0
 10
112.5454215731715
 20
-139.387191909598
 30
0.0
 10
112.5454215731715
 20
-139.4422957984729
 30
0.0
 10
112.5454215731715
 20
-139.497434965126
 30
0.0
 10
112.5901890720294
 20
-139.5422024651145
 30
0.0
 10
112.6453282372894
 20
-139.5422024651145
 30
0.0
 10
112.7004321247724
 20
-139.5422024651145
 30
0.0
 10
112.7452349014072
 20
-139.497434965126
 30
0.0
 10
112.7452349014072
 20
-139.4422957984729
 30
0.0
  0
SPLINE
  5
90
330
41
100
AcDbEntity
  8
_U+30EC_U+30A4_U+30E4_U+30FC 1
 62
   179
420
  2234388
370
     9
100
AcDbSpline
210
0.0
220
0.0
230
1.0
 70
    11
 71
     3
 72
    17
 73
    13
 74
     0
 42
0.0000000001
 43
0.0000000001
 12
1.0
 22
0.0
 32
0.0
 13
1.0
 23
0.0
 33
0.0
 40
0.0
 40
0.0
 40
0.0
 40
0.0
 40
1.0
 40
1.0
 40
1.0
 40
2.0
 40
2.0
 40
2.0
 40
3.0
 40
3.0
 40
3.0
 40
4.0
 40
4.0
 40
4.0
 40
4.0
 10
112.7452349014072
 20
-140.9423069092091
 30
0.0
 10
112.7452349014072
 20
-140.887167742556
 30
0.0
 10
112.7004321247724
 20
-140.8424002425675
 30
0.0
 10
112.6453282372894
 20
-140.8424002425675
 30
0.0
 10
112.5901890720294
 20
-140.8424002425675
 30
0.0
 10
112.5454215731715
 20
-140.887167742556
 30
0.0
 10
112.5454215731715
 20
-140.9423069092091
 30
0.0
 10
112.5454215731715
 20
-140.9981163536396
 30
0.0
 10
112.5901890720294
 20
-141.0422135758508
 30
0.0
 10
112.6453282372894
 20
-141.0422135758508
 30
0.0
 10
112.7004321247724
 20
-141.0422135758508
 30
0.0
 10
112.7452349014072
 20
-140.9981163536396
 30
0.0
 10
112.7452349014072
 20
-140.9423069092091
 30
0.0
  0
SPLINE
  5
91
330
41
100
AcDbEntity
  8
_U+30EC_U+30A4_U+30E4_U+30FC 1
 62
   179
420
  2234388
370
     9
100
AcDbSpline
210
0.0
220
0.0
230
1.0
 70
    11
 71
     3
 72
    17
 73
    13
 74
     0
 42
0.0000000001
 43
0.0000000001
 12
1.0
 22
0.0
 32
0.0
 13
1.0
 23
0.0
 33
0.0
 40
0.0
 40
0.0
 40
0.0
 40
0.0
 40
1.0
 40
1.0
 40
1.0
 40
2.0
 40
2.0
 40
2.0
 40
3.0
 40
3.0
 40
3.0
 40
4.0
 40
4.0
 40
4.0
 40
4.0
 10
93.74413038616576
 20
-144.9427363526534
 30
0.0
 10
93.74413038616576
 20
-144.8876324637778
 30
0.0
 10
93.69936288730788
 20
-144.8428296860118
 30
0.0
 10
93.64422372204793
 20
-144.8428296860118
 30
0.0
 10
93.58912219882475
 20
-144.8428296860118
 30
0.0
 10
93.54431942105867
 20
-144.8876324637778
 30
0.0
 10
93.54431942105867
 20
-144.9427363526534
 30
0.0
 10
93.54431942105867
 20
-144.9978755193058
 30
0.0
 10
93.58912219882475
 20
-145.042643019295
 30
0.0
 10
93.64422372204793
 20
-145.042643019295
 30
0.0
 10
93.69936288730788
 20
-145.042643019295
 30
0.0
 10
93.74413038616576
 20
-144.9978755193058
 30
0.0
 10
93.74413038616576
 20
-144.9427363526534
 30
0.0
  0
SPLINE
  5
92
330
41
100
AcDbEntity
  8
_U+30EC_U+30A4_U+30E4_U+30FC 1
 62
   179
420
  2234388
370
     9
100
AcDbSpline
210
0.0
220
0.0
230
1.0
 70
    11
 71
     3
 72
    17
 73
    13
 74
     0
 42
0.0000000001
 43
0.0000000001
 12
1.0
 22
0.0
 32
0.0
 13
1.0
 23
0.0
 33
0.0
 40
0.0
 40
0.0
 40
0.0
 40
0.0
 40
1.0
 40
1.0
 40
1.0
 40
2.0
 40
2.0
 40
2.0
 40
3.0
 40
3.0
 40
3.0
 40
4.0
 40
4.0
 40
4.0
 40
4.0
 10
73.74537220378602
 20
-144.9427363526534
 30
0.0
 10
73.74537220378602
 20
-144.8876324637778
 30
0.0
 10
73.7005694260193
 20
-144.8428296860118
 30
0.0
 10
73.6447581211657
 20
-144.8428296860118
 30
0.0
 10
73.58965423368262
 20
-144.8428296860118
 30
0.0
 10
73.54485145704786
 20
-144.8876324637778
 30
0.0
 10
73.54485145704786
 20
-144.9427363526534
 30
0.0
 10
73.54485145704786
 20
-144.9978755193058
 30
0.0
 10
73.58965423368262
 20
-145.042643019295
 30
0.0
 10
73.6447581211657
 20
-145.042643019295
 30
0.0
 10
73.7005694260193
 20
-145.042643019295
 30
0.0
 10
73.74537220378602
 20
-144.9978755193058
 30
0.0
 10
73.74537220378602
 20
-144.9427363526534
 30
0.0
  0
SPLINE
  5
93
330
41
100
AcDbEntity
  8
_U+30EC_U+30A4_U+30E4_U+30FC 1
 62
   179
420
  2234388
370
     9
100
AcDbSpline
210
0.0
220
0.0
230
1.0
 70
    11
 71
     3
 72
    17
 73
    13
 74
     0
 42
0.0000000001
 43
0.0000000001
 12
1.0
 22
0.0
 32
0.0
 13
1.0
 23
0.0
 33
0.0
 40
0.0
 40
0.0
 40
0.0
 40
0.0
 40
1.0
 40
1.0
 40
1.0
 40
2.0
 40
2.0
 40
2.0
 40
3.0
 40
3.0
 40
3.0
 40
4.0
 40
4.0
 40
4.0
 40
4.0
 10
69.74490572065922
 20
-140.9423069092091
 30
0.0
 10
69.74490572065922
 20
-140.887167742556
 30
0.0
 10
69.70013822180132
 20
-140.8424002425675
 30
0.0
 10
69.64499905654138
 20
-140.8424002425675
 30
0.0
 10
69.58989516905831
 20
-140.8424002425675
 30
0.0
 10
69.54509239242354
 20
-140.887167742556
 30
0.0
 10
69.54509239242354
 20
-140.9423069092091
 30
0.0
 10
69.54509239242354
 20
-140.9981163536396
 30
0.0
 10
69.58989516905831
 20
-141.0422135758508
 30
0.0
 10
69.64499905654138
 20
-141.0422135758508
 30
0.0
 10
69.70013822180132
 20
-141.0422135758508
 30
0.0
 10
69.74490572065922
 20
-140.9981163536396
 30
0.0
 10
69.74490572065922
 20
-140.9423069092091
 30
0.0
  0
SPLINE
  5
94
330
41
100
AcDbEntity
  8
_U+30EC_U+30A4_U+30E4_U+30FC 1
 62
   179
420
  2234388
370
     9
100
AcDbSpline
210
0.0
220
0.0
230
1.0
 70
    11
 71
     3
 72
    17
 73
    13
 74
     0
 42
0.0000000001
 43
0.0000000001
 12
1.0
 22
0.0
 32
0.0
 13
1.0
 23
0.0
 33
0.0
 40
0.0
 40
0.0
 40
0.0
 40
0.0
 40
1.0
 40
1.0
 40
1.0
 40
2.0
 40
2.0
 40
2.0
 40
3.0
 40
3.0
 40
3.0
 40
4.0
 40
4.0
 40
4.0
 40
4.0
 10
69.74490572065922
 20
-120.9419588586533
 30
0.0
 10
69.74490572065922
 20
-120.8868549697784
 30
0.0
 10
69.70013822180132
 20
-120.8420521920116
 30
0.0
 10
69.64499905654138
 20
-120.8420521920116
 30
0.0
 10
69.58989516905831
 20
-120.8420521920116
 30
0.0
 10
69.54509239242354
 20
-120.8868549697784
 30
0.0
 10
69.54509239242354
 20
-120.9419588586533
 30
0.0
 10
69.54509239242354
 20
-120.997768303084
 30
0.0
 10
69.58989516905831
 20
-121.0425710808504
 30
0.0
 10
69.64499905654138
 20
-121.0425710808504
 30
0.0
 10
69.70013822180132
 20
-121.0425710808504
 30
0.0
 10
69.74490572065922
 20
-120.997768303084
 30
0.0
 10
69.74490572065922
 20
-120.9419588586533
 30
0.0
  0
SPLINE
  5
95
330
41
100
AcDbEntity
  8
_U+30EC_U+30A4_U+30E4_U+30FC 1
 62
   179
420
  2234388
370
     9
100
AcDbSpline
210
0.0
220
0.0
230
1.0
 70
    11
 71
     3
 72
    17
 73
    13
 74
     0
 42
0.0000000001
 43
0.0000000001
 12
1.0
 22
0.0
 32
0.0
 13
1.0
 23
0.0
 33
0.0
 40
0.0
 40
0.0
 40
0.0
 40
0.0
 40
1.0
 40
1.0
 40
1.0
 40
2.0
 40
2.0
 40
2.0
 40
3.0
 40
3.0
 40
3.0
 40
4.0
 40
4.0
 40
4.0
 40
4.0
 10
73.74537220378602
 20
-116.9421996929867
 30
0.0
 10
73.74537220378602
 20
-116.8870958041115
 30
0.0
 10
73.7005694260193
 20
-116.8422930263451
 30
0.0
 10
73.6447581211657
 20
-116.8422930263451
 30
0.0
 10
73.58965423368262
 20
-116.8422930263451
 30
0.0
 10
73.54485145704786
 20
-116.8870958041115
 30
0.0
 10
73.54485145704786
 20
-116.9421996929867
 30
0.0
 10
73.54485145704786
 20
-116.9973388596395
 30
0.0
 10
73.58965423368262
 20
-117.0421063596283
 30
0.0
 10
73.6447581211657
 20
-117.0421063596283
 30
0.0
 10
73.7005694260193
 20
-117.0421063596283
 30
0.0
 10
73.74537220378602
 20
-116.9973388596395
 30
0.0
 10
73.74537220378602
 20
-116.9421996929867
 30
0.0
  0
SPLINE
  5
96
330
41
100
AcDbEntity
  8
_U+30EC_U+30A4_U+30E4_U+30FC 1
 62
   179
420
  2234388
370
     9
100
AcDbSpline
210
0.0
220
0.0
230
1.0
 70
    11
 71
     3
 72
    17
 73
    13
 74
     0
 42
0.0000000001
 43
0.0000000001
 12
1.0
 22
0.0
 32
0.0
 13
1.0
 23
0.0
 33
0.0
 40
0.0
 40
0.0
 40
0.0
 40
0.0
 40
1.0
 40
1.0
 40
1.0
 40
2.0
 40
2.0
 40
2.0
 40
3.0
 40
3.0
 40
3.0
 40
4.0
 40
4.0
 40
4.0
 40
4.0
 10
108.7454758367829
 20
-116.9421996929867
 30
0.0
 10
108.7454758367829
 20
-116.8870958041115
 30
0.0
 10
108.7006730601481
 20
-116.8422930263451
 30
0.0
 10
108.6455691726651
 20
-116.8422930263451
 30
0.0
 10
108.5904300074051
 20
-116.8422930263451
 30
0.0
 10
108.5456625085472
 20
-116.8870958041115
 30
0.0
 10
108.5456625085472
 20
-116.9421996929867
 30
0.0
 10
108.5456625085472
 20
-116.9973388596395
 30
0.0
 10
108.5904300074051
 20
-117.0421063596283
 30
0.0
 10
108.6455691726651
 20
-117.0421063596283
 30
0.0
 10
108.7006730601481
 20
-117.0421063596283
 30
0.0
 10
108.7454758367829
 20
-116.9973388596395
 30
0.0
 10
108.7454758367829
 20
-116.9421996929867
 30
0.0
  0
POLYLINE
  5
97
330
41
100
AcDbEntity
  8
_U+30EC_U+30A4_U+30E4_U+30FC 1
 62
   179
420
  2234388
370
     9
100
AcDb2dPolyline
 66
     1
 10
0.0
 20
0.0
 30
0.0
  0
VERTEX
  5
98
330
97
100
AcDbEntity
  8
_U+30EC_U+30A4_U+30E4_U+30FC 1
 62
   179
420
  2234388
370
     9
100
AcDbVertex
100
AcDb2dVertex
 10
112.6453282372894
 20
-131.9423460781255
 30
0.0
  0
VERTEX
  5
99
330
97
100
AcDbEntity
  8
_U+30EC_U+30A4_U+30E4_U+30FC 1
 62
   179
420
  2234388
370
     9
100
AcDbVertex
100
AcDb2dVertex
 10
112.6453282372894
 20
-128.1718571901792
 30
0.0
  0
SEQEND
  5
9A
330
97
100
AcDbEntity
  8
_U+30EC_U+30A4_U+30E4_U+30FC 1
 62
   179
420
  2234388
370
     9
  0
POLYLINE
  5
9B
330
41
100
AcDbEntity
  8
_U+30EC_U+30A4_U+30E4_U+30FC 1
 62
   179
420
  2234388
370
     9
100
AcDb2dPolyline
 66
     1
 10
0.0
 20
0.0
 30
0.0
  0
VERTEX
  5
9C
330
9B
100
AcDbEntity
  8
_U+30EC_U+30A4_U+30E4_U+30FC 1
 62
   179
420
  2234388
370
     9
100
AcDbVertex
100
AcDb2dVertex
 10
112.6453282372894
 20
-131.9423460781255
 30
0.0
  0
VERTEX
  5
9D
330
9B
100
AcDbEntity
  8
_U+30EC_U+30A4_U+30E4_U+30FC 1
 62
   179
420
  2234388
370
     9
100
AcDbVertex
100
AcDb2dVertex
 10
112.6453282372894
 20
-132.9427885778754
 30
0.0
  0
SEQEND
  5
9E
330
9B
100
AcDbEntity
  8
_U+30EC_U+30A4_U+30E4_U+30FC 1
 62
   179
420
  2234388
370
     9
  0
POLYLINE
  5
9F
330
41
100
AcDbEntity
  8
_U+30EC_U+30A4_U+30E4_U+30FC 1
 62
   179
420
  2234388
370
     9
100
AcDb2dPolyline
 66
     1
 10
0.0
 20
0.0
 30
0.0
  0
VERTEX
  5
A0
330
9F
100
AcDbEntity
  8
_U+30EC_U+30A4_U+30E4_U+30FC 1
 62
   179
420
  2234388
370
     9
100
AcDbVertex
100
AcDb2dVertex
 10
111.1852868856492
 20
-131.9423460781255
 30
0.0
  0
VERTEX
  5
A1
330
9F
100
AcDbEntity
  8
_U+30EC_U+30A4_U+30E4_U+30FC 1
 62
   179
420
  2234388
370
     9
100
AcDbVertex
100
AcDb2dVertex
 10
113.6451004340053
 20
-131.9423460781255
 30
0.0
  0
SEQEND
  5
A2
330
9F
100
AcDbEntity
  8
_U+30EC_U+30A4_U+30E4_U+30FC 1
 62
   179
420
  2234388
370
     9
  0
POLYLINE
  5
A3
330
41
100
AcDbEntity
  8
_U+30EC_U+30A4_U+30E4_U+30FC 1
 62
   179
420
  2234388
370
     9
100
AcDb2dPolyline
 66
     1
 10
0.0
 20
0.0
 30
0.0
  0
VERTEX
  5
A4
330
A3
100
AcDbEntity
  8
_U+30EC_U+30A4_U+30E4_U+30FC 1
 62
   179
420
  2234388
370
     9
100
AcDbVertex
100
AcDb2dVertex
 10
111.1852868856492
 20
-132.9427885778754
 30
0.0
  0
VERTEX
  5
A5
330
A3
100
AcDbEntity
  8
_U+30EC_U+30A4_U+30E4_U+30FC 1
 62
   179
420
  2234388
370
     9
100
AcDbVertex
100
AcDb2dVertex
 10
113.6451004340053
 20
-132.9427885778754
 30
0.0
  0
SEQEND
  5
A6
330
A3
100
AcDbEntity
  8
_U+30EC_U+30A4_U+30E4_U+30FC 1
 62
   179
420
  2234388
370
     9
  0
POLYLINE
  5
A7
330
41
100
AcDbEntity
  8
_U+30EC_U+30A4_U+30E4_U+30FC 1
 62
   179
420
  2234388
370
     9
100
AcDb2dPolyline
 66
     1
 10
0.0
 20
0.0
 30
0.0
  0
VERTEX
  5
A8
330
A7
100
AcDbEntity
  8
_U+30EC_U+30A4_U+30E4_U+30FC 1
 62
   179
420
  2234388
370
     9
100
AcDbVertex
100
AcDb2dVertex
 10
112.6453282372894
 20
-132.9427885778754
 30
0.0
  0
VERTEX
  5
A9
330
A7
100
AcDbEntity
  8
_U+30EC_U+30A4_U+30E4_U+30FC 1
 62
   179
420
  2234388
370
     9
100
AcDbVertex
100
AcDb2dVertex
 10
112.6453282372894
 20
-139.4422957984729
 30
0.0
  0
SEQEND
  5
AA
330
A7
100
AcDbEntity
  8
_U+30EC_U+30A4_U+30E4_U+30FC 1
 62
   179
420
  2234388
370
     9
  0
POLYLINE
  5
AB
330
41
100
AcDbEntity
  8
_U+30EC_U+30A4_U+30E4_U+30FC 1
 62
   179
420
  2234388
370
     9
100
AcDb2dPolyline
 66
     1
 10
0.0
 20
0.0
 30
0.0
  0
VERTEX
  5
AC
330
AB
100
AcDbEntity
  8
_U+30EC_U+30A4_U+30E4_U+30FC 1
 62
   179
420
  2234388
370
     9
100
AcDbVertex
100
AcDb2dVertex
 10
97.68532834117299
 20
-139.4422957984729
 30
0.0
  0
VERTEX
  5
AD
330
AB
100
AcDbEntity
  8
_U+30EC_U+30A4_U+30E4_U+30FC 1
 62
   179
420
  2234388
370
     9
100
AcDbVertex
100
AcDb2dVertex
 10
113.6451004340053
 20
-139.4422957984729
 30
0.0
  0
SEQEND
  5
AE
330
AB
100
AcDbEntity
  8
_U+30EC_U+30A4_U+30E4_U+30FC 1
 62
   179
420
  2234388
370
     9
  0
POLYLINE
  5
AF
330
41
100
AcDbEntity
  8
_U+30EC_U+30A4_U+30E4_U+30FC 1
 62
   179
420
  2234388
370
     9
100
AcDb2dPolyline
 66
     1
 10
0.0
 20
0.0
 30
0.0
  0
VERTEX
  5
B0
330
AF
100
AcDbEntity
  8
_U+30EC_U+30A4_U+30E4_U+30FC 1
 62
   179
420
  2234388
370
     9
100
AcDbVertex
100
AcDb2dVertex
 10
112.6453282372894
 20
-140.9423069092091
 30
0.0
  0
VERTEX
  5
B1
330
AF
100
AcDbEntity
  8
_U+30EC_U+30A4_U+30E4_U+30FC 1
 62
   179
420
  2234388
370
     9
100
AcDbVertex
100
AcDb2dVertex
 10
112.6453282372894
 20
-146.2002127412281
 30
0.0
  0
SEQEND
  5
B2
330
AF
100
AcDbEntity
  8
_U+30EC_U+30A4_U+30E4_U+30FC 1
 62
   179
420
  2234388
370
     9
  0
POLYLINE
  5
B3
330
41
100
AcDbEntity
  8
_U+30EC_U+30A4_U+30E4_U+30FC 1
 62
   179
420
  2234388
370
     9
100
AcDb2dPolyline
 66
     1
 10
0.0
 20
0.0
 30
0.0
  0
VERTEX
  5
B4
330
B3
100
AcDbEntity
  8
_U+30EC_U+30A4_U+30E4_U+30FC 1
 62
   179
420
  2234388
370
     9
100
AcDbVertex
100
AcDb2dVertex
 10
112.6453282372894
 20
-139.4422957984729
 30
0.0
  0
VERTEX
  5
B5
330
B3
100
AcDbEntity
  8
_U+30EC_U+30A4_U+30E4_U+30FC 1
 62
   179
420
  2234388
370
     9
100
AcDbVertex
100
AcDb2dVertex
 10
112.6453282372894
 20
-140.9423069092091
 30
0.0
  0
SEQEND
  5
B6
330
B3
100
AcDbEntity
  8
_U+30EC_U+30A4_U+30E4_U+30FC 1
 62
   179
420
  2234388
370
     9
  0
POLYLINE
  5
B7
330
41
100
AcDbEntity
  8
_U+30EC_U+30A4_U+30E4_U+30FC 1
 62
   179
420
  2234388
370
     9
100
AcDb2dPolyline
 66
     1
 10
0.0
 20
0.0
 30
0.0
  0
VERTEX
  5
B8
330
B7
100
AcDbEntity
  8
_U+30EC_U+30A4_U+30E4_U+30FC 1
 62
   179
420
  2234388
370
     9
100
AcDbVertex
100
AcDb2dVertex
 10
97.68532834117299
 20
-140.9423069092091
 30
0.0
  0
VERTEX
  5
B9
330
B7
100
AcDbEntity
  8
_U+30EC_U+30A4_U+30E4_U+30FC 1
 62
   179
420
  2234388
370
     9
100
AcDbVertex
100
AcDb2dVertex
 10
113.6451004340053
 20
-140.9423069092091
 30
0.0
  0
SEQEND
  5
BA
330
B7
100
AcDbEntity
  8
_U+30EC_U+30A4_U+30E4_U+30FC 1
 62
   179
420
  2234388
370
     9
  0
POLYLINE
  5
BB
330
41
100
AcDbEntity
  8
_U+30EC_U+30A4_U+30E4_U+30FC 1
 62
   179
420
  2234388
370
     9
100
AcDb2dPolyline
 66
     1
 10
0.0
 20
0.0
 30
0.0
  0
VERTEX
  5
BC
330
BB
100
AcDbEntity
  8
_U+30EC_U+30A4_U+30E4_U+30FC 1
 62
   179
420
  2234388
370
     9
100
AcDbVertex
100
AcDb2dVertex
 10
69.64499905654138
 20
-120.9419588586533
 30
0.0
  0
VERTEX
  5
BD
330
BB
100
AcDbEntity
  8
_U+30EC_U+30A4_U+30E4_U+30FC 1
 62
   179
420
  2234388
370
     9
100
AcDbVertex
100
AcDb2dVertex
 10
69.64499905654138
 20
-140.9423069092091
 30
0.0
  0
SEQEND
  5
BE
330
BB
100
AcDbEntity
  8
_U+30EC_U+30A4_U+30E4_U+30FC 1
 62
   179
420
  2234388
370
     9
  0
POLYLINE
  5
BF
330
41
100
AcDbEntity
  8
_U+30EC_U+30A4_U+30E4_U+30FC 1
 62
   179
420
  2234388
370
     9
100
AcDb2dPolyline
 66
     1
 10
0.0
 20
0.0
 30
0.0
  0
VERTEX
  5
C0
330
BF
100
AcDbEntity
  8
_U+30EC_U+30A4_U+30E4_U+30FC 1
 62
   179
420
  2234388
370
     9
100
AcDbVertex
100
AcDb2dVertex
 10
71.10504040818151
 20
-120.9419588586533
 30
0.0
  0
VERTEX
  5
C1
330
BF
100
AcDbEntity
  8
_U+30EC_U+30A4_U+30E4_U+30FC 1
 62
   179
420
  2234388
370
     9
100
AcDbVertex
100
AcDb2dVertex
 10
68.6452638717276
 20
-120.9419588586533
 30
0.0
  0
SEQEND
  5
C2
330
BF
100
AcDbEntity
  8
_U+30EC_U+30A4_U+30E4_U+30FC 1
 62
   179
420
  2234388
370
     9
  0
POLYLINE
  5
C3
330
41
100
AcDbEntity
  8
_U+30EC_U+30A4_U+30E4_U+30FC 1
 62
   179
420
  2234388
370
     9
100
AcDb2dPolyline
 66
     1
 10
0.0
 20
0.0
 30
0.0
  0
VERTEX
  5
C4
330
C3
100
AcDbEntity
  8
_U+30EC_U+30A4_U+30E4_U+30FC 1
 62
   179
420
  2234388
370
     9
100
AcDbVertex
100
AcDb2dVertex
 10
71.10504040818151
 20
-140.9423069092091
 30
0.0
  0
VERTEX
  5
C5
330
C3
100
AcDbEntity
  8
_U+30EC_U+30A4_U+30E4_U+30FC 1
 62
   179
420
  2234388
370
     9
100
AcDbVertex
100
AcDb2dVertex
 10
68.6452638717276
 20
-140.9423069092091
 30
0.0
  0
SEQEND
  5
C6
330
C3
100
AcDbEntity
  8
_U+30EC_U+30A4_U+30E4_U+30FC 1
 62
   179
420
  2234388
370
     9
  0
POLYLINE
  5
C7
330
41
100
AcDbEntity
  8
_U+30EC_U+30A4_U+30E4_U+30FC 1
 62
   179
420
  2234388
370
     9
100
AcDb2dPolyline
 66
     1
 10
0.0
 20
0.0
 30
0.0
  0
VERTEX
  5
C8
330
C7
100
AcDbEntity
  8
_U+30EC_U+30A4_U+30E4_U+30FC 1
 62
   179
420
  2234388
370
     9
100
AcDbVertex
100
AcDb2dVertex
 10
73.6447581211657
 20
-143.4827302419072
 30
0.0
  0
VERTEX
  5
C9
330
C7
100
AcDbEntity
  8
_U+30EC_U+30A4_U+30E4_U+30FC 1
 62
   179
420
  2234388
370
     9
100
AcDbVertex
100
AcDb2dVertex
 10
73.6447581211657
 20
-145.9425085746253
 30
0.0
  0
SEQEND
  5
CA
330
C7
100
AcDbEntity
  8
_U+30EC_U+30A4_U+30E4_U+30FC 1
 62
   179
420
  2234388
370
     9
  0
POLYLINE
  5
CB
330
41
100
AcDbEntity
  8
_U+30EC_U+30A4_U+30E4_U+30FC 1
 62
   179
420
  2234388
370
     9
100
AcDb2dPolyline
 66
     1
 10
0.0
 20
0.0
 30
0.0
  0
VERTEX
  5
CC
330
CB
100
AcDbEntity
  8
_U+30EC_U+30A4_U+30E4_U+30FC 1
 62
   179
420
  2234388
370
     9
100
AcDbVertex
100
AcDb2dVertex
 10
73.6447581211657
 20
-144.9427363526534
 30
0.0
  0
VERTEX
  5
CD
330
CB
100
AcDbEntity
  8
_U+30EC_U+30A4_U+30E4_U+30FC 1
 62
   179
420
  2234388
370
     9
100
AcDbVertex
100
AcDb2dVertex
 10
93.64422372204793
 20
-144.9427363526534
 30
0.0
  0
SEQEND
  5
CE
330
CB
100
AcDbEntity
  8
_U+30EC_U+30A4_U+30E4_U+30FC 1
 62
   179
420
  2234388
370
     9
  0
POLYLINE
  5
CF
330
41
100
AcDbEntity
  8
_U+30EC_U+30A4_U+30E4_U+30FC 1
 62
   179
420
  2234388
370
     9
100
AcDb2dPolyline
 66
     1
 10
0.0
 20
0.0
 30
0.0
  0
VERTEX
  5
D0
330
CF
100
AcDbEntity
  8
_U+30EC_U+30A4_U+30E4_U+30FC 1
 62
   179
420
  2234388
370
     9
100
AcDbVertex
100
AcDb2dVertex
 10
93.64422372204793
 20
-143.4827302419072
 30
0.0
  0
VERTEX
  5
D1
330
CF
100
AcDbEntity
  8
_U+30EC_U+30A4_U+30E4_U+30FC 1
 62
   179
420
  2234388
370
     9
100
AcDbVertex
100
AcDb2dVertex
 10
93.64422372204793
 20
-145.9425085746253
 30
0.0
  0
SEQEND
  5
D2
330
CF
100
AcDbEntity
  8
_U+30EC_U+30A4_U+30E4_U+30FC 1
 62
   179
420
  2234388
370
     9
  0
POLYLINE
  5
D3
330
41
100
AcDbEntity
  8
_U+30EC_U+30A4_U+30E4_U+30FC 1
 62
   179
420
  2234388
370
     9
100
AcDb2dPolyline
 66
     1
 10
0.0
 20
0.0
 30
0.0
  0
VERTEX
  5
D4
330
D3
100
AcDbEntity
  8
_U+30EC_U+30A4_U+30E4_U+30FC 1
 62
   179
420
  2234388
370
     9
100
AcDbVertex
100
AcDb2dVertex
 10
73.6447581211657
 20
-116.9421996929867
 30
0.0
  0
VERTEX
  5
D5
330
D3
100
AcDbEntity
  8
_U+30EC_U+30A4_U+30E4_U+30FC 1
 62
   179
420
  2234388
370
     9
100
AcDbVertex
100
AcDb2dVertex
 10
108.6455691726651
 20
-116.9421996929867
 30
0.0
  0
SEQEND
  5
D6
330
D3
100
AcDbEntity
  8
_U+30EC_U+30A4_U+30E4_U+30FC 1
 62
   179
420
  2234388
370
     9
  0
POLYLINE
  5
D7
330
41
100
AcDbEntity
  8
_U+30EC_U+30A4_U+30E4_U+30FC 1
 62
   179
420
  2234388
370
     9
100
AcDb2dPolyline
 66
     1
 10
0.0
 20
0.0
 30
0.0
  0
VERTEX
  5
D8
330
D7
100
AcDbEntity
  8
_U+30EC_U+30A4_U+30E4_U+30FC 1
 62
   179
420
  2234388
370
     9
100
AcDbVertex
100
AcDb2dVertex
 10
73.6447581211657
 20
-118.4022410815104
 30
0.0
  0
VERTEX
  5
D9
330
D7
100
AcDbEntity
  8
_U+30EC_U+30A4_U+30E4_U+30FC 1
 62
   179
420
  2234388
370
     9
100
AcDbVertex
100
AcDb2dVertex
 10
73.6447581211657
 20
-115.9424627487923
 30
0.0
  0
SEQEND
  5
DA
330
D7
100
AcDbEntity
  8
_U+30EC_U+30A4_U+30E4_U+30FC 1
 62
   179
420
  2234388
370
     9
  0
POLYLINE
  5
DB
330
41
100
AcDbEntity
  8
_U+30EC_U+30A4_U+30E4_U+30FC 1
 62
   179
420
  2234388
370
     9
100
AcDb2dPolyline
 66
     1
 10
0.0
 20
0.0
 30
0.0
  0
VERTEX
  5
DC
330
DB
100
AcDbEntity
  8
_U+30EC_U+30A4_U+30E4_U+30FC 1
 62
   179
420
  2234388
370
     9
100
AcDbVertex
100
AcDb2dVertex
 10
108.6455691726651
 20
-129.4025930232048
 30
0.0
  0
VERTEX
  5
DD
330
DB
100
AcDbEntity
  8
_U+30EC_U+30A4_U+30E4_U+30FC 1
 62
   179
420
  2234388
370
     9
100
AcDbVertex
100
AcDb2dVertex
 10
108.6455691726651
 20
-115.9424627487923
 30
0.0
  0
SEQEND
  5
DE
330
DB
100
AcDbEntity
  8
_U+30EC_U+30A4_U+30E4_U+30FC 1
 62
   179
420
  2234388
370
     9
  0
SPLINE
  5
DF
330
41
100
AcDbEntity
  8
_U+30EC_U+30A4_U+30E4_U+30FC 1
 62
   179
420
  2234388
370
     9
100
AcDbSpline
210
0.0
220
0.0
230
1.0
 70
    11
 71
     3
 72
    17
 73
    13
 74
     0
 42
0.0000000001
 43
0.0000000001
 12
1.0
 22
0.0
 32
0.0
 13
1.0
 23
0.0
 33
0.0
 40
0.0
 40
0.0
 40
0.0
 40
0.0
 40
1.0
 40
1.0
 40
1.0
 40
2.0
 40
2.0
 40
2.0
 40
3.0
 40
3.0
 40
3.0
 40
4.0
 40
4.0
 40
4.0
 40
4.0
 10
75.33699780021529
 20
-114.6470980268938
 30
0.0
 10
75.33699780021529
 20
-114.5912885824634
 30
0.0
 10
75.29223030135739
 20
-114.5464858046967
 30
0.0
 10
75.23709113609745
 20
-114.5464858046967
 30
0.0
 10
75.18128169307683
 20
-114.5464858046967
 30
0.0
 10
75.13651419421893
 20
-114.5912885824634
 30
0.0
 10
75.13651419421893
 20
-114.6470980268938
 30
0.0
 10
75.13651419421893
 20
-114.7022019157688
 30
0.0
 10
75.18128169307683
 20
-114.7470046935355
 30
0.0
 10
75.23709113609745
 20
-114.7470046935355
 30
0.0
 10
75.29223030135739
 20
-114.7470046935355
 30
0.0
 10
75.33699780021529
 20
-114.7022019157688
 30
0.0
 10
75.33699780021529
 20
-114.6470980268938
 30
0.0
  0
SPLINE
  5
E0
330
41
100
AcDbEntity
  8
_U+30EC_U+30A4_U+30E4_U+30FC 1
 62
   179
420
  2234388
370
     9
100
AcDbSpline
210
0.0
220
0.0
230
1.0
 70
    11
 71
     3
 72
    17
 73
    13
 74
     0
 42
0.0000000001
 43
0.0000000001
 12
1.0
 22
0.0
 32
0.0
 13
1.0
 23
0.0
 33
0.0
 40
0.0
 40
0.0
 40
0.0
 40
0.0
 40
1.0
 40
1.0
 40
1.0
 40
2.0
 40
2.0
 40
2.0
 40
3.0
 40
3.0
 40
3.0
 40
4.0
 40
4.0
 40
4.0
 40
4.0
 10
73.66130339852137
 20
-114.6470980268938
 30
0.0
 10
73.66130339852137
 20
-114.5912885824634
 30
0.0
 10
73.61653589966348
 20
-114.5464858046967
 30
0.0
 10
73.56139673440353
 20
-114.5464858046967
 30
0.0
 10
73.50558729138291
 20
-114.5464858046967
 30
0.0
 10
73.46081979252502
 20
-114.5912885824634
 30
0.0
 10
73.46081979252502
 20
-114.6470980268938
 30
0.0
 10
73.46081979252502
 20
-114.7022019157688
 30
0.0
 10
73.50558729138291
 20
-114.7470046935355
 30
0.0
 10
73.56139673440353
 20
-114.7470046935355
 30
0.0
 10
73.61653589966348
 20
-114.7470046935355
 30
0.0
 10
73.66130339852137
 20
-114.7022019157688
 30
0.0
 10
73.66130339852137
 20
-114.6470980268938
 30
0.0
  0
POLYLINE
  5
E1
330
41
100
AcDbEntity
  8
_U+30EC_U+30A4_U+30E4_U+30FC 1
 62
   179
420
  2234388
370
     9
100
AcDb2dPolyline
 66
     1
 10
0.0
 20
0.0
 30
0.0
  0
VERTEX
  5
E2
330
E1
100
AcDbEntity
  8
_U+30EC_U+30A4_U+30E4_U+30FC 1
 62
   179
420
  2234388
370
     9
100
AcDbVertex
100
AcDb2dVertex
 10
73.56072645664285
 20
-113.9415424715147
 30
0.0
  0
VERTEX
  5
E3
330
E1
100
AcDbEntity
  8
_U+30EC_U+30A4_U+30E4_U+30FC 1
 62
   179
420
  2234388
370
     9
100
AcDbVertex
100
AcDb2dVertex
 10
73.56072645664285
 20
-115.1762646934282
 30
0.0
  0
SEQEND
  5
E4
330
E1
100
AcDbEntity
  8
_U+30EC_U+30A4_U+30E4_U+30FC 1
 62
   179
420
  2234388
370
     9
  0
POLYLINE
  5
E5
330
41
100
AcDbEntity
  8
_U+30EC_U+30A4_U+30E4_U+30FC 1
 62
   179
420
  2234388
370
     9
100
AcDb2dPolyline
 66
     1
 10
0.0
 20
0.0
 30
0.0
  0
VERTEX
  5
E6
330
E5
100
AcDbEntity
  8
_U+30EC_U+30A4_U+30E4_U+30FC 1
 62
   179
420
  2234388
370
     9
100
AcDbVertex
100
AcDb2dVertex
 10
75.23642085833677
 20
-113.9415424715147
 30
0.0
  0
VERTEX
  5
E7
330
E5
100
AcDbEntity
  8
_U+30EC_U+30A4_U+30E4_U+30FC 1
 62
   179
420
  2234388
370
     9
100
AcDbVertex
100
AcDb2dVertex
 10
75.23642085833677
 20
-115.1762646934282
 30
0.0
  0
SEQEND
  5
E8
330
E5
100
AcDbEntity
  8
_U+30EC_U+30A4_U+30E4_U+30FC 1
 62
   179
420
  2234388
370
     9
  0
POLYLINE
  5
E9
330
41
100
AcDbEntity
  8
_U+30EC_U+30A4_U+30E4_U+30FC 1
 62
   179
420
  2234388
370
     9
100
AcDb2dPolyline
 66
     1
 10
0.0
 20
0.0
 30
0.0
  0
VERTEX
  5
EA
330
E9
100
AcDbEntity
  8
_U+30EC_U+30A4_U+30E4_U+30FC 1
 62
   179
420
  2234388
370
     9
100
AcDbVertex
100
AcDb2dVertex
 10
72.33150759911395
 20
-114.6470980268938
 30
0.0
  0
VERTEX
  5
EB
330
E9
100
AcDbEntity
  8
_U+30EC_U+30A4_U+30E4_U+30FC 1
 62
   179
420
  2234388
370
     9
100
AcDbVertex
100
AcDb2dVertex
 10
76.28921555369996
 20
-114.6470980268938
 30
0.0
  0
SEQEND
  5
EC
330
E9
100
AcDbEntity
  8
_U+30EC_U+30A4_U+30E4_U+30FC 1
 62
   179
420
  2234388
370
     9
  0
INSERT
  5
EE
330
41
100
AcDbEntity
  8
_U+30EC_U+30A4_U+30E4_U+30FC 1
100
AcDbBlockReference
  2
block 3
 10
0.0
 20
0.0
 30
0.0
  0
INSERT
  5
FE
330
41
100
AcDbEntity
  8
_U+30EC_U+30A4_U+30E4_U+30FC 1
100
AcDbBlockReference
  2
block 4
 10
0.0
 20
0.0
 30
0.0
  0
INSERT
  5
10F
330
41
100
AcDbEntity
  8
_U+30EC_U+30A4_U+30E4_U+30FC 1
100
AcDbBlockReference
  2
block 5
 10
0.0
 20
0.0
 30
0.0
  0
INSERT
  5
118
330
41
100
AcDbEntity
  8
_U+30EC_U+30A4_U+30E4_U+30FC 1
100
AcDbBlockReference
  2
block 6
 10
0.0
 20
0.0
 30
0.0
  0
INSERT
  5
11E
330
41
100
AcDbEntity
  8
_U+30EC_U+30A4_U+30E4_U+30FC 1
100
AcDbBlockReference
  2
block 7
 10
0.0
 20
0.0
 30
0.0
  0
INSERT
  5
126
330
41
100
AcDbEntity
  8
_U+30EC_U+30A4_U+30E4_U+30FC 1
100
AcDbBlockReference
  2
block 8
 10
0.0
 20
0.0
 30
0.0
  0
INSERT
  5
12F
330
41
100
AcDbEntity
  8
_U+30EC_U+30A4_U+30E4_U+30FC 1
100
AcDbBlockReference
  2
block 9
 10
0.0
 20
0.0
 30
0.0
  0
ENDBLK
  5
44
330
41
100
AcDbEntity
  8
0
100
AcDbBlockEnd
  0
BLOCK
  5
EF
330
ED
100
AcDbEntity
  8
0
100
AcDbBlockBegin
  2
block 3
 70
     0
 10
0.0
 20
0.0
 30
0.0
  3
block 3
  1

  0
SPLINE
  5
F1
330
ED
100
AcDbEntity
  8
_U+30EC_U+30A4_U+30E4_U+30FC 1
370
     0
100
AcDbSpline
210
0.0
220
0.0
230
1.0
 70
    11
 71
     3
 72
    26
 73
    22
 74
     0
 42
0.0000000001
 43
0.0000000001
 12
1.0
 22
0.0
 32
0.0
 13
1.0
 23
0.0
 33
0.0
 40
0.0
 40
0.0
 40
0.0
 40
0.0
 40
1.0
 40
1.0
 40
1.0
 40
2.0
 40
2.0
 40
2.0
 40
3.0
 40
3.0
 40
3.0
 40
4.0
 40
4.0
 40
4.0
 40
5.0
 40
5.0
 40
5.0
 40
6.0
 40
6.0
 40
6.0
 40
7.0
 40
7.0
 40
7.0
 40
7.0
 10
115.1226887733027
 20
-144.5620632234081
 30
0.0
 10
115.1226887733027
 20
-144.5620632234081
 30
0.0
 10
114.0185356702801
 20
-144.5620632234081
 30
0.0
 10
114.0185356702801
 20
-144.5620632234081
 30
0.0
 10
114.0185356702801
 20
-144.5620632234081
 30
0.0
 10
114.0185356702801
 20
-144.9144964915492
 30
0.0
 10
114.0185356702801
 20
-144.9144964915492
 30
0.0
 10
114.0185356702801
 20
-144.9144964915492
 30
0.0
 10
113.8703965644143
 20
-144.9144964915492
 30
0.0
 10
113.8703965644143
 20
-144.9144964915492
 30
0.0
 10
113.8555826538278
 20
-144.5596516565684
 30
0.0
 10
113.6926296373755
 20
-144.5100422815808
 30
0.0
 10
113.5782524672652
 20
-144.4783474031165
 30
0.0
 10
113.5782524672652
 20
-144.4783474031165
 30
0.0
 10
113.5782524672652
 20
-144.3222845776347
 30
0.0
 10
113.5782524672652
 20
-144.3222845776347
 30
0.0
 10
113.5782524672652
 20
-144.3222845776347
 30
0.0
 10
115.1226887733027
 20
-144.3222845776347
 30
0.0
 10
115.1226887733027
 20
-144.3222845776347
 30
0.0
 10
115.1226887733027
 20
-144.3222845776347
 30
0.0
 10
115.1226887733027
 20
-144.5620632234081
 30
0.0
 10
115.1226887733027
 20
-144.5620632234081
 30
0.0
  0
HATCH
  5
F2
330
ED
100
AcDbEntity
  8
_U+30EC_U+30A4_U+30E4_U+30FC 1
 62
   179
420
  2234388
100
AcDbHatch
 10
0.0
 20
0.0
 30
0.0
210
0.0
220
0.0
230
1.0
  2
SOLID
 70
     1
 71
     0
 91
        1
 92
        1
 93
        1
 72
     4
 94
        3
 73
     0
 74
     1
 95
       26
 96
       22
 40
0.0
 40
0.0
 40
0.0
 40
0.0
 40
1.0
 40
1.0
 40
1.0
 40
2.0
 40
2.0
 40
2.0
 40
3.0
 40
3.0
 40
3.0
 40
4.0
 40
4.0
 40
4.0
 40
5.0
 40
5.0
 40
5.0
 40
6.0
 40
6.0
 40
6.0
 40
7.0
 40
7.0
 40
7.0
 40
7.0
 10
115.1226887733027
 20
-144.5620632234081
 10
115.1226887733027
 20
-144.5620632234081
 10
114.0185356702801
 20
-144.5620632234081
 10
114.0185356702801
 20
-144.5620632234081
 10
114.0185356702801
 20
-144.5620632234081
 10
114.0185356702801
 20
-144.9144964915492
 10
114.0185356702801
 20
-144.9144964915492
 10
114.0185356702801
 20
-144.9144964915492
 10
113.8703965644143
 20
-144.9144964915492
 10
113.8703965644143
 20
-144.9144964915492
 10
113.8555826538278
 20
-144.5596516565684
 10
113.6926296373755
 20
-144.5100422815808
 10
113.5782524672652
 20
-144.4783474031165
 10
113.5782524672652
 20
-144.4783474031165
 10
113.5782524672652
 20
-144.3222845776347
 10
113.5782524672652
 20
-144.3222845776347
 10
113.5782524672652
 20
-144.3222845776347
 10
115.1226887733027
 20
-144.3222845776347
 10
115.1226887733027
 20
-144.3222845776347
 10
115.1226887733027
 20
-144.3222845776347
 10
115.1226887733027
 20
-144.5620632234081
 10
115.1226887733027
 20
-144.5620632234081
 97
        0
 97
        0
 75
     2
 76
     1
 98
        0
  0
POLYLINE
  5
F3
330
ED
100
AcDbEntity
  8
_U+30EC_U+30A4_U+30E4_U+30FC 1
370
     0
100
AcDb2dPolyline
 66
     1
 10
0.0
 20
0.0
 30
0.0
  0
VERTEX
  5
F4
330
F3
100
AcDbEntity
  8
_U+30EC_U+30A4_U+30E4_U+30FC 1
370
     0
100
AcDbVertex
100
AcDb2dVertex
 10
115.1226887733027
 20
-143.7224934536527
 30
0.0
  0
VERTEX
  5
F5
330
F3
100
AcDbEntity
  8
_U+30EC_U+30A4_U+30E4_U+30FC 1
370
     0
100
AcDbVertex
100
AcDb2dVertex
 10
114.8708522933309
 20
-143.7224934536527
 30
0.0
  0
VERTEX
  5
F6
330
F3
100
AcDbEntity
  8
_U+30EC_U+30A4_U+30E4_U+30FC 1
370
     0
100
AcDbVertex
100
AcDb2dVertex
 10
114.8708522933309
 20
-143.4534314962547
 30
0.0
  0
VERTEX
  5
F7
330
F3
100
AcDbEntity
  8
_U+30EC_U+30A4_U+30E4_U+30FC 1
370
     0
100
AcDbVertex
100
AcDb2dVertex
 10
115.1226887733027
 20
-143.4534314962547
 30
0.0
  0
VERTEX
  5
F8
330
F3
100
AcDbEntity
  8
_U+30EC_U+30A4_U+30E4_U+30FC 1
370
     0
100
AcDbVertex
100
AcDb2dVertex
 10
115.1226887733027
 20
-143.7224934536527
 30
0.0
  0
SEQEND
  5
F9
330
F3
100
AcDbEntity
  8
_U+30EC_U+30A4_U+30E4_U+30FC 1
370
     0
  0
HATCH
  5
FA
330
ED
100
AcDbEntity
  8
_U+30EC_U+30A4_U+30E4_U+30FC 1
 62
   179
420
  2234388
100
AcDbHatch
 10
0.0
 20
0.0
 30
0.0
210
0.0
220
0.0
230
1.0
  2
SOLID
 70
     1
 71
     0
 91
        1
 92
        1
 93
        4
 72
     1
 10
115.1226887733027
 20
-143.7224934536527
 11
114.8708522933309
 21
-143.7224934536527
 72
     1
 10
114.8708522933309
 20
-143.7224934536527
 11
114.8708522933309
 21
-143.4534314962547
 72
     1
 10
114.8708522933309
 20
-143.4534314962547
 11
115.1226887733027
 21
-143.4534314962547
 72
     1
 10
115.1226887733027
 20
-143.4534314962547
 11
115.1226887733027
 21
-143.7224934536527
 97
        0
 75
     2
 76
     1
 98
        0
  0
SPLINE
  5
FB
330
ED
100
AcDbEntity
  8
_U+30EC_U+30A4_U+30E4_U+30FC 1
370
     0
100
AcDbSpline
210
0.0
220
0.0
230
1.0
 70
    11
 71
     3
 72
    53
 73
    49
 74
     0
 42
0.0000000001
 43
0.0000000001
 12
1.0
 22
0.0
 32
0.0
 13
1.0
 23
0.0
 33
0.0
 40
0.0
 40
0.0
 40
0.0
 40
0.0
 40
1.0
 40
1.0
 40
1.0
 40
2.0
 40
2.0
 40
2.0
 40
3.0
 40
3.0
 40
3.0
 40
4.0
 40
4.0
 40
4.0
 40
5.0
 40
5.0
 40
5.0
 40
6.0
 40
6.0
 40
6.0
 40
7.0
 40
7.0
 40
7.0
 40
8.0
 40
8.0
 40
8.0
 40
9.0
 40
9.0
 40
9.0
 40
10.0
 40
10.0
 40
10.0
 40
11.0
 40
11.0
 40
11.0
 40
12.0
 40
12.0
 40
12.0
 40
13.0
 40
13.0
 40
13.0
 40
14.0
 40
14.0
 40
14.0
 40
15.0
 40
15.0
 40
15.0
 40
16.0
 40
16.0
 40
16.0
 40
16.0
 10
115.1733316769358
 20
-142.6865532412381
 30
0.0
 10
115.1733316769358
 20
-142.7702690615297
 30
0.0
 10
115.1564507090581
 20
-142.878789569315
 30
0.0
 10
115.0930609521295
 20
-142.9873100771004
 30
0.0
 10
114.98316240615
 20
-143.1726562142069
 30
0.0
 10
114.851904268162
 20
-143.195049334861
 30
0.0
 10
114.7440727794737
 20
-143.2157199077725
 30
0.0
 10
114.7440727794737
 20
-143.2157199077725
 30
0.0
 10
114.7440727794737
 20
-142.9780083192902
 30
0.0
 10
114.7440727794737
 20
-142.9780083192902
 30
0.0
 10
114.9428547889726
 20
-142.919441696041
 30
0.0
 10
114.9724826101458
 20
-142.7837049339221
 30
0.0
 10
114.9724826101458
 20
-142.6841416743984
 30
0.0
 10
114.9724826101458
 20
-142.5349690398871
 30
0.0
 10
114.8729193506221
 20
-142.3723605329833
 30
0.0
 10
114.6403754053677
 20
-142.3723605329833
 30
0.0
 10
114.3844048108136
 20
-142.3723605329833
 30
0.0
 10
114.3144693724631
 20
-142.5645968610602
 30
0.0
 10
114.3144693724631
 20
-142.6934434322086
 30
0.0
 10
114.3144693724631
 20
-142.727205367964
 30
0.0
 10
114.3144693724631
 20
-142.878789569315
 30
0.0
 10
114.4436604531599
 20
-142.9735296951594
 30
0.0
 10
114.4436604531599
 20
-142.9735296951594
 30
0.0
 10
114.4247124279911
 20
-143.1612873991055
 30
0.0
 10
114.4247124279911
 20
-143.1612873991055
 30
0.0
 10
114.4247124279911
 20
-143.1612873991055
 30
0.0
 10
113.5782524672652
 20
-143.0324408279572
 30
0.0
 10
113.5782524672652
 20
-143.0324408279572
 30
0.0
 10
113.5782524672652
 20
-143.0324408279572
 30
0.0
 10
113.5782524672652
 20
-142.2004502682693
 30
0.0
 10
113.5782524672652
 20
-142.2004502682693
 30
0.0
 10
113.5782524672652
 20
-142.2004502682693
 30
0.0
 10
113.7729003621818
 20
-142.2004502682693
 30
0.0
 10
113.7729003621818
 20
-142.2004502682693
 30
0.0
 10
113.7729003621818
 20
-142.2004502682693
 30
0.0
 10
113.7729003621818
 20
-142.858463505952
 30
0.0
 10
113.7729003621818
 20
-142.858463505952
 30
0.0
 10
113.7729003621818
 20
-142.858463505952
 30
0.0
 10
114.1959580877705
 20
-142.9283989443026
 30
0.0
 10
114.1959580877705
 20
-142.9283989443026
 30
0.0
 10
114.162196152015
 20
-142.8629421300829
 30
0.0
 10
114.1218885348376
 20
-142.7747476856605
 30
0.0
 10
114.1218885348376
 20
-142.6479681718033
 30
0.0
 10
114.1218885348376
 20
-142.3768391571141
 30
0.0
 10
114.3082682005896
 20
-142.1236246389483
 30
0.0
 10
114.6214273801988
 20
-142.1236246389483
 30
0.0
 10
114.9387206743903
 20
-142.1236246389483
 30
0.0
 10
115.1733316769358
 20
-142.3630587751731
 30
0.0
 10
115.1733316769358
 20
-142.6865532412381
 30
0.0
  0
HATCH
  5
FC
330
ED
100
AcDbEntity
  8
_U+30EC_U+30A4_U+30E4_U+30FC 1
 62
   179
420
  2234388
100
AcDbHatch
 10
0.0
 20
0.0
 30
0.0
210
0.0
220
0.0
230
1.0
  2
SOLID
 70
     1
 71
     0
 91
        1
 92
        1
 93
        1
 72
     4
 94
        3
 73
     0
 74
     1
 95
       53
 96
       49
 40
0.0
 40
0.0
 40
0.0
 40
0.0
 40
1.0
 40
1.0
 40
1.0
 40
2.0
 40
2.0
 40
2.0
 40
3.0
 40
3.0
 40
3.0
 40
4.0
 40
4.0
 40
4.0
 40
5.0
 40
5.0
 40
5.0
 40
6.0
 40
6.0
 40
6.0
 40
7.0
 40
7.0
 40
7.0
 40
8.0
 40
8.0
 40
8.0
 40
9.0
 40
9.0
 40
9.0
 40
10.0
 40
10.0
 40
10.0
 40
11.0
 40
11.0
 40
11.0
 40
12.0
 40
12.0
 40
12.0
 40
13.0
 40
13.0
 40
13.0
 40
14.0
 40
14.0
 40
14.0
 40
15.0
 40
15.0
 40
15.0
 40
16.0
 40
16.0
 40
16.0
 40
16.0
 10
115.1733316769358
 20
-142.6865532412381
 10
115.1733316769358
 20
-142.7702690615297
 10
115.1564507090581
 20
-142.878789569315
 10
115.0930609521295
 20
-142.9873100771004
 10
114.98316240615
 20
-143.1726562142069
 10
114.851904268162
 20
-143.195049334861
 10
114.7440727794737
 20
-143.2157199077725
 10
114.7440727794737
 20
-143.2157199077725
 10
114.7440727794737
 20
-142.9780083192902
 10
114.7440727794737
 20
-142.9780083192902
 10
114.9428547889726
 20
-142.919441696041
 10
114.9724826101458
 20
-142.7837049339221
 10
114.9724826101458
 20
-142.6841416743984
 10
114.9724826101458
 20
-142.5349690398871
 10
114.8729193506221
 20
-142.3723605329833
 10
114.6403754053677
 20
-142.3723605329833
 10
114.3844048108136
 20
-142.3723605329833
 10
114.3144693724631
 20
-142.5645968610602
 10
114.3144693724631
 20
-142.6934434322086
 10
114.3144693724631
 20
-142.727205367964
 10
114.3144693724631
 20
-142.878789569315
 10
114.4436604531599
 20
-142.9735296951594
 10
114.4436604531599
 20
-142.9735296951594
 10
114.4247124279911
 20
-143.1612873991055
 10
114.4247124279911
 20
-143.1612873991055
 10
114.4247124279911
 20
-143.1612873991055
 10
113.5782524672652
 20
-143.0324408279572
 10
113.5782524672652
 20
-143.0324408279572
 10
113.5782524672652
 20
-143.0324408279572
 10
113.5782524672652
 20
-142.2004502682693
 10
113.5782524672652
 20
-142.2004502682693
 10
113.5782524672652
 20
-142.2004502682693
 10
113.7729003621818
 20
-142.2004502682693
 10
113.7729003621818
 20
-142.2004502682693
 10
113.7729003621818
 20
-142.2004502682693
 10
113.7729003621818
 20
-142.858463505952
 10
113.7729003621818
 20
-142.858463505952
 10
113.7729003621818
 20
-142.858463505952
 10
114.1959580877705
 20
-142.9283989443026
 10
114.1959580877705
 20
-142.9283989443026
 10
114.162196152015
 20
-142.8629421300829
 10
114.1218885348376
 20
-142.7747476856605
 10
114.1218885348376
 20
-142.6479681718033
 10
114.1218885348376
 20
-142.3768391571141
 10
114.3082682005896
 20
-142.1236246389483
 10
114.6214273801988
 20
-142.1236246389483
 10
114.9387206743903
 20
-142.1236246389483
 10
115.1733316769358
 20
-142.3630587751731
 10
115.1733316769358
 20
-142.6865532412381
 97
        0
 97
        0
 75
     2
 76
     1
 98
        0
  0
ENDBLK
  5
F0
330
ED
100
AcDbEntity
  8
0
100
AcDbBlockEnd
  0
BLOCK
  5
FF
330
FD
100
AcDbEntity
  8
0
100
AcDbBlockBegin
  2
block 4
 70
     0
 10
0.0
 20
0.0
 30
0.0
  3
block 4
  1

  0
SPLINE
  5
101
330
FD
100
AcDbEntity
  8
_U+30EC_U+30A4_U+30E4_U+30FC 1
370
     0
100
AcDbSpline
210
0.0
220
0.0
230
1.0
 70
    11
 71
     3
 72
    32
 73
    28
 74
     0
 42
0.0000000001
 43
0.0000000001
 12
1.0
 22
0.0
 32
0.0
 13
1.0
 23
0.0
 33
0.0
 40
0.0
 40
0.0
 40
0.0
 40
0.0
 40
1.0
 40
1.0
 40
1.0
 40
2.0
 40
2.0
 40
2.0
 40
3.0
 40
3.0
 40
3.0
 40
4.0
 40
4.0
 40
4.0
 40
5.0
 40
5.0
 40
5.0
 40
6.0
 40
6.0
 40
6.0
 40
7.0
 40
7.0
 40
7.0
 40
8.0
 40
8.0
 40
8.0
 40
9.0
 40
9.0
 40
9.0
 40
9.0
 10
115.1733316769358
 20
-137.0775932817028
 30
0.0
 10
115.1733316769358
 20
-137.6294975784399
 30
0.0
 10
114.6193603229077
 20
-137.6384548267015
 30
0.0
 10
114.4054198932736
 20
-137.6384548267015
 30
0.0
 10
114.1749430053104
 20
-137.6384548267015
 30
0.0
 10
113.527609563632
 20
-137.6181287633385
 30
0.0
 10
113.527609563632
 20
-137.0369411549769
 30
0.0
 10
113.527609563632
 20
-136.8515950178704
 30
0.0
 10
113.5975450019826
 20
-136.5894232514429
 30
0.0
 10
113.9296522067607
 20
-136.548771124717
 30
0.0
 10
113.9296522067607
 20
-136.548771124717
 30
0.0
 10
113.9296522067607
 20
-136.777180955389
 30
0.0
 10
113.9296522067607
 20
-136.777180955389
 30
0.0
 10
113.8724636217055
 20
-136.7882052609419
 30
0.0
 10
113.7243245158398
 20
-136.8223117062458
 30
0.0
 10
113.7243245158398
 20
-137.0393527218166
 30
0.0
 10
113.7243245158398
 20
-137.3514783727802
 30
0.0
 10
114.0522976060355
 20
-137.3941975567973
 30
0.0
 10
114.2572807874079
 20
-137.4079779387383
 30
0.0
 10
114.1790771198927
 20
-137.3084146792146
 30
0.0
 10
114.1198214775464
 20
-137.2360676740243
 30
0.0
 10
114.1198214775464
 20
-137.0417642886562
 30
0.0
 10
114.1198214775464
 20
-136.8495279605793
 30
0.0
 10
114.2279974757833
 20
-136.5260334945143
 30
0.0
 10
114.6341742334942
 20
-136.5260334945143
 30
0.0
 10
114.9535345849769
 20
-136.5260334945143
 30
0.0
 10
115.1733316769358
 20
-136.7385958859543
 30
0.0
 10
115.1733316769358
 20
-137.0775932817028
 30
0.0
  0
SPLINE
  5
102
330
FD
100
AcDbEntity
  8
_U+30EC_U+30A4_U+30E4_U+30FC 1
370
     0
100
AcDbSpline
210
0.0
220
0.0
230
1.0
 70
    11
 71
     3
 72
    17
 73
    13
 74
     0
 42
0.0000000001
 43
0.0000000001
 12
1.0
 22
0.0
 32
0.0
 13
1.0
 23
0.0
 33
0.0
 40
0.0
 40
0.0
 40
0.0
 40
0.0
 40
1.0
 40
1.0
 40
1.0
 40
2.0
 40
2.0
 40
2.0
 40
3.0
 40
3.0
 40
3.0
 40
4.0
 40
4.0
 40
4.0
 40
4.0
 10
114.3144693724631
 20
-137.0596787851795
 30
0.0
 10
114.3144693724631
 20
-137.3401095576789
 30
0.0
 10
114.5259982352574
 20
-137.3807616844048
 30
0.0
 10
114.6424424626588
 20
-137.3807616844048
 30
0.0
 10
114.8181423324066
 20
-137.3807616844048
 30
0.0
 10
114.9810953488589
 20
-137.2791313675899
 30
0.0
 10
114.9810953488589
 20
-137.0824164153822
 30
0.0
 10
114.9810953488589
 20
-136.9535698442338
 30
0.0
 10
114.9218397065126
 20
-136.7658121402877
 30
0.0
 10
114.6362412907854
 20
-136.7658121402877
 30
0.0
 10
114.4119655746956
 20
-136.7658121402877
 30
0.0
 10
114.3144693724631
 20
-136.9149847747991
 30
0.0
 10
114.3144693724631
 20
-137.0596787851795
 30
0.0
  0
HATCH
  5
103
330
FD
100
AcDbEntity
  8
_U+30EC_U+30A4_U+30E4_U+30FC 1
 62
   179
420
  2234388
100
AcDbHatch
 10
0.0
 20
0.0
 30
0.0
210
0.0
220
0.0
230
1.0
  2
SOLID
 70
     1
 71
     0
 91
        2
 92
        1
 93
        1
 72
     4
 94
        3
 73
     0
 74
     1
 95
       32
 96
       28
 40
0.0
 40
0.0
 40
0.0
 40
0.0
 40
1.0
 40
1.0
 40
1.0
 40
2.0
 40
2.0
 40
2.0
 40
3.0
 40
3.0
 40
3.0
 40
4.0
 40
4.0
 40
4.0
 40
5.0
 40
5.0
 40
5.0
 40
6.0
 40
6.0
 40
6.0
 40
7.0
 40
7.0
 40
7.0
 40
8.0
 40
8.0
 40
8.0
 40
9.0
 40
9.0
 40
9.0
 40
9.0
 10
115.1733316769358
 20
-137.0775932817028
 10
115.1733316769358
 20
-137.6294975784399
 10
114.6193603229077
 20
-137.6384548267015
 10
114.4054198932736
 20
-137.6384548267015
 10
114.1749430053104
 20
-137.6384548267015
 10
113.527609563632
 20
-137.6181287633385
 10
113.527609563632
 20
-137.0369411549769
 10
113.527609563632
 20
-136.8515950178704
 10
113.5975450019826
 20
-136.5894232514429
 10
113.9296522067607
 20
-136.548771124717
 10
113.9296522067607
 20
-136.548771124717
 10
113.9296522067607
 20
-136.777180955389
 10
113.9296522067607
 20
-136.777180955389
 10
113.8724636217055
 20
-136.7882052609419
 10
113.7243245158398
 20
-136.8223117062458
 10
113.7243245158398
 20
-137.0393527218166
 10
113.7243245158398
 20
-137.3514783727802
 10
114.0522976060355
 20
-137.3941975567973
 10
114.2572807874079
 20
-137.4079779387383
 10
114.1790771198927
 20
-137.3084146792146
 10
114.1198214775464
 20
-137.2360676740243
 10
114.1198214775464
 20
-137.0417642886562
 10
114.1198214775464
 20
-136.8495279605793
 10
114.2279974757833
 20
-136.5260334945143
 10
114.6341742334942
 20
-136.5260334945143
 10
114.9535345849769
 20
-136.5260334945143
 10
115.1733316769358
 20
-136.7385958859543
 10
115.1733316769358
 20
-137.0775932817028
 97
        0
 97
        0
 92
        1
 93
        1
 72
     4
 94
        3
 73
     0
 74
     1
 95
       17
 96
       13
 40
0.0
 40
0.0
 40
0.0
 40
0.0
 40
1.0
 40
1.0
 40
1.0
 40
2.0
 40
2.0
 40
2.0
 40
3.0
 40
3.0
 40
3.0
 40
4.0
 40
4.0
 40
4.0
 40
4.0
 10
114.3144693724631
 20
-137.0596787851795
 10
114.3144693724631
 20
-137.3401095576789
 10
114.5259982352574
 20
-137.3807616844048
 10
114.6424424626588
 20
-137.3807616844048
 10
114.8181423324066
 20
-137.3807616844048
 10
114.9810953488589
 20
-137.2791313675899
 10
114.9810953488589
 20
-137.0824164153822
 10
114.9810953488589
 20
-136.9535698442338
 10
114.9218397065126
 20
-136.7658121402877
 10
114.6362412907854
 20
-136.7658121402877
 10
114.4119655746956
 20
-136.7658121402877
 10
114.3144693724631
 20
-136.9149847747991
 10
114.3144693724631
 20
-137.0596787851795
 97
        0
 97
        0
 75
     2
 76
     1
 98
        0
  0
POLYLINE
  5
104
330
FD
100
AcDbEntity
  8
_U+30EC_U+30A4_U+30E4_U+30FC 1
370
     0
100
AcDb2dPolyline
 66
     1
 10
0.0
 20
0.0
 30
0.0
  0
VERTEX
  5
105
330
104
100
AcDbEntity
  8
_U+30EC_U+30A4_U+30E4_U+30FC 1
370
     0
100
AcDbVertex
100
AcDb2dVertex
 10
115.1226887733027
 20
-136.2948675874541
 30
0.0
  0
VERTEX
  5
106
330
104
100
AcDbEntity
  8
_U+30EC_U+30A4_U+30E4_U+30FC 1
370
     0
100
AcDbVertex
100
AcDb2dVertex
 10
114.8708522933309
 20
-136.2948675874541
 30
0.0
  0
VERTEX
  5
107
330
104
100
AcDbEntity
  8
_U+30EC_U+30A4_U+30E4_U+30FC 1
370
     0
100
AcDbVertex
100
AcDb2dVertex
 10
114.8708522933309
 20
-136.0258056300561
 30
0.0
  0
VERTEX
  5
108
330
104
100
AcDbEntity
  8
_U+30EC_U+30A4_U+30E4_U+30FC 1
370
     0
100
AcDbVertex
100
AcDb2dVertex
 10
115.1226887733027
 20
-136.0258056300561
 30
0.0
  0
VERTEX
  5
109
330
104
100
AcDbEntity
  8
_U+30EC_U+30A4_U+30E4_U+30FC 1
370
     0
100
AcDbVertex
100
AcDb2dVertex
 10
115.1226887733027
 20
-136.2948675874541
 30
0.0
  0
SEQEND
  5
10A
330
104
100
AcDbEntity
  8
_U+30EC_U+30A4_U+30E4_U+30FC 1
370
     0
  0
HATCH
  5
10B
330
FD
100
AcDbEntity
  8
_U+30EC_U+30A4_U+30E4_U+30FC 1
 62
   179
420
  2234388
100
AcDbHatch
 10
0.0
 20
0.0
 30
0.0
210
0.0
220
0.0
230
1.0
  2
SOLID
 70
     1
 71
     0
 91
        1
 92
        1
 93
        4
 72
     1
 10
115.1226887733027
 20
-136.2948675874541
 11
114.8708522933309
 21
-136.2948675874541
 72
     1
 10
114.8708522933309
 20
-136.2948675874541
 11
114.8708522933309
 21
-136.0258056300561
 72
     1
 10
114.8708522933309
 20
-136.0258056300561
 11
115.1226887733027
 21
-136.0258056300561
 72
     1
 10
115.1226887733027
 20
-136.0258056300561
 11
115.1226887733027
 21
-136.2948675874541
 97
        0
 75
     2
 76
     1
 98
        0
  0
SPLINE
  5
10C
330
FD
100
AcDbEntity
  8
_U+30EC_U+30A4_U+30E4_U+30FC 1
370
     0
100
AcDbSpline
210
0.0
220
0.0
230
1.0
 70
    11
 71
     3
 72
    53
 73
    49
 74
     0
 42
0.0000000001
 43
0.0000000001
 12
1.0
 22
0.0
 32
0.0
 13
1.0
 23
0.0
 33
0.0
 40
0.0
 40
0.0
 40
0.0
 40
0.0
 40
1.0
 40
1.0
 40
1.0
 40
2.0
 40
2.0
 40
2.0
 40
3.0
 40
3.0
 40
3.0
 40
4.0
 40
4.0
 40
4.0
 40
5.0
 40
5.0
 40
5.0
 40
6.0
 40
6.0
 40
6.0
 40
7.0
 40
7.0
 40
7.0
 40
8.0
 40
8.0
 40
8.0
 40
9.0
 40
9.0
 40
9.0
 40
10.0
 40
10.0
 40
10.0
 40
11.0
 40
11.0
 40
11.0
 40
12.0
 40
12.0
 40
12.0
 40
13.0
 40
13.0
 40
13.0
 40
14.0
 40
14.0
 40
14.0
 40
15.0
 40
15.0
 40
15.0
 40
16.0
 40
16.0
 40
16.0
 40
16.0
 10
115.1733316769358
 20
-135.2589273750394
 30
0.0
 10
115.1733316769358
 20
-135.342643195331
 30
0.0
 10
115.1564507090581
 20
-135.4511637031164
 30
0.0
 10
115.0930609521295
 20
-135.5596842109018
 30
0.0
 10
114.98316240615
 20
-135.7450303480082
 30
0.0
 10
114.851904268162
 20
-135.7674234686623
 30
0.0
 10
114.7440727794737
 20
-135.7880940415738
 30
0.0
 10
114.7440727794737
 20
-135.7880940415738
 30
0.0
 10
114.7440727794737
 20
-135.5503824530916
 30
0.0
 10
114.7440727794737
 20
-135.5503824530916
 30
0.0
 10
114.9428547889726
 20
-135.4918158298423
 30
0.0
 10
114.9724826101458
 20
-135.3560790677235
 30
0.0
 10
114.9724826101458
 20
-135.2565158081998
 30
0.0
 10
114.9724826101458
 20
-135.1073431736884
 30
0.0
 10
114.8729193506221
 20
-134.9447346667847
 30
0.0
 10
114.6403754053677
 20
-134.9447346667847
 30
0.0
 10
114.3844048108136
 20
-134.9447346667847
 30
0.0
 10
114.3144693724631
 20
-135.1369709948616
 30
0.0
 10
114.3144693724631
 20
-135.2658175660099
 30
0.0
 10
114.3144693724631
 20
-135.2995795017654
 30
0.0
 10
114.3144693724631
 20
-135.4511637031164
 30
0.0
 10
114.4436604531599
 20
-135.5459038289607
 30
0.0
 10
114.4436604531599
 20
-135.5459038289607
 30
0.0
 10
114.4247124279911
 20
-135.7336615329069
 30
0.0
 10
114.4247124279911
 20
-135.7336615329069
 30
0.0
 10
114.4247124279911
 20
-135.7336615329069
 30
0.0
 10
113.5782524672652
 20
-135.6048149617585
 30
0.0
 10
113.5782524672652
 20
-135.6048149617585
 30
0.0
 10
113.5782524672652
 20
-135.6048149617585
 30
0.0
 10
113.5782524672652
 20
-134.7728244020707
 30
0.0
 10
113.5782524672652
 20
-134.7728244020707
 30
0.0
 10
113.5782524672652
 20
-134.7728244020707
 30
0.0
 10
113.7729003621818
 20
-134.7728244020707
 30
0.0
 10
113.7729003621818
 20
-134.7728244020707
 30
0.0
 10
113.7729003621818
 20
-134.7728244020707
 30
0.0
 10
113.7729003621818
 20
-135.4308376397534
 30
0.0
 10
113.7729003621818
 20
-135.4308376397534
 30
0.0
 10
113.7729003621818
 20
-135.4308376397534
 30
0.0
 10
114.1959580877705
 20
-135.500773078104
 30
0.0
 10
114.1959580877705
 20
-135.500773078104
 30
0.0
 10
114.162196152015
 20
-135.4353162638842
 30
0.0
 10
114.1218885348376
 20
-135.3471218194618
 30
0.0
 10
114.1218885348376
 20
-135.2203423056046
 30
0.0
 10
114.1218885348376
 20
-134.9492132909155
 30
0.0
 10
114.3082682005896
 20
-134.6959987727496
 30
0.0
 10
114.6214273801988
 20
-134.6959987727496
 30
0.0
 10
114.9387206743903
 20
-134.6959987727496
 30
0.0
 10
115.1733316769358
 20
-134.9354329089745
 30
0.0
 10
115.1733316769358
 20
-135.2589273750394
 30
0.0
  0
HATCH
  5
10D
330
FD
100
AcDbEntity
  8
_U+30EC_U+30A4_U+30E4_U+30FC 1
 62
   179
420
  2234388
100
AcDbHatch
 10
0.0
 20
0.0
 30
0.0
210
0.0
220
0.0
230
1.0
  2
SOLID
 70
     1
 71
     0
 91
        1
 92
        1
 93
        1
 72
     4
 94
        3
 73
     0
 74
     1
 95
       53
 96
       49
 40
0.0
 40
0.0
 40
0.0
 40
0.0
 40
1.0
 40
1.0
 40
1.0
 40
2.0
 40
2.0
 40
2.0
 40
3.0
 40
3.0
 40
3.0
 40
4.0
 40
4.0
 40
4.0
 40
5.0
 40
5.0
 40
5.0
 40
6.0
 40
6.0
 40
6.0
 40
7.0
 40
7.0
 40
7.0
 40
8.0
 40
8.0
 40
8.0
 40
9.0
 40
9.0
 40
9.0
 40
10.0
 40
10.0
 40
10.0
 40
11.0
 40
11.0
 40
11.0
 40
12.0
 40
12.0
 40
12.0
 40
13.0
 40
13.0
 40
13.0
 40
14.0
 40
14.0
 40
14.0
 40
15.0
 40
15.0
 40
15.0
 40
16.0
 40
16.0
 40
16.0
 40
16.0
 10
115.1733316769358
 20
-135.2589273750394
 10
115.1733316769358
 20
-135.342643195331
 10
115.1564507090581
 20
-135.4511637031164
 10
115.0930609521295
 20
-135.5596842109018
 10
114.98316240615
 20
-135.7450303480082
 10
114.851904268162
 20
-135.7674234686623
 10
114.7440727794737
 20
-135.7880940415738
 10
114.7440727794737
 20
-135.7880940415738
 10
114.7440727794737
 20
-135.5503824530916
 10
114.7440727794737
 20
-135.5503824530916
 10
114.9428547889726
 20
-135.4918158298423
 10
114.9724826101458
 20
-135.3560790677235
 10
114.9724826101458
 20
-135.2565158081998
 10
114.9724826101458
 20
-135.1073431736884
 10
114.8729193506221
 20
-134.9447346667847
 10
114.6403754053677
 20
-134.9447346667847
 10
114.3844048108136
 20
-134.9447346667847
 10
114.3144693724631
 20
-135.1369709948616
 10
114.3144693724631
 20
-135.2658175660099
 10
114.3144693724631
 20
-135.2995795017654
 10
114.3144693724631
 20
-135.4511637031164
 10
114.4436604531599
 20
-135.5459038289607
 10
114.4436604531599
 20
-135.5459038289607
 10
114.4247124279911
 20
-135.7336615329069
 10
114.4247124279911
 20
-135.7336615329069
 10
114.4247124279911
 20
-135.7336615329069
 10
113.5782524672652
 20
-135.6048149617585
 10
113.5782524672652
 20
-135.6048149617585
 10
113.5782524672652
 20
-135.6048149617585
 10
113.5782524672652
 20
-134.7728244020707
 10
113.5782524672652
 20
-134.7728244020707
 10
113.5782524672652
 20
-134.7728244020707
 10
113.7729003621818
 20
-134.7728244020707
 10
113.7729003621818
 20
-134.7728244020707
 10
113.7729003621818
 20
-134.7728244020707
 10
113.7729003621818
 20
-135.4308376397534
 10
113.7729003621818
 20
-135.4308376397534
 10
113.7729003621818
 20
-135.4308376397534
 10
114.1959580877705
 20
-135.500773078104
 10
114.1959580877705
 20
-135.500773078104
 10
114.162196152015
 20
-135.4353162638842
 10
114.1218885348376
 20
-135.3471218194618
 10
114.1218885348376
 20
-135.2203423056046
 10
114.1218885348376
 20
-134.9492132909155
 10
114.3082682005896
 20
-134.6959987727496
 10
114.6214273801988
 20
-134.6959987727496
 10
114.9387206743903
 20
-134.6959987727496
 10
115.1733316769358
 20
-134.9354329089745
 10
115.1733316769358
 20
-135.2589273750394
 97
        0
 97
        0
 75
     2
 76
     1
 98
        0
  0
ENDBLK
  5
100
330
FD
100
AcDbEntity
  8
0
100
AcDbBlockEnd
  0
BLOCK
  5
110
330
10E
100
AcDbEntity
  8
0
100
AcDbBlockBegin
  2
block 5
 70
     0
 10
0.0
 20
0.0
 30
0.0
  3
block 5
  1

  0
SPLINE
  5
112
330
10E
100
AcDbEntity
  8
_U+30EC_U+30A4_U+30E4_U+30FC 1
370
     0
100
AcDbSpline
210
0.0
220
0.0
230
1.0
 70
    11
 71
     3
 72
    44
 73
    40
 74
     0
 42
0.0000000001
 43
0.0000000001
 12
1.0
 22
0.0
 32
0.0
 13
1.0
 23
0.0
 33
0.0
 40
0.0
 40
0.0
 40
0.0
 40
0.0
 40
1.0
 40
1.0
 40
1.0
 40
2.0
 40
2.0
 40
2.0
 40
3.0
 40
3.0
 40
3.0
 40
4.0
 40
4.0
 40
4.0
 40
5.0
 40
5.0
 40
5.0
 40
6.0
 40
6.0
 40
6.0
 40
7.0
 40
7.0
 40
7.0
 40
8.0
 40
8.0
 40
8.0
 40
9.0
 40
9.0
 40
9.0
 40
10.0
 40
10.0
 40
10.0
 40
11.0
 40
11.0
 40
11.0
 40
12.0
 40
12.0
 40
12.0
 40
13.0
 40
13.0
 40
13.0
 40
13.0
 10
67.9739732360447
 20
-131.4720784176528
 30
0.0
 10
68.13261988314046
 20
-131.7049668724557
 30
0.0
 10
68.20668943607333
 20
-131.8045301319794
 30
0.0
 10
68.35052217258252
 20
-131.8562065642582
 30
0.0
 10
68.35052217258252
 20
-131.8562065642582
 30
0.0
 10
68.35052217258252
 20
-131.0245605141189
 30
0.0
 10
68.35052217258252
 20
-131.0245605141189
 30
0.0
 10
68.35052217258252
 20
-131.0245605141189
 30
0.0
 10
68.55567760872914
 20
-131.0245605141189
 30
0.0
 10
68.55567760872914
 20
-131.0245605141189
 30
0.0
 10
68.55567760872914
 20
-131.0245605141189
 30
0.0
 10
68.55567760872914
 20
-132.1232014643651
 30
0.0
 10
68.55567760872914
 20
-132.1232014643651
 30
0.0
 10
68.19807669736021
 20
-132.0890950190611
 30
0.0
 10
68.11987302984504
 20
-132.0191595807105
 30
0.0
 10
67.8215277608224
 20
-131.6078151797717
 30
0.0
 10
67.62274575132348
 20
-131.3342745982428
 30
0.0
 10
67.55504962503832
 20
-131.2639946503437
 30
0.0
 10
67.41759031517685
 20
-131.2639946503437
 30
0.0
 10
67.29907903048426
 20
-131.2639946503437
 30
0.0
 10
67.16799314727051
 20
-131.3408202796648
 30
0.0
 10
67.16799314727051
 20
-131.5513156138136
 30
0.0
 10
67.16799314727051
 20
-131.8293348194732
 30
0.0
 10
67.39847003523371
 20
-131.8382920677349
 30
0.0
 10
67.51491426263516
 20
-131.8427706918657
 30
0.0
 10
67.51491426263516
 20
-131.8427706918657
 30
0.0
 10
67.51491426263516
 20
-132.0825493376391
 30
0.0
 10
67.51491426263516
 20
-132.0825493376391
 30
0.0
 10
67.3879624940037
 20
-132.0732475798289
 30
0.0
 10
67.27582463595883
 20
-132.0622232742761
 30
0.0
 10
67.15731335126623
 20
-131.9760958871449
 30
0.0
 10
66.99659964687933
 20
-131.8586181310978
 30
0.0
 10
66.96266545634961
 20
-131.6598361215989
 30
0.0
 10
66.96266545634961
 20
-131.5354681745814
 30
0.0
 10
66.96266545634961
 20
-131.2391899628499
 30
0.0
 10
67.14680581003621
 20
-131.0176703231484
 30
0.0
 10
67.41965737246801
 20
-131.0176703231484
 30
0.0
 10
67.64806720314007
 20
-131.0176703231484
 30
0.0
 10
67.74763046266379
 20
-131.1420382701659
 30
0.0
 10
67.9739732360447
 20
-131.4720784176528
 30
0.0
  0
HATCH
  5
113
330
10E
100
AcDbEntity
  8
_U+30EC_U+30A4_U+30E4_U+30FC 1
 62
   179
420
  2234388
100
AcDbHatch
 10
0.0
 20
0.0
 30
0.0
210
0.0
220
0.0
230
1.0
  2
SOLID
 70
     1
 71
     0
 91
        1
 92
        1
 93
        1
 72
     4
 94
        3
 73
     0
 74
     1
 95
       44
 96
       40
 40
0.0
 40
0.0
 40
0.0
 40
0.0
 40
1.0
 40
1.0
 40
1.0
 40
2.0
 40
2.0
 40
2.0
 40
3.0
 40
3.0
 40
3.0
 40
4.0
 40
4.0
 40
4.0
 40
5.0
 40
5.0
 40
5.0
 40
6.0
 40
6.0
 40
6.0
 40
7.0
 40
7.0
 40
7.0
 40
8.0
 40
8.0
 40
8.0
 40
9.0
 40
9.0
 40
9.0
 40
10.0
 40
10.0
 40
10.0
 40
11.0
 40
11.0
 40
11.0
 40
12.0
 40
12.0
 40
12.0
 40
13.0
 40
13.0
 40
13.0
 40
13.0
 10
67.9739732360447
 20
-131.4720784176528
 10
68.13261988314046
 20
-131.7049668724557
 10
68.20668943607333
 20
-131.8045301319794
 10
68.35052217258252
 20
-131.8562065642582
 10
68.35052217258252
 20
-131.8562065642582
 10
68.35052217258252
 20
-131.0245605141189
 10
68.35052217258252
 20
-131.0245605141189
 10
68.35052217258252
 20
-131.0245605141189
 10
68.55567760872914
 20
-131.0245605141189
 10
68.55567760872914
 20
-131.0245605141189
 10
68.55567760872914
 20
-131.0245605141189
 10
68.55567760872914
 20
-132.1232014643651
 10
68.55567760872914
 20
-132.1232014643651
 10
68.19807669736021
 20
-132.0890950190611
 10
68.11987302984504
 20
-132.0191595807105
 10
67.8215277608224
 20
-131.6078151797717
 10
67.62274575132348
 20
-131.3342745982428
 10
67.55504962503832
 20
-131.2639946503437
 10
67.41759031517685
 20
-131.2639946503437
 10
67.29907903048426
 20
-131.2639946503437
 10
67.16799314727051
 20
-131.3408202796648
 10
67.16799314727051
 20
-131.5513156138136
 10
67.16799314727051
 20
-131.8293348194732
 10
67.39847003523371
 20
-131.8382920677349
 10
67.51491426263516
 20
-131.8427706918657
 10
67.51491426263516
 20
-131.8427706918657
 10
67.51491426263516
 20
-132.0825493376391
 10
67.51491426263516
 20
-132.0825493376391
 10
67.3879624940037
 20
-132.0732475798289
 10
67.27582463595883
 20
-132.0622232742761
 10
67.15731335126623
 20
-131.9760958871449
 10
66.99659964687933
 20
-131.8586181310978
 10
66.96266545634961
 20
-131.6598361215989
 10
66.96266545634961
 20
-131.5354681745814
 10
66.96266545634961
 20
-131.2391899628499
 10
67.14680581003621
 20
-131.0176703231484
 10
67.41965737246801
 20
-131.0176703231484
 10
67.64806720314007
 20
-131.0176703231484
 10
67.74763046266379
 20
-131.1420382701659
 10
67.9739732360447
 20
-131.4720784176528
 97
        0
 97
        0
 75
     2
 76
     1
 98
        0
  0
SPLINE
  5
114
330
10E
100
AcDbEntity
  8
_U+30EC_U+30A4_U+30E4_U+30FC 1
370
     0
100
AcDbSpline
210
0.0
220
0.0
230
1.0
 70
    11
 71
     3
 72
    29
 73
    25
 74
     0
 42
0.0000000001
 43
0.0000000001
 12
1.0
 22
0.0
 32
0.0
 13
1.0
 23
0.0
 33
0.0
 40
0.0
 40
0.0
 40
0.0
 40
0.0
 40
1.0
 40
1.0
 40
1.0
 40
2.0
 40
2.0
 40
2.0
 40
3.0
 40
3.0
 40
3.0
 40
4.0
 40
4.0
 40
4.0
 40
5.0
 40
5.0
 40
5.0
 40
6.0
 40
6.0
 40
6.0
 40
7.0
 40
7.0
 40
7.0
 40
8.0
 40
8.0
 40
8.0
 40
8.0
 10
68.37791068169025
 20
-129.888712532632
 30
0.0
 10
68.58737248719343
 20
-130.0037787218394
 30
0.0
 10
68.60649276713657
 20
-130.1894693684943
 30
0.0
 10
68.60649276713657
 20
-130.3138373155118
 30
0.0
 10
68.60649276713657
 20
-130.4854030706773
 30
0.0
 10
68.5599839780857
 20
-130.6369872720283
 30
0.0
 10
68.37791068169025
 20
-130.7386175888431
 30
0.0
 10
68.18326278677362
 20
-130.8495496634682
 30
0.0
 10
67.9464124721627
 20
-130.8698757268311
 30
0.0
 10
67.78345945571039
 20
-130.8698757268311
 30
0.0
 10
67.6396267192012
 20
-130.8698757268311
 30
0.0
 10
67.3879624940037
 20
-130.8516167207593
 30
0.0
 10
67.18900822973053
 20
-130.7386175888431
 30
0.0
 10
66.98591985087505
 20
-130.6235513996358
 30
0.0
 10
66.96266545634961
 20
-130.4516411349218
 30
0.0
 10
66.96266545634961
 20
-130.3138373155118
 30
0.0
 10
66.96266545634961
 20
-130.143994108089
 30
0.0
 10
67.00710718810933
 20
-129.9903428494469
 30
0.0
 10
67.18900822973053
 20
-129.888712532632
 30
0.0
 10
67.38158906735599
 20
-129.7822590821378
 30
0.0
 10
67.60999889802805
 20
-129.757454394644
 30
0.0
 10
67.78345945571039
 20
-129.757454394644
 30
0.0
 10
67.95485295610156
 20
-129.757454394644
 30
0.0
 10
68.18550209883904
 20
-129.7801920248466
 30
0.0
 10
68.37791068169025
 20
-129.888712532632
 30
0.0
  0
SPLINE
  5
115
330
10E
100
AcDbEntity
  8
_U+30EC_U+30A4_U+30E4_U+30FC 1
370
     0
100
AcDbSpline
210
0.0
220
0.0
230
1.0
 70
    11
 71
     3
 72
    17
 73
    13
 74
     0
 42
0.0000000001
 43
0.0000000001
 12
1.0
 22
0.0
 32
0.0
 13
1.0
 23
0.0
 33
0.0
 40
0.0
 40
0.0
 40
0.0
 40
0.0
 40
1.0
 40
1.0
 40
1.0
 40
2.0
 40
2.0
 40
2.0
 40
3.0
 40
3.0
 40
3.0
 40
4.0
 40
4.0
 40
4.0
 40
4.0
 10
67.15524629397508
 20
-130.3138373155118
 30
0.0
 10
67.15524629397508
 20
-130.5804877060702
 30
0.0
 10
67.43877765241115
 20
-130.6300970810578
 30
0.0
 10
67.78345945571039
 20
-130.6300970810578
 30
0.0
 10
68.10299206196731
 20
-130.6300970810578
 30
0.0
 10
68.41184487221996
 20
-130.5918565211715
 30
0.0
 10
68.41184487221996
 20
-130.3138373155118
 30
0.0
 10
68.41184487221996
 20
-130.0492539822446
 30
0.0
 10
68.13038057107505
 20
-129.9972330404174
 30
0.0
 10
67.78345945571039
 20
-129.9972330404174
 30
0.0
 10
67.46409910422773
 20
-129.9972330404174
 30
0.0
 10
67.15524629397508
 20
-130.0378851671433
 30
0.0
 10
67.15524629397508
 20
-130.3138373155118
 30
0.0
  0
HATCH
  5
116
330
10E
100
AcDbEntity
  8
_U+30EC_U+30A4_U+30E4_U+30FC 1
 62
   179
420
  2234388
100
AcDbHatch
 10
0.0
 20
0.0
 30
0.0
210
0.0
220
0.0
230
1.0
  2
SOLID
 70
     1
 71
     0
 91
        2
 92
        1
 93
        1
 72
     4
 94
        3
 73
     0
 74
     1
 95
       29
 96
       25
 40
0.0
 40
0.0
 40
0.0
 40
0.0
 40
1.0
 40
1.0
 40
1.0
 40
2.0
 40
2.0
 40
2.0
 40
3.0
 40
3.0
 40
3.0
 40
4.0
 40
4.0
 40
4.0
 40
5.0
 40
5.0
 40
5.0
 40
6.0
 40
6.0
 40
6.0
 40
7.0
 40
7.0
 40
7.0
 40
8.0
 40
8.0
 40
8.0
 40
8.0
 10
68.37791068169025
 20
-129.888712532632
 10
68.58737248719343
 20
-130.0037787218394
 10
68.60649276713657
 20
-130.1894693684943
 10
68.60649276713657
 20
-130.3138373155118
 10
68.60649276713657
 20
-130.4854030706773
 10
68.5599839780857
 20
-130.6369872720283
 10
68.37791068169025
 20
-130.7386175888431
 10
68.18326278677362
 20
-130.8495496634682
 10
67.9464124721627
 20
-130.8698757268311
 10
67.78345945571039
 20
-130.8698757268311
 10
67.6396267192012
 20
-130.8698757268311
 10
67.3879624940037
 20
-130.8516167207593
 10
67.18900822973053
 20
-130.7386175888431
 10
66.98591985087505
 20
-130.6235513996358
 10
66.96266545634961
 20
-130.4516411349218
 10
66.96266545634961
 20
-130.3138373155118
 10
66.96266545634961
 20
-130.143994108089
 10
67.00710718810933
 20
-129.9903428494469
 10
67.18900822973053
 20
-129.888712532632
 10
67.38158906735599
 20
-129.7822590821378
 10
67.60999889802805
 20
-129.757454394644
 10
67.78345945571039
 20
-129.757454394644
 10
67.95485295610156
 20
-129.757454394644
 10
68.18550209883904
 20
-129.7801920248466
 10
68.37791068169025
 20
-129.888712532632
 97
        0
 97
        0
 92
        1
 93
        1
 72
     4
 94
        3
 73
     0
 74
     1
 95
       17
 96
       13
 40
0.0
 40
0.0
 40
0.0
 40
0.0
 40
1.0
 40
1.0
 40
1.0
 40
2.0
 40
2.0
 40
2.0
 40
3.0
 40
3.0
 40
3.0
 40
4.0
 40
4.0
 40
4.0
 40
4.0
 10
67.15524629397508
 20
-130.3138373155118
 10
67.15524629397508
 20
-130.5804877060702
 10
67.43877765241115
 20
-130.6300970810578
 10
67.78345945571039
 20
-130.6300970810578
 10
68.10299206196731
 20
-130.6300970810578
 10
68.41184487221996
 20
-130.5918565211715
 10
68.41184487221996
 20
-130.3138373155118
 10
68.41184487221996
 20
-130.0492539822446
 10
68.13038057107505
 20
-129.9972330404174
 10
67.78345945571039
 20
-129.9972330404174
 10
67.46409910422773
 20
-129.9972330404174
 10
67.15524629397508
 20
-130.0378851671433
 10
67.15524629397508
 20
-130.3138373155118
 97
        0
 97
        0
 75
     2
 76
     1
 98
        0
  0
ENDBLK
  5
111
330
10E
100
AcDbEntity
  8
0
100
AcDbBlockEnd
  0
BLOCK
  5
119
330
117
100
AcDbEntity
  8
0
100
AcDbBlockBegin
  2
block 6
 70
     0
 10
0.0
 20
0.0
 30
0.0
  3
block 6
  1

  0
SPLINE
  5
11B
330
117
100
AcDbEntity
  8
_U+30EC_U+30A4_U+30E4_U+30FC 1
370
     0
100
AcDbSpline
210
0.0
220
0.0
230
1.0
 70
    11
 71
     3
 72
    26
 73
    22
 74
     0
 42
0.0000000001
 43
0.0000000001
 12
1.0
 22
0.0
 32
0.0
 13
1.0
 23
0.0
 33
0.0
 40
0.0
 40
0.0
 40
0.0
 40
0.0
 40
1.0
 40
1.0
 40
1.0
 40
2.0
 40
2.0
 40
2.0
 40
3.0
 40
3.0
 40
3.0
 40
4.0
 40
4.0
 40
4.0
 40
5.0
 40
5.0
 40
5.0
 40
6.0
 40
6.0
 40
6.0
 40
7.0
 40
7.0
 40
7.0
 40
7.0
 10
115.1223442637541
 20
-130.4309705620103
 30
0.0
 10
115.1223442637541
 20
-130.4309705620103
 30
0.0
 10
114.0181911607316
 20
-130.4309705620103
 30
0.0
 10
114.0181911607316
 20
-130.4309705620103
 30
0.0
 10
114.0181911607316
 20
-130.4309705620103
 30
0.0
 10
114.0181911607316
 20
-130.7834038301514
 30
0.0
 10
114.0181911607316
 20
-130.7834038301514
 30
0.0
 10
114.0181911607316
 20
-130.7834038301514
 30
0.0
 10
113.8700520548658
 20
-130.7834038301514
 30
0.0
 10
113.8700520548658
 20
-130.7834038301514
 30
0.0
 10
113.8552381442793
 20
-130.4285589951706
 30
0.0
 10
113.6922851278269
 20
-130.3789496201831
 30
0.0
 10
113.5779079577166
 20
-130.3472547417188
 30
0.0
 10
113.5779079577166
 20
-130.3472547417188
 30
0.0
 10
113.5779079577166
 20
-130.1911919162369
 30
0.0
 10
113.5779079577166
 20
-130.1911919162369
 30
0.0
 10
113.5779079577166
 20
-130.1911919162369
 30
0.0
 10
115.1223442637541
 20
-130.1911919162369
 30
0.0
 10
115.1223442637541
 20
-130.1911919162369
 30
0.0
 10
115.1223442637541
 20
-130.1911919162369
 30
0.0
 10
115.1223442637541
 20
-130.4309705620103
 30
0.0
 10
115.1223442637541
 20
-130.4309705620103
 30
0.0
  0
HATCH
  5
11C
330
117
100
AcDbEntity
  8
_U+30EC_U+30A4_U+30E4_U+30FC 1
 62
   179
420
  2234388
100
AcDbHatch
 10
0.0
 20
0.0
 30
0.0
210
0.0
220
0.0
230
1.0
  2
SOLID
 70
     1
 71
     0
 91
        1
 92
        1
 93
        1
 72
     4
 94
        3
 73
     0
 74
     1
 95
       26
 96
       22
 40
0.0
 40
0.0
 40
0.0
 40
0.0
 40
1.0
 40
1.0
 40
1.0
 40
2.0
 40
2.0
 40
2.0
 40
3.0
 40
3.0
 40
3.0
 40
4.0
 40
4.0
 40
4.0
 40
5.0
 40
5.0
 40
5.0
 40
6.0
 40
6.0
 40
6.0
 40
7.0
 40
7.0
 40
7.0
 40
7.0
 10
115.1223442637541
 20
-130.4309705620103
 10
115.1223442637541
 20
-130.4309705620103
 10
114.0181911607316
 20
-130.4309705620103
 10
114.0181911607316
 20
-130.4309705620103
 10
114.0181911607316
 20
-130.4309705620103
 10
114.0181911607316
 20
-130.7834038301514
 10
114.0181911607316
 20
-130.7834038301514
 10
114.0181911607316
 20
-130.7834038301514
 10
113.8700520548658
 20
-130.7834038301514
 10
113.8700520548658
 20
-130.7834038301514
 10
113.8552381442793
 20
-130.4285589951706
 10
113.6922851278269
 20
-130.3789496201831
 10
113.5779079577166
 20
-130.3472547417188
 10
113.5779079577166
 20
-130.3472547417188
 10
113.5779079577166
 20
-130.1911919162369
 10
113.5779079577166
 20
-130.1911919162369
 10
113.5779079577166
 20
-130.1911919162369
 10
115.1223442637541
 20
-130.1911919162369
 10
115.1223442637541
 20
-130.1911919162369
 10
115.1223442637541
 20
-130.1911919162369
 10
115.1223442637541
 20
-130.4309705620103
 10
115.1223442637541
 20
-130.4309705620103
 97
        0
 97
        0
 75
     2
 76
     1
 98
        0
  0
ENDBLK
  5
11A
330
117
100
AcDbEntity
  8
0
100
AcDbBlockEnd
  0
BLOCK
  5
11F
330
11D
100
AcDbEntity
  8
0
100
AcDbBlockBegin
  2
block 7
 70
     0
 10
0.0
 20
0.0
 30
0.0
  3
block 7
  1

  0
SPLINE
  5
121
330
11D
100
AcDbEntity
  8
_U+30EC_U+30A4_U+30E4_U+30FC 1
370
     0
100
AcDbSpline
210
0.0
220
0.0
230
1.0
 70
    11
 71
     3
 72
    62
 73
    58
 74
     0
 42
0.0000000001
 43
0.0000000001
 12
1.0
 22
0.0
 32
0.0
 13
1.0
 23
0.0
 33
0.0
 40
0.0
 40
0.0
 40
0.0
 40
0.0
 40
1.0
 40
1.0
 40
1.0
 40
2.0
 40
2.0
 40
2.0
 40
3.0
 40
3.0
 40
3.0
 40
4.0
 40
4.0
 40
4.0
 40
5.0
 40
5.0
 40
5.0
 40
6.0
 40
6.0
 40
6.0
 40
7.0
 40
7.0
 40
7.0
 40
8.0
 40
8.0
 40
8.0
 40
9.0
 40
9.0
 40
9.0
 40
10.0
 40
10.0
 40
10.0
 40
11.0
 40
11.0
 40
11.0
 40
12.0
 40
12.0
 40
12.0
 40
13.0
 40
13.0
 40
13.0
 40
14.0
 40
14.0
 40
14.0
 40
15.0
 40
15.0
 40
15.0
 40
16.0
 40
16.0
 40
16.0
 40
17.0
 40
17.0
 40
17.0
 40
18.0
 40
18.0
 40
18.0
 40
19.0
 40
19.0
 40
19.0
 40
19.0
 10
90.50610349299848
 20
-115.9705267722227
 30
0.0
 10
90.40447317618361
 20
-115.9705267722227
 30
0.0
 10
90.17158472138073
 20
-115.9493394349884
 30
0.0
 10
90.03825952610156
 20
-115.7631320240106
 30
0.0
 10
89.95902232994081
 20
-115.6509941659657
 30
0.0
 10
89.95454370580998
 20
-115.5516031612163
 30
0.0
 10
89.95006508167916
 20
-115.4670260670534
 30
0.0
 10
89.95006508167916
 20
-115.4670260670534
 30
0.0
 10
90.18502059377319
 20
-115.4670260670534
 30
0.0
 10
90.18502059377319
 20
-115.4670260670534
 30
0.0
 10
90.18743216061287
 20
-115.5410956199863
 30
0.0
 10
90.19880097571419
 20
-115.775878877306
 30
0.0
 10
90.50162486886765
 20
-115.775878877306
 30
0.0
 10
90.64873044608782
 20
-115.775878877306
 30
0.0
 10
90.81133895299162
 20
-115.7061156937297
 30
0.0
 10
90.81133895299162
 20
-115.4775336082834
 30
0.0
 10
90.81133895299162
 20
-115.3612616356562
 30
0.0
 10
90.77068682626566
 20
-115.3125135345399
 30
0.0
 10
90.73692489051022
 20
-115.2808186560756
 30
0.0
 10
90.65768769434948
 20
-115.2067491031428
 30
0.0
 10
90.53331974733196
 20
-115.1941745046216
 30
0.0
 10
90.47440861453418
 20
-115.1941745046216
 30
0.0
 10
90.45408255117121
 20
-115.1941745046216
 30
0.0
 10
90.41584199128494
 20
-115.1962415619128
 30
0.0
 10
90.38621417011178
 20
-115.2003756764951
 30
0.0
 10
90.38621417011178
 20
-115.2003756764951
 30
0.0
 10
90.38621417011178
 20
-115.0059000363527
 30
0.0
 10
90.38621417011178
 20
-115.0059000363527
 30
0.0
 10
90.42686629683773
 20
-115.0121012082261
 30
0.0
 10
90.47234155724303
 20
-115.0143405202916
 30
0.0
 10
90.47888723866501
 20
-115.0143405202916
 30
0.0
 10
90.5491671865641
 20
-115.0143405202916
 30
0.0
 10
90.76172957800402
 20
-114.9931531830573
 30
0.0
 10
90.76172957800402
 20
-114.7561306136721
 30
0.0
 10
90.76172957800402
 20
-114.5785359414075
 30
0.0
 10
90.62151419175434
 20
-114.5234144136435
 30
0.0
 10
90.50403643570733
 20
-114.5234144136435
 30
0.0
 10
90.22119409636832
 20
-114.5234144136435
 30
0.0
 10
90.21223684810667
 20
-114.7561306136721
 30
0.0
 10
90.20775822397584
 20
-114.8281331093138
 30
0.0
 10
90.20775822397584
 20
-114.8281331093138
 30
0.0
 10
89.9907172084051
 20
-114.8281331093138
 30
0.0
 10
89.9907172084051
 20
-114.8281331093138
 30
0.0
 10
89.99967445666675
 20
-114.7032483979735
 30
0.0
 10
90.02895776829138
 20
-114.3266994614357
 30
0.0
 10
90.5174723080998
 20
-114.3266994614357
 30
0.0
 10
90.7572509538732
 20
-114.3266994614357
 30
0.0
 10
91.01494409616988
 20
-114.4536512300672
 30
0.0
 10
91.01494409616988
 20
-114.7497571870244
 30
0.0
 10
91.01494409616988
 20
-114.9359645980021
 30
0.0
 10
90.91296926980648
 20
-115.0184746348739
 30
0.0
 10
90.8068603288608
 20
-115.0797973345113
 30
0.0
 10
90.87231714308054
 20
-115.1073580983933
 30
0.0
 10
91.06696503799715
 20
-115.1878010779739
 30
0.0
 10
91.06696503799715
 20
-115.4649590097622
 30
0.0
 10
91.06696503799715
 20
-115.803439641188
 30
0.0
 10
90.80238170472997
 20
-115.9705267722227
 30
0.0
 10
90.50610349299848
 20
-115.9705267722227
 30
0.0
  0
HATCH
  5
122
330
11D
100
AcDbEntity
  8
_U+30EC_U+30A4_U+30E4_U+30FC 1
 62
   179
420
  2234388
100
AcDbHatch
 10
0.0
 20
0.0
 30
0.0
210
0.0
220
0.0
230
1.0
  2
SOLID
 70
     1
 71
     0
 91
        1
 92
        1
 93
        1
 72
     4
 94
        3
 73
     0
 74
     1
 95
       62
 96
       58
 40
0.0
 40
0.0
 40
0.0
 40
0.0
 40
1.0
 40
1.0
 40
1.0
 40
2.0
 40
2.0
 40
2.0
 40
3.0
 40
3.0
 40
3.0
 40
4.0
 40
4.0
 40
4.0
 40
5.0
 40
5.0
 40
5.0
 40
6.0
 40
6.0
 40
6.0
 40
7.0
 40
7.0
 40
7.0
 40
8.0
 40
8.0
 40
8.0
 40
9.0
 40
9.0
 40
9.0
 40
10.0
 40
10.0
 40
10.0
 40
11.0
 40
11.0
 40
11.0
 40
12.0
 40
12.0
 40
12.0
 40
13.0
 40
13.0
 40
13.0
 40
14.0
 40
14.0
 40
14.0
 40
15.0
 40
15.0
 40
15.0
 40
16.0
 40
16.0
 40
16.0
 40
17.0
 40
17.0
 40
17.0
 40
18.0
 40
18.0
 40
18.0
 40
19.0
 40
19.0
 40
19.0
 40
19.0
 10
90.50610349299848
 20
-115.9705267722227
 10
90.40447317618361
 20
-115.9705267722227
 10
90.17158472138073
 20
-115.9493394349884
 10
90.03825952610156
 20
-115.7631320240106
 10
89.95902232994081
 20
-115.6509941659657
 10
89.95454370580998
 20
-115.5516031612163
 10
89.95006508167916
 20
-115.4670260670534
 10
89.95006508167916
 20
-115.4670260670534
 10
90.18502059377319
 20
-115.4670260670534
 10
90.18502059377319
 20
-115.4670260670534
 10
90.18743216061287
 20
-115.5410956199863
 10
90.19880097571419
 20
-115.775878877306
 10
90.50162486886765
 20
-115.775878877306
 10
90.64873044608782
 20
-115.775878877306
 10
90.81133895299162
 20
-115.7061156937297
 10
90.81133895299162
 20
-115.4775336082834
 10
90.81133895299162
 20
-115.3612616356562
 10
90.77068682626566
 20
-115.3125135345399
 10
90.73692489051022
 20
-115.2808186560756
 10
90.65768769434948
 20
-115.2067491031428
 10
90.53331974733196
 20
-115.1941745046216
 10
90.47440861453418
 20
-115.1941745046216
 10
90.45408255117121
 20
-115.1941745046216
 10
90.41584199128494
 20
-115.1962415619128
 10
90.38621417011178
 20
-115.2003756764951
 10
90.38621417011178
 20
-115.2003756764951
 10
90.38621417011178
 20
-115.0059000363527
 10
90.38621417011178
 20
-115.0059000363527
 10
90.42686629683773
 20
-115.0121012082261
 10
90.47234155724303
 20
-115.0143405202916
 10
90.47888723866501
 20
-115.0143405202916
 10
90.5491671865641
 20
-115.0143405202916
 10
90.76172957800402
 20
-114.9931531830573
 10
90.76172957800402
 20
-114.7561306136721
 10
90.76172957800402
 20
-114.5785359414075
 10
90.62151419175434
 20
-114.5234144136435
 10
90.50403643570733
 20
-114.5234144136435
 10
90.22119409636832
 20
-114.5234144136435
 10
90.21223684810667
 20
-114.7561306136721
 10
90.20775822397584
 20
-114.8281331093138
 10
90.20775822397584
 20
-114.8281331093138
 10
89.9907172084051
 20
-114.8281331093138
 10
89.9907172084051
 20
-114.8281331093138
 10
89.99967445666675
 20
-114.7032483979735
 10
90.02895776829138
 20
-114.3266994614357
 10
90.5174723080998
 20
-114.3266994614357
 10
90.7572509538732
 20
-114.3266994614357
 10
91.01494409616988
 20
-114.4536512300672
 10
91.01494409616988
 20
-114.7497571870244
 10
91.01494409616988
 20
-114.9359645980021
 10
90.91296926980648
 20
-115.0184746348739
 10
90.8068603288608
 20
-115.0797973345113
 10
90.87231714308054
 20
-115.1073580983933
 10
91.06696503799715
 20
-115.1878010779739
 10
91.06696503799715
 20
-115.4649590097622
 10
91.06696503799715
 20
-115.803439641188
 10
90.80238170472997
 20
-115.9705267722227
 10
90.50610349299848
 20
-115.9705267722227
 97
        0
 97
        0
 75
     2
 76
     1
 98
        0
  0
SPLINE
  5
123
330
11D
100
AcDbEntity
  8
_U+30EC_U+30A4_U+30E4_U+30FC 1
370
     0
100
AcDbSpline
210
0.0
220
0.0
230
1.0
 70
    11
 71
     3
 72
    53
 73
    49
 74
     0
 42
0.0000000001
 43
0.0000000001
 12
1.0
 22
0.0
 32
0.0
 13
1.0
 23
0.0
 33
0.0
 40
0.0
 40
0.0
 40
0.0
 40
0.0
 40
1.0
 40
1.0
 40
1.0
 40
2.0
 40
2.0
 40
2.0
 40
3.0
 40
3.0
 40
3.0
 40
4.0
 40
4.0
 40
4.0
 40
5.0
 40
5.0
 40
5.0
 40
6.0
 40
6.0
 40
6.0
 40
7.0
 40
7.0
 40
7.0
 40
8.0
 40
8.0
 40
8.0
 40
9.0
 40
9.0
 40
9.0
 40
10.0
 40
10.0
 40
10.0
 40
11.0
 40
11.0
 40
11.0
 40
12.0
 40
12.0
 40
12.0
 40
13.0
 40
13.0
 40
13.0
 40
14.0
 40
14.0
 40
14.0
 40
15.0
 40
15.0
 40
15.0
 40
16.0
 40
16.0
 40
16.0
 40
16.0
 10
91.75253903956187
 20
-115.9705267722227
 30
0.0
 10
91.66916772881882
 20
-115.9705267722227
 30
0.0
 10
91.56030271148492
 20
-115.9536458043449
 30
0.0
 10
91.45212671324808
 20
-115.8900837926421
 30
0.0
 10
91.26643606659312
 20
-115.7800129918883
 30
0.0
 10
91.244042945939
 20
-115.6489271086746
 30
0.0
 10
91.22371688257601
 20
-115.5410956199863
 30
0.0
 10
91.22371688257601
 20
-115.5410956199863
 30
0.0
 10
91.46108396150973
 20
-115.5410956199863
 30
0.0
 10
91.46108396150973
 20
-115.5410956199863
 30
0.0
 10
91.51965058475898
 20
-115.7398776294852
 30
0.0
 10
91.65538734687783
 20
-115.7695054506583
 30
0.0
 10
91.75495060640155
 20
-115.7695054506583
 30
0.0
 10
91.90412324091287
 20
-115.7695054506583
 30
0.0
 10
92.06673174781666
 20
-115.6701144459089
 30
0.0
 10
92.06673174781666
 20
-115.4373982458802
 30
0.0
 10
92.06673174781666
 20
-115.1814276513262
 30
0.0
 10
91.87483992928824
 20
-115.1116644677499
 30
0.0
 10
91.7459933581399
 20
-115.1116644677499
 30
0.0
 10
91.71188691283592
 20
-115.1116644677499
 30
0.0
 10
91.56030271148492
 20
-115.1116644677499
 30
0.0
 10
91.46556258564055
 20
-115.2406832936725
 30
0.0
 10
91.46556258564055
 20
-115.2406832936725
 30
0.0
 10
91.27780488169444
 20
-115.2215630137293
 30
0.0
 10
91.27780488169444
 20
-115.2215630137293
 30
0.0
 10
91.27780488169444
 20
-115.2215630137293
 30
0.0
 10
91.40665145284278
 20
-114.375447562552
 30
0.0
 10
91.40665145284278
 20
-114.375447562552
 30
0.0
 10
91.40665145284278
 20
-114.375447562552
 30
0.0
 10
92.23864201253062
 20
-114.375447562552
 30
0.0
 10
92.23864201253062
 20
-114.375447562552
 30
0.0
 10
92.23864201253062
 20
-114.375447562552
 30
0.0
 10
92.23864201253062
 20
-114.5700954574686
 30
0.0
 10
92.23864201253062
 20
-114.5700954574686
 30
0.0
 10
92.23864201253062
 20
-114.5700954574686
 30
0.0
 10
91.58097328439642
 20
-114.5700954574686
 30
0.0
 10
91.58097328439642
 20
-114.5700954574686
 30
0.0
 10
91.58097328439642
 20
-114.5700954574686
 30
0.0
 10
91.51069333649733
 20
-114.9931531830573
 30
0.0
 10
91.51069333649733
 20
-114.9931531830573
 30
0.0
 10
91.57615015071708
 20
-114.9592189925276
 30
0.0
 10
91.66434459513947
 20
-114.9190836301244
 30
0.0
 10
91.79112410899667
 20
-114.9190836301244
 30
0.0
 10
92.06225312368584
 20
-114.9190836301244
 30
0.0
 10
92.3154676418517
 20
-115.1052910411021
 30
0.0
 10
92.3154676418517
 20
-115.4182779659371
 30
0.0
 10
92.3154676418517
 20
-115.7357435149029
 30
0.0
 10
92.07603350562682
 20
-115.9705267722227
 30
0.0
 10
91.75253903956187
 20
-115.9705267722227
 30
0.0
  0
HATCH
  5
124
330
11D
100
AcDbEntity
  8
_U+30EC_U+30A4_U+30E4_U+30FC 1
 62
   179
420
  2234388
100
AcDbHatch
 10
0.0
 20
0.0
 30
0.0
210
0.0
220
0.0
230
1.0
  2
SOLID
 70
     1
 71
     0
 91
        1
 92
        1
 93
        1
 72
     4
 94
        3
 73
     0
 74
     1
 95
       53
 96
       49
 40
0.0
 40
0.0
 40
0.0
 40
0.0
 40
1.0
 40
1.0
 40
1.0
 40
2.0
 40
2.0
 40
2.0
 40
3.0
 40
3.0
 40
3.0
 40
4.0
 40
4.0
 40
4.0
 40
5.0
 40
5.0
 40
5.0
 40
6.0
 40
6.0
 40
6.0
 40
7.0
 40
7.0
 40
7.0
 40
8.0
 40
8.0
 40
8.0
 40
9.0
 40
9.0
 40
9.0
 40
10.0
 40
10.0
 40
10.0
 40
11.0
 40
11.0
 40
11.0
 40
12.0
 40
12.0
 40
12.0
 40
13.0
 40
13.0
 40
13.0
 40
14.0
 40
14.0
 40
14.0
 40
15.0
 40
15.0
 40
15.0
 40
16.0
 40
16.0
 40
16.0
 40
16.0
 10
91.75253903956187
 20
-115.9705267722227
 10
91.66916772881882
 20
-115.9705267722227
 10
91.56030271148492
 20
-115.9536458043449
 10
91.45212671324808
 20
-115.8900837926421
 10
91.26643606659312
 20
-115.7800129918883
 10
91.244042945939
 20
-115.6489271086746
 10
91.22371688257601
 20
-115.5410956199863
 10
91.22371688257601
 20
-115.5410956199863
 10
91.46108396150973
 20
-115.5410956199863
 10
91.46108396150973
 20
-115.5410956199863
 10
91.51965058475898
 20
-115.7398776294852
 10
91.65538734687783
 20
-115.7695054506583
 10
91.75495060640155
 20
-115.7695054506583
 10
91.90412324091287
 20
-115.7695054506583
 10
92.06673174781666
 20
-115.6701144459089
 10
92.06673174781666
 20
-115.4373982458802
 10
92.06673174781666
 20
-115.1814276513262
 10
91.87483992928824
 20
-115.1116644677499
 10
91.7459933581399
 20
-115.1116644677499
 10
91.71188691283592
 20
-115.1116644677499
 10
91.56030271148492
 20
-115.1116644677499
 10
91.46556258564055
 20
-115.2406832936725
 10
91.46556258564055
 20
-115.2406832936725
 10
91.27780488169444
 20
-115.2215630137293
 10
91.27780488169444
 20
-115.2215630137293
 10
91.27780488169444
 20
-115.2215630137293
 10
91.40665145284278
 20
-114.375447562552
 10
91.40665145284278
 20
-114.375447562552
 10
91.40665145284278
 20
-114.375447562552
 10
92.23864201253062
 20
-114.375447562552
 10
92.23864201253062
 20
-114.375447562552
 10
92.23864201253062
 20
-114.375447562552
 10
92.23864201253062
 20
-114.5700954574686
 10
92.23864201253062
 20
-114.5700954574686
 10
92.23864201253062
 20
-114.5700954574686
 10
91.58097328439642
 20
-114.5700954574686
 10
91.58097328439642
 20
-114.5700954574686
 10
91.58097328439642
 20
-114.5700954574686
 10
91.51069333649733
 20
-114.9931531830573
 10
91.51069333649733
 20
-114.9931531830573
 10
91.57615015071708
 20
-114.9592189925276
 10
91.66434459513947
 20
-114.9190836301244
 10
91.79112410899667
 20
-114.9190836301244
 10
92.06225312368584
 20
-114.9190836301244
 10
92.3154676418517
 20
-115.1052910411021
 10
92.3154676418517
 20
-115.4182779659371
 10
92.3154676418517
 20
-115.7357435149029
 10
92.07603350562682
 20
-115.9705267722227
 10
91.75253903956187
 20
-115.9705267722227
 97
        0
 97
        0
 75
     2
 76
     1
 98
        0
  0
ENDBLK
  5
120
330
11D
100
AcDbEntity
  8
0
100
AcDbBlockEnd
  0
BLOCK
  5
127
330
125
100
AcDbEntity
  8
0
100
AcDbBlockBegin
  2
block 8
 70
     0
 10
0.0
 20
0.0
 30
0.0
  3
block 8
  1

  0
SPLINE
  5
129
330
125
100
AcDbEntity
  8
_U+30EC_U+30A4_U+30E4_U+30FC 1
370
     0
100
AcDbSpline
210
0.0
220
0.0
230
1.0
 70
    11
 71
     3
 72
    44
 73
    40
 74
     0
 42
0.0000000001
 43
0.0000000001
 12
1.0
 22
0.0
 32
0.0
 13
1.0
 23
0.0
 33
0.0
 40
0.0
 40
0.0
 40
0.0
 40
0.0
 40
1.0
 40
1.0
 40
1.0
 40
2.0
 40
2.0
 40
2.0
 40
3.0
 40
3.0
 40
3.0
 40
4.0
 40
4.0
 40
4.0
 40
5.0
 40
5.0
 40
5.0
 40
6.0
 40
6.0
 40
6.0
 40
7.0
 40
7.0
 40
7.0
 40
8.0
 40
8.0
 40
8.0
 40
9.0
 40
9.0
 40
9.0
 40
10.0
 40
10.0
 40
10.0
 40
11.0
 40
11.0
 40
11.0
 40
12.0
 40
12.0
 40
12.0
 40
13.0
 40
13.0
 40
13.0
 40
13.0
 10
83.11465112939496
 20
-143.3838405674527
 30
0.0
 10
82.88176267459207
 20
-143.5423149597742
 30
0.0
 10
82.78219941506835
 20
-143.616384512707
 30
0.0
 10
82.7305229827896
 20
-143.7603895039905
 30
0.0
 10
82.7305229827896
 20
-143.7603895039905
 30
0.0
 10
83.5621690329289
 20
-143.7603895039905
 30
0.0
 10
83.5621690329289
 20
-143.7603895039905
 30
0.0
 10
83.5621690329289
 20
-143.7603895039905
 30
0.0
 10
83.5621690329289
 20
-143.9653726853628
 30
0.0
 10
83.5621690329289
 20
-143.9653726853628
 30
0.0
 10
83.5621690329289
 20
-143.9653726853628
 30
0.0
 10
82.46352808268273
 20
-143.9653726853628
 30
0.0
 10
82.46352808268273
 20
-143.9653726853628
 30
0.0
 10
82.4976345279867
 20
-143.6077717739939
 30
0.0
 10
82.56756996633727
 20
-143.5295681064787
 30
0.0
 10
82.9789143672761
 20
-143.2312228374561
 30
0.0
 10
83.25245494880494
 20
-143.0324408279572
 30
0.0
 10
83.32273489670405
 20
-142.9649169564463
 30
0.0
 10
83.32273489670405
 20
-142.8274576465848
 30
0.0
 10
83.32273489670405
 20
-142.7089463618922
 30
0.0
 10
83.24590926738297
 20
-142.5776882239042
 30
0.0
 10
83.03541393323421
 20
-142.5776882239042
 30
0.0
 10
82.75739472757455
 20
-142.5776882239042
 30
0.0
 10
82.7484374793129
 20
-142.8081651118674
 30
0.0
 10
82.74395885518207
 20
-142.9246093392688
 30
0.0
 10
82.74395885518207
 20
-142.9246093392688
 30
0.0
 10
82.50418020940869
 20
-142.9246093392688
 30
0.0
 10
82.50418020940869
 20
-142.9246093392688
 30
0.0
 10
82.51348196721885
 20
-142.7978298254117
 30
0.0
 10
82.52450627277166
 20
-142.6855197125925
 30
0.0
 10
82.6106336599029
 20
-142.5670084278999
 30
0.0
 10
82.72811141594993
 20
-142.4064669782873
 30
0.0
 10
82.92689342544884
 20
-142.3723605329833
 30
0.0
 10
83.05126137246636
 20
-142.3723605329833
 30
0.0
 10
83.34753958419785
 20
-142.3723605329833
 30
0.0
 10
83.5690592238994
 20
-142.5566731414442
 30
0.0
 10
83.5690592238994
 20
-142.829524703876
 30
0.0
 10
83.5690592238994
 20
-143.057934534548
 30
0.0
 10
83.44469127688188
 20
-143.1574977940717
 30
0.0
 10
83.11465112939496
 20
-143.3838405674527
 30
0.0
  0
HATCH
  5
12A
330
125
100
AcDbEntity
  8
_U+30EC_U+30A4_U+30E4_U+30FC 1
 62
   179
420
  2234388
100
AcDbHatch
 10
0.0
 20
0.0
 30
0.0
210
0.0
220
0.0
230
1.0
  2
SOLID
 70
     1
 71
     0
 91
        1
 92
        1
 93
        1
 72
     4
 94
        3
 73
     0
 74
     1
 95
       44
 96
       40
 40
0.0
 40
0.0
 40
0.0
 40
0.0
 40
1.0
 40
1.0
 40
1.0
 40
2.0
 40
2.0
 40
2.0
 40
3.0
 40
3.0
 40
3.0
 40
4.0
 40
4.0
 40
4.0
 40
5.0
 40
5.0
 40
5.0
 40
6.0
 40
6.0
 40
6.0
 40
7.0
 40
7.0
 40
7.0
 40
8.0
 40
8.0
 40
8.0
 40
9.0
 40
9.0
 40
9.0
 40
10.0
 40
10.0
 40
10.0
 40
11.0
 40
11.0
 40
11.0
 40
12.0
 40
12.0
 40
12.0
 40
13.0
 40
13.0
 40
13.0
 40
13.0
 10
83.11465112939496
 20
-143.3838405674527
 10
82.88176267459207
 20
-143.5423149597742
 10
82.78219941506835
 20
-143.616384512707
 10
82.7305229827896
 20
-143.7603895039905
 10
82.7305229827896
 20
-143.7603895039905
 10
83.5621690329289
 20
-143.7603895039905
 10
83.5621690329289
 20
-143.7603895039905
 10
83.5621690329289
 20
-143.7603895039905
 10
83.5621690329289
 20
-143.9653726853628
 10
83.5621690329289
 20
-143.9653726853628
 10
83.5621690329289
 20
-143.9653726853628
 10
82.46352808268273
 20
-143.9653726853628
 10
82.46352808268273
 20
-143.9653726853628
 10
82.4976345279867
 20
-143.6077717739939
 10
82.56756996633727
 20
-143.5295681064787
 10
82.9789143672761
 20
-143.2312228374561
 10
83.25245494880494
 20
-143.0324408279572
 10
83.32273489670405
 20
-142.9649169564463
 10
83.32273489670405
 20
-142.8274576465848
 10
83.32273489670405
 20
-142.7089463618922
 10
83.24590926738297
 20
-142.5776882239042
 10
83.03541393323421
 20
-142.5776882239042
 10
82.75739472757455
 20
-142.5776882239042
 10
82.7484374793129
 20
-142.8081651118674
 10
82.74395885518207
 20
-142.9246093392688
 10
82.74395885518207
 20
-142.9246093392688
 10
82.50418020940869
 20
-142.9246093392688
 10
82.50418020940869
 20
-142.9246093392688
 10
82.51348196721885
 20
-142.7978298254117
 10
82.52450627277166
 20
-142.6855197125925
 10
82.6106336599029
 20
-142.5670084278999
 10
82.72811141594993
 20
-142.4064669782873
 10
82.92689342544884
 20
-142.3723605329833
 10
83.05126137246636
 20
-142.3723605329833
 10
83.34753958419785
 20
-142.3723605329833
 10
83.5690592238994
 20
-142.5566731414442
 10
83.5690592238994
 20
-142.829524703876
 10
83.5690592238994
 20
-143.057934534548
 10
83.44469127688188
 20
-143.1574977940717
 10
83.11465112939496
 20
-143.3838405674527
 97
        0
 97
        0
 75
     2
 76
     1
 98
        0
  0
SPLINE
  5
12B
330
125
100
AcDbEntity
  8
_U+30EC_U+30A4_U+30E4_U+30FC 1
370
     0
100
AcDbSpline
210
0.0
220
0.0
230
1.0
 70
    11
 71
     3
 72
    29
 73
    25
 74
     0
 42
0.0000000001
 43
0.0000000001
 12
1.0
 22
0.0
 32
0.0
 13
1.0
 23
0.0
 33
0.0
 40
0.0
 40
0.0
 40
0.0
 40
0.0
 40
1.0
 40
1.0
 40
1.0
 40
2.0
 40
2.0
 40
2.0
 40
3.0
 40
3.0
 40
3.0
 40
4.0
 40
4.0
 40
4.0
 40
5.0
 40
5.0
 40
5.0
 40
6.0
 40
6.0
 40
6.0
 40
7.0
 40
7.0
 40
7.0
 40
8.0
 40
8.0
 40
8.0
 40
8.0
 10
84.69801701441578
 20
-143.7876057583239
 30
0.0
 10
84.5826063156599
 20
-143.9970675638271
 30
0.0
 10
84.39726017855347
 20
-144.0163600985445
 30
0.0
 10
84.27289223153595
 20
-144.0163600985445
 30
0.0
 10
84.1013264763705
 20
-144.0163600985445
 30
0.0
 10
83.94974227501952
 20
-143.9698513094937
 30
0.0
 10
83.84811195820464
 20
-143.7876057583239
 30
0.0
 10
83.7371798835796
 20
-143.5933023729559
 30
0.0
 10
83.71685382021663
 20
-143.3562798035707
 30
0.0
 10
83.71685382021663
 20
-143.1933267871183
 30
0.0
 10
83.71685382021663
 20
-143.0493217958349
 30
0.0
 10
83.73511282628844
 20
-142.7978298254117
 30
0.0
 10
83.84811195820464
 20
-142.5987033063642
 30
0.0
 10
83.96317814741198
 20
-142.395787182283
 30
0.0
 10
84.13508841212595
 20
-142.3723605329833
 30
0.0
 10
84.27289223153595
 20
-142.3723605329833
 30
0.0
 10
84.44273543895876
 20
-142.3723605329833
 30
0.0
 10
84.5963866976009
 20
-142.416802264743
 30
0.0
 10
84.69801701441578
 20
-142.5987033063642
 30
0.0
 10
84.80447046491
 20
-142.7912841439897
 30
0.0
 10
84.8292751524038
 20
-143.0196939746617
 30
0.0
 10
84.8292751524038
 20
-143.1933267871183
 30
0.0
 10
84.8292751524038
 20
-143.3645480327353
 30
0.0
 10
84.80653752220115
 20
-143.595369430247
 30
0.0
 10
84.69801701441578
 20
-143.7876057583239
 30
0.0
  0
SPLINE
  5
12C
330
125
100
AcDbEntity
  8
_U+30EC_U+30A4_U+30E4_U+30FC 1
370
     0
100
AcDbSpline
210
0.0
220
0.0
230
1.0
 70
    11
 71
     3
 72
    17
 73
    13
 74
     0
 42
0.0000000001
 43
0.0000000001
 12
1.0
 22
0.0
 32
0.0
 13
1.0
 23
0.0
 33
0.0
 40
0.0
 40
0.0
 40
0.0
 40
0.0
 40
1.0
 40
1.0
 40
1.0
 40
2.0
 40
2.0
 40
2.0
 40
3.0
 40
3.0
 40
3.0
 40
4.0
 40
4.0
 40
4.0
 40
4.0
 10
84.27289223153595
 20
-142.5649413706088
 30
0.0
 10
84.00624184097761
 20
-142.5649413706088
 30
0.0
 10
83.95663246599001
 20
-142.8484727290448
 30
0.0
 10
83.95663246599001
 20
-143.1933267871183
 30
0.0
 10
83.95663246599001
 20
-143.512687138601
 30
0.0
 10
83.99487302587629
 20
-143.8217122036279
 30
0.0
 10
84.27289223153595
 20
-143.8217122036279
 30
0.0
 10
84.53747556480313
 20
-143.8217122036279
 30
0.0
 10
84.58949650663041
 20
-143.540247902483
 30
0.0
 10
84.58949650663041
 20
-143.1933267871183
 30
0.0
 10
84.58949650663041
 20
-142.8739664356357
 30
0.0
 10
84.54884437990447
 20
-142.5649413706088
 30
0.0
 10
84.27289223153595
 20
-142.5649413706088
 30
0.0
  0
HATCH
  5
12D
330
125
100
AcDbEntity
  8
_U+30EC_U+30A4_U+30E4_U+30FC 1
 62
   179
420
  2234388
100
AcDbHatch
 10
0.0
 20
0.0
 30
0.0
210
0.0
220
0.0
230
1.0
  2
SOLID
 70
     1
 71
     0
 91
        2
 92
        1
 93
        1
 72
     4
 94
        3
 73
     0
 74
     1
 95
       29
 96
       25
 40
0.0
 40
0.0
 40
0.0
 40
0.0
 40
1.0
 40
1.0
 40
1.0
 40
2.0
 40
2.0
 40
2.0
 40
3.0
 40
3.0
 40
3.0
 40
4.0
 40
4.0
 40
4.0
 40
5.0
 40
5.0
 40
5.0
 40
6.0
 40
6.0
 40
6.0
 40
7.0
 40
7.0
 40
7.0
 40
8.0
 40
8.0
 40
8.0
 40
8.0
 10
84.69801701441578
 20
-143.7876057583239
 10
84.5826063156599
 20
-143.9970675638271
 10
84.39726017855347
 20
-144.0163600985445
 10
84.27289223153595
 20
-144.0163600985445
 10
84.1013264763705
 20
-144.0163600985445
 10
83.94974227501952
 20
-143.9698513094937
 10
83.84811195820464
 20
-143.7876057583239
 10
83.7371798835796
 20
-143.5933023729559
 10
83.71685382021663
 20
-143.3562798035707
 10
83.71685382021663
 20
-143.1933267871183
 10
83.71685382021663
 20
-143.0493217958349
 10
83.73511282628844
 20
-142.7978298254117
 10
83.84811195820464
 20
-142.5987033063642
 10
83.96317814741198
 20
-142.395787182283
 10
84.13508841212595
 20
-142.3723605329833
 10
84.27289223153595
 20
-142.3723605329833
 10
84.44273543895876
 20
-142.3723605329833
 10
84.5963866976009
 20
-142.416802264743
 10
84.69801701441578
 20
-142.5987033063642
 10
84.80447046491
 20
-142.7912841439897
 10
84.8292751524038
 20
-143.0196939746617
 10
84.8292751524038
 20
-143.1933267871183
 10
84.8292751524038
 20
-143.3645480327353
 10
84.80653752220115
 20
-143.595369430247
 10
84.69801701441578
 20
-143.7876057583239
 97
        0
 97
        0
 92
        1
 93
        1
 72
     4
 94
        3
 73
     0
 74
     1
 95
       17
 96
       13
 40
0.0
 40
0.0
 40
0.0
 40
0.0
 40
1.0
 40
1.0
 40
1.0
 40
2.0
 40
2.0
 40
2.0
 40
3.0
 40
3.0
 40
3.0
 40
4.0
 40
4.0
 40
4.0
 40
4.0
 10
84.27289223153595
 20
-142.5649413706088
 10
84.00624184097761
 20
-142.5649413706088
 10
83.95663246599001
 20
-142.8484727290448
 10
83.95663246599001
 20
-143.1933267871183
 10
83.95663246599001
 20
-143.512687138601
 10
83.99487302587629
 20
-143.8217122036279
 10
84.27289223153595
 20
-143.8217122036279
 10
84.53747556480313
 20
-143.8217122036279
 10
84.58949650663041
 20
-143.540247902483
 10
84.58949650663041
 20
-143.1933267871183
 10
84.58949650663041
 20
-142.8739664356357
 10
84.54884437990447
 20
-142.5649413706088
 10
84.27289223153595
 20
-142.5649413706088
 97
        0
 97
        0
 75
     2
 76
     1
 98
        0
  0
ENDBLK
  5
128
330
125
100
AcDbEntity
  8
0
100
AcDbBlockEnd
  0
BLOCK
  5
130
330
12E
100
AcDbEntity
  8
0
100
AcDbBlockBegin
  2
block 9
 70
     0
 10
0.0
 20
0.0
 30
0.0
  3
block 9
  1

  0
SPLINE
  5
132
330
12E
100
AcDbEntity
  8
_U+30EC_U+30A4_U+30E4_U+30FC 1
370
     0
100
AcDbSpline
210
0.0
220
0.0
230
1.0
 70
    11
 71
     3
 72
    26
 73
    22
 74
     0
 42
0.0000000001
 43
0.0000000001
 12
1.0
 22
0.0
 32
0.0
 13
1.0
 23
0.0
 33
0.0
 40
0.0
 40
0.0
 40
0.0
 40
0.0
 40
1.0
 40
1.0
 40
1.0
 40
2.0
 40
2.0
 40
2.0
 40
3.0
 40
3.0
 40
3.0
 40
4.0
 40
4.0
 40
4.0
 40
5.0
 40
5.0
 40
5.0
 40
6.0
 40
6.0
 40
6.0
 40
7.0
 40
7.0
 40
7.0
 40
7.0
 10
73.37398815439956
 20
-112.8942287586688
 30
0.0
 10
73.37398815439956
 20
-112.8942287586688
 30
0.0
 10
73.37398815439956
 20
-111.789903400872
 30
0.0
 10
73.37398815439956
 20
-111.789903400872
 30
0.0
 10
73.37398815439956
 20
-111.789903400872
 30
0.0
 10
73.0215548862585
 20
-111.789903400872
 30
0.0
 10
73.0215548862585
 20
-111.789903400872
 30
0.0
 10
73.0215548862585
 20
-111.789903400872
 30
0.0
 10
73.0215548862585
 20
-111.6417642950062
 30
0.0
 10
73.0215548862585
 20
-111.6417642950062
 30
0.0
 10
73.37639972123924
 20
-111.6271226391939
 30
0.0
 10
73.42600909622684
 20
-111.4641696227416
 30
0.0
 10
73.45770397469113
 20
-111.3499647074056
 30
0.0
 10
73.45770397469113
 20
-111.3499647074056
 30
0.0
 10
73.61376680017295
 20
-111.3499647074056
 30
0.0
 10
73.61376680017295
 20
-111.3499647074056
 30
0.0
 10
73.61376680017295
 20
-111.3499647074056
 30
0.0
 10
73.61376680017295
 20
-112.8942287586688
 30
0.0
 10
73.61376680017295
 20
-112.8942287586688
 30
0.0
 10
73.61376680017295
 20
-112.8942287586688
 30
0.0
 10
73.37398815439956
 20
-112.8942287586688
 30
0.0
 10
73.37398815439956
 20
-112.8942287586688
 30
0.0
  0
HATCH
  5
133
330
12E
100
AcDbEntity
  8
_U+30EC_U+30A4_U+30E4_U+30FC 1
 62
   179
420
  2234388
100
AcDbHatch
 10
0.0
 20
0.0
 30
0.0
210
0.0
220
0.0
230
1.0
  2
SOLID
 70
     1
 71
     0
 91
        1
 92
        1
 93
        1
 72
     4
 94
        3
 73
     0
 74
     1
 95
       26
 96
       22
 40
0.0
 40
0.0
 40
0.0
 40
0.0
 40
1.0
 40
1.0
 40
1.0
 40
2.0
 40
2.0
 40
2.0
 40
3.0
 40
3.0
 40
3.0
 40
4.0
 40
4.0
 40
4.0
 40
5.0
 40
5.0
 40
5.0
 40
6.0
 40
6.0
 40
6.0
 40
7.0
 40
7.0
 40
7.0
 40
7.0
 10
73.37398815439956
 20
-112.8942287586688
 10
73.37398815439956
 20
-112.8942287586688
 10
73.37398815439956
 20
-111.789903400872
 10
73.37398815439956
 20
-111.789903400872
 10
73.37398815439956
 20
-111.789903400872
 10
73.0215548862585
 20
-111.789903400872
 10
73.0215548862585
 20
-111.789903400872
 10
73.0215548862585
 20
-111.789903400872
 10
73.0215548862585
 20
-111.6417642950062
 10
73.0215548862585
 20
-111.6417642950062
 10
73.37639972123924
 20
-111.6271226391939
 10
73.42600909622684
 20
-111.4641696227416
 10
73.45770397469113
 20
-111.3499647074056
 10
73.45770397469113
 20
-111.3499647074056
 10
73.61376680017295
 20
-111.3499647074056
 10
73.61376680017295
 20
-111.3499647074056
 10
73.61376680017295
 20
-111.3499647074056
 10
73.61376680017295
 20
-112.8942287586688
 10
73.61376680017295
 20
-112.8942287586688
 10
73.61376680017295
 20
-112.8942287586688
 10
73.37398815439956
 20
-112.8942287586688
 10
73.37398815439956
 20
-112.8942287586688
 97
        0
 97
        0
 75
     2
 76
     1
 98
        0
  0
POLYLINE
  5
134
330
12E
100
AcDbEntity
  8
_U+30EC_U+30A4_U+30E4_U+30FC 1
370
     0
100
AcDb2dPolyline
 66
     1
 10
0.0
 20
0.0
 30
0.0
  0
VERTEX
  5
135
330
134
100
AcDbEntity
  8
_U+30EC_U+30A4_U+30E4_U+30FC 1
370
     0
100
AcDbVertex
100
AcDb2dVertex
 10
74.21355792415494
 20
-112.8942287586688
 30
0.0
  0
VERTEX
  5
136
330
134
100
AcDbEntity
  8
_U+30EC_U+30A4_U+30E4_U+30FC 1
370
     0
100
AcDbVertex
100
AcDb2dVertex
 10
74.21355792415494
 20
-112.6425645334713
 30
0.0
  0
VERTEX
  5
137
330
134
100
AcDbEntity
  8
_U+30EC_U+30A4_U+30E4_U+30FC 1
370
     0
100
AcDbVertex
100
AcDb2dVertex
 10
74.48261988155296
 20
-112.6425645334713
 30
0.0
  0
VERTEX
  5
138
330
134
100
AcDbEntity
  8
_U+30EC_U+30A4_U+30E4_U+30FC 1
370
     0
100
AcDbVertex
100
AcDb2dVertex
 10
74.48261988155296
 20
-112.8942287586688
 30
0.0
  0
VERTEX
  5
139
330
134
100
AcDbEntity
  8
_U+30EC_U+30A4_U+30E4_U+30FC 1
370
     0
100
AcDbVertex
100
AcDb2dVertex
 10
74.21355792415494
 20
-112.8942287586688
 30
0.0
  0
SEQEND
  5
13A
330
134
100
AcDbEntity
  8
_U+30EC_U+30A4_U+30E4_U+30FC 1
370
     0
  0
HATCH
  5
13B
330
12E
100
AcDbEntity
  8
_U+30EC_U+30A4_U+30E4_U+30FC 1
 62
   179
420
  2234388
100
AcDbHatch
 10
0.0
 20
0.0
 30
0.0
210
0.0
220
0.0
230
1.0
  2
SOLID
 70
     1
 71
     0
 91
        1
 92
        1
 93
        4
 72
     1
 10
74.21355792415494
 20
-112.8942287586688
 11
74.21355792415494
 21
-112.6425645334713
 72
     1
 10
74.21355792415494
 20
-112.6425645334713
 11
74.48261988155296
 21
-112.6425645334713
 72
     1
 10
74.48261988155296
 20
-112.6425645334713
 11
74.48261988155296
 21
-112.8942287586688
 72
     1
 10
74.48261988155296
 20
-112.8942287586688
 11
74.21355792415494
 21
-112.8942287586688
 97
        0
 75
     2
 76
     1
 98
        0
  0
SPLINE
  5
13C
330
12E
100
AcDbEntity
  8
_U+30EC_U+30A4_U+30E4_U+30FC 1
370
     0
100
AcDbSpline
210
0.0
220
0.0
230
1.0
 70
    11
 71
     3
 72
    53
 73
    49
 74
     0
 42
0.0000000001
 43
0.0000000001
 12
1.0
 22
0.0
 32
0.0
 13
1.0
 23
0.0
 33
0.0
 40
0.0
 40
0.0
 40
0.0
 40
0.0
 40
1.0
 40
1.0
 40
1.0
 40
2.0
 40
2.0
 40
2.0
 40
3.0
 40
3.0
 40
3.0
 40
4.0
 40
4.0
 40
4.0
 40
5.0
 40
5.0
 40
5.0
 40
6.0
 40
6.0
 40
6.0
 40
7.0
 40
7.0
 40
7.0
 40
8.0
 40
8.0
 40
8.0
 40
9.0
 40
9.0
 40
9.0
 40
10.0
 40
10.0
 40
10.0
 40
11.0
 40
11.0
 40
11.0
 40
12.0
 40
12.0
 40
12.0
 40
13.0
 40
13.0
 40
13.0
 40
14.0
 40
14.0
 40
14.0
 40
15.0
 40
15.0
 40
15.0
 40
16.0
 40
16.0
 40
16.0
 40
16.0
 10
75.24949813656957
 20
-112.9450439170762
 30
0.0
 10
75.165782316278
 20
-112.9450439170762
 30
0.0
 10
75.05760631804115
 20
-112.9281629491985
 30
0.0
 10
74.94874130070727
 20
-112.8646009374957
 30
0.0
 10
74.76339516360082
 20
-112.7545301367419
 30
0.0
 10
74.7410020429467
 20
-112.6234442535282
 30
0.0
 10
74.72067597958372
 20
-112.5156127648399
 30
0.0
 10
74.72067597958372
 20
-112.5156127648399
 30
0.0
 10
74.95804305851743
 20
-112.5156127648399
 30
0.0
 10
74.95804305851743
 20
-112.5156127648399
 30
0.0
 10
75.01660968176668
 20
-112.7143947743388
 30
0.0
 10
75.15234644388553
 20
-112.7440225955119
 30
0.0
 10
75.25190970340925
 20
-112.7440225955119
 30
0.0
 10
75.40108233792057
 20
-112.7440225955119
 30
0.0
 10
75.56403535437288
 20
-112.6446315907625
 30
0.0
 10
75.56403535437288
 20
-112.4119153907338
 30
0.0
 10
75.56403535437288
 20
-112.1559447961798
 30
0.0
 10
75.37179902629595
 20
-112.0861816126035
 30
0.0
 10
75.2429524551476
 20
-112.0861816126035
 30
0.0
 10
75.20884600984363
 20
-112.0861816126035
 30
0.0
 10
75.05760631804115
 20
-112.0861816126035
 30
0.0
 10
74.96252168264826
 20
-112.2152004385261
 30
0.0
 10
74.96252168264826
 20
-112.2152004385261
 30
0.0
 10
74.77476397870214
 20
-112.1960801585829
 30
0.0
 10
74.77476397870214
 20
-112.1960801585829
 30
0.0
 10
74.77476397870214
 20
-112.1960801585829
 30
0.0
 10
74.90361054985048
 20
-111.3499647074056
 30
0.0
 10
74.90361054985048
 20
-111.3499647074056
 30
0.0
 10
74.90361054985048
 20
-111.3499647074056
 30
0.0
 10
75.73560110953832
 20
-111.3499647074056
 30
0.0
 10
75.73560110953832
 20
-111.3499647074056
 30
0.0
 10
75.73560110953832
 20
-111.3499647074056
 30
0.0
 10
75.73560110953832
 20
-111.5446126023222
 30
0.0
 10
75.73560110953832
 20
-111.5446126023222
 30
0.0
 10
75.73560110953832
 20
-111.5446126023222
 30
0.0
 10
75.07793238140412
 20
-111.5446126023222
 30
0.0
 10
75.07793238140412
 20
-111.5446126023222
 30
0.0
 10
75.07793238140412
 20
-111.5446126023222
 30
0.0
 10
75.00765243350503
 20
-111.9676703279109
 30
0.0
 10
75.00765243350503
 20
-111.9676703279109
 30
0.0
 10
75.07310924772479
 20
-111.9337361373812
 30
0.0
 10
75.16130369214717
 20
-111.893600774978
 30
0.0
 10
75.28808320600437
 20
-111.893600774978
 30
0.0
 10
75.55921222069354
 20
-111.893600774978
 30
0.0
 10
75.8124267388594
 20
-112.0798081859557
 30
0.0
 10
75.8124267388594
 20
-112.3927951107907
 30
0.0
 10
75.8124267388594
 20
-112.7102606597565
 30
0.0
 10
75.57299260263453
 20
-112.9450439170762
 30
0.0
 10
75.24949813656957
 20
-112.9450439170762
 30
0.0
  0
HATCH
  5
13D
330
12E
100
AcDbEntity
  8
_U+30EC_U+30A4_U+30E4_U+30FC 1
 62
   179
420
  2234388
100
AcDbHatch
 10
0.0
 20
0.0
 30
0.0
210
0.0
220
0.0
230
1.0
  2
SOLID
 70
     1
 71
     0
 91
        1
 92
        1
 93
        1
 72
     4
 94
        3
 73
     0
 74
     1
 95
       53
 96
       49
 40
0.0
 40
0.0
 40
0.0
 40
0.0
 40
1.0
 40
1.0
 40
1.0
 40
2.0
 40
2.0
 40
2.0
 40
3.0
 40
3.0
 40
3.0
 40
4.0
 40
4.0
 40
4.0
 40
5.0
 40
5.0
 40
5.0
 40
6.0
 40
6.0
 40
6.0
 40
7.0
 40
7.0
 40
7.0
 40
8.0
 40
8.0
 40
8.0
 40
9.0
 40
9.0
 40
9.0
 40
10.0
 40
10.0
 40
10.0
 40
11.0
 40
11.0
 40
11.0
 40
12.0
 40
12.0
 40
12.0
 40
13.0
 40
13.0
 40
13.0
 40
14.0
 40
14.0
 40
14.0
 40
15.0
 40
15.0
 40
15.0
 40
16.0
 40
16.0
 40
16.0
 40
16.0
 10
75.24949813656957
 20
-112.9450439170762
 10
75.165782316278
 20
-112.9450439170762
 10
75.05760631804115
 20
-112.9281629491985
 10
74.94874130070727
 20
-112.8646009374957
 10
74.76339516360082
 20
-112.7545301367419
 10
74.7410020429467
 20
-112.6234442535282
 10
74.72067597958372
 20
-112.5156127648399
 10
74.72067597958372
 20
-112.5156127648399
 10
74.95804305851743
 20
-112.5156127648399
 10
74.95804305851743
 20
-112.5156127648399
 10
75.01660968176668
 20
-112.7143947743388
 10
75.15234644388553
 20
-112.7440225955119
 10
75.25190970340925
 20
-112.7440225955119
 10
75.40108233792057
 20
-112.7440225955119
 10
75.56403535437288
 20
-112.6446315907625
 10
75.56403535437288
 20
-112.4119153907338
 10
75.56403535437288
 20
-112.1559447961798
 10
75.37179902629595
 20
-112.0861816126035
 10
75.2429524551476
 20
-112.0861816126035
 10
75.20884600984363
 20
-112.0861816126035
 10
75.05760631804115
 20
-112.0861816126035
 10
74.96252168264826
 20
-112.2152004385261
 10
74.96252168264826
 20
-112.2152004385261
 10
74.77476397870214
 20
-112.1960801585829
 10
74.77476397870214
 20
-112.1960801585829
 10
74.77476397870214
 20
-112.1960801585829
 10
74.90361054985048
 20
-111.3499647074056
 10
74.90361054985048
 20
-111.3499647074056
 10
74.90361054985048
 20
-111.3499647074056
 10
75.73560110953832
 20
-111.3499647074056
 10
75.73560110953832
 20
-111.3499647074056
 10
75.73560110953832
 20
-111.3499647074056
 10
75.73560110953832
 20
-111.5446126023222
 10
75.73560110953832
 20
-111.5446126023222
 10
75.73560110953832
 20
-111.5446126023222
 10
75.07793238140412
 20
-111.5446126023222
 10
75.07793238140412
 20
-111.5446126023222
 10
75.07793238140412
 20
-111.5446126023222
 10
75.00765243350503
 20
-111.9676703279109
 10
75.00765243350503
 20
-111.9676703279109
 10
75.07310924772479
 20
-111.9337361373812
 10
75.16130369214717
 20
-111.893600774978
 10
75.28808320600437
 20
-111.893600774978
 10
75.55921222069354
 20
-111.893600774978
 10
75.8124267388594
 20
-112.0798081859557
 10
75.8124267388594
 20
-112.3927951107907
 10
75.8124267388594
 20
-112.7102606597565
 10
75.57299260263453
 20
-112.9450439170762
 10
75.24949813656957
 20
-112.9450439170762
 97
        0
 97
        0
 75
     2
 76
     1
 98
        0
  0
ENDBLK
  5
131
330
12E
100
AcDbEntity
  8
0
100
AcDbBlockEnd
  0
ENDSEC
  0
SECTION
  2
ENTITIES
  0
INSERT
  5
42
330
1F
100
AcDbEntity
  8
_U+30EC_U+30A4_U+30E4_U+30FC 1
100
AcDbBlockReference
  2
block 2
 10
0.0
 20
0.0
 30
0.0
  0
ENDSEC
  0
SECTION
  2
OBJECTS
  0
DICTIONARY
  5
C
330
0
100
AcDbDictionary
281
     1
  3
ACAD_GROUP
350
D
  3
ACAD_LAYOUT
350
1A
  3
ACAD_MATERIAL
350
3B
  3
ACAD_MLEADERSTYLE
350
13F
  3
ACAD_MLINESTYLE
350
17
  3
ACAD_PLOTSETTINGS
350
19
  3
ACAD_PLOTSTYLENAME
350
E
  3
ACAD_TABLESTYLE
350
13E
  3
ACAD_VISUALSTYLE
350
2A
  0
SUN
  5
3F
330
29
100
AcDbSun
 90
        1
290
     0
 63
     7
421
 16777215
 40
1.0
291
     1
 91
  2455826
 92
 54000000
292
     0
 70
     2
 71
   256
280
     1
  0
DICTIONARY
  5
D
102
{ACAD_REACTORS
330
C
102
}
330
C
100
AcDbDictionary
281
     1
  0
DICTIONARY
  5
1A
102
{ACAD_REACTORS
330
C
102
}
330
C
100
AcDbDictionary
281
     1
  3
Layout1
350
1E
  3
Layout2
350
26
  3
Model
350
22
  0
DICTIONARY
  5
3B
102
{ACAD_REACTORS
330
C
102
}
330
C
100
AcDbDictionary
281
     1
  3
ByBlock
350
3D
  3
ByLayer
350
3C
  3
Global
350
3E
  0
DICTIONARY
  5
13F
102
{ACAD_REACTORS
330
C
102
}
330
C
100
AcDbDictionary
281
     1
  0
DICTIONARY
  5
17
102
{ACAD_REACTORS
330
C
102
}
330
C
100
AcDbDictionary
281
     1
  3
Standard
350
18
  0
DICTIONARY
  5
19
102
{ACAD_REACTORS
330
C
102
}
330
C
100
AcDbDictionary
281
     1
  0
ACDBDICTIONARYWDFLT
  5
E
102
{ACAD_REACTORS
330
C
102
}
330
C
100
AcDbDictionary
281
     1
  3
Normal
350
F
100
AcDbDictionaryWithDefault
340
F
  0
DICTIONARY
  5
13E
102
{ACAD_REACTORS
330
C
102
}
330
C
100
AcDbDictionary
281
     1
  0
DICTIONARY
  5
2A
102
{ACAD_REACTORS
330
C
102
}
330
C
100
AcDbDictionary
281
     1
  3
2dWireframe
350
2F
  3
3D Hidden
350
31
  3
3dWireframe
350
30
  3
Basic
350
32
  3
Brighten
350
36
  3
ColorChange
350
3A
  3
Conceptual
350
34
  3
Dim
350
35
  3
Facepattern
350
39
  3
Flat
350
2B
  3
FlatWithEdges
350
2C
  3
Gouraud
350
2D
  3
GouraudWithEdges
350
2E
  3
Linepattern
350
38
  3
Realistic
350
33
  3
Thicken
350
37
  0
LAYOUT
  5
1E
102
{ACAD_REACTORS
330
1A
102
}
330
1A
100
AcDbPlotSettings
  1

  2
none_device
  4

  6

 40
0.0
 41
0.0
 42
0.0
 43
0.0
 44
0.0
 45
0.0
 46
0.0
 47
0.0
 48
0.0
 49
0.0
140
0.0
141
0.0
142
1.0
143
1.0
 70
   688
 72
     0
 73
     0
 74
     5
  7

 75
    16
 76
     0
 77
     2
 78
   300
147
1.0
148
0.0
149
0.0
100
AcDbLayout
  1
Layout1
 70
     1
 71
     1
 10
0.0
 20
0.0
 11
12.0
 21
9.0
 12
0.0
 22
0.0
 32
0.0
 14
1.000000000000000E+20
 24
1.000000000000000E+20
 34
1.000000000000000E+20
 15
-1.000000000000000E+20
 25
-1.000000000000000E+20
 35
-1.000000000000000E+20
146
0.0
 13
0.0
 23
0.0
 33
0.0
 16
1.0
 26
0.0
 36
0.0
 17
0.0
 27
1.0
 37
0.0
 76
     0
330
1B
  0
LAYOUT
  5
26
102
{ACAD_REACTORS
330
1A
102
}
330
1A
100
AcDbPlotSettings
  1

  2
none_device
  4

  6

 40
0.0
 41
0.0
 42
0.0
 43
0.0
 44
0.0
 45
0.0
 46
0.0
 47
0.0
 48
0.0
 49
0.0
140
0.0
141
0.0
142
1.0
143
1.0
 70
   688
 72
     0
 73
     0
 74
     5
  7

 75
    16
 76
     0
 77
     2
 78
   300
147
1.0
148
0.0
149
0.0
100
AcDbLayout
  1
Layout2
 70
     1
 71
     2
 10
0.0
 20
0.0
 11
0.0
 21
0.0
 12
0.0
 22
0.0
 32
0.0
 14
0.0
 24
0.0
 34
0.0
 15
0.0
 25
0.0
 35
0.0
146
0.0
 13
0.0
 23
0.0
 33
0.0
 16
1.0
 26
0.0
 36
0.0
 17
0.0
 27
1.0
 37
0.0
 76
     0
330
23
  0
LAYOUT
  5
22
102
{ACAD_REACTORS
330
1A
102
}
330
1A
100
AcDbPlotSettings
  1

  2
none_device
  4

  6

 40
0.0
 41
0.0
 42
0.0
 43
0.0
 44
0.0
 45
0.0
 46
0.0
 47
0.0
 48
0.0
 49
0.0
140
0.0
141
0.0
142
1.0
143
1.0
 70
  1712
 72
     0
 73
     0
 74
     0
  7

 75
     0
 76
     0
 77
     2
 78
   300
147
1.0
148
0.0
149
0.0
100
AcDbLayout
  1
Model
 70
     1
 71
     0
 10
0.0
 20
0.0
 11
12.0
 21
9.0
 12
0.0
 22
0.0
 32
0.0
 14
1.000000000000000E+20
 24
1.000000000000000E+20
 34
1.000000000000000E+20
 15
-1.000000000000000E+20
 25
-1.000000000000000E+20
 35
-1.000000000000000E+20
146
0.0
 13
0.0
 23
0.0
 33
0.0
 16
1.0
 26
0.0
 36
0.0
 17
0.0
 27
1.0
 37
0.0
 76
     0
330
1F
331
29
  0
MATERIAL
  5
3D
102
{ACAD_REACTORS
330
3B
102
}
330
3B
100
AcDbMaterial
  1
ByBlock
 72
     1
 94
      127
  0
MATERIAL
  5
3C
102
{ACAD_REACTORS
330
3B
102
}
330
3B
100
AcDbMaterial
  1
ByLayer
 72
     1
 94
      127
  0
MATERIAL
  5
3E
102
{ACAD_REACTORS
330
3B
102
}
330
3B
100
AcDbMaterial
  1
Global
 72
     1
 94
      127
  0
MLINESTYLE
  5
18
102
{ACAD_REACTORS
330
17
102
}
330
17
100
AcDbMlineStyle
  2
Standard
 70
     0
  3

 62
   256
 51
90.0
 52
90.0
 71
     2
 49
0.5
 62
   256
  6
BYLAYER
 49
-0.5
 62
   256
  6
BYLAYER
  0
ACDBPLACEHOLDER
  5
F
102
{ACAD_REACTORS
330
E
102
}
330
E
  0
VISUALSTYLE
  5
2F
102
{ACAD_REACTORS
330
2A
102
}
330
2A
100
AcDbVisualStyle
  2
2dWireframe
 70
     4
177
     2
291
     0
 71
     0
176
     1
 72
     2
176
     1
 73
     0
176
     1
 90
        0
176
     1
 40
-0.6
176
     1
 41
-30.0
176
     1
 62
     5
 63
     7
421
 16777215
176
     1
 74
     1
176
     1
 91
        4
176
     1
 64
     7
176
     1
 65
   257
176
     1
 75
     1
176
     1
175
     1
176
     1
 42
1.0
176
     1
 92
        0
176
     1
 66
   257
176
     1
 43
1.0
176
     1
 76
     1
176
     1
 77
     6
176
     1
 78
     2
176
     1
 67
     7
176
     1
 79
     5
176
     1
170
     0
176
     1
171
     0
176
     1
290
     0
176
     1
 93
        1
176
     1
 44
0.0
176
     1
173
     0
176
     1
  0
VISUALSTYLE
  5
31
102
{ACAD_REACTORS
330
2A
102
}
330
2A
100
AcDbVisualStyle
  2
3D Hidden
 70
     6
177
     2
291
     0
 71
     1
176
     1
 72
     2
176
     1
 73
     2
176
     1
 90
        0
176
     1
 40
-0.6
176
     1
 41
-30.0
176
     1
 62
     5
 63
     7
421
 16777215
176
     1
 74
     2
176
     1
 91
        2
176
     1
 64
     7
176
     1
 65
   257
176
     1
 75
     2
176
     1
175
     1
176
     1
 42
40.0
176
     1
 92
        0
176
     1
 66
   257
176
     1
 43
1.0
176
     1
 76
     1
176
     1
 77
     6
176
     1
 78
     2
176
     1
 67
     7
176
     1
 79
     3
176
     1
170
     0
176
     1
171
     0
176
     1
290
     0
176
     1
 93
        1
176
     1
 44
0.0
176
     1
173
     0
176
     1
  0
VISUALSTYLE
  5
30
102
{ACAD_REACTORS
330
2A
102
}
330
2A
100
AcDbVisualStyle
  2
3dWireframe
 70
     5
177
     2
291
     0
 71
     0
176
     1
 72
     2
176
     1
 73
     0
176
     1
 90
        0
176
     1
 40
-0.6
176
     1
 41
-30.0
176
     1
 62
     5
 63
     7
421
 16777215
176
     1
 74
     1
176
     1
 91
        4
176
     1
 64
     7
176
     1
 65
   257
176
     1
 75
     1
176
     1
175
     1
176
     1
 42
1.0
176
     1
 92
        0
176
     1
 66
   257
176
     1
 43
1.0
176
     1
 76
     1
176
     1
 77
     6
176
     1
 78
     2
176
     1
 67
     7
176
     1
 79
     5
176
     1
170
     0
176
     1
171
     0
176
     1
290
     0
176
     1
 93
        1
176
     1
 44
0.0
176
     1
173
     0
176
     1
  0
VISUALSTYLE
  5
32
102
{ACAD_REACTORS
330
2A
102
}
330
2A
100
AcDbVisualStyle
  2
Basic
 70
     7
177
     2
291
     1
 71
     1
176
     1
 72
     0
176
     1
 73
     1
176
     1
 90
        0
176
     1
 40
-0.6
176
     1
 41
-30.0
176
     1
 62
     5
 63
     7
421
 16777215
176
     1
 74
     0
176
     1
 91
        4
176
     1
 64
     7
176
     1
 65
   257
176
     1
 75
     1
176
     1
175
     1
176
     1
 42
1.0
176
     1
 92
        8
176
     1
 66
     7
176
     1
 43
1.0
176
     1
 76
     1
176
     1
 77
     6
176
     1
 78
     2
176
     1
 67
     7
176
     1
 79
     5
176
     1
170
     0
176
     1
171
     0
176
     1
290
     0
176
     1
 93
        1
176
     1
 44
0.0
176
     1
173
     0
176
     1
  0
VISUALSTYLE
  5
36
102
{ACAD_REACTORS
330
2A
102
}
330
2A
100
AcDbVisualStyle
  2
Brighten
 70
    12
177
     2
291
     1
 71
     2
176
     1
 72
     2
176
     1
 73
     0
176
     1
 90
        0
176
     1
 40
-0.6
176
     1
 41
-30.0
176
     1
 62
     5
 63
     7
421
 16777215
176
     1
 74
     1
176
     1
 91
        4
176
     1
 64
     7
176
     1
 65
   257
176
     1
 75
     1
176
     1
175
     1
176
     1
 42
1.0
176
     1
 92
        8
176
     1
 66
     7
176
     1
 43
1.0
176
     1
 76
     1
176
     1
 77
     6
176
     1
 78
     2
176
     1
 67
     7
176
     1
 79
     5
176
     1
170
     0
176
     1
171
     0
176
     1
290
     0
176
     1
 93
        1
176
     1
 44
50.0
176
     1
173
     0
176
     1
  0
VISUALSTYLE
  5
3A
102
{ACAD_REACTORS
330
2A
102
}
330
2A
100
AcDbVisualStyle
  2
ColorChange
 70
    16
177
     2
291
     1
 71
     2
176
     1
 72
     2
176
     1
 73
     3
176
     1
 90
        0
176
     1
 40
-0.6
176
     1
 41
-30.0
176
     1
 62
     5
 63
     8
421
  8421504
176
     1
 74
     1
176
     1
 91
        4
176
     1
 64
     7
176
     1
 65
   257
176
     1
 75
     1
176
     1
175
     1
176
     1
 42
1.0
176
     1
 92
        8
176
     1
 66
     8
424
  8421504
176
     1
 43
1.0
176
     1
 76
     1
176
     1
 77
     6
176
     1
 78
     2
176
     1
 67
     7
176
     1
 79
     5
176
     1
170
     0
176
     1
171
     0
176
     1
290
     0
176
     1
 93
        1
176
     1
 44
0.0
176
     1
173
     0
176
     1
  0
VISUALSTYLE
  5
34
102
{ACAD_REACTORS
330
2A
102
}
330
2A
100
AcDbVisualStyle
  2
Conceptual
 70
     9
177
     2
291
     0
 71
     3
176
     1
 72
     2
176
     1
 73
     0
176
     1
 90
        0
176
     1
 40
-0.6
176
     1
 41
-30.0
176
     1
 62
     5
 63
     7
421
 16777215
176
     1
 74
     2
176
     1
 91
        2
176
     1
 64
     7
176
     1
 65
   257
176
     1
 75
     1
176
     1
175
     1
176
     1
 42
40.0
176
     1
 92
        8
176
     1
 66
     7
176
     1
 43
1.0
176
     1
 76
     1
176
     1
 77
     6
176
     1
 78
     2
176
     1
 67
     7
176
     1
 79
     3
176
     1
170
     0
176
     1
171
     0
176
     1
290
     0
176
     1
 93
        1
176
     1
 44
0.0
176
     1
173
     0
176
     1
  0
VISUALSTYLE
  5
35
102
{ACAD_REACTORS
330
2A
102
}
330
2A
100
AcDbVisualStyle
  2
Dim
 70
    11
177
     2
291
     1
 71
     2
176
     1
 72
     2
176
     1
 73
     0
176
     1
 90
        0
176
     1
 40
-0.6
176
     1
 41
-30.0
176
     1
 62
     5
 63
     7
421
 16777215
176
     1
 74
     1
176
     1
 91
        4
176
     1
 64
     7
176
     1
 65
   257
176
     1
 75
     1
176
     1
175
     1
176
     1
 42
1.0
176
     1
 92
        8
176
     1
 66
     7
176
     1
 43
1.0
176
     1
 76
     1
176
     1
 77
     6
176
     1
 78
     2
176
     1
 67
     7
176
     1
 79
     5
176
     1
170
     0
176
     1
171
     0
176
     1
290
     0
176
     1
 93
        1
176
     1
 44
-50.0
176
     1
173
     0
176
     1
  0
VISUALSTYLE
  5
39
102
{ACAD_REACTORS
330
2A
102
}
330
2A
100
AcDbVisualStyle
  2
Facepattern
 70
    15
177
     2
291
     1
 71
     2
176
     1
 72
     2
176
     1
 73
     0
176
     1
 90
        0
176
     1
 40
-0.6
176
     1
 41
-30.0
176
     1
 62
     5
 63
     7
421
 16777215
176
     1
 74
     1
176
     1
 91
        4
176
     1
 64
     7
176
     1
 65
   257
176
     1
 75
     1
176
     1
175
     1
176
     1
 42
1.0
176
     1
 92
        8
176
     1
 66
     7
176
     1
 43
1.0
176
     1
 76
     1
176
     1
 77
     6
176
     1
 78
     2
176
     1
 67
     7
176
     1
 79
     5
176
     1
170
     0
176
     1
171
     0
176
     1
290
     0
176
     1
 93
        1
176
     1
 44
0.0
176
     1
173
     0
176
     1
  0
VISUALSTYLE
  5
2B
102
{ACAD_REACTORS
330
2A
102
}
330
2A
100
AcDbVisualStyle
  2
Flat
 70
     0
177
     2
291
     1
 71
     2
176
     1
 72
     1
176
     1
 73
     1
176
     1
 90
        2
176
     1
 40
-0.6
176
     1
 41
30.0
176
     1
 62
     5
 63
     7
421
 16777215
176
     1
 74
     0
176
     1
 91
        4
176
     1
 64
     7
176
     1
 65
   257
176
     1
 75
     1
176
     1
175
     1
176
     1
 42
1.0
176
     1
 92
        8
176
     1
 66
     7
176
     1
 43
1.0
176
     1
 76
     1
176
     1
 77
     6
176
     1
 78
     2
176
     1
 67
     7
176
     1
 79
     5
176
     1
170
     0
176
     1
171
     0
176
     1
290
     0
176
     1
 93
       13
176
     1
 44
0.0
176
     1
173
     0
176
     1
  0
VISUALSTYLE
  5
2C
102
{ACAD_REACTORS
330
2A
102
}
330
2A
100
AcDbVisualStyle
  2
FlatWithEdges
 70
     1
177
     2
291
     1
 71
     2
176
     1
 72
     1
176
     1
 73
     1
176
     1
 90
        2
176
     1
 40
-0.6
176
     1
 41
30.0
176
     1
 62
     5
 63
     7
421
 16777215
176
     1
 74
     1
176
     1
 91
        4
176
     1
 64
     7
176
     1
 65
   257
176
     1
 75
     1
176
     1
175
     1
176
     1
 42
1.0
176
     1
 92
        0
176
     1
 66
   257
176
     1
 43
1.0
176
     1
 76
     1
176
     1
 77
     6
176
     1
 78
     2
176
     1
 67
     7
176
     1
 79
     5
176
     1
170
     0
176
     1
171
     0
176
     1
290
     0
176
     1
 93
       13
176
     1
 44
0.0
176
     1
173
     0
176
     1
  0
VISUALSTYLE
  5
2D
102
{ACAD_REACTORS
330
2A
102
}
330
2A
100
AcDbVisualStyle
  2
Gouraud
 70
     2
177
     2
291
     1
 71
     2
176
     1
 72
     2
176
     1
 73
     1
176
     1
 90
        2
176
     1
 40
-0.6
176
     1
 41
30.0
176
     1
 62
     5
 63
     7
421
 16777215
176
     1
 74
     0
176
     1
 91
        4
176
     1
 64
     7
176
     1
 65
   257
176
     1
 75
     1
176
     1
175
     1
176
     1
 42
1.0
176
     1
 92
        0
176
     1
 66
     7
176
     1
 43
1.0
176
     1
 76
     1
176
     1
 77
     6
176
     1
 78
     2
176
     1
 67
     7
176
     1
 79
     5
176
     1
170
     0
176
     1
171
     0
176
     1
290
     0
176
     1
 93
       13
176
     1
 44
0.0
176
     1
173
     0
176
     1
  0
VISUALSTYLE
  5
2E
102
{ACAD_REACTORS
330
2A
102
}
330
2A
100
AcDbVisualStyle
  2
GouraudWithEdges
 70
     3
177
     2
291
     1
 71
     2
176
     1
 72
     2
176
     1
 73
     1
176
     1
 90
        2
176
     1
 40
-0.6
176
     1
 41
30.0
176
     1
 62
     5
 63
     7
421
 16777215
176
     1
 74
     1
176
     1
 91
        4
176
     1
 64
     7
176
     1
 65
   257
176
     1
 75
     1
176
     1
175
     1
176
     1
 42
1.0
176
     1
 92
        0
176
     1
 66
   257
176
     1
 43
1.0
176
     1
 76
     1
176
     1
 77
     6
176
     1
 78
     2
176
     1
 67
     7
176
     1
 79
     5
176
     1
170
     0
176
     1
171
     0
176
     1
290
     0
176
     1
 93
       13
176
     1
 44
0.0
176
     1
173
     0
176
     1
  0
VISUALSTYLE
  5
38
102
{ACAD_REACTORS
330
2A
102
}
330
2A
100
AcDbVisualStyle
  2
Linepattern
 70
    14
177
     2
291
     1
 71
     2
176
     1
 72
     2
176
     1
 73
     0
176
     1
 90
        0
176
     1
 40
-0.6
176
     1
 41
-30.0
176
     1
 62
     5
 63
     7
421
 16777215
176
     1
 74
     1
176
     1
 91
        4
176
     1
 64
     7
176
     1
 65
   257
176
     1
 75
     7
176
     1
175
     7
176
     1
 42
1.0
176
     1
 92
        8
176
     1
 66
     7
176
     1
 43
1.0
176
     1
 76
     1
176
     1
 77
     6
176
     1
 78
     2
176
     1
 67
     7
176
     1
 79
     5
176
     1
170
     0
176
     1
171
     0
176
     1
290
     0
176
     1
 93
        1
176
     1
 44
0.0
176
     1
173
     0
176
     1
  0
VISUALSTYLE
  5
33
102
{ACAD_REACTORS
330
2A
102
}
330
2A
100
AcDbVisualStyle
  2
Realistic
 70
     8
177
     2
291
     0
 71
     2
176
     1
 72
     2
176
     1
 73
     0
176
     1
 90
        0
176
     1
 40
-0.6
176
     1
 41
-30.0
176
     1
 62
     5
 63
     7
421
 16777215
176
     1
 74
     1
176
     1
 91
        0
176
     1
 64
     7
176
     1
 65
   257
176
     1
 75
     1
176
     1
175
     1
176
     1
 42
1.0
176
     1
 92
        8
176
     1
 66
     8
424
  7895160
176
     1
 43
1.0
176
     1
 76
     1
176
     1
 77
     6
176
     1
 78
     2
176
     1
 67
     7
176
     1
 79
     5
176
     1
170
     0
176
     1
171
     0
176
     1
290
     0
176
     1
 93
       13
176
     1
 44
0.0
176
     1
173
     0
176
     1
  0
VISUALSTYLE
  5
37
102
{ACAD_REACTORS
330
2A
102
}
330
2A
100
AcDbVisualStyle
  2
Thicken
 70
    13
177
     2
291
     1
 71
     2
176
     1
 72
     2
176
     1
 73
     0
176
     1
 90
        0
176
     1
 40
-0.6
176
     1
 41
-30.0
176
     1
 62
     5
 63
     7
421
 16777215
176
     1
 74
     1
176
     1
 91
        4
176
     1
 64
     7
176
     1
 65
   257
176
     1
 75
     1
176
     1
175
     1
176
     1
 42
1.0
176
     1
 92
       12
176
     1
 66
     7
176
     1
 43
1.0
176
     1
 76
     1
176
     1
 77
     6
176
     1
 78
     2
176
     1
 67
     7
176
     1
 79
     5
176
     1
170
     0
176
     1
171
     0
176
     1
290
     0
176
     1
 93
        1
176
     1
 44
0.0
176
     1
173
     0
176
     1
  0
ENDSEC
  0
EOF
