  0
SECTION
  2
HEADER
  9
$ACADVER
  1
AC1024
  9
$ACADMAINTVER
 70
   226
  9
$DWGCODEPAGE
  3
ANSI_932
  9
$INSBASE
 10
0.0
 20
0.0
 30
0.0
  9
$EXTMIN
 10
1.000000000000000E+20
 20
1.000000000000000E+20
 30
1.000000000000000E+20
  9
$EXTMAX
 10
-1.000000000000000E+20
 20
-1.000000000000000E+20
 30
-1.000000000000000E+20
  9
$LIMMIN
 10
0.0
 20
0.0
  9
$LIMMAX
 10
12.0
 20
9.0
  9
$ORTHOMODE
 70
     0
  9
$REGENMODE
 70
     1
  9
$FILLMODE
 70
     1
  9
$QTEXTMODE
 70
     0
  9
$MIRRTEXT
 70
     0
  9
$LTSCALE
 40
1.0
  9
$ATTMODE
 70
     1
  9
$TEXTSIZE
 40
0.2
  9
$TRACEWID
 40
0.05
  9
$TEXTSTYLE
  7
Standard
  9
$CLAYER
  8
0
  9
$CELTYPE
  6
ByLayer
  9
$CECOLOR
 62
   256
  9
$CELTSCALE
 40
1.0
  9
$DISPSILH
 70
     0
  9
$DIMSCALE
 40
1.0
  9
$DIMASZ
 40
0.18
  9
$DIMEXO
 40
0.0625
  9
$DIMDLI
 40
0.38
  9
$DIMRND
 40
0.0
  9
$DIMDLE
 40
0.0
  9
$DIMEXE
 40
0.18
  9
$DIMTP
 40
0.0
  9
$DIMTM
 40
0.0
  9
$DIMTXT
 40
0.18
  9
$DIMCEN
 40
0.09
  9
$DIMTSZ
 40
0.0
  9
$DIMTOL
 70
     0
  9
$DIMLIM
 70
     0
  9
$DIMTIH
 70
     1
  9
$DIMTOH
 70
     1
  9
$DIMSE1
 70
     0
  9
$DIMSE2
 70
     0
  9
$DIMTAD
 70
     0
  9
$DIMZIN
 70
     0
  9
$DIMBLK
  1

  9
$DIMASO
 70
     1
  9
$DIMSHO
 70
     1
  9
$DIMPOST
  1

  9
$DIMAPOST
  1

  9
$DIMALT
 70
     0
  9
$DIMALTD
 70
     2
  9
$DIMALTF
 40
25.4
  9
$DIMLFAC
 40
1.0
  9
$DIMTOFL
 70
     0
  9
$DIMTVP
 40
0.0
  9
$DIMTIX
 70
     0
  9
$DIMSOXD
 70
     0
  9
$DIMSAH
 70
     0
  9
$DIMBLK1
  1

  9
$DIMBLK2
  1

  9
$DIMSTYLE
  2
Standard
  9
$DIMCLRD
 70
     0
  9
$DIMCLRE
 70
     0
  9
$DIMCLRT
 70
     0
  9
$DIMTFAC
 40
1.0
  9
$DIMGAP
 40
0.09
  9
$DIMJUST
 70
     0
  9
$DIMSD1
 70
     0
  9
$DIMSD2
 70
     0
  9
$DIMTOLJ
 70
     1
  9
$DIMTZIN
 70
     0
  9
$DIMALTZ
 70
     0
  9
$DIMALTTZ
 70
     0
  9
$DIMUPT
 70
     0
  9
$DIMDEC
 70
     4
  9
$DIMTDEC
 70
     4
  9
$DIMALTU
 70
     2
  9
$DIMALTTD
 70
     2
  9
$DIMTXSTY
  7
Standard
  9
$DIMAUNIT
 70
     0
  9
$DIMADEC
 70
     0
  9
$DIMALTRND
 40
0.0
  9
$DIMAZIN
 70
     0
  9
$DIMDSEP
 70
    46
  9
$DIMATFIT
 70
     3
  9
$DIMFRAC
 70
     0
  9
$DIMLDRBLK
  1

  9
$DIMLUNIT
 70
     2
  9
$DIMLWD
 70
    -2
  9
$DIMLWE
 70
    -2
  9
$DIMTMOVE
 70
     0
  9
$DIMFXL
 40
1.0
  9
$DIMFXLON
 70
     0
  9
$DIMJOGANG
 40
0.7853981633974483
  9
$DIMTFILL
 70
     0
  9
$DIMTFILLCLR
 70
     0
  9
$DIMARCSYM
 70
     0
  9
$DIMLTYPE
  6

  9
$DIMLTEX1
  6

  9
$DIMLTEX2
  6

  9
$DIMTXTDIRECTION
 70
     0
  9
$LUNITS
 70
     2
  9
$LUPREC
 70
     4
  9
$SKETCHINC
 40
0.1
  9
$FILLETRAD
 40
0.0
  9
$AUNITS
 70
     0
  9
$AUPREC
 70
     0
  9
$MENU
  1
.
  9
$ELEVATION
 40
0.0
  9
$PELEVATION
 40
0.0
  9
$THICKNESS
 40
0.0
  9
$LIMCHECK
 70
     0
  9
$CHAMFERA
 40
0.0
  9
$CHAMFERB
 40
0.0
  9
$CHAMFERC
 40
0.0
  9
$CHAMFERD
 40
0.0
  9
$SKPOLY
 70
     0
  9
$TDCREATE
 40
2459569.488900463
  9
$TDUCREATE
 40
2459569.113900463
  9
$TDUPDATE
 40
2459569.488900463
  9
$TDUUPDATE
 40
2459569.113900463
  9
$TDINDWG
 40
0.0000000000
  9
$TDUSRTIMER
 40
0.0000000000
  9
$USRTIMER
 70
     1
  9
$ANGBASE
 50
0.0
  9
$ANGDIR
 70
     0
  9
$PDMODE
 70
     0
  9
$PDSIZE
 40
0.0
  9
$PLINEWID
 40
0.0
  9
$SPLFRAME
 70
     0
  9
$SPLINETYPE
 70
     6
  9
$SPLINESEGS
 70
     8
  9
$HANDSEED
  5
146
  9
$SURFTAB1
 70
     6
  9
$SURFTAB2
 70
     6
  9
$SURFTYPE
 70
     6
  9
$SURFU
 70
     6
  9
$SURFV
 70
     6
  9
$UCSBASE
  2

  9
$UCSNAME
  2

  9
$UCSORG
 10
0.0
 20
0.0
 30
0.0
  9
$UCSXDIR
 10
1.0
 20
0.0
 30
0.0
  9
$UCSYDIR
 10
0.0
 20
1.0
 30
0.0
  9
$UCSORTHOREF
  2

  9
$UCSORTHOVIEW
 70
     0
  9
$UCSORGTOP
 10
0.0
 20
0.0
 30
0.0
  9
$UCSORGBOTTOM
 10
0.0
 20
0.0
 30
0.0
  9
$UCSORGLEFT
 10
0.0
 20
0.0
 30
0.0
  9
$UCSORGRIGHT
 10
0.0
 20
0.0
 30
0.0
  9
$UCSORGFRONT
 10
0.0
 20
0.0
 30
0.0
  9
$UCSORGBACK
 10
0.0
 20
0.0
 30
0.0
  9
$PUCSBASE
  2

  9
$PUCSNAME
  2

  9
$PUCSORG
 10
0.0
 20
0.0
 30
0.0
  9
$PUCSXDIR
 10
1.0
 20
0.0
 30
0.0
  9
$PUCSYDIR
 10
0.0
 20
1.0
 30
0.0
  9
$PUCSORTHOREF
  2

  9
$PUCSORTHOVIEW
 70
     0
  9
$PUCSORGTOP
 10
0.0
 20
0.0
 30
0.0
  9
$PUCSORGBOTTOM
 10
0.0
 20
0.0
 30
0.0
  9
$PUCSORGLEFT
 10
0.0
 20
0.0
 30
0.0
  9
$PUCSORGRIGHT
 10
0.0
 20
0.0
 30
0.0
  9
$PUCSORGFRONT
 10
0.0
 20
0.0
 30
0.0
  9
$PUCSORGBACK
 10
0.0
 20
0.0
 30
0.0
  9
$USERI1
 70
     0
  9
$USERI2
 70
     0
  9
$USERI3
 70
     0
  9
$USERI4
 70
     0
  9
$USERI5
 70
     0
  9
$USERR1
 40
0.0
  9
$USERR2
 40
0.0
  9
$USERR3
 40
0.0
  9
$USERR4
 40
0.0
  9
$USERR5
 40
0.0
  9
$WORLDVIEW
 70
     1
  9
$SHADEDGE
 70
     3
  9
$SHADEDIF
 70
    70
  9
$TILEMODE
 70
     1
  9
$MAXACTVP
 70
    64
  9
$PINSBASE
 10
0.0
 20
0.0
 30
0.0
  9
$PLIMCHECK
 70
     0
  9
$PEXTMIN
 10
1.000000000000000E+20
 20
1.000000000000000E+20
 30
1.000000000000000E+20
  9
$PEXTMAX
 10
-1.000000000000000E+20
 20
-1.000000000000000E+20
 30
-1.000000000000000E+20
  9
$PLIMMIN
 10
0.0
 20
0.0
  9
$PLIMMAX
 10
12.0
 20
9.0
  9
$UNITMODE
 70
     0
  9
$VISRETAIN
 70
     1
  9
$PLINEGEN
 70
     0
  9
$PSLTSCALE
 70
     1
  9
$TREEDEPTH
 70
  3020
  9
$CMLSTYLE
  2
Standard
  9
$CMLJUST
 70
     0
  9
$CMLSCALE
 40
1.0
  9
$PROXYGRAPHICS
 70
     1
  9
$MEASUREMENT
 70
     0
  9
$CELWEIGHT
370
    -1
  9
$ENDCAPS
280
     0
  9
$JOINSTYLE
280
     0
  9
$LWDISPLAY
290
     1
  9
$INSUNITS
 70
     4
  9
$HYPERLINKBASE
  1

  9
$STYLESHEET
  1

  9
$XEDIT
290
     1
  9
$CEPSNTYPE
380
     0
  9
$PSTYLEMODE
290
     1
  9
$FINGERPRINTGUID
  2
{61838DF1-1E0B-844A-9815-6FEE40C2F972}
  9
$VERSIONGUID
  2
{D3839595-3030-4E40-AFF8-C997F751CFA7}
  9
$EXTNAMES
290
     1
  9
$PSVPSCALE
 40
0.0
  9
$OLESTARTUP
290
     0
  9
$SORTENTS
280
   127
  9
$INDEXCTL
280
     0
  9
$HIDETEXT
280
     1
  9
$XCLIPFRAME
280
     2
  9
$HALOGAP
280
     0
  9
$OBSCOLOR
 70
   257
  9
$OBSLTYPE
280
     0
  9
$INTERSECTIONDISPLAY
280
     0
  9
$INTERSECTIONCOLOR
 70
   257
  9
$DIMASSOC
280
     2
  9
$PROJECTNAME
  1

  9
$CAMERADISPLAY
290
     0
  9
$LENSLENGTH
 40
50.0
  9
$CAMERAHEIGHT
 40
0.0
  9
$STEPSPERSEC
 40
2.0
  9
$STEPSIZE
 40
6.0
  9
$3DDWFPREC
 40
2.0
  9
$PSOLWIDTH
 40
0.25
  9
$PSOLHEIGHT
 40
4.0
  9
$LOFTANG1
 40
1.570796326794896
  9
$LOFTANG2
 40
1.570796326794896
  9
$LOFTMAG1
 40
0.0
  9
$LOFTMAG2
 40
0.0
  9
$LOFTPARAM
 70
     7
  9
$LOFTNORMALS
280
     1
  9
$LATITUDE
 40
37.795
  9
$LONGITUDE
 40
-122.394
  9
$NORTHDIRECTION
 40
0.0
  9
$TIMEZONE
 70
 -8000
  9
$LIGHTGLYPHDISPLAY
280
     1
  9
$TILEMODELIGHTSYNCH
280
     1
  9
$CMATERIAL
347
11
  9
$SOLIDHIST
280
     0
  9
$SHOWHIST
280
     1
  9
$DWFFRAME
280
     2
  9
$DGNFRAME
280
     0
  9
$REALWORLDSCALE
290
     1
  9
$INTERFERECOLOR
 62
     1
  9
$INTERFEREOBJVS
345
33
  9
$INTERFEREVPVS
346
30
  9
$CSHADOW
280
     0
  9
$SHADOWPLANELOCATION
 40
0.0
  0
ENDSEC
  0
SECTION
  2
CLASSES
  0
CLASS
  1
ACDBDICTIONARYWDFLT
  2
AcDbDictionaryWithDefault
  3
ObjectDBX Classes
 90
        0
 91
        1
280
     0
281
     0
  0
CLASS
  1
MATERIAL
  2
AcDbMaterial
  3
ObjectDBX Classes
 90
     1153
 91
        3
280
     0
281
     0
  0
CLASS
  1
VISUALSTYLE
  2
AcDbVisualStyle
  3
ObjectDBX Classes
 90
     4095
 91
       24
280
     0
281
     0
  0
CLASS
  1
SCALE
  2
AcDbScale
  3
ObjectDBX Classes
 90
     1153
 91
       17
280
     0
281
     0
  0
CLASS
  1
TABLESTYLE
  2
AcDbTableStyle
  3
ObjectDBX Classes
 90
     4095
 91
        1
280
     0
281
     0
  0
CLASS
  1
MLEADERSTYLE
  2
AcDbMLeaderStyle
  3
ACDB_MLEADERSTYLE_CLASS
 90
     4095
 91
        1
280
     0
281
     0
  0
CLASS
  1
ACDBSECTIONVIEWSTYLE
  2
AcDbSectionViewStyle
  3
ObjectDBX Classes
 90
     1025
 91
        1
280
     0
281
     0
  0
CLASS
  1
ACDBDETAILVIEWSTYLE
  2
AcDbDetailViewStyle
  3
ObjectDBX Classes
 90
     1025
 91
        1
280
     0
281
     0
  0
CLASS
  1
DICTIONARYVAR
  2
AcDbDictionaryVar
  3
ObjectDBX Classes
 90
        0
 91
        5
280
     0
281
     0
  0
CLASS
  1
CELLSTYLEMAP
  2
AcDbCellStyleMap
  3
ObjectDBX Classes
 90
     1152
 91
        1
280
     0
281
     0
  0
ENDSEC
  0
SECTION
  2
TABLES
  0
TABLE
  2
VPORT
  5
8
330
0
100
AcDbSymbolTable
 70
     1
  0
VPORT
  5
57
330
8
100
AcDbSymbolTableRecord
100
AcDbViewportTableRecord
  2
*Active
 70
     0
 10
0.0
 20
0.0
 11
1.0
 21
1.0
 12
0.0
 22
0.0
 13
0.0
 23
0.0
 14
1.0
 24
1.0
 15
0.0
 25
0.0
 16
0.0
 26
0.0
 36
1.0
 17
104.9999999737534
 27
-148.4999999628701
 37
0.0
 40
302.939999924255
 41
0.7070707070707534
 42
50.0
 43
0.0
 44
0.0
 50
0.0
 51
0.0
 71
     0
 72
   100
 73
     1
 74
     0
 75
     1
 76
     0
 77
     0
 78
     0
281
     0
 65
     1
110
0.0
120
0.0
130
0.0
111
1.0
121
0.0
131
0.0
112
0.0
122
1.0
132
0.0
 79
     0
146
0.0
 60
     3
 61
     5
292
     1
282
     1
141
0.0
142
0.0
 63
   250
421
  3355443
  0
ENDTAB
  0
TABLE
  2
LTYPE
  5
5
330
0
100
AcDbSymbolTable
 70
     2
  0
LTYPE
  5
5B
330
5
100
AcDbSymbolTableRecord
100
AcDbLinetypeTableRecord
  2
ByBlock
 70
     0
  3

 72
    65
 73
     0
 40
0.0
  0
LTYPE
  5
5C
330
5
100
AcDbSymbolTableRecord
100
AcDbLinetypeTableRecord
  2
ByLayer
 70
     0
  3

 72
    65
 73
     0
 40
0.0
  0
LTYPE
  5
5D
330
5
100
AcDbSymbolTableRecord
100
AcDbLinetypeTableRecord
  2
Continuous
 70
     0
  3
Solid line
 72
    65
 73
     0
 40
0.0
  0
LTYPE
  5
EA
330
5
100
AcDbSymbolTableRecord
100
AcDbLinetypeTableRecord
  2
AI-Linetype-0
 70
     0
  3
Adobe Illustrator Linetype No. 0
 72
    65
 73
     2
 40
1.411111110758333
 49
0.7055555553791667
 74
     0
 49
-0.7055555553791667
 74
     0
  0
ENDTAB
  0
TABLE
  2
LAYER
  5
2
330
0
100
AcDbSymbolTable
 70
     2
  0
LAYER
  5
54
330
2
100
AcDbSymbolTableRecord
100
AcDbLayerTableRecord
  2
0
 70
     0
 62
     7
  6
Continuous
370
    -3
390
F
347
21
  0
LAYER
  5
78
330
2
100
AcDbSymbolTableRecord
100
AcDbLayerTableRecord
  2
レイヤー 1
 70
     0
 62
     7
  6
Continuous
370
     0
390
F
347
21
  0
ENDTAB
  0
TABLE
  2
STYLE
  5
3
330
0
100
AcDbSymbolTable
 70
     2
  0
STYLE
  5
55
330
3
100
AcDbSymbolTableRecord
100
AcDbTextStyleTableRecord
  2
Standard
 70
     0
 40
0.0
 41
1.0
 50
0.0
 71
     0
 42
0.2
  3
txt
  4

  0
STYLE
  5
5A
330
3
100
AcDbSymbolTableRecord
100
AcDbTextStyleTableRecord
  2
Annotative
 70
     0
 40
0.0
 41
1.0
 50
0.0
 71
     0
 42
0.2
  3
txt
  4

1001
AcadAnnotative
1000
AnnotativeData
1002
{
1070
     1
1070
     1
1002
}
  0
ENDTAB
  0
TABLE
  2
VIEW
  5
6
330
0
100
AcDbSymbolTable
 70
     0
  0
ENDTAB
  0
TABLE
  2
UCS
  5
7
330
0
100
AcDbSymbolTable
 70
     0
  0
ENDTAB
  0
TABLE
  2
APPID
  5
9
330
0
100
AcDbSymbolTable
 70
     2
  0
APPID
  5
56
330
9
100
AcDbSymbolTableRecord
100
AcDbRegAppTableRecord
  2
ACAD
 70
     0
  0
APPID
  5
5E
330
9
100
AcDbSymbolTableRecord
100
AcDbRegAppTableRecord
  2
AcadAnnotative
 70
     0
  0
ENDTAB
  0
TABLE
  2
DIMSTYLE
  5
A
330
0
100
AcDbSymbolTable
 70
     2
100
AcDbDimStyleTable
 71
     0
  0
DIMSTYLE
105
58
330
A
100
AcDbSymbolTableRecord
100
AcDbDimStyleTableRecord
  2
Standard
 70
     0
340
55
  0
DIMSTYLE
105
59
330
A
100
AcDbSymbolTableRecord
100
AcDbDimStyleTableRecord
  2
Annotative
 70
     0
340
55
1001
AcadAnnotative
1000
AnnotativeData
1002
{
1070
     1
1070
     1
1002
}
  0
ENDTAB
  0
TABLE
  2
BLOCK_RECORD
  5
1
330
0
100
AcDbSymbolTable
 70
    15
  0
BLOCK_RECORD
  5
70
330
1
100
AcDbSymbolTableRecord
100
AcDbBlockTableRecord
  2
*Model_Space
340
73
 70
     0
280
     1
281
     0
  0
BLOCK_RECORD
  5
6C
330
1
100
AcDbSymbolTableRecord
100
AcDbBlockTableRecord
  2
*Paper_Space
340
6F
 70
     0
280
     1
281
     0
  0
BLOCK_RECORD
  5
74
330
1
100
AcDbSymbolTableRecord
100
AcDbBlockTableRecord
  2
*Paper_Space0
340
77
 70
     0
280
     1
281
     0
  0
BLOCK_RECORD
  5
7E
330
1
100
AcDbSymbolTableRecord
100
AcDbBlockTableRecord
  2
Block_0
340
0
102
{BLKREFS
331
7F
102
}
 70
     0
280
     1
281
     0
  0
BLOCK_RECORD
  5
82
330
1
100
AcDbSymbolTableRecord
100
AcDbBlockTableRecord
  2
Block_1
340
0
102
{BLKREFS
331
83
102
}
 70
     0
280
     1
281
     0
  0
BLOCK_RECORD
  5
90
330
1
100
AcDbSymbolTableRecord
100
AcDbBlockTableRecord
  2
Block_2
340
0
102
{BLKREFS
331
91
102
}
 70
     0
280
     1
281
     0
  0
BLOCK_RECORD
  5
94
330
1
100
AcDbSymbolTableRecord
100
AcDbBlockTableRecord
  2
Block_3
340
0
102
{BLKREFS
331
95
102
}
 70
     0
280
     1
281
     0
  0
BLOCK_RECORD
  5
9F
330
1
100
AcDbSymbolTableRecord
100
AcDbBlockTableRecord
  2
Block_4
340
0
102
{BLKREFS
331
A0
102
}
 70
     0
280
     1
281
     0
  0
BLOCK_RECORD
  5
A3
330
1
100
AcDbSymbolTableRecord
100
AcDbBlockTableRecord
  2
Block_5
340
0
102
{BLKREFS
331
A4
102
}
 70
     0
280
     1
281
     0
  0
BLOCK_RECORD
  5
B3
330
1
100
AcDbSymbolTableRecord
100
AcDbBlockTableRecord
  2
Block_6
340
0
102
{BLKREFS
331
B4
102
}
 70
     0
280
     1
281
     0
  0
BLOCK_RECORD
  5
BB
330
1
100
AcDbSymbolTableRecord
100
AcDbBlockTableRecord
  2
Block_7
340
0
102
{BLKREFS
331
BC
102
}
 70
     0
280
     1
281
     0
  0
BLOCK_RECORD
  5
C3
330
1
100
AcDbSymbolTableRecord
100
AcDbBlockTableRecord
  2
Block_8
340
0
102
{BLKREFS
331
C4
102
}
 70
     0
280
     1
281
     0
  0
BLOCK_RECORD
  5
C7
330
1
100
AcDbSymbolTableRecord
100
AcDbBlockTableRecord
  2
Block_9
340
0
102
{BLKREFS
331
C8
102
}
 70
     0
280
     1
281
     0
  0
BLOCK_RECORD
  5
DA
330
1
100
AcDbSymbolTableRecord
100
AcDbBlockTableRecord
  2
Block_10
340
0
102
{BLKREFS
331
DB
102
}
 70
     0
280
     1
281
     0
  0
BLOCK_RECORD
  5
E5
330
1
100
AcDbSymbolTableRecord
100
AcDbBlockTableRecord
  2
Block_11
340
0
102
{BLKREFS
331
E6
102
}
 70
     0
280
     1
281
     0
  0
BLOCK_RECORD
  5
ED
330
1
100
AcDbSymbolTableRecord
100
AcDbBlockTableRecord
  2
Block_12
340
0
102
{BLKREFS
331
EE
102
}
 70
     0
280
     1
281
     0
  0
BLOCK_RECORD
  5
F1
330
1
100
AcDbSymbolTableRecord
100
AcDbBlockTableRecord
  2
Block_13
340
0
102
{BLKREFS
331
F2
102
}
 70
     0
280
     1
281
     0
  0
ENDTAB
  0
ENDSEC
  0
SECTION
  2
BLOCKS
  0
BLOCK
  5
71
330
70
100
AcDbEntity
  8
0
100
AcDbBlockBegin
  2
*Model_Space
 70
     0
 10
0.0
 20
0.0
 30
0.0
  3
*Model_Space
  1

  0
ENDBLK
  5
72
330
70
100
AcDbEntity
  8
0
100
AcDbBlockEnd
  0
BLOCK
  5
6D
330
6C
100
AcDbEntity
 67
     1
  8
0
100
AcDbBlockBegin
  2
*Paper_Space
 70
     0
 10
0.0
 20
0.0
 30
0.0
  3
*Paper_Space
  1

  0
ENDBLK
  5
6E
330
6C
100
AcDbEntity
 67
     1
  8
0
100
AcDbBlockEnd
  0
BLOCK
  5
75
330
74
100
AcDbEntity
 67
     1
  8
0
100
AcDbBlockBegin
  2
*Paper_Space0
 70
     0
 10
0.0
 20
0.0
 30
0.0
  3
*Paper_Space0
  1

  0
ENDBLK
  5
76
330
74
100
AcDbEntity
 67
     1
  8
0
100
AcDbBlockEnd
  0
BLOCK
  5
80
330
7E
100
AcDbEntity
  8
0
100
AcDbBlockBegin
  2
Block_0
 70
     0
 10
0.0
 20
0.0
 30
0.0
  3
Block_0
  1

  0
INSERT
  5
83
330
7E
100
AcDbEntity
  8
レイヤー 1
100
AcDbBlockReference
  2
Block_1
 10
0.0
 20
0.0
 30
0.0
  0
ENDBLK
  5
81
330
7E
100
AcDbEntity
  8
0
100
AcDbBlockEnd
  0
BLOCK
  5
84
330
82
100
AcDbEntity
  8
0
100
AcDbBlockBegin
  2
Block_1
 70
     0
 10
0.0
 20
0.0
 30
0.0
  3
Block_1
  1

  0
SPLINE
  5
86
330
82
100
AcDbEntity
  8
レイヤー 1
100
AcDbSpline
210
0.0
220
0.0
230
1.0
 70
     9
 71
     3
 72
    62
 73
    58
 74
     0
 42
0.0000000001
 43
0.0000000001
 40
0.0
 40
0.0
 40
0.0
 40
0.0
 40
1.0
 40
1.0
 40
1.0
 40
2.0
 40
2.0
 40
2.0
 40
3.0
 40
3.0
 40
3.0
 40
4.0
 40
4.0
 40
4.0
 40
5.0
 40
5.0
 40
5.0
 40
6.0
 40
6.0
 40
6.0
 40
7.0
 40
7.0
 40
7.0
 40
8.0
 40
8.0
 40
8.0
 40
9.0
 40
9.0
 40
9.0
 40
10.0
 40
10.0
 40
10.0
 40
11.0
 40
11.0
 40
11.0
 40
12.0
 40
12.0
 40
12.0
 40
13.0
 40
13.0
 40
13.0
 40
14.0
 40
14.0
 40
14.0
 40
15.0
 40
15.0
 40
15.0
 40
16.0
 40
16.0
 40
16.0
 40
17.0
 40
17.0
 40
17.0
 40
18.0
 40
18.0
 40
18.0
 40
19.0
 40
19.0
 40
19.0
 40
19.0
 10
105.1873779033906
 20
-135.8520005628252
 30
0.0
 10
105.0857475865758
 20
-135.8520005628252
 30
0.0
 10
104.8528591317729
 20
-135.8308132255909
 30
0.0
 10
104.7195339364937
 20
-135.6446058146131
 30
0.0
 10
104.640296740333
 20
-135.5324679565683
 30
0.0
 10
104.6358181162021
 20
-135.4330769518188
 30
0.0
 10
104.6313394920713
 20
-135.3484998576559
 30
0.0
 10
104.6313394920713
 20
-135.3484998576559
 30
0.0
 10
104.8662950041653
 20
-135.3484998576559
 30
0.0
 10
104.8662950041653
 20
-135.3484998576559
 30
0.0
 10
104.868706571005
 20
-135.4225694105888
 30
0.0
 10
104.8800753861063
 20
-135.6573526679086
 30
0.0
 10
105.1828992792598
 20
-135.6573526679086
 30
0.0
 10
105.33000485648
 20
-135.6573526679086
 30
0.0
 10
105.4926133633838
 20
-135.5875894843323
 30
0.0
 10
105.4926133633838
 20
-135.3590073988859
 30
0.0
 10
105.4926133633838
 20
-135.2427354262587
 30
0.0
 10
105.4519612366578
 20
-135.1939873251424
 30
0.0
 10
105.4178547913539
 20
-135.1622924466782
 30
0.0
 10
105.3389621047416
 20
-135.0882228937453
 30
0.0
 10
105.2145941577241
 20
-135.0756482952241
 30
0.0
 10
105.1556830249263
 20
-135.0756482952241
 30
0.0
 10
105.1353569615634
 20
-135.0756482952241
 30
0.0
 10
105.0971164016771
 20
-135.0777153525153
 30
0.0
 10
105.0674885805039
 20
-135.0818494670976
 30
0.0
 10
105.0674885805039
 20
-135.0818494670976
 30
0.0
 10
105.0674885805039
 20
-134.8872015721809
 30
0.0
 10
105.0674885805039
 20
-134.8872015721809
 30
0.0
 10
105.1081407072299
 20
-134.8935749988287
 30
0.0
 10
105.1536159676352
 20
-134.8958143108941
 30
0.0
 10
105.1601616490572
 20
-134.8958143108941
 30
0.0
 10
105.2304415969563
 20
-134.8958143108941
 30
0.0
 10
105.4430039883962
 20
-134.8746269736598
 30
0.0
 10
105.4430039883962
 20
-134.6376044042746
 30
0.0
 10
105.4430039883962
 20
-134.46000973201
 30
0.0
 10
105.3027886021465
 20
-134.404888204246
 30
0.0
 10
105.1853108460995
 20
-134.404888204246
 30
0.0
 10
104.9024685067605
 20
-134.404888204246
 30
0.0
 10
104.8935112584988
 20
-134.6376044042746
 30
0.0
 10
104.889032634368
 20
-134.7096068999164
 30
0.0
 10
104.889032634368
 20
-134.7096068999164
 30
0.0
 10
104.6719916187972
 20
-134.7096068999164
 30
0.0
 10
104.6719916187972
 20
-134.7096068999164
 30
0.0
 10
104.6809488670589
 20
-134.584722188576
 30
0.0
 10
104.7102321786835
 20
-134.2081732520382
 30
0.0
 10
105.198746718492
 20
-134.2081732520382
 30
0.0
 10
105.4385253642653
 20
-134.2081732520382
 30
0.0
 10
105.696218506562
 20
-134.3351250206697
 30
0.0
 10
105.696218506562
 20
-134.6312309776269
 30
0.0
 10
105.696218506562
 20
-134.8174383886046
 30
0.0
 10
105.5942436801986
 20
-134.8999484254764
 30
0.0
 10
105.488134739253
 20
-134.9612711251138
 30
0.0
 10
105.5535915534727
 20
-134.9888318889958
 30
0.0
 10
105.7482394483893
 20
-135.0692748685764
 30
0.0
 10
105.7482394483893
 20
-135.3464328003648
 30
0.0
 10
105.7482394483893
 20
-135.6849134317906
 30
0.0
 10
105.4836561151221
 20
-135.8520005628252
 30
0.0
 10
105.1873779033906
 20
-135.8520005628252
 30
0.0
  0
HATCH
  5
87
330
82
100
AcDbEntity
  8
レイヤー 1
 62
    18
420
        0
440
 33554687
100
AcDbHatch
 10
0.0
 20
0.0
 30
0.0
210
0.0
220
0.0
230
1.0
  2
SOLID
 70
     1
 71
     1
 91
        1
 92
        1
 93
        1
 72
     4
 94
        3
 73
     0
 74
     0
 95
       62
 96
       58
 40
0.0
 40
0.0
 40
0.0
 40
0.0
 40
1.0
 40
1.0
 40
1.0
 40
2.0
 40
2.0
 40
2.0
 40
3.0
 40
3.0
 40
3.0
 40
4.0
 40
4.0
 40
4.0
 40
5.0
 40
5.0
 40
5.0
 40
6.0
 40
6.0
 40
6.0
 40
7.0
 40
7.0
 40
7.0
 40
8.0
 40
8.0
 40
8.0
 40
9.0
 40
9.0
 40
9.0
 40
10.0
 40
10.0
 40
10.0
 40
11.0
 40
11.0
 40
11.0
 40
12.0
 40
12.0
 40
12.0
 40
13.0
 40
13.0
 40
13.0
 40
14.0
 40
14.0
 40
14.0
 40
15.0
 40
15.0
 40
15.0
 40
16.0
 40
16.0
 40
16.0
 40
17.0
 40
17.0
 40
17.0
 40
18.0
 40
18.0
 40
18.0
 40
19.0
 40
19.0
 40
19.0
 40
19.0
 10
105.1873779033906
 20
-135.8520005628252
 10
105.0857475865758
 20
-135.8520005628252
 10
104.8528591317729
 20
-135.8308132255909
 10
104.7195339364937
 20
-135.6446058146131
 10
104.640296740333
 20
-135.5324679565683
 10
104.6358181162021
 20
-135.4330769518188
 10
104.6313394920713
 20
-135.3484998576559
 10
104.6313394920713
 20
-135.3484998576559
 10
104.8662950041653
 20
-135.3484998576559
 10
104.8662950041653
 20
-135.3484998576559
 10
104.868706571005
 20
-135.4225694105888
 10
104.8800753861063
 20
-135.6573526679086
 10
105.1828992792598
 20
-135.6573526679086
 10
105.33000485648
 20
-135.6573526679086
 10
105.4926133633838
 20
-135.5875894843323
 10
105.4926133633838
 20
-135.3590073988859
 10
105.4926133633838
 20
-135.2427354262587
 10
105.4519612366578
 20
-135.1939873251424
 10
105.4178547913539
 20
-135.1622924466782
 10
105.3389621047416
 20
-135.0882228937453
 10
105.2145941577241
 20
-135.0756482952241
 10
105.1556830249263
 20
-135.0756482952241
 10
105.1353569615634
 20
-135.0756482952241
 10
105.0971164016771
 20
-135.0777153525153
 10
105.0674885805039
 20
-135.0818494670976
 10
105.0674885805039
 20
-135.0818494670976
 10
105.0674885805039
 20
-134.8872015721809
 10
105.0674885805039
 20
-134.8872015721809
 10
105.1081407072299
 20
-134.8935749988287
 10
105.1536159676352
 20
-134.8958143108941
 10
105.1601616490572
 20
-134.8958143108941
 10
105.2304415969563
 20
-134.8958143108941
 10
105.4430039883962
 20
-134.8746269736598
 10
105.4430039883962
 20
-134.6376044042746
 10
105.4430039883962
 20
-134.46000973201
 10
105.3027886021465
 20
-134.404888204246
 10
105.1853108460995
 20
-134.404888204246
 10
104.9024685067605
 20
-134.404888204246
 10
104.8935112584988
 20
-134.6376044042746
 10
104.889032634368
 20
-134.7096068999164
 10
104.889032634368
 20
-134.7096068999164
 10
104.6719916187972
 20
-134.7096068999164
 10
104.6719916187972
 20
-134.7096068999164
 10
104.6809488670589
 20
-134.584722188576
 10
104.7102321786835
 20
-134.2081732520382
 10
105.198746718492
 20
-134.2081732520382
 10
105.4385253642653
 20
-134.2081732520382
 10
105.696218506562
 20
-134.3351250206697
 10
105.696218506562
 20
-134.6312309776269
 10
105.696218506562
 20
-134.8174383886046
 10
105.5942436801986
 20
-134.8999484254764
 10
105.488134739253
 20
-134.9612711251138
 10
105.5535915534727
 20
-134.9888318889958
 10
105.7482394483893
 20
-135.0692748685764
 10
105.7482394483893
 20
-135.3464328003648
 10
105.7482394483893
 20
-135.6849134317906
 10
105.4836561151221
 20
-135.8520005628252
 10
105.1873779033906
 20
-135.8520005628252
 97
        0
 97
        1
330
86
 75
     2
 76
     1
 98
        1
 10
0.0
 20
0.0
450
        0
451
        0
460
0.0
461
0.0
452
        0
462
0.0
453
        0
470

  0
SPLINE
  5
88
330
82
100
AcDbEntity
  8
レイヤー 1
100
AcDbSpline
210
0.0
220
0.0
230
1.0
 70
     9
 71
     3
 72
    44
 73
    40
 74
     0
 42
0.0000000001
 43
0.0000000001
 40
0.0
 40
0.0
 40
0.0
 40
0.0
 40
1.0
 40
1.0
 40
1.0
 40
2.0
 40
2.0
 40
2.0
 40
3.0
 40
3.0
 40
3.0
 40
4.0
 40
4.0
 40
4.0
 40
5.0
 40
5.0
 40
5.0
 40
6.0
 40
6.0
 40
6.0
 40
7.0
 40
7.0
 40
7.0
 40
8.0
 40
8.0
 40
8.0
 40
9.0
 40
9.0
 40
9.0
 40
10.0
 40
10.0
 40
10.0
 40
11.0
 40
11.0
 40
11.0
 40
12.0
 40
12.0
 40
12.0
 40
13.0
 40
13.0
 40
13.0
 40
13.0
 10
106.5537027728407
 20
-135.2194810317333
 30
0.0
 10
106.3208143180378
 20
-135.3781276788291
 30
0.0
 10
106.2212510585141
 20
-135.4521972317619
 30
0.0
 10
106.1695746262354
 20
-135.5960299682711
 30
0.0
 10
106.1695746262354
 20
-135.5960299682711
 30
0.0
 10
107.0012206763747
 20
-135.5960299682711
 30
0.0
 10
107.0012206763747
 20
-135.5960299682711
 30
0.0
 10
107.0012206763747
 20
-135.5960299682711
 30
0.0
 10
107.0012206763747
 20
-135.8011854044177
 30
0.0
 10
107.0012206763747
 20
-135.8011854044177
 30
0.0
 10
107.0012206763747
 20
-135.8011854044177
 30
0.0
 10
105.9025797261285
 20
-135.8011854044177
 30
0.0
 10
105.9025797261285
 20
-135.8011854044177
 30
0.0
 10
105.9366861714325
 20
-135.4435844930488
 30
0.0
 10
106.006621609783
 20
-135.3653808255336
 30
0.0
 10
106.4179660107219
 20
-135.067035556511
 30
0.0
 10
106.6915065922507
 20
-134.8682535470121
 30
0.0
 10
106.7617865401498
 20
-134.8005574207269
 30
0.0
 10
106.7617865401498
 20
-134.6630981108655
 30
0.0
 10
106.7617865401498
 20
-134.5445868261729
 30
0.0
 10
106.6849609108287
 20
-134.4135009429591
 30
0.0
 10
106.47446557668
 20
-134.4135009429591
 30
0.0
 10
106.1964463710203
 20
-134.4135009429591
 30
0.0
 10
106.1874891227587
 20
-134.6439778309223
 30
0.0
 10
106.1830104986278
 20
-134.7604220583238
 30
0.0
 10
106.1830104986278
 20
-134.7604220583238
 30
0.0
 10
105.9432318528545
 20
-134.7604220583238
 30
0.0
 10
105.9432318528545
 20
-134.7604220583238
 30
0.0
 10
105.9525336106646
 20
-134.6334702896923
 30
0.0
 10
105.9635579162174
 20
-134.5213324316474
 30
0.0
 10
106.0496853033487
 20
-134.4028211469548
 30
0.0
 10
106.1671630593957
 20
-134.2421074425679
 30
0.0
 10
106.3659450688946
 20
-134.2081732520382
 30
0.0
 10
106.4903130159121
 20
-134.2081732520382
 30
0.0
 10
106.7865912276436
 20
-134.2081732520382
 30
0.0
 10
107.0081108673452
 20
-134.3923136057248
 30
0.0
 10
107.0081108673452
 20
-134.6651651681566
 30
0.0
 10
107.0081108673452
 20
-134.8935749988287
 30
0.0
 10
106.8837429203276
 20
-134.9931382583524
 30
0.0
 10
106.5537027728407
 20
-135.2194810317333
 30
0.0
  0
HATCH
  5
89
330
82
100
AcDbEntity
  8
レイヤー 1
 62
    18
420
        0
440
 33554687
100
AcDbHatch
 10
0.0
 20
0.0
 30
0.0
210
0.0
220
0.0
230
1.0
  2
SOLID
 70
     1
 71
     1
 91
        1
 92
        1
 93
        1
 72
     4
 94
        3
 73
     0
 74
     0
 95
       44
 96
       40
 40
0.0
 40
0.0
 40
0.0
 40
0.0
 40
1.0
 40
1.0
 40
1.0
 40
2.0
 40
2.0
 40
2.0
 40
3.0
 40
3.0
 40
3.0
 40
4.0
 40
4.0
 40
4.0
 40
5.0
 40
5.0
 40
5.0
 40
6.0
 40
6.0
 40
6.0
 40
7.0
 40
7.0
 40
7.0
 40
8.0
 40
8.0
 40
8.0
 40
9.0
 40
9.0
 40
9.0
 40
10.0
 40
10.0
 40
10.0
 40
11.0
 40
11.0
 40
11.0
 40
12.0
 40
12.0
 40
12.0
 40
13.0
 40
13.0
 40
13.0
 40
13.0
 10
106.5537027728407
 20
-135.2194810317333
 10
106.3208143180378
 20
-135.3781276788291
 10
106.2212510585141
 20
-135.4521972317619
 10
106.1695746262354
 20
-135.5960299682711
 10
106.1695746262354
 20
-135.5960299682711
 10
107.0012206763747
 20
-135.5960299682711
 10
107.0012206763747
 20
-135.5960299682711
 10
107.0012206763747
 20
-135.5960299682711
 10
107.0012206763747
 20
-135.8011854044177
 10
107.0012206763747
 20
-135.8011854044177
 10
107.0012206763747
 20
-135.8011854044177
 10
105.9025797261285
 20
-135.8011854044177
 10
105.9025797261285
 20
-135.8011854044177
 10
105.9366861714325
 20
-135.4435844930488
 10
106.006621609783
 20
-135.3653808255336
 10
106.4179660107219
 20
-135.067035556511
 10
106.6915065922507
 20
-134.8682535470121
 10
106.7617865401498
 20
-134.8005574207269
 10
106.7617865401498
 20
-134.6630981108655
 10
106.7617865401498
 20
-134.5445868261729
 10
106.6849609108287
 20
-134.4135009429591
 10
106.47446557668
 20
-134.4135009429591
 10
106.1964463710203
 20
-134.4135009429591
 10
106.1874891227587
 20
-134.6439778309223
 10
106.1830104986278
 20
-134.7604220583238
 10
106.1830104986278
 20
-134.7604220583238
 10
105.9432318528545
 20
-134.7604220583238
 10
105.9432318528545
 20
-134.7604220583238
 10
105.9525336106646
 20
-134.6334702896923
 10
105.9635579162174
 20
-134.5213324316474
 10
106.0496853033487
 20
-134.4028211469548
 10
106.1671630593957
 20
-134.2421074425679
 10
106.3659450688946
 20
-134.2081732520382
 10
106.4903130159121
 20
-134.2081732520382
 10
106.7865912276436
 20
-134.2081732520382
 10
107.0081108673452
 20
-134.3923136057248
 10
107.0081108673452
 20
-134.6651651681566
 10
107.0081108673452
 20
-134.8935749988287
 10
106.8837429203276
 20
-134.9931382583524
 10
106.5537027728407
 20
-135.2194810317333
 97
        0
 97
        1
330
88
 75
     2
 76
     1
 98
        1
 10
0.0
 20
0.0
450
        0
451
        0
460
0.0
461
0.0
452
        0
462
0.0
453
        0
470

  0
ENDBLK
  5
85
330
82
100
AcDbEntity
  8
0
100
AcDbBlockEnd
  0
BLOCK
  5
92
330
90
100
AcDbEntity
  8
0
100
AcDbBlockBegin
  2
Block_2
 70
     0
 10
0.0
 20
0.0
 30
0.0
  3
Block_2
  1

  0
INSERT
  5
95
330
90
100
AcDbEntity
  8
レイヤー 1
100
AcDbBlockReference
  2
Block_3
 10
0.0
 20
0.0
 30
0.0
  0
ENDBLK
  5
93
330
90
100
AcDbEntity
  8
0
100
AcDbBlockEnd
  0
BLOCK
  5
96
330
94
100
AcDbEntity
  8
0
100
AcDbBlockBegin
  2
Block_3
 70
     0
 10
0.0
 20
0.0
 30
0.0
  3
Block_3
  1

  0
SPLINE
  5
98
330
94
100
AcDbEntity
  8
レイヤー 1
100
AcDbSpline
210
0.0
220
0.0
230
1.0
 70
    11
 71
     3
 72
    26
 73
    22
 74
     0
 42
0.0000000001
 43
0.0000000001
 40
0.0
 40
0.0
 40
0.0
 40
0.0
 40
1.0
 40
1.0
 40
1.0
 40
2.0
 40
2.0
 40
2.0
 40
3.0
 40
3.0
 40
3.0
 40
4.0
 40
4.0
 40
4.0
 40
5.0
 40
5.0
 40
5.0
 40
6.0
 40
6.0
 40
6.0
 40
7.0
 40
7.0
 40
7.0
 40
7.0
 10
106.144425429193
 20
-162.0555690784097
 30
0.0
 10
106.144425429193
 20
-162.0555690784097
 30
0.0
 10
106.144425429193
 20
-160.9514159753871
 30
0.0
 10
106.144425429193
 20
-160.9514159753871
 30
0.0
 10
106.144425429193
 20
-160.9514159753871
 30
0.0
 10
105.791992161052
 20
-160.9514159753871
 30
0.0
 10
105.791992161052
 20
-160.9514159753871
 30
0.0
 10
105.791992161052
 20
-160.9514159753871
 30
0.0
 10
105.791992161052
 20
-160.8032768695214
 30
0.0
 10
105.791992161052
 20
-160.8032768695214
 30
0.0
 10
106.1468369960327
 20
-160.7884629589348
 30
0.0
 10
106.1964463710203
 20
-160.6255099424825
 30
0.0
 10
106.2281412494846
 20
-160.5111327723722
 30
0.0
 10
106.2281412494846
 20
-160.5111327723722
 30
0.0
 10
106.3842040749664
 20
-160.5111327723722
 30
0.0
 10
106.3842040749664
 20
-160.5111327723722
 30
0.0
 10
106.3842040749664
 20
-160.5111327723722
 30
0.0
 10
106.3842040749664
 20
-162.0555690784097
 30
0.0
 10
106.3842040749664
 20
-162.0555690784097
 30
0.0
 10
106.3842040749664
 20
-162.0555690784097
 30
0.0
 10
106.144425429193
 20
-162.0555690784097
 30
0.0
 10
106.144425429193
 20
-162.0555690784097
 30
0.0
  0
HATCH
  5
99
330
94
100
AcDbEntity
  8
レイヤー 1
 62
    18
420
        0
440
 33554687
100
AcDbHatch
 10
0.0
 20
0.0
 30
0.0
210
0.0
220
0.0
230
1.0
  2
SOLID
 70
     1
 71
     1
 91
        1
 92
        1
 93
        1
 72
     4
 94
        3
 73
     0
 74
     0
 95
       26
 96
       22
 40
0.0
 40
0.0
 40
0.0
 40
0.0
 40
1.0
 40
1.0
 40
1.0
 40
2.0
 40
2.0
 40
2.0
 40
3.0
 40
3.0
 40
3.0
 40
4.0
 40
4.0
 40
4.0
 40
5.0
 40
5.0
 40
5.0
 40
6.0
 40
6.0
 40
6.0
 40
7.0
 40
7.0
 40
7.0
 40
7.0
 10
106.144425429193
 20
-162.0555690784097
 10
106.144425429193
 20
-162.0555690784097
 10
106.144425429193
 20
-160.9514159753871
 10
106.144425429193
 20
-160.9514159753871
 10
106.144425429193
 20
-160.9514159753871
 10
105.791992161052
 20
-160.9514159753871
 10
105.791992161052
 20
-160.9514159753871
 10
105.791992161052
 20
-160.9514159753871
 10
105.791992161052
 20
-160.8032768695214
 10
105.791992161052
 20
-160.8032768695214
 10
106.1468369960327
 20
-160.7884629589348
 10
106.1964463710203
 20
-160.6255099424825
 10
106.2281412494846
 20
-160.5111327723722
 10
106.2281412494846
 20
-160.5111327723722
 10
106.3842040749664
 20
-160.5111327723722
 10
106.3842040749664
 20
-160.5111327723722
 10
106.3842040749664
 20
-160.5111327723722
 10
106.3842040749664
 20
-162.0555690784097
 10
106.3842040749664
 20
-162.0555690784097
 10
106.3842040749664
 20
-162.0555690784097
 10
106.144425429193
 20
-162.0555690784097
 10
106.144425429193
 20
-162.0555690784097
 97
        0
 97
        1
330
98
 75
     2
 76
     1
 98
        1
 10
0.0
 20
0.0
450
        0
451
        0
460
0.0
461
0.0
452
        0
462
0.0
453
        0
470

  0
SPLINE
  5
9A
330
94
100
AcDbEntity
  8
レイヤー 1
100
AcDbSpline
210
0.0
220
0.0
230
1.0
 70
     9
 71
     3
 72
    17
 73
    13
 74
     0
 42
0.0000000001
 43
0.0000000001
 40
0.0
 40
0.0
 40
0.0
 40
0.0
 40
1.0
 40
1.0
 40
1.0
 40
2.0
 40
2.0
 40
2.0
 40
3.0
 40
3.0
 40
3.0
 40
4.0
 40
4.0
 40
4.0
 40
4.0
 10
107.454250732685
 20
-160.6551377636556
 30
0.0
 10
107.1876003421267
 20
-160.6551377636556
 30
0.0
 10
107.1379909671391
 20
-160.9386691220917
 30
0.0
 10
107.1379909671391
 20
-161.2835231801652
 30
0.0
 10
107.1379909671391
 20
-161.6028835316479
 30
0.0
 10
107.1762315270254
 20
-161.9115640871263
 30
0.0
 10
107.454250732685
 20
-161.9115640871263
 30
0.0
 10
107.7188340659522
 20
-161.9115640871263
 30
0.0
 10
107.7708550077795
 20
-161.6304442955299
 30
0.0
 10
107.7708550077795
 20
-161.2835231801652
 30
0.0
 10
107.7708550077795
 20
-160.963818319134
 30
0.0
 10
107.7302028810535
 20
-160.6551377636556
 30
0.0
 10
107.454250732685
 20
-160.6551377636556
 30
0.0
  0
SPLINE
  5
9B
330
94
100
AcDbEntity
  8
レイヤー 1
100
AcDbSpline
210
0.0
220
0.0
230
1.0
 70
     9
 71
     3
 72
    29
 73
    25
 74
     0
 42
0.0000000001
 43
0.0000000001
 40
0.0
 40
0.0
 40
0.0
 40
0.0
 40
1.0
 40
1.0
 40
1.0
 40
2.0
 40
2.0
 40
2.0
 40
3.0
 40
3.0
 40
3.0
 40
4.0
 40
4.0
 40
4.0
 40
5.0
 40
5.0
 40
5.0
 40
6.0
 40
6.0
 40
6.0
 40
7.0
 40
7.0
 40
7.0
 40
8.0
 40
8.0
 40
8.0
 40
8.0
 10
107.8793755155649
 20
-161.8778021513708
 30
0.0
 10
107.763964816809
 20
-162.087263956874
 30
0.0
 10
107.5786186797025
 20
-162.1062119820429
 30
0.0
 10
107.454250732685
 20
-162.1062119820429
 30
0.0
 10
107.2826849775196
 20
-162.1062119820429
 30
0.0
 10
107.1311007761686
 20
-162.059703192992
 30
0.0
 10
107.0294704593537
 20
-161.8778021513708
 30
0.0
 10
106.9185383847287
 20
-161.6831542564542
 30
0.0
 10
106.8982123213657
 20
-161.446131687069
 30
0.0
 10
106.8982123213657
 20
-161.2835231801652
 30
0.0
 10
106.8982123213657
 20
-161.1395181888818
 30
0.0
 10
106.916126817889
 20
-160.88768170891
 30
0.0
 10
107.0294704593537
 20
-160.6888996994111
 30
0.0
 10
107.1445366485611
 20
-160.4859835753299
 30
0.0
 10
107.316446913275
 20
-160.4625569260302
 30
0.0
 10
107.454250732685
 20
-160.4625569260302
 30
0.0
 10
107.6240939401079
 20
-160.4625569260302
 30
0.0
 10
107.77774519875
 20
-160.5069986577899
 30
0.0
 10
107.8793755155649
 20
-160.6888996994111
 30
0.0
 10
107.9858289660591
 20
-160.8814805370366
 30
0.0
 10
108.0106336535529
 20
-161.1098903677086
 30
0.0
 10
108.0106336535529
 20
-161.2835231801652
 30
0.0
 10
108.0106336535529
 20
-161.4547444257821
 30
0.0
 10
107.9878960233502
 20
-161.6852213137453
 30
0.0
 10
107.8793755155649
 20
-161.8778021513708
 30
0.0
  0
HATCH
  5
9C
330
94
100
AcDbEntity
  8
レイヤー 1
 62
    18
420
        0
440
 33554687
100
AcDbHatch
 10
0.0
 20
0.0
 30
0.0
210
0.0
220
0.0
230
1.0
  2
SOLID
 70
     1
 71
     1
 91
        2
 92
        1
 93
        1
 72
     4
 94
        3
 73
     0
 74
     0
 95
       17
 96
       13
 40
0.0
 40
0.0
 40
0.0
 40
0.0
 40
1.0
 40
1.0
 40
1.0
 40
2.0
 40
2.0
 40
2.0
 40
3.0
 40
3.0
 40
3.0
 40
4.0
 40
4.0
 40
4.0
 40
4.0
 10
107.454250732685
 20
-160.6551377636556
 10
107.1876003421267
 20
-160.6551377636556
 10
107.1379909671391
 20
-160.9386691220917
 10
107.1379909671391
 20
-161.2835231801652
 10
107.1379909671391
 20
-161.6028835316479
 10
107.1762315270254
 20
-161.9115640871263
 10
107.454250732685
 20
-161.9115640871263
 10
107.7188340659522
 20
-161.9115640871263
 10
107.7708550077795
 20
-161.6304442955299
 10
107.7708550077795
 20
-161.2835231801652
 10
107.7708550077795
 20
-160.963818319134
 10
107.7302028810535
 20
-160.6551377636556
 10
107.454250732685
 20
-160.6551377636556
 97
        0
 97
        1
330
9A
 92
        1
 93
        1
 72
     4
 94
        3
 73
     0
 74
     0
 95
       29
 96
       25
 40
0.0
 40
0.0
 40
0.0
 40
0.0
 40
1.0
 40
1.0
 40
1.0
 40
2.0
 40
2.0
 40
2.0
 40
3.0
 40
3.0
 40
3.0
 40
4.0
 40
4.0
 40
4.0
 40
5.0
 40
5.0
 40
5.0
 40
6.0
 40
6.0
 40
6.0
 40
7.0
 40
7.0
 40
7.0
 40
8.0
 40
8.0
 40
8.0
 40
8.0
 10
107.8793755155649
 20
-161.8778021513708
 10
107.763964816809
 20
-162.087263956874
 10
107.5786186797025
 20
-162.1062119820429
 10
107.454250732685
 20
-162.1062119820429
 10
107.2826849775196
 20
-162.1062119820429
 10
107.1311007761686
 20
-162.059703192992
 10
107.0294704593537
 20
-161.8778021513708
 10
106.9185383847287
 20
-161.6831542564542
 10
106.8982123213657
 20
-161.446131687069
 10
106.8982123213657
 20
-161.2835231801652
 10
106.8982123213657
 20
-161.1395181888818
 10
106.916126817889
 20
-160.88768170891
 10
107.0294704593537
 20
-160.6888996994111
 10
107.1445366485611
 20
-160.4859835753299
 10
107.316446913275
 20
-160.4625569260302
 10
107.454250732685
 20
-160.4625569260302
 10
107.6240939401079
 20
-160.4625569260302
 10
107.77774519875
 20
-160.5069986577899
 10
107.8793755155649
 20
-160.6888996994111
 10
107.9858289660591
 20
-160.8814805370366
 10
108.0106336535529
 20
-161.1098903677086
 10
108.0106336535529
 20
-161.2835231801652
 10
108.0106336535529
 20
-161.4547444257821
 10
107.9878960233502
 20
-161.6852213137453
 10
107.8793755155649
 20
-161.8778021513708
 97
        0
 97
        1
330
9B
 75
     2
 76
     1
 98
        1
 10
0.0
 20
0.0
450
        0
451
        0
460
0.0
461
0.0
452
        0
462
0.0
453
        0
470

  0
ENDBLK
  5
97
330
94
100
AcDbEntity
  8
0
100
AcDbBlockEnd
  0
BLOCK
  5
A1
330
9F
100
AcDbEntity
  8
0
100
AcDbBlockBegin
  2
Block_4
 70
     0
 10
0.0
 20
0.0
 30
0.0
  3
Block_4
  1

  0
INSERT
  5
A4
330
9F
100
AcDbEntity
  8
レイヤー 1
100
AcDbBlockReference
  2
Block_5
 10
0.0
 20
0.0
 30
0.0
  0
ENDBLK
  5
A2
330
9F
100
AcDbEntity
  8
0
100
AcDbBlockEnd
  0
BLOCK
  5
A5
330
A3
100
AcDbEntity
  8
0
100
AcDbBlockBegin
  2
Block_5
 70
     0
 10
0.0
 20
0.0
 30
0.0
  3
Block_5
  1

  0
SPLINE
  5
A7
330
A3
100
AcDbEntity
  8
レイヤー 1
100
AcDbSpline
210
0.0
220
0.0
230
1.0
 70
    11
 71
     3
 72
    26
 73
    22
 74
     0
 42
0.0000000001
 43
0.0000000001
 40
0.0
 40
0.0
 40
0.0
 40
0.0
 40
1.0
 40
1.0
 40
1.0
 40
2.0
 40
2.0
 40
2.0
 40
3.0
 40
3.0
 40
3.0
 40
4.0
 40
4.0
 40
4.0
 40
5.0
 40
5.0
 40
5.0
 40
6.0
 40
6.0
 40
6.0
 40
7.0
 40
7.0
 40
7.0
 40
7.0
 10
95.14440779956458
 20
-162.0555690784097
 30
0.0
 10
95.14440779956458
 20
-162.0555690784097
 30
0.0
 10
95.14440779956458
 20
-160.9514159753871
 30
0.0
 10
95.14440779956458
 20
-160.9514159753871
 30
0.0
 10
95.14440779956458
 20
-160.9514159753871
 30
0.0
 10
94.79163002187501
 20
-160.9514159753871
 30
0.0
 10
94.79163002187501
 20
-160.9514159753871
 30
0.0
 10
94.79163002187501
 20
-160.9514159753871
 30
0.0
 10
94.79163002187501
 20
-160.8032768695214
 30
0.0
 10
94.79163002187501
 20
-160.8032768695214
 30
0.0
 10
95.14664711163
 20
-160.7884629589348
 30
0.0
 10
95.19642874139186
 20
-160.6255099424825
 30
0.0
 10
95.22812361985616
 20
-160.5111327723722
 30
0.0
 10
95.22812361985616
 20
-160.5111327723722
 30
0.0
 10
95.38401419056372
 20
-160.5111327723722
 30
0.0
 10
95.38401419056372
 20
-160.5111327723722
 30
0.0
 10
95.38401419056372
 20
-160.5111327723722
 30
0.0
 10
95.38401419056372
 20
-162.0555690784097
 30
0.0
 10
95.38401419056372
 20
-162.0555690784097
 30
0.0
 10
95.38401419056372
 20
-162.0555690784097
 30
0.0
 10
95.14440779956458
 20
-162.0555690784097
 30
0.0
 10
95.14440779956458
 20
-162.0555690784097
 30
0.0
  0
HATCH
  5
A8
330
A3
100
AcDbEntity
  8
レイヤー 1
 62
    18
420
        0
440
 33554687
100
AcDbHatch
 10
0.0
 20
0.0
 30
0.0
210
0.0
220
0.0
230
1.0
  2
SOLID
 70
     1
 71
     1
 91
        1
 92
        1
 93
        1
 72
     4
 94
        3
 73
     0
 74
     0
 95
       26
 96
       22
 40
0.0
 40
0.0
 40
0.0
 40
0.0
 40
1.0
 40
1.0
 40
1.0
 40
2.0
 40
2.0
 40
2.0
 40
3.0
 40
3.0
 40
3.0
 40
4.0
 40
4.0
 40
4.0
 40
5.0
 40
5.0
 40
5.0
 40
6.0
 40
6.0
 40
6.0
 40
7.0
 40
7.0
 40
7.0
 40
7.0
 10
95.14440779956458
 20
-162.0555690784097
 10
95.14440779956458
 20
-162.0555690784097
 10
95.14440779956458
 20
-160.9514159753871
 10
95.14440779956458
 20
-160.9514159753871
 10
95.14440779956458
 20
-160.9514159753871
 10
94.79163002187501
 20
-160.9514159753871
 10
94.79163002187501
 20
-160.9514159753871
 10
94.79163002187501
 20
-160.9514159753871
 10
94.79163002187501
 20
-160.8032768695214
 10
94.79163002187501
 20
-160.8032768695214
 10
95.14664711163
 20
-160.7884629589348
 10
95.19642874139186
 20
-160.6255099424825
 10
95.22812361985616
 20
-160.5111327723722
 10
95.22812361985616
 20
-160.5111327723722
 10
95.38401419056372
 20
-160.5111327723722
 10
95.38401419056372
 20
-160.5111327723722
 10
95.38401419056372
 20
-160.5111327723722
 10
95.38401419056372
 20
-162.0555690784097
 10
95.38401419056372
 20
-162.0555690784097
 10
95.38401419056372
 20
-162.0555690784097
 10
95.14440779956458
 20
-162.0555690784097
 10
95.14440779956458
 20
-162.0555690784097
 97
        0
 97
        1
330
A7
 75
     2
 76
     1
 98
        1
 10
0.0
 20
0.0
450
        0
451
        0
460
0.0
461
0.0
452
        0
462
0.0
453
        0
470

  0
SPLINE
  5
A9
330
A3
100
AcDbEntity
  8
レイヤー 1
100
AcDbSpline
210
0.0
220
0.0
230
1.0
 70
     9
 71
     3
 72
    44
 73
    40
 74
     0
 42
0.0000000001
 43
0.0000000001
 40
0.0
 40
0.0
 40
0.0
 40
0.0
 40
1.0
 40
1.0
 40
1.0
 40
2.0
 40
2.0
 40
2.0
 40
3.0
 40
3.0
 40
3.0
 40
4.0
 40
4.0
 40
4.0
 40
5.0
 40
5.0
 40
5.0
 40
6.0
 40
6.0
 40
6.0
 40
7.0
 40
7.0
 40
7.0
 40
8.0
 40
8.0
 40
8.0
 40
9.0
 40
9.0
 40
9.0
 40
10.0
 40
10.0
 40
10.0
 40
11.0
 40
11.0
 40
11.0
 40
12.0
 40
12.0
 40
12.0
 40
13.0
 40
13.0
 40
13.0
 40
13.0
 10
96.55362410780604
 20
-161.473692450951
 30
0.0
 10
96.32073565300316
 20
-161.632511352821
 30
0.0
 10
96.2213446482537
 20
-161.7065809057539
 30
0.0
 10
96.16932370642643
 20
-161.8502413874888
 30
0.0
 10
96.16932370642643
 20
-161.8502413874888
 30
0.0
 10
97.00131426611427
 20
-161.8502413874888
 30
0.0
 10
97.00131426611427
 20
-161.8502413874888
 30
0.0
 10
97.00131426611427
 20
-161.8502413874888
 30
0.0
 10
97.00131426611427
 20
-162.0555690784097
 30
0.0
 10
97.00131426611427
 20
-162.0555690784097
 30
0.0
 10
97.00131426611427
 20
-162.0555690784097
 30
0.0
 10
95.90250106109383
 20
-162.0555690784097
 30
0.0
 10
95.90250106109383
 20
-162.0555690784097
 30
0.0
 10
95.93643525162354
 20
-161.6979681670408
 30
0.0
 10
96.00654294474837
 20
-161.6197644995256
 30
0.0
 10
96.41805960046147
 20
-161.321419230503
 30
0.0
 10
96.69160018199029
 20
-161.1226372210041
 30
0.0
 10
96.76170787511514
 20
-161.0547688399446
 30
0.0
 10
96.76170787511514
 20
-160.9173095300832
 30
0.0
 10
96.76170787511514
 20
-160.7987982453906
 30
0.0
 10
96.6847099910198
 20
-160.6678846169511
 30
0.0
 10
96.47455916641956
 20
-160.6678846169511
 30
0.0
 10
96.19653996075989
 20
-160.6678846169511
 30
0.0
 10
96.18741045772399
 20
-160.8983615049143
 30
0.0
 10
96.18293183359316
 20
-161.0148057323157
 30
0.0
 10
96.18293183359316
 20
-161.0148057323157
 30
0.0
 10
95.94332544259403
 20
-161.0148057323157
 30
0.0
 10
95.94332544259403
 20
-161.0148057323157
 30
0.0
 10
95.95228269085568
 20
-160.88768170891
 30
0.0
 10
95.96365150595699
 20
-160.7757161056394
 30
0.0
 10
96.04943438353974
 20
-160.6572048209468
 30
0.0
 10
96.16708439436102
 20
-160.4963188617856
 30
0.0
 10
96.3660386586342
 20
-160.4625569260302
 30
0.0
 10
96.49040660565171
 20
-160.4625569260302
 30
0.0
 10
96.78651256260893
 20
-160.4625569260302
 30
0.0
 10
97.00803220231051
 20
-160.6465250249425
 30
0.0
 10
97.00803220231051
 20
-160.9193765873743
 30
0.0
 10
97.00803220231051
 20
-161.1481309275949
 30
0.0
 10
96.88383651006724
 20
-161.2473496775701
 30
0.0
 10
96.55362410780604
 20
-161.473692450951
 30
0.0
  0
HATCH
  5
AA
330
A3
100
AcDbEntity
  8
レイヤー 1
 62
    18
420
        0
440
 33554687
100
AcDbHatch
 10
0.0
 20
0.0
 30
0.0
210
0.0
220
0.0
230
1.0
  2
SOLID
 70
     1
 71
     1
 91
        1
 92
        1
 93
        1
 72
     4
 94
        3
 73
     0
 74
     0
 95
       44
 96
       40
 40
0.0
 40
0.0
 40
0.0
 40
0.0
 40
1.0
 40
1.0
 40
1.0
 40
2.0
 40
2.0
 40
2.0
 40
3.0
 40
3.0
 40
3.0
 40
4.0
 40
4.0
 40
4.0
 40
5.0
 40
5.0
 40
5.0
 40
6.0
 40
6.0
 40
6.0
 40
7.0
 40
7.0
 40
7.0
 40
8.0
 40
8.0
 40
8.0
 40
9.0
 40
9.0
 40
9.0
 40
10.0
 40
10.0
 40
10.0
 40
11.0
 40
11.0
 40
11.0
 40
12.0
 40
12.0
 40
12.0
 40
13.0
 40
13.0
 40
13.0
 40
13.0
 10
96.55362410780604
 20
-161.473692450951
 10
96.32073565300316
 20
-161.632511352821
 10
96.2213446482537
 20
-161.7065809057539
 10
96.16932370642643
 20
-161.8502413874888
 10
96.16932370642643
 20
-161.8502413874888
 10
97.00131426611427
 20
-161.8502413874888
 10
97.00131426611427
 20
-161.8502413874888
 10
97.00131426611427
 20
-161.8502413874888
 10
97.00131426611427
 20
-162.0555690784097
 10
97.00131426611427
 20
-162.0555690784097
 10
97.00131426611427
 20
-162.0555690784097
 10
95.90250106109383
 20
-162.0555690784097
 10
95.90250106109383
 20
-162.0555690784097
 10
95.93643525162354
 20
-161.6979681670408
 10
96.00654294474837
 20
-161.6197644995256
 10
96.41805960046147
 20
-161.321419230503
 10
96.69160018199029
 20
-161.1226372210041
 10
96.76170787511514
 20
-161.0547688399446
 10
96.76170787511514
 20
-160.9173095300832
 10
96.76170787511514
 20
-160.7987982453906
 10
96.6847099910198
 20
-160.6678846169511
 10
96.47455916641956
 20
-160.6678846169511
 10
96.19653996075989
 20
-160.6678846169511
 10
96.18741045772399
 20
-160.8983615049143
 10
96.18293183359316
 20
-161.0148057323157
 10
96.18293183359316
 20
-161.0148057323157
 10
95.94332544259403
 20
-161.0148057323157
 10
95.94332544259403
 20
-161.0148057323157
 10
95.95228269085568
 20
-160.88768170891
 10
95.96365150595699
 20
-160.7757161056394
 10
96.04943438353974
 20
-160.6572048209468
 10
96.16708439436102
 20
-160.4963188617856
 10
96.3660386586342
 20
-160.4625569260302
 10
96.49040660565171
 20
-160.4625569260302
 10
96.78651256260893
 20
-160.4625569260302
 10
97.00803220231051
 20
-160.6465250249425
 10
97.00803220231051
 20
-160.9193765873743
 10
97.00803220231051
 20
-161.1481309275949
 10
96.88383651006724
 20
-161.2473496775701
 10
96.55362410780604
 20
-161.473692450951
 97
        0
 97
        1
330
A9
 75
     2
 76
     1
 98
        1
 10
0.0
 20
0.0
450
        0
451
        0
460
0.0
461
0.0
452
        0
462
0.0
453
        0
470

  0
ENDBLK
  5
A6
330
A3
100
AcDbEntity
  8
0
100
AcDbBlockEnd
  0
BLOCK
  5
B5
330
B3
100
AcDbEntity
  8
0
100
AcDbBlockBegin
  2
Block_6
 70
     0
 10
0.0
 20
0.0
 30
0.0
  3
Block_6
  1

  0
SPLINE
  5
B7
330
B3
100
AcDbEntity
  8
レイヤー 1
100
AcDbSpline
210
0.0
220
0.0
230
1.0
 70
    11
 71
     3
 72
    26
 73
    22
 74
     0
 42
0.0000000001
 43
0.0000000001
 40
0.0
 40
0.0
 40
0.0
 40
0.0
 40
1.0
 40
1.0
 40
1.0
 40
2.0
 40
2.0
 40
2.0
 40
3.0
 40
3.0
 40
3.0
 40
4.0
 40
4.0
 40
4.0
 40
5.0
 40
5.0
 40
5.0
 40
6.0
 40
6.0
 40
6.0
 40
7.0
 40
7.0
 40
7.0
 40
7.0
 10
125.4466064139508
 20
-139.0984862933504
 30
0.0
 10
125.4466064139508
 20
-139.0984862933504
 30
0.0
 10
124.3424533109283
 20
-139.0984862933504
 30
0.0
 10
124.3424533109283
 20
-139.0984862933504
 30
0.0
 10
124.3424533109283
 20
-139.0984862933504
 30
0.0
 10
124.3424533109283
 20
-139.4512640710399
 30
0.0
 10
124.3424533109283
 20
-139.4512640710399
 30
0.0
 10
124.3424533109283
 20
-139.4512640710399
 30
0.0
 10
124.1943142050625
 20
-139.4512640710399
 30
0.0
 10
124.1943142050625
 20
-139.4512640710399
 30
0.0
 10
124.1795002944759
 20
-139.0962469812849
 30
0.0
 10
124.0165472780236
 20
-139.0464653515231
 30
0.0
 10
123.9021701079133
 20
-139.0147704730588
 30
0.0
 10
123.9021701079133
 20
-139.0147704730588
 30
0.0
 10
123.9021701079133
 20
-138.8588799023512
 30
0.0
 10
123.9021701079133
 20
-138.8588799023512
 30
0.0
 10
123.9021701079133
 20
-138.8588799023512
 30
0.0
 10
125.4466064139508
 20
-138.8588799023512
 30
0.0
 10
125.4466064139508
 20
-138.8588799023512
 30
0.0
 10
125.4466064139508
 20
-138.8588799023512
 30
0.0
 10
125.4466064139508
 20
-139.0984862933504
 30
0.0
 10
125.4466064139508
 20
-139.0984862933504
 30
0.0
  0
HATCH
  5
B8
330
B3
100
AcDbEntity
  8
レイヤー 1
 62
    18
420
        0
440
 33554687
100
AcDbHatch
 10
0.0
 20
0.0
 30
0.0
210
0.0
220
0.0
230
1.0
  2
SOLID
 70
     1
 71
     1
 91
        1
 92
        1
 93
        1
 72
     4
 94
        3
 73
     0
 74
     0
 95
       26
 96
       22
 40
0.0
 40
0.0
 40
0.0
 40
0.0
 40
1.0
 40
1.0
 40
1.0
 40
2.0
 40
2.0
 40
2.0
 40
3.0
 40
3.0
 40
3.0
 40
4.0
 40
4.0
 40
4.0
 40
5.0
 40
5.0
 40
5.0
 40
6.0
 40
6.0
 40
6.0
 40
7.0
 40
7.0
 40
7.0
 40
7.0
 10
125.4466064139508
 20
-139.0984862933504
 10
125.4466064139508
 20
-139.0984862933504
 10
124.3424533109283
 20
-139.0984862933504
 10
124.3424533109283
 20
-139.0984862933504
 10
124.3424533109283
 20
-139.0984862933504
 10
124.3424533109283
 20
-139.4512640710399
 10
124.3424533109283
 20
-139.4512640710399
 10
124.3424533109283
 20
-139.4512640710399
 10
124.1943142050625
 20
-139.4512640710399
 10
124.1943142050625
 20
-139.4512640710399
 10
124.1795002944759
 20
-139.0962469812849
 10
124.0165472780236
 20
-139.0464653515231
 10
123.9021701079133
 20
-139.0147704730588
 10
123.9021701079133
 20
-139.0147704730588
 10
123.9021701079133
 20
-138.8588799023512
 10
123.9021701079133
 20
-138.8588799023512
 10
123.9021701079133
 20
-138.8588799023512
 10
125.4466064139508
 20
-138.8588799023512
 10
125.4466064139508
 20
-138.8588799023512
 10
125.4466064139508
 20
-138.8588799023512
 10
125.4466064139508
 20
-139.0984862933504
 10
125.4466064139508
 20
-139.0984862933504
 97
        0
 97
        1
330
B7
 75
     2
 76
     1
 98
        1
 10
0.0
 20
0.0
450
        0
451
        0
460
0.0
461
0.0
452
        0
462
0.0
453
        0
470

  0
ENDBLK
  5
B6
330
B3
100
AcDbEntity
  8
0
100
AcDbBlockEnd
  0
BLOCK
  5
BD
330
BB
100
AcDbEntity
  8
0
100
AcDbBlockBegin
  2
Block_7
 70
     0
 10
0.0
 20
0.0
 30
0.0
  3
Block_7
  1

  0
SPLINE
  5
BF
330
BB
100
AcDbEntity
  8
レイヤー 1
100
AcDbSpline
210
0.0
220
0.0
230
1.0
 70
     9
 71
     3
 72
    62
 73
    58
 74
     0
 42
0.0000000001
 43
0.0000000001
 40
0.0
 40
0.0
 40
0.0
 40
0.0
 40
1.0
 40
1.0
 40
1.0
 40
2.0
 40
2.0
 40
2.0
 40
3.0
 40
3.0
 40
3.0
 40
4.0
 40
4.0
 40
4.0
 40
5.0
 40
5.0
 40
5.0
 40
6.0
 40
6.0
 40
6.0
 40
7.0
 40
7.0
 40
7.0
 40
8.0
 40
8.0
 40
8.0
 40
9.0
 40
9.0
 40
9.0
 40
10.0
 40
10.0
 40
10.0
 40
11.0
 40
11.0
 40
11.0
 40
12.0
 40
12.0
 40
12.0
 40
13.0
 40
13.0
 40
13.0
 40
14.0
 40
14.0
 40
14.0
 40
15.0
 40
15.0
 40
15.0
 40
16.0
 40
16.0
 40
16.0
 40
17.0
 40
17.0
 40
17.0
 40
18.0
 40
18.0
 40
18.0
 40
19.0
 40
19.0
 40
19.0
 40
19.0
 10
125.4979383366811
 20
-157.4563666056012
 30
0.0
 10
125.4979383366811
 20
-157.5583414319646
 30
0.0
 10
125.476923254221
 20
-157.7912298867675
 30
0.0
 10
125.2908880980175
 20
-157.9245550820466
 30
0.0
 10
125.1785779851984
 20
-158.0034477686588
 30
0.0
 10
125.0793592352232
 20
-158.0082709023382
 30
0.0
 10
124.9946098862861
 20
-158.012749526469
 30
0.0
 10
124.9946098862861
 20
-158.012749526469
 30
0.0
 10
124.9946098862861
 20
-157.7774495048265
 30
0.0
 10
124.9946098862861
 20
-157.7774495048265
 30
0.0
 10
125.0686794392189
 20
-157.7753824475353
 30
0.0
 10
125.3032904417644
 20
-157.764013632434
 30
0.0
 10
125.3032904417644
 20
-157.460845229732
 30
0.0
 10
125.3032904417644
 20
-157.3140841620603
 30
0.0
 10
125.2336995129624
 20
-157.151131145608
 30
0.0
 10
125.0052896822903
 20
-157.151131145608
 30
0.0
 10
124.8888454548889
 20
-157.151131145608
 30
0.0
 10
124.8402696085469
 20
-157.1921277818825
 30
0.0
 10
124.8085747300825
 20
-157.225889717638
 30
0.0
 10
124.7345051771497
 20
-157.3051269137987
 30
0.0
 10
124.7217583238543
 20
-157.4294948608162
 30
0.0
 10
124.7217583238543
 20
-157.4880614840655
 30
0.0
 10
124.7217583238543
 20
-157.5083875474284
 30
0.0
 10
124.7238253811454
 20
-157.5469726168632
 30
0.0
 10
124.7279594957277
 20
-157.5762559284879
 30
0.0
 10
124.7279594957277
 20
-157.5762559284879
 30
0.0
 10
124.5333116008111
 20
-157.5762559284879
 30
0.0
 10
124.5333116008111
 20
-157.5762559284879
 30
0.0
 10
124.5398572822331
 20
-157.5356038017619
 30
0.0
 10
124.5419243395242
 20
-157.4904730509051
 30
0.0
 10
124.5419243395242
 20
-157.4835828599346
 30
0.0
 10
124.5419243395242
 20
-157.4136474215841
 30
0.0
 10
124.5205647475157
 20
-157.2010850301442
 30
0.0
 10
124.283886687679
 20
-157.2010850301442
 30
0.0
 10
124.1061197606401
 20
-157.2010850301442
 30
0.0
 10
124.0509982328761
 20
-157.3413004163938
 30
0.0
 10
124.0509982328761
 20
-157.4587781724408
 30
0.0
 10
124.0509982328761
 20
-157.7412760022313
 30
0.0
 10
124.283886687679
 20
-157.750233250493
 30
0.0
 10
124.3555446737722
 20
-157.7550563841723
 30
0.0
 10
124.3555446737722
 20
-157.7550563841723
 30
0.0
 10
124.3555446737722
 20
-157.9720973997431
 30
0.0
 10
124.3555446737722
 20
-157.9720973997431
 30
0.0
 10
124.2308322172062
 20
-157.9627956419329
 30
0.0
 10
123.8542832806684
 20
-157.9335123303083
 30
0.0
 10
123.8542832806684
 20
-157.4453423000484
 30
0.0
 10
123.8542832806684
 20
-157.205563654275
 30
0.0
 10
123.9814073040741
 20
-156.9478705119783
 30
0.0
 10
124.277341006257
 20
-156.9478705119783
 30
0.0
 10
124.4637206720091
 20
-156.9478705119783
 30
0.0
 10
124.5460584541065
 20
-157.0495008287932
 30
0.0
 10
124.607381153744
 20
-157.1559542792874
 30
0.0
 10
124.634941917626
 20
-157.0901529555191
 30
0.0
 10
124.7152126424323
 20
-156.895849570151
 30
0.0
 10
124.9925428289949
 20
-156.895849570151
 30
0.0
 10
125.3308512056464
 20
-156.895849570151
 30
0.0
 10
125.4979383366811
 20
-157.1604329034182
 30
0.0
 10
125.4979383366811
 20
-157.4563666056012
 30
0.0
  0
HATCH
  5
C0
330
BB
100
AcDbEntity
  8
レイヤー 1
 62
    18
420
        0
440
 33554687
100
AcDbHatch
 10
0.0
 20
0.0
 30
0.0
210
0.0
220
0.0
230
1.0
  2
SOLID
 70
     1
 71
     1
 91
        1
 92
        1
 93
        1
 72
     4
 94
        3
 73
     0
 74
     0
 95
       62
 96
       58
 40
0.0
 40
0.0
 40
0.0
 40
0.0
 40
1.0
 40
1.0
 40
1.0
 40
2.0
 40
2.0
 40
2.0
 40
3.0
 40
3.0
 40
3.0
 40
4.0
 40
4.0
 40
4.0
 40
5.0
 40
5.0
 40
5.0
 40
6.0
 40
6.0
 40
6.0
 40
7.0
 40
7.0
 40
7.0
 40
8.0
 40
8.0
 40
8.0
 40
9.0
 40
9.0
 40
9.0
 40
10.0
 40
10.0
 40
10.0
 40
11.0
 40
11.0
 40
11.0
 40
12.0
 40
12.0
 40
12.0
 40
13.0
 40
13.0
 40
13.0
 40
14.0
 40
14.0
 40
14.0
 40
15.0
 40
15.0
 40
15.0
 40
16.0
 40
16.0
 40
16.0
 40
17.0
 40
17.0
 40
17.0
 40
18.0
 40
18.0
 40
18.0
 40
19.0
 40
19.0
 40
19.0
 40
19.0
 10
125.4979383366811
 20
-157.4563666056012
 10
125.4979383366811
 20
-157.5583414319646
 10
125.476923254221
 20
-157.7912298867675
 10
125.2908880980175
 20
-157.9245550820466
 10
125.1785779851984
 20
-158.0034477686588
 10
125.0793592352232
 20
-158.0082709023382
 10
124.9946098862861
 20
-158.012749526469
 10
124.9946098862861
 20
-158.012749526469
 10
124.9946098862861
 20
-157.7774495048265
 10
124.9946098862861
 20
-157.7774495048265
 10
125.0686794392189
 20
-157.7753824475353
 10
125.3032904417644
 20
-157.764013632434
 10
125.3032904417644
 20
-157.460845229732
 10
125.3032904417644
 20
-157.3140841620603
 10
125.2336995129624
 20
-157.151131145608
 10
125.0052896822903
 20
-157.151131145608
 10
124.8888454548889
 20
-157.151131145608
 10
124.8402696085469
 20
-157.1921277818825
 10
124.8085747300825
 20
-157.225889717638
 10
124.7345051771497
 20
-157.3051269137987
 10
124.7217583238543
 20
-157.4294948608162
 10
124.7217583238543
 20
-157.4880614840655
 10
124.7217583238543
 20
-157.5083875474284
 10
124.7238253811454
 20
-157.5469726168632
 10
124.7279594957277
 20
-157.5762559284879
 10
124.7279594957277
 20
-157.5762559284879
 10
124.5333116008111
 20
-157.5762559284879
 10
124.5333116008111
 20
-157.5762559284879
 10
124.5398572822331
 20
-157.5356038017619
 10
124.5419243395242
 20
-157.4904730509051
 10
124.5419243395242
 20
-157.4835828599346
 10
124.5419243395242
 20
-157.4136474215841
 10
124.5205647475157
 20
-157.2010850301442
 10
124.283886687679
 20
-157.2010850301442
 10
124.1061197606401
 20
-157.2010850301442
 10
124.0509982328761
 20
-157.3413004163938
 10
124.0509982328761
 20
-157.4587781724408
 10
124.0509982328761
 20
-157.7412760022313
 10
124.283886687679
 20
-157.750233250493
 10
124.3555446737722
 20
-157.7550563841723
 10
124.3555446737722
 20
-157.7550563841723
 10
124.3555446737722
 20
-157.9720973997431
 10
124.3555446737722
 20
-157.9720973997431
 10
124.2308322172062
 20
-157.9627956419329
 10
123.8542832806684
 20
-157.9335123303083
 10
123.8542832806684
 20
-157.4453423000484
 10
123.8542832806684
 20
-157.205563654275
 10
123.9814073040741
 20
-156.9478705119783
 10
124.277341006257
 20
-156.9478705119783
 10
124.4637206720091
 20
-156.9478705119783
 10
124.5460584541065
 20
-157.0495008287932
 10
124.607381153744
 20
-157.1559542792874
 10
124.634941917626
 20
-157.0901529555191
 10
124.7152126424323
 20
-156.895849570151
 10
124.9925428289949
 20
-156.895849570151
 10
125.3308512056464
 20
-156.895849570151
 10
125.4979383366811
 20
-157.1604329034182
 10
125.4979383366811
 20
-157.4563666056012
 97
        0
 97
        1
330
BF
 75
     2
 76
     1
 98
        1
 10
0.0
 20
0.0
450
        0
451
        0
460
0.0
461
0.0
452
        0
462
0.0
453
        0
470

  0
ENDBLK
  5
BE
330
BB
100
AcDbEntity
  8
0
100
AcDbBlockEnd
  0
BLOCK
  5
C5
330
C3
100
AcDbEntity
  8
0
100
AcDbBlockBegin
  2
Block_8
 70
     0
 10
0.0
 20
0.0
 30
0.0
  3
Block_8
  1

  0
INSERT
  5
C8
330
C3
100
AcDbEntity
  8
レイヤー 1
100
AcDbBlockReference
  2
Block_9
 10
0.0
 20
0.0
 30
0.0
  0
ENDBLK
  5
C6
330
C3
100
AcDbEntity
  8
0
100
AcDbBlockEnd
  0
BLOCK
  5
C9
330
C7
100
AcDbEntity
  8
0
100
AcDbBlockBegin
  2
Block_9
 70
     0
 10
0.0
 20
0.0
 30
0.0
  3
Block_9
  1

  0
SPLINE
  5
CB
330
C7
100
AcDbEntity
  8
レイヤー 1
100
AcDbSpline
210
0.0
220
0.0
230
1.0
 70
    11
 71
     3
 72
    26
 73
    22
 74
     0
 42
0.0000000001
 43
0.0000000001
 40
0.0
 40
0.0
 40
0.0
 40
0.0
 40
1.0
 40
1.0
 40
1.0
 40
2.0
 40
2.0
 40
2.0
 40
3.0
 40
3.0
 40
3.0
 40
4.0
 40
4.0
 40
4.0
 40
5.0
 40
5.0
 40
5.0
 40
6.0
 40
6.0
 40
6.0
 40
7.0
 40
7.0
 40
7.0
 40
7.0
 10
125.4476399425964
 20
-151.0112819717958
 30
0.0
 10
125.4476399425964
 20
-151.0112819717958
 30
0.0
 10
124.3431423300253
 20
-151.0112819717958
 30
0.0
 10
124.3431423300253
 20
-151.0112819717958
 30
0.0
 10
124.3431423300253
 20
-151.0112819717958
 30
0.0
 10
124.3431423300253
 20
-151.3637152399368
 30
0.0
 10
124.3431423300253
 20
-151.3637152399368
 30
0.0
 10
124.3431423300253
 20
-151.3637152399368
 30
0.0
 10
124.1950032241596
 20
-151.3637152399368
 30
0.0
 10
124.1950032241596
 20
-151.3637152399368
 30
0.0
 10
124.1805338231215
 20
-151.0088704049561
 30
0.0
 10
124.0172362971207
 20
-150.9592610299685
 30
0.0
 10
123.9028591270104
 20
-150.9275661515042
 30
0.0
 10
123.9028591270104
 20
-150.9275661515042
 30
0.0
 10
123.9028591270104
 20
-150.7715033260224
 30
0.0
 10
123.9028591270104
 20
-150.7715033260224
 30
0.0
 10
123.9028591270104
 20
-150.7715033260224
 30
0.0
 10
125.4476399425964
 20
-150.7715033260224
 30
0.0
 10
125.4476399425964
 20
-150.7715033260224
 30
0.0
 10
125.4476399425964
 20
-150.7715033260224
 30
0.0
 10
125.4476399425964
 20
-151.0112819717958
 30
0.0
 10
125.4476399425964
 20
-151.0112819717958
 30
0.0
  0
HATCH
  5
CC
330
C7
100
AcDbEntity
  8
レイヤー 1
 62
    18
420
        0
440
 33554687
100
AcDbHatch
 10
0.0
 20
0.0
 30
0.0
210
0.0
220
0.0
230
1.0
  2
SOLID
 70
     1
 71
     1
 91
        1
 92
        1
 93
        1
 72
     4
 94
        3
 73
     0
 74
     0
 95
       26
 96
       22
 40
0.0
 40
0.0
 40
0.0
 40
0.0
 40
1.0
 40
1.0
 40
1.0
 40
2.0
 40
2.0
 40
2.0
 40
3.0
 40
3.0
 40
3.0
 40
4.0
 40
4.0
 40
4.0
 40
5.0
 40
5.0
 40
5.0
 40
6.0
 40
6.0
 40
6.0
 40
7.0
 40
7.0
 40
7.0
 40
7.0
 10
125.4476399425964
 20
-151.0112819717958
 10
125.4476399425964
 20
-151.0112819717958
 10
124.3431423300253
 20
-151.0112819717958
 10
124.3431423300253
 20
-151.0112819717958
 10
124.3431423300253
 20
-151.0112819717958
 10
124.3431423300253
 20
-151.3637152399368
 10
124.3431423300253
 20
-151.3637152399368
 10
124.3431423300253
 20
-151.3637152399368
 10
124.1950032241596
 20
-151.3637152399368
 10
124.1950032241596
 20
-151.3637152399368
 10
124.1805338231215
 20
-151.0088704049561
 10
124.0172362971207
 20
-150.9592610299685
 10
123.9028591270104
 20
-150.9275661515042
 10
123.9028591270104
 20
-150.9275661515042
 10
123.9028591270104
 20
-150.7715033260224
 10
123.9028591270104
 20
-150.7715033260224
 10
123.9028591270104
 20
-150.7715033260224
 10
125.4476399425964
 20
-150.7715033260224
 10
125.4476399425964
 20
-150.7715033260224
 10
125.4476399425964
 20
-150.7715033260224
 10
125.4476399425964
 20
-151.0112819717958
 10
125.4476399425964
 20
-151.0112819717958
 97
        0
 97
        1
330
CB
 75
     2
 76
     1
 98
        1
 10
0.0
 20
0.0
450
        0
451
        0
460
0.0
461
0.0
452
        0
462
0.0
453
        0
470

  0
SPLINE
  5
CD
330
C7
100
AcDbEntity
  8
レイヤー 1
100
AcDbSpline
210
0.0
220
0.0
230
1.0
 70
     9
 71
     3
 72
    44
 73
    40
 74
     0
 42
0.0000000001
 43
0.0000000001
 40
0.0
 40
0.0
 40
0.0
 40
0.0
 40
1.0
 40
1.0
 40
1.0
 40
2.0
 40
2.0
 40
2.0
 40
3.0
 40
3.0
 40
3.0
 40
4.0
 40
4.0
 40
4.0
 40
5.0
 40
5.0
 40
5.0
 40
6.0
 40
6.0
 40
6.0
 40
7.0
 40
7.0
 40
7.0
 40
8.0
 40
8.0
 40
8.0
 40
9.0
 40
9.0
 40
9.0
 40
10.0
 40
10.0
 40
10.0
 40
11.0
 40
11.0
 40
11.0
 40
12.0
 40
12.0
 40
12.0
 40
13.0
 40
13.0
 40
13.0
 40
13.0
 10
124.8654188055892
 20
-149.6018934087801
 30
0.0
 10
125.0245822170077
 20
-149.834781863583
 30
0.0
 10
125.0983072603921
 20
-149.9343451231067
 30
0.0
 10
125.2423122516755
 20
-149.986366064934
 30
0.0
 10
125.2423122516755
 20
-149.986366064934
 30
0.0
 10
125.2423122516755
 20
-149.1540309956976
 30
0.0
 10
125.2423122516755
 20
-149.1540309956976
 30
0.0
 10
125.2423122516755
 20
-149.1540309956976
 30
0.0
 10
125.4476399425964
 20
-149.1540309956976
 30
0.0
 10
125.4476399425964
 20
-149.1540309956976
 30
0.0
 10
125.4476399425964
 20
-149.1540309956976
 30
0.0
 10
125.4476399425964
 20
-150.2530164554923
 30
0.0
 10
125.4476399425964
 20
-150.2530164554923
 30
0.0
 10
125.0900390312275
 20
-150.2189100101883
 30
0.0
 10
125.0114908541638
 20
-150.1489745718377
 30
0.0
 10
124.7131455851411
 20
-149.7376301708989
 30
0.0
 10
124.5147080851908
 20
-149.4640895893701
 30
0.0
 10
124.4464951945828
 20
-149.393809641471
 30
0.0
 10
124.3093803942699
 20
-149.393809641471
 30
0.0
 10
124.1908691095773
 20
-149.393809641471
 30
0.0
 10
124.0599554811378
 20
-149.470635270792
 30
0.0
 10
124.0599554811378
 20
-149.6811306049408
 30
0.0
 10
124.0599554811378
 20
-149.9591498106005
 30
0.0
 10
124.2900878595525
 20
-149.9681070588621
 30
0.0
 10
124.4065320869539
 20
-149.972585682993
 30
0.0
 10
124.4065320869539
 20
-149.972585682993
 30
0.0
 10
124.4065320869539
 20
-150.2123643287663
 30
0.0
 10
124.4065320869539
 20
-150.2123643287663
 30
0.0
 10
124.2797525730967
 20
-150.2034070805047
 30
0.0
 10
124.1674424602775
 20
-150.1920382654034
 30
0.0
 10
124.048931175585
 20
-150.1059108782721
 30
0.0
 10
123.8883897259723
 20
-149.9884331222251
 30
0.0
 10
123.8546277902169
 20
-149.7896511127262
 30
0.0
 10
123.8546277902169
 20
-149.6652831657087
 30
0.0
 10
123.8546277902169
 20
-149.3690049539772
 30
0.0
 10
124.0385958891292
 20
-149.1474853142756
 30
0.0
 10
124.311447451561
 20
-149.1474853142756
 30
0.0
 10
124.5402017917816
 20
-149.1474853142756
 30
0.0
 10
124.6394205417568
 20
-149.2718532612931
 30
0.0
 10
124.8654188055892
 20
-149.6018934087801
 30
0.0
  0
HATCH
  5
CE
330
C7
100
AcDbEntity
  8
レイヤー 1
 62
    18
420
        0
440
 33554687
100
AcDbHatch
 10
0.0
 20
0.0
 30
0.0
210
0.0
220
0.0
230
1.0
  2
SOLID
 70
     1
 71
     1
 91
        1
 92
        1
 93
        1
 72
     4
 94
        3
 73
     0
 74
     0
 95
       44
 96
       40
 40
0.0
 40
0.0
 40
0.0
 40
0.0
 40
1.0
 40
1.0
 40
1.0
 40
2.0
 40
2.0
 40
2.0
 40
3.0
 40
3.0
 40
3.0
 40
4.0
 40
4.0
 40
4.0
 40
5.0
 40
5.0
 40
5.0
 40
6.0
 40
6.0
 40
6.0
 40
7.0
 40
7.0
 40
7.0
 40
8.0
 40
8.0
 40
8.0
 40
9.0
 40
9.0
 40
9.0
 40
10.0
 40
10.0
 40
10.0
 40
11.0
 40
11.0
 40
11.0
 40
12.0
 40
12.0
 40
12.0
 40
13.0
 40
13.0
 40
13.0
 40
13.0
 10
124.8654188055892
 20
-149.6018934087801
 10
125.0245822170077
 20
-149.834781863583
 10
125.0983072603921
 20
-149.9343451231067
 10
125.2423122516755
 20
-149.986366064934
 10
125.2423122516755
 20
-149.986366064934
 10
125.2423122516755
 20
-149.1540309956976
 10
125.2423122516755
 20
-149.1540309956976
 10
125.2423122516755
 20
-149.1540309956976
 10
125.4476399425964
 20
-149.1540309956976
 10
125.4476399425964
 20
-149.1540309956976
 10
125.4476399425964
 20
-149.1540309956976
 10
125.4476399425964
 20
-150.2530164554923
 10
125.4476399425964
 20
-150.2530164554923
 10
125.0900390312275
 20
-150.2189100101883
 10
125.0114908541638
 20
-150.1489745718377
 10
124.7131455851411
 20
-149.7376301708989
 10
124.5147080851908
 20
-149.4640895893701
 10
124.4464951945828
 20
-149.393809641471
 10
124.3093803942699
 20
-149.393809641471
 10
124.1908691095773
 20
-149.393809641471
 10
124.0599554811378
 20
-149.470635270792
 10
124.0599554811378
 20
-149.6811306049408
 10
124.0599554811378
 20
-149.9591498106005
 10
124.2900878595525
 20
-149.9681070588621
 10
124.4065320869539
 20
-149.972585682993
 10
124.4065320869539
 20
-149.972585682993
 10
124.4065320869539
 20
-150.2123643287663
 10
124.4065320869539
 20
-150.2123643287663
 10
124.2797525730967
 20
-150.2034070805047
 10
124.1674424602775
 20
-150.1920382654034
 10
124.048931175585
 20
-150.1059108782721
 10
123.8883897259723
 20
-149.9884331222251
 10
123.8546277902169
 20
-149.7896511127262
 10
123.8546277902169
 20
-149.6652831657087
 10
123.8546277902169
 20
-149.3690049539772
 10
124.0385958891292
 20
-149.1474853142756
 10
124.311447451561
 20
-149.1474853142756
 10
124.5402017917816
 20
-149.1474853142756
 10
124.6394205417568
 20
-149.2718532612931
 10
124.8654188055892
 20
-149.6018934087801
 97
        0
 97
        1
330
CD
 75
     2
 76
     1
 98
        1
 10
0.0
 20
0.0
450
        0
451
        0
460
0.0
461
0.0
452
        0
462
0.0
453
        0
470

  0
SPLINE
  5
CF
330
C7
100
AcDbEntity
  8
レイヤー 1
100
AcDbSpline
210
0.0
220
0.0
230
1.0
 70
    11
 71
     3
 72
    17
 73
    13
 74
     0
 42
0.0000000001
 43
0.0000000001
 40
0.0
 40
0.0
 40
0.0
 40
0.0
 40
1.0
 40
1.0
 40
1.0
 40
2.0
 40
2.0
 40
2.0
 40
3.0
 40
3.0
 40
3.0
 40
4.0
 40
4.0
 40
4.0
 40
4.0
 10
125.4476399425964
 20
-148.9139078403757
 30
0.0
 10
125.4476399425964
 20
-148.9139078403757
 30
0.0
 10
125.1954589530761
 20
-148.9139078403757
 30
0.0
 10
125.1954589530761
 20
-148.9139078403757
 30
0.0
 10
125.1954589530761
 20
-148.9139078403757
 30
0.0
 10
125.1954589530761
 20
-148.6448458829777
 30
0.0
 10
125.1954589530761
 20
-148.6448458829777
 30
0.0
 10
125.1954589530761
 20
-148.6448458829777
 30
0.0
 10
125.4476399425964
 20
-148.6448458829777
 30
0.0
 10
125.4476399425964
 20
-148.6448458829777
 30
0.0
 10
125.4476399425964
 20
-148.6448458829777
 30
0.0
 10
125.4476399425964
 20
-148.9139078403757
 30
0.0
 10
125.4476399425964
 20
-148.9139078403757
 30
0.0
  0
HATCH
  5
D0
330
C7
100
AcDbEntity
  8
レイヤー 1
 62
    18
420
        0
440
 33554687
100
AcDbHatch
 10
0.0
 20
0.0
 30
0.0
210
0.0
220
0.0
230
1.0
  2
SOLID
 70
     1
 71
     1
 91
        1
 92
        1
 93
        1
 72
     4
 94
        3
 73
     0
 74
     0
 95
       17
 96
       13
 40
0.0
 40
0.0
 40
0.0
 40
0.0
 40
1.0
 40
1.0
 40
1.0
 40
2.0
 40
2.0
 40
2.0
 40
3.0
 40
3.0
 40
3.0
 40
4.0
 40
4.0
 40
4.0
 40
4.0
 10
125.4476399425964
 20
-148.9139078403757
 10
125.4476399425964
 20
-148.9139078403757
 10
125.1954589530761
 20
-148.9139078403757
 10
125.1954589530761
 20
-148.9139078403757
 10
125.1954589530761
 20
-148.9139078403757
 10
125.1954589530761
 20
-148.6448458829777
 10
125.1954589530761
 20
-148.6448458829777
 10
125.1954589530761
 20
-148.6448458829777
 10
125.4476399425964
 20
-148.6448458829777
 10
125.4476399425964
 20
-148.6448458829777
 10
125.4476399425964
 20
-148.6448458829777
 10
125.4476399425964
 20
-148.9139078403757
 10
125.4476399425964
 20
-148.9139078403757
 97
        0
 97
        1
330
CF
 75
     2
 76
     1
 98
        1
 10
0.0
 20
0.0
450
        0
451
        0
460
0.0
461
0.0
452
        0
462
0.0
453
        0
470

  0
SPLINE
  5
D1
330
C7
100
AcDbEntity
  8
レイヤー 1
100
AcDbSpline
210
0.0
220
0.0
230
1.0
 70
     9
 71
     3
 72
    17
 73
    13
 74
     0
 42
0.0000000001
 43
0.0000000001
 40
0.0
 40
0.0
 40
0.0
 40
0.0
 40
1.0
 40
1.0
 40
1.0
 40
2.0
 40
2.0
 40
2.0
 40
3.0
 40
3.0
 40
3.0
 40
4.0
 40
4.0
 40
4.0
 40
4.0
 10
124.7069444132677
 20
-147.8579860741466
 30
0.0
 10
124.7069444132677
 20
-148.0116373327887
 30
0.0
 10
124.793760819496
 20
-148.1742458396925
 30
0.0
 10
124.9970214531257
 20
-148.1742458396925
 30
0.0
 10
125.2023491440466
 20
-148.1742458396925
 30
0.0
 10
125.303634951313
 20
-148.0388535871222
 30
0.0
 10
125.303634951313
 20
-147.8579860741466
 30
0.0
 10
125.303634951313
 20
-147.6588595550992
 30
0.0
 10
125.1809895520381
 20
-147.5413817990522
 30
0.0
 10
125.0032226249992
 20
-147.5413817990522
 30
0.0
 10
124.7813584757491
 20
-147.5413817990522
 30
0.0
 10
124.7069444132677
 20
-147.7153591210573
 30
0.0
 10
124.7069444132677
 20
-147.8579860741466
 30
0.0
  0
SPLINE
  5
D2
330
C7
100
AcDbEntity
  8
レイヤー 1
100
AcDbSpline
210
0.0
220
0.0
230
1.0
 70
     9
 71
     3
 72
    17
 73
    13
 74
     0
 42
0.0000000001
 43
0.0000000001
 40
0.0
 40
0.0
 40
0.0
 40
0.0
 40
1.0
 40
1.0
 40
1.0
 40
2.0
 40
2.0
 40
2.0
 40
3.0
 40
3.0
 40
3.0
 40
4.0
 40
4.0
 40
4.0
 40
4.0
 10
124.0468641182938
 20
-147.8579860741466
 30
0.0
 10
124.0468641182938
 20
-148.0343749629914
 30
0.0
 10
124.1419487536867
 20
-148.1246364647049
 30
0.0
 10
124.2776855158056
 20
-148.1246364647049
 30
0.0
 10
124.4003309150804
 20
-148.1246364647049
 30
0.0
 10
124.518842199773
 20
-148.0478108353839
 30
0.0
 10
124.518842199773
 20
-147.8579860741466
 30
0.0
 10
124.518842199773
 20
-147.6678168033608
 30
0.0
 10
124.4003309150804
 20
-147.5909911740397
 30
0.0
 10
124.2776855158056
 20
-147.5909911740397
 30
0.0
 10
124.1419487536867
 20
-147.5909911740397
 30
0.0
 10
124.0468641182938
 20
-147.683664242593
 30
0.0
 10
124.0468641182938
 20
-147.8579860741466
 30
0.0
  0
SPLINE
  5
D3
330
C7
100
AcDbEntity
  8
レイヤー 1
100
AcDbSpline
210
0.0
220
0.0
230
1.0
 70
     9
 71
     3
 72
    29
 73
    25
 74
     0
 42
0.0000000001
 43
0.0000000001
 40
0.0
 40
0.0
 40
0.0
 40
0.0
 40
1.0
 40
1.0
 40
1.0
 40
2.0
 40
2.0
 40
2.0
 40
3.0
 40
3.0
 40
3.0
 40
4.0
 40
4.0
 40
4.0
 40
5.0
 40
5.0
 40
5.0
 40
6.0
 40
6.0
 40
6.0
 40
7.0
 40
7.0
 40
7.0
 40
8.0
 40
8.0
 40
8.0
 40
8.0
 10
125.4979383366811
 20
-147.8579860741466
 30
0.0
 10
125.4979383366811
 20
-148.1425509612282
 30
0.0
 10
125.3608235363681
 20
-148.4140244854659
 30
0.0
 10
125.0114908541638
 20
-148.4140244854659
 30
0.0
 10
124.7558647691582
 20
-148.4140244854659
 30
0.0
 10
124.6607801337654
 20
-148.2624402841149
 30
0.0
 10
124.5994574341279
 20
-148.1494411521987
 30
0.0
 10
124.5402017917816
 20
-148.2827663474779
 30
0.0
 10
124.4258246216713
 20
-148.3644151104783
 30
0.0
 10
124.2645941529616
 20
-148.3644151104783
 30
0.0
 10
123.9896755332387
 20
-148.3644151104783
 30
0.0
 10
123.8546277902169
 20
-148.1518527190384
 30
0.0
 10
123.8546277902169
 20
-147.8579860741466
 30
0.0
 10
123.8546277902169
 20
-147.5548176714446
 30
0.0
 10
123.9986327815003
 20
-147.3515570378149
 30
0.0
 10
124.2645941529616
 20
-147.3515570378149
 30
0.0
 10
124.4258246216713
 20
-147.3515570378149
 30
0.0
 10
124.5402017917816
 20
-147.4349283485579
 30
0.0
 10
124.5994574341279
 20
-147.5685980533856
 30
0.0
 10
124.6497558282125
 20
-147.4735134179927
 30
0.0
 10
124.7448404636054
 20
-147.3040147201184
 30
0.0
 10
125.0073567395815
 20
-147.3040147201184
 30
0.0
 10
125.3821831283767
 20
-147.3040147201184
 30
0.0
 10
125.4979383366811
 20
-147.6023599891411
 30
0.0
 10
125.4979383366811
 20
-147.8579860741466
 30
0.0
  0
HATCH
  5
D4
330
C7
100
AcDbEntity
  8
レイヤー 1
 62
    18
420
        0
440
 33554687
100
AcDbHatch
 10
0.0
 20
0.0
 30
0.0
210
0.0
220
0.0
230
1.0
  2
SOLID
 70
     1
 71
     1
 91
        3
 92
        1
 93
        1
 72
     4
 94
        3
 73
     0
 74
     0
 95
       17
 96
       13
 40
0.0
 40
0.0
 40
0.0
 40
0.0
 40
1.0
 40
1.0
 40
1.0
 40
2.0
 40
2.0
 40
2.0
 40
3.0
 40
3.0
 40
3.0
 40
4.0
 40
4.0
 40
4.0
 40
4.0
 10
124.7069444132677
 20
-147.8579860741466
 10
124.7069444132677
 20
-148.0116373327887
 10
124.793760819496
 20
-148.1742458396925
 10
124.9970214531257
 20
-148.1742458396925
 10
125.2023491440466
 20
-148.1742458396925
 10
125.303634951313
 20
-148.0388535871222
 10
125.303634951313
 20
-147.8579860741466
 10
125.303634951313
 20
-147.6588595550992
 10
125.1809895520381
 20
-147.5413817990522
 10
125.0032226249992
 20
-147.5413817990522
 10
124.7813584757491
 20
-147.5413817990522
 10
124.7069444132677
 20
-147.7153591210573
 10
124.7069444132677
 20
-147.8579860741466
 97
        0
 97
        1
330
D1
 92
        1
 93
        1
 72
     4
 94
        3
 73
     0
 74
     0
 95
       17
 96
       13
 40
0.0
 40
0.0
 40
0.0
 40
0.0
 40
1.0
 40
1.0
 40
1.0
 40
2.0
 40
2.0
 40
2.0
 40
3.0
 40
3.0
 40
3.0
 40
4.0
 40
4.0
 40
4.0
 40
4.0
 10
124.0468641182938
 20
-147.8579860741466
 10
124.0468641182938
 20
-148.0343749629914
 10
124.1419487536867
 20
-148.1246364647049
 10
124.2776855158056
 20
-148.1246364647049
 10
124.4003309150804
 20
-148.1246364647049
 10
124.518842199773
 20
-148.0478108353839
 10
124.518842199773
 20
-147.8579860741466
 10
124.518842199773
 20
-147.6678168033608
 10
124.4003309150804
 20
-147.5909911740397
 10
124.2776855158056
 20
-147.5909911740397
 10
124.1419487536867
 20
-147.5909911740397
 10
124.0468641182938
 20
-147.683664242593
 10
124.0468641182938
 20
-147.8579860741466
 97
        0
 97
        1
330
D2
 92
        1
 93
        1
 72
     4
 94
        3
 73
     0
 74
     0
 95
       29
 96
       25
 40
0.0
 40
0.0
 40
0.0
 40
0.0
 40
1.0
 40
1.0
 40
1.0
 40
2.0
 40
2.0
 40
2.0
 40
3.0
 40
3.0
 40
3.0
 40
4.0
 40
4.0
 40
4.0
 40
5.0
 40
5.0
 40
5.0
 40
6.0
 40
6.0
 40
6.0
 40
7.0
 40
7.0
 40
7.0
 40
8.0
 40
8.0
 40
8.0
 40
8.0
 10
125.4979383366811
 20
-147.8579860741466
 10
125.4979383366811
 20
-148.1425509612282
 10
125.3608235363681
 20
-148.4140244854659
 10
125.0114908541638
 20
-148.4140244854659
 10
124.7558647691582
 20
-148.4140244854659
 10
124.6607801337654
 20
-148.2624402841149
 10
124.5994574341279
 20
-148.1494411521987
 10
124.5402017917816
 20
-148.2827663474779
 10
124.4258246216713
 20
-148.3644151104783
 10
124.2645941529616
 20
-148.3644151104783
 10
123.9896755332387
 20
-148.3644151104783
 10
123.8546277902169
 20
-148.1518527190384
 10
123.8546277902169
 20
-147.8579860741466
 10
123.8546277902169
 20
-147.5548176714446
 10
123.9986327815003
 20
-147.3515570378149
 10
124.2645941529616
 20
-147.3515570378149
 10
124.4258246216713
 20
-147.3515570378149
 10
124.5402017917816
 20
-147.4349283485579
 10
124.5994574341279
 20
-147.5685980533856
 10
124.6497558282125
 20
-147.4735134179927
 10
124.7448404636054
 20
-147.3040147201184
 10
125.0073567395815
 20
-147.3040147201184
 10
125.3821831283767
 20
-147.3040147201184
 10
125.4979383366811
 20
-147.6023599891411
 10
125.4979383366811
 20
-147.8579860741466
 97
        0
 97
        1
330
D3
 75
     2
 76
     1
 98
        1
 10
0.0
 20
0.0
450
        0
451
        0
460
0.0
461
0.0
452
        0
462
0.0
453
        0
470

  0
ENDBLK
  5
CA
330
C7
100
AcDbEntity
  8
0
100
AcDbBlockEnd
  0
BLOCK
  5
DC
330
DA
100
AcDbEntity
  8
0
100
AcDbBlockBegin
  2
Block_10
 70
     0
 10
0.0
 20
0.0
 30
0.0
  3
Block_10
  1

  0
SPLINE
  5
DE
330
DA
100
AcDbEntity
  8
レイヤー 1
100
AcDbSpline
210
0.0
220
0.0
230
1.0
 70
     9
 71
     3
 72
    44
 73
    40
 74
     0
 42
0.0000000001
 43
0.0000000001
 40
0.0
 40
0.0
 40
0.0
 40
0.0
 40
1.0
 40
1.0
 40
1.0
 40
2.0
 40
2.0
 40
2.0
 40
3.0
 40
3.0
 40
3.0
 40
4.0
 40
4.0
 40
4.0
 40
5.0
 40
5.0
 40
5.0
 40
6.0
 40
6.0
 40
6.0
 40
7.0
 40
7.0
 40
7.0
 40
8.0
 40
8.0
 40
8.0
 40
9.0
 40
9.0
 40
9.0
 40
10.0
 40
10.0
 40
10.0
 40
11.0
 40
11.0
 40
11.0
 40
12.0
 40
12.0
 40
12.0
 40
13.0
 40
13.0
 40
13.0
 40
13.0
 10
84.54160967938543
 20
-143.034335630474
 30
0.0
 10
84.7002563264812
 20
-143.2672240852769
 30
0.0
 10
84.77432587941406
 20
-143.3666150900264
 30
0.0
 10
84.91815861592325
 20
-143.4186360318537
 30
0.0
 10
84.91815861592325
 20
-143.4186360318537
 30
0.0
 10
84.91815861592325
 20
-142.5866454721658
 30
0.0
 10
84.91815861592325
 20
-142.5866454721658
 30
0.0
 10
84.91815861592325
 20
-142.5866454721658
 30
0.0
 10
85.12331405206987
 20
-142.5866454721658
 30
0.0
 10
85.12331405206987
 20
-142.5866454721658
 30
0.0
 10
85.12331405206987
 20
-142.5866454721658
 30
0.0
 10
85.12331405206987
 20
-143.6854586771863
 30
0.0
 10
85.12331405206987
 20
-143.6854586771863
 30
0.0
 10
84.76571314070094
 20
-143.6515244866565
 30
0.0
 10
84.68750947318577
 20
-143.5814167935317
 30
0.0
 10
84.38916420416312
 20
-143.1699001378186
 30
0.0
 10
84.1903821946642
 20
-142.8963595562898
 30
0.0
 10
84.12268606837905
 20
-142.8262518631649
 30
0.0
 10
83.98522675851758
 20
-142.8262518631649
 30
0.0
 10
83.86671547382499
 20
-142.8262518631649
 30
0.0
 10
83.73545733583696
 20
-142.903077492486
 30
0.0
 10
83.73545733583696
 20
-143.1134005718605
 30
0.0
 10
83.73545733583696
 20
-143.3914197775202
 30
0.0
 10
83.96610647857444
 20
-143.4005492805561
 30
0.0
 10
84.08255070597588
 20
-143.4050279046869
 30
0.0
 10
84.08255070597588
 20
-143.4050279046869
 30
0.0
 10
84.08255070597588
 20
-143.6446342956861
 30
0.0
 10
84.08255070597588
 20
-143.6446342956861
 30
0.0
 10
83.95559893734443
 20
-143.6356770474244
 30
0.0
 10
83.84346107929955
 20
-143.6243082323231
 30
0.0
 10
83.72494979460695
 20
-143.5385253547404
 30
0.0
 10
83.56423609022005
 20
-143.4208753439191
 30
0.0
 10
83.53030189969034
 20
-143.2219210796459
 30
0.0
 10
83.53030189969034
 20
-143.0975531326284
 30
0.0
 10
83.53030189969034
 20
-142.8014471756712
 30
0.0
 10
83.71444225337695
 20
-142.5799275359696
 30
0.0
 10
83.98729381580874
 20
-142.5799275359696
 30
0.0
 10
84.21570364648081
 20
-142.5799275359696
 30
0.0
 10
84.31526690600453
 20
-142.7041232282128
 30
0.0
 10
84.54160967938543
 20
-143.034335630474
 30
0.0
  0
HATCH
  5
DF
330
DA
100
AcDbEntity
  8
レイヤー 1
 62
    18
420
        0
440
 33554687
100
AcDbHatch
 10
0.0
 20
0.0
 30
0.0
210
0.0
220
0.0
230
1.0
  2
SOLID
 70
     1
 71
     1
 91
        1
 92
        1
 93
        1
 72
     4
 94
        3
 73
     0
 74
     0
 95
       44
 96
       40
 40
0.0
 40
0.0
 40
0.0
 40
0.0
 40
1.0
 40
1.0
 40
1.0
 40
2.0
 40
2.0
 40
2.0
 40
3.0
 40
3.0
 40
3.0
 40
4.0
 40
4.0
 40
4.0
 40
5.0
 40
5.0
 40
5.0
 40
6.0
 40
6.0
 40
6.0
 40
7.0
 40
7.0
 40
7.0
 40
8.0
 40
8.0
 40
8.0
 40
9.0
 40
9.0
 40
9.0
 40
10.0
 40
10.0
 40
10.0
 40
11.0
 40
11.0
 40
11.0
 40
12.0
 40
12.0
 40
12.0
 40
13.0
 40
13.0
 40
13.0
 40
13.0
 10
84.54160967938543
 20
-143.034335630474
 10
84.7002563264812
 20
-143.2672240852769
 10
84.77432587941406
 20
-143.3666150900264
 10
84.91815861592325
 20
-143.4186360318537
 10
84.91815861592325
 20
-143.4186360318537
 10
84.91815861592325
 20
-142.5866454721658
 10
84.91815861592325
 20
-142.5866454721658
 10
84.91815861592325
 20
-142.5866454721658
 10
85.12331405206987
 20
-142.5866454721658
 10
85.12331405206987
 20
-142.5866454721658
 10
85.12331405206987
 20
-142.5866454721658
 10
85.12331405206987
 20
-143.6854586771863
 10
85.12331405206987
 20
-143.6854586771863
 10
84.76571314070094
 20
-143.6515244866565
 10
84.68750947318577
 20
-143.5814167935317
 10
84.38916420416312
 20
-143.1699001378186
 10
84.1903821946642
 20
-142.8963595562898
 10
84.12268606837905
 20
-142.8262518631649
 10
83.98522675851758
 20
-142.8262518631649
 10
83.86671547382499
 20
-142.8262518631649
 10
83.73545733583696
 20
-142.903077492486
 10
83.73545733583696
 20
-143.1134005718605
 10
83.73545733583696
 20
-143.3914197775202
 10
83.96610647857444
 20
-143.4005492805561
 10
84.08255070597588
 20
-143.4050279046869
 10
84.08255070597588
 20
-143.4050279046869
 10
84.08255070597588
 20
-143.6446342956861
 10
84.08255070597588
 20
-143.6446342956861
 10
83.95559893734443
 20
-143.6356770474244
 10
83.84346107929955
 20
-143.6243082323231
 10
83.72494979460695
 20
-143.5385253547404
 10
83.56423609022005
 20
-143.4208753439191
 10
83.53030189969034
 20
-143.2219210796459
 10
83.53030189969034
 20
-143.0975531326284
 10
83.53030189969034
 20
-142.8014471756712
 10
83.71444225337695
 20
-142.5799275359696
 10
83.98729381580874
 20
-142.5799275359696
 10
84.21570364648081
 20
-142.5799275359696
 10
84.31526690600453
 20
-142.7041232282128
 10
84.54160967938543
 20
-143.034335630474
 97
        0
 97
        1
330
DE
 75
     2
 76
     1
 98
        1
 10
0.0
 20
0.0
450
        0
451
        0
460
0.0
461
0.0
452
        0
462
0.0
453
        0
470

  0
ENDBLK
  5
DD
330
DA
100
AcDbEntity
  8
0
100
AcDbBlockEnd
  0
BLOCK
  5
E7
330
E5
100
AcDbEntity
  8
0
100
AcDbBlockBegin
  2
Block_11
 70
     0
 10
0.0
 20
0.0
 30
0.0
  3
Block_11
  1

  0
LINE
  5
E9
330
E5
100
AcDbEntity
  8
レイヤー 1
  6
AI-Linetype-0
 62
   154
420
    23468
370
    25
100
AcDbLine
 10
121.01684548478
 20
-141.2751972393913
 30
0.0
 11
103.0167260117795
 21
-141.2751972393913
 31
0.0
  0
LINE
  5
EB
330
E5
100
AcDbEntity
  8
レイヤー 1
 62
   250
420
  2299925
370
     9
100
AcDbLine
 10
111.3934751593991
 20
-140.908043089804
 30
0.0
 11
113.2528399186718
 21
-139.1411567672518
 31
0.0
  0
LWPOLYLINE
  5
EC
330
E5
100
AcDbEntity
  8
レイヤー 1
 62
   250
420
  2299925
370
     9
100
AcDbPolyline
 90
        3
 70
     0
 43
0.0
 10
111.916535949511
 20
-140.0653498154171
 10
111.4162970733067
 20
-140.9314545154983
 10
112.2824036366206
 20
-140.4312156394492
  0
INSERT
  5
EE
330
E5
100
AcDbEntity
  8
レイヤー 1
100
AcDbBlockReference
  2
Block_12
 10
0.0
 20
0.0
 30
0.0
  0
ENDBLK
  5
E8
330
E5
100
AcDbEntity
  8
0
100
AcDbBlockEnd
  0
BLOCK
  5
EF
330
ED
100
AcDbEntity
  8
0
100
AcDbBlockBegin
  2
Block_12
 70
     0
 10
0.0
 20
0.0
 30
0.0
  3
Block_12
  1

  0
INSERT
  5
F2
330
ED
100
AcDbEntity
  8
レイヤー 1
100
AcDbBlockReference
  2
Block_13
 10
0.0
 20
0.0
 30
0.0
  0
ENDBLK
  5
F0
330
ED
100
AcDbEntity
  8
0
100
AcDbBlockEnd
  0
BLOCK
  5
F3
330
F1
100
AcDbEntity
  8
0
100
AcDbBlockBegin
  2
Block_13
 70
     0
 10
0.0
 20
0.0
 30
0.0
  3
Block_13
  1

  0
SPLINE
  5
F5
330
F1
100
AcDbEntity
  8
レイヤー 1
100
AcDbSpline
210
0.0
220
0.0
230
1.0
 70
     9
 71
     3
 72
    17
 73
    13
 74
     0
 42
0.0000000001
 43
0.0000000001
 40
0.0
 40
0.0
 40
0.0
 40
0.0
 40
1.0
 40
1.0
 40
1.0
 40
2.0
 40
2.0
 40
2.0
 40
3.0
 40
3.0
 40
3.0
 40
4.0
 40
4.0
 40
4.0
 40
4.0
 10
111.9039360614337
 20
-138.2404852627489
 30
0.0
 10
111.887055093556
 20
-138.2699408291478
 30
0.0
 10
111.8364121899228
 20
-138.3631306620238
 30
0.0
 10
111.8257323939185
 20
-138.3820786871927
 30
0.0
 10
112.0162461742529
 20
-138.441334329539
 30
0.0
 10
112.0372612567129
 20
-138.4477077561867
 30
0.0
 10
112.1092637523546
 20
-138.4752685200687
 30
0.0
 10
112.1643852801186
 20
-138.3884521138404
 30
0.0
 10
112.1874674198698
 20
-138.3143825609075
 30
0.0
 10
112.2022813304563
 20
-138.2404852627489
 30
0.0
 10
112.2022813304563
 20
-138.2404852627489
 30
0.0
 10
111.9039360614337
 20
-138.2404852627489
 30
0.0
 10
111.9039360614337
 20
-138.2404852627489
 30
0.0
  0
SPLINE
  5
F6
330
F1
100
AcDbEntity
  8
レイヤー 1
100
AcDbSpline
210
0.0
220
0.0
230
1.0
 70
    11
 71
     3
 72
    20
 73
    16
 74
     0
 42
0.0000000001
 43
0.0000000001
 40
0.0
 40
0.0
 40
0.0
 40
0.0
 40
1.0
 40
1.0
 40
1.0
 40
2.0
 40
2.0
 40
2.0
 40
3.0
 40
3.0
 40
3.0
 40
4.0
 40
4.0
 40
4.0
 40
5.0
 40
5.0
 40
5.0
 40
5.0
 10
111.8405463045051
 20
-137.390063442215
 30
0.0
 10
111.8405463045051
 20
-137.390063442215
 30
0.0
 10
111.8088514260408
 20
-137.390063442215
 30
0.0
 10
111.8088514260408
 20
-137.390063442215
 30
0.0
 10
111.8553602150917
 20
-137.4894544469644
 30
0.0
 10
111.887055093556
 20
-137.5697251717707
 30
0.0
 10
111.9208170293114
 20
-137.6966769404022
 30
0.0
 10
111.9208170293114
 20
-137.6966769404022
 30
0.0
 10
112.1282117775235
 20
-137.6966769404022
 30
0.0
 10
112.1282117775235
 20
-137.6966769404022
 30
0.0
 10
112.1599066559878
 20
-137.6036593623005
 30
0.0
 10
112.1833333052875
 20
-137.5190822681376
 30
0.0
 10
112.2064154450386
 20
-137.390063442215
 30
0.0
 10
112.2064154450386
 20
-137.390063442215
 30
0.0
 10
111.8405463045051
 20
-137.390063442215
 30
0.0
 10
111.8405463045051
 20
-137.390063442215
 30
0.0
  0
SPLINE
  5
F7
330
F1
100
AcDbEntity
  8
レイヤー 1
100
AcDbSpline
210
0.0
220
0.0
230
1.0
 70
     9
 71
     3
 72
   242
 73
   238
 74
     0
 42
0.0000000001
 43
0.0000000001
 40
0.0
 40
0.0
 40
0.0
 40
0.0
 40
1.0
 40
1.0
 40
1.0
 40
2.0
 40
2.0
 40
2.0
 40
3.0
 40
3.0
 40
3.0
 40
4.0
 40
4.0
 40
4.0
 40
5.0
 40
5.0
 40
5.0
 40
6.0
 40
6.0
 40
6.0
 40
7.0
 40
7.0
 40
7.0
 40
8.0
 40
8.0
 40
8.0
 40
9.0
 40
9.0
 40
9.0
 40
10.0
 40
10.0
 40
10.0
 40
11.0
 40
11.0
 40
11.0
 40
12.0
 40
12.0
 40
12.0
 40
13.0
 40
13.0
 40
13.0
 40
14.0
 40
14.0
 40
14.0
 40
15.0
 40
15.0
 40
15.0
 40
16.0
 40
16.0
 40
16.0
 40
17.0
 40
17.0
 40
17.0
 40
18.0
 40
18.0
 40
18.0
 40
19.0
 40
19.0
 40
19.0
 40
20.0
 40
20.0
 40
20.0
 40
21.0
 40
21.0
 40
21.0
 40
22.0
 40
22.0
 40
22.0
 40
23.0
 40
23.0
 40
23.0
 40
24.0
 40
24.0
 40
24.0
 40
25.0
 40
25.0
 40
25.0
 40
26.0
 40
26.0
 40
26.0
 40
27.0
 40
27.0
 40
27.0
 40
28.0
 40
28.0
 40
28.0
 40
29.0
 40
29.0
 40
29.0
 40
30.0
 40
30.0
 40
30.0
 40
31.0
 40
31.0
 40
31.0
 40
32.0
 40
32.0
 40
32.0
 40
33.0
 40
33.0
 40
33.0
 40
34.0
 40
34.0
 40
34.0
 40
35.0
 40
35.0
 40
35.0
 40
36.0
 40
36.0
 40
36.0
 40
37.0
 40
37.0
 40
37.0
 40
38.0
 40
38.0
 40
38.0
 40
39.0
 40
39.0
 40
39.0
 40
40.0
 40
40.0
 40
40.0
 40
41.0
 40
41.0
 40
41.0
 40
42.0
 40
42.0
 40
42.0
 40
43.0
 40
43.0
 40
43.0
 40
44.0
 40
44.0
 40
44.0
 40
45.0
 40
45.0
 40
45.0
 40
46.0
 40
46.0
 40
46.0
 40
47.0
 40
47.0
 40
47.0
 40
48.0
 40
48.0
 40
48.0
 40
49.0
 40
49.0
 40
49.0
 40
50.0
 40
50.0
 40
50.0
 40
51.0
 40
51.0
 40
51.0
 40
52.0
 40
52.0
 40
52.0
 40
53.0
 40
53.0
 40
53.0
 40
54.0
 40
54.0
 40
54.0
 40
55.0
 40
55.0
 40
55.0
 40
56.0
 40
56.0
 40
56.0
 40
57.0
 40
57.0
 40
57.0
 40
58.0
 40
58.0
 40
58.0
 40
59.0
 40
59.0
 40
59.0
 40
60.0
 40
60.0
 40
60.0
 40
61.0
 40
61.0
 40
61.0
 40
62.0
 40
62.0
 40
62.0
 40
63.0
 40
63.0
 40
63.0
 40
64.0
 40
64.0
 40
64.0
 40
65.0
 40
65.0
 40
65.0
 40
66.0
 40
66.0
 40
66.0
 40
67.0
 40
67.0
 40
67.0
 40
68.0
 40
68.0
 40
68.0
 40
69.0
 40
69.0
 40
69.0
 40
70.0
 40
70.0
 40
70.0
 40
71.0
 40
71.0
 40
71.0
 40
72.0
 40
72.0
 40
72.0
 40
73.0
 40
73.0
 40
73.0
 40
74.0
 40
74.0
 40
74.0
 40
75.0
 40
75.0
 40
75.0
 40
76.0
 40
76.0
 40
76.0
 40
77.0
 40
77.0
 40
77.0
 40
78.0
 40
78.0
 40
78.0
 40
79.0
 40
79.0
 40
79.0
 40
79.0
 10
112.4689317210147
 20
-137.855323587498
 30
0.0
 10
112.4689317210147
 20
-137.855323587498
 30
0.0
 10
112.2150281837518
 20
-137.855323587498
 30
0.0
 10
112.2150281837518
 20
-137.855323587498
 30
0.0
 10
112.2150281837518
 20
-137.855323587498
 30
0.0
 10
111.9380425067377
 20
-137.855323587498
 30
0.0
 10
111.9380425067377
 20
-137.855323587498
 30
0.0
 10
111.9380425067377
 20
-137.855323587498
 30
0.0
 10
112.0648220205949
 20
-137.8976982619665
 30
0.0
 10
112.0648220205949
 20
-137.8976982619665
 30
0.0
 10
112.0755018165992
 20
-137.9020046313231
 30
0.0
 10
112.0882486698946
 20
-137.9082058031966
 30
0.0
 10
112.0882486698946
 20
-137.920952656492
 30
0.0
 10
112.0882486698946
 20
-137.9421399937262
 30
0.0
 10
112.0562092818818
 20
-137.948513420374
 30
0.0
 10
112.0351941994217
 20
-137.9526475349563
 30
0.0
 10
112.0245144034175
 20
-137.9759019294817
 30
0.0
 10
111.9948865822443
 20
-138.0415309984757
 30
0.0
 10
111.9759385570754
 20
-138.0859727302354
 30
0.0
 10
111.9759385570754
 20
-138.0859727302354
 30
0.0
 10
112.2467230622161
 20
-138.0859727302354
 30
0.0
 10
112.2467230622161
 20
-138.0859727302354
 30
0.0
 10
112.3376735830267
 20
-138.0859727302354
 30
0.0
 10
112.5343885352344
 20
-138.0816663608789
 30
0.0
 10
112.6763264692267
 20
-138.07322587694
 30
0.0
 10
112.6763264692267
 20
-138.07322587694
 30
0.0
 10
112.6763264692267
 20
-138.2509928039789
 30
0.0
 10
112.6763264692267
 20
-138.2509928039789
 30
0.0
 10
112.5936441775807
 20
-138.2466864346223
 30
0.0
 10
112.5726290951207
 20
-138.2466864346223
 30
0.0
 10
112.3927951107907
 20
-138.24255232004
 30
0.0
 10
112.3611002323264
 20
-138.3968925977792
 30
0.0
 10
112.3166585005666
 20
-138.4773355773598
 30
0.0
 10
112.2722167688069
 20
-138.5470987609361
 30
0.0
 10
112.3927951107907
 20
-138.6063544032824
 30
0.0
 10
112.4985595421878
 20
-138.6740505295676
 30
0.0
 10
112.6022569162939
 20
-138.7565605664393
 30
0.0
 10
112.6022569162939
 20
-138.7565605664393
 30
0.0
 10
112.4837456316013
 20
-138.9236476974739
 30
0.0
 10
112.4837456316013
 20
-138.9236476974739
 30
0.0
 10
112.4603189823016
 20
-138.904699672305
 30
0.0
 10
112.4475721290061
 20
-138.8962591883662
 30
0.0
 10
112.3356065257355
 20
-138.811509839429
 30
0.0
 10
112.2870306793935
 20
-138.773441534317
 30
0.0
 10
112.2277750370472
 20
-138.7376125412704
 30
0.0
 10
112.1471598026924
 20
-138.6931708095107
 30
0.0
 10
111.935630939898
 20
-138.8793782204885
 30
0.0
 10
111.7306477585257
 20
-138.9026326150139
 30
0.0
 10
111.4405707186676
 20
-138.932260436187
 30
0.0
 10
111.4405707186676
 20
-138.932260436187
 30
0.0
 10
111.3372178541101
 20
-138.752426451857
 30
0.0
 10
111.3372178541101
 20
-138.752426451857
 30
0.0
 10
111.6545111483016
 20
-138.7481200825004
 30
0.0
 10
111.8298665085008
 20
-138.7227986306839
 30
0.0
 10
111.9821397289489
 20
-138.6127278299301
 30
0.0
 10
111.8639729538048
 20
-138.5619126715227
 30
0.0
 10
111.7750894902854
 20
-138.534524162415
 30
0.0
 10
111.7389159876903
 20
-138.5217773091195
 30
0.0
 10
111.7199679625214
 20
-138.5493380730015
 30
0.0
 10
111.7051540519348
 20
-138.5682860981704
 30
0.0
 10
111.6775932880528
 20
-138.6022202887001
 30
0.0
 10
111.6775932880528
 20
-138.6022202887001
 30
0.0
 10
111.480878335845
 20
-138.5197102518284
 30
0.0
 10
111.480878335845
 20
-138.5197102518284
 30
0.0
 10
111.563560627491
 20
-138.4392672722478
 30
0.0
 10
111.6248833271285
 20
-138.3440103820807
 30
0.0
 10
111.6817274026351
 20
-138.24255232004
 30
0.0
 10
111.4915581318493
 20
-138.2466864346223
 30
0.0
 10
111.4701985398408
 20
-138.2466864346223
 30
0.0
 10
111.3878607577433
 20
-138.2509928039789
 30
0.0
 10
111.3878607577433
 20
-138.2509928039789
 30
0.0
 10
111.3878607577433
 20
-138.07322587694
 30
0.0
 10
111.3878607577433
 20
-138.07322587694
 30
0.0
 10
111.5273871248959
 20
-138.0795993035877
 30
0.0
 10
111.7368489303991
 20
-138.0839056729443
 30
0.0
 10
111.7623426369899
 20
-138.0839056729443
 30
0.0
 10
111.7792236048677
 20
-138.0499714824146
 30
0.0
 10
111.8343451326317
 20
-137.9293931404308
 30
0.0
 10
111.8532931578005
 20
-137.855323587498
 30
0.0
 10
111.8343451326317
 20
-137.855323587498
 30
0.0
 10
111.6565782055928
 20
-137.8616970141457
 30
0.0
 10
111.4619303106762
 20
-137.8744438674411
 30
0.0
 10
111.4619303106762
 20
-137.8744438674411
 30
0.0
 10
111.4619303106762
 20
-138.0077690627203
 30
0.0
 10
111.4619303106762
 20
-138.0077690627203
 30
0.0
 10
111.4133544643341
 20
-138.0330905145368
 30
0.0
 10
111.3540988219879
 20
-138.0647853930011
 30
0.0
 10
111.2207736267087
 20
-138.1304144619951
 30
0.0
 10
111.2207736267087
 20
-138.1304144619951
 30
0.0
 10
111.2207736267087
 20
-138.2763142557955
 30
0.0
 10
111.2207736267087
 20
-138.2763142557955
 30
0.0
 10
111.2207736267087
 20
-138.2763142557955
 30
0.0
 10
111.2207736267087
 20
-138.7439859679181
 30
0.0
 10
111.2207736267087
 20
-138.7439859679181
 30
0.0
 10
111.2207736267087
 20
-138.8707654817753
 30
0.0
 10
111.1846001241135
 20
-138.9300211241216
 30
0.0
 10
110.901413275226
 20
-138.9215806401828
 30
0.0
 10
110.901413275226
 20
-138.9215806401828
 30
0.0
 10
110.79771590112
 20
-138.714358146745
 30
0.0
 10
110.79771590112
 20
-138.714358146745
 30
0.0
 10
110.8611056580486
 20
-138.7269327452662
 30
0.0
 10
110.9096815043906
 20
-138.7312391146227
 30
0.0
 10
110.949989121568
 20
-138.7312391146227
 30
0.0
 10
111.0261257317921
 20
-138.7312391146227
 30
0.0
 10
111.0368055277963
 20
-138.7079847200973
 30
0.0
 10
111.0368055277963
 20
-138.6423556511033
 30
0.0
 10
111.0368055277963
 20
-138.6423556511033
 30
0.0
 10
111.0368055277963
 20
-138.2129244988669
 30
0.0
 10
111.0368055277963
 20
-138.2129244988669
 30
0.0
 10
110.9393093255638
 20
-138.2530598612701
 30
0.0
 10
110.922428357686
 20
-138.2594332879177
 30
0.0
 10
110.8759195686352
 20
-138.2785535678609
 30
0.0
 10
110.8717854540529
 20
-138.2995686503209
 30
0.0
 10
110.867306829922
 20
-138.3291964714941
 30
0.0
 10
110.8483588047532
 20
-138.3291964714941
 30
0.0
 10
110.8400905755886
 20
-138.3291964714941
 30
0.0
 10
110.8294107795843
 20
-138.3250623569118
 30
0.0
 10
110.8228650981623
 20
-138.3018079623863
 30
0.0
 10
110.8228650981623
 20
-138.3018079623863
 30
0.0
 10
110.770155137238
 20
-138.1092271247609
 30
0.0
 10
110.770155137238
 20
-138.1092271247609
 30
0.0
 10
110.9162271858126
 20
-138.06271833571
 30
0.0
 10
110.9816840000323
 20
-138.0394639411846
 30
0.0
 10
111.0368055277963
 20
-138.0182766039503
 30
0.0
 10
111.0368055277963
 20
-138.0182766039503
 30
0.0
 10
111.0368055277963
 20
-137.6057264195916
 30
0.0
 10
111.0368055277963
 20
-137.6057264195916
 30
0.0
 10
111.0368055277963
 20
-137.6057264195916
 30
0.0
 10
110.9837510573235
 20
-137.6057264195916
 30
0.0
 10
110.9837510573235
 20
-137.6057264195916
 30
0.0
 10
110.9837510573235
 20
-137.6057264195916
 30
0.0
 10
110.9055473898083
 20
-137.6057264195916
 30
0.0
 10
110.9055473898083
 20
-137.6057264195916
 30
0.0
 10
110.8376790087489
 20
-137.6057264195916
 30
0.0
 10
110.8294107795843
 20
-137.6057264195916
 30
0.0
 10
110.7932372769892
 20
-137.6120998462393
 30
0.0
 10
110.7932372769892
 20
-137.6120998462393
 30
0.0
 10
110.7932372769892
 20
-137.4174519513227
 30
0.0
 10
110.7932372769892
 20
-137.4174519513227
 30
0.0
 10
110.8207980408712
 20
-137.4238253779704
 30
0.0
 10
110.8294107795843
 20
-137.4238253779704
 30
0.0
 10
110.8990017083863
 20
-137.4238253779704
 30
0.0
 10
110.8990017083863
 20
-137.4238253779704
 30
0.0
 10
111.0323269036655
 20
-137.4238253779704
 30
0.0
 10
111.0323269036655
 20
-137.4238253779704
 30
0.0
 10
111.0323269036655
 20
-137.3540621943941
 30
0.0
 10
111.0323269036655
 20
-137.2715521575224
 30
0.0
 10
111.0302598463744
 20
-137.2672457881658
 30
0.0
 10
111.0219916172098
 20
-137.0874118038358
 30
0.0
 10
111.0219916172098
 20
-137.0684637786669
 30
0.0
 10
111.0195800503701
 20
-137.021954989616
 30
0.0
 10
111.0195800503701
 20
-137.021954989616
 30
0.0
 10
111.2355875372952
 20
-137.0303954735549
 30
0.0
 10
111.2355875372952
 20
-137.0303954735549
 30
0.0
 10
111.2462673332995
 20
-137.0303954735549
 30
0.0
 10
111.2672824157595
 20
-137.032462530846
 30
0.0
 10
111.2672824157595
 20
-137.0493434987237
 30
0.0
 10
111.2672824157595
 20
-137.0684637786669
 30
0.0
 10
111.252468505173
 20
-137.0789713198969
 30
0.0
 10
111.2269747985821
 20
-137.09809159984
 30
0.0
 10
111.2269747985821
 20
-137.1487345034732
 30
0.0
 10
111.2207736267087
 20
-137.3773165889195
 30
0.0
 10
111.2228406839998
 20
-137.4238253779704
 30
0.0
 10
111.3520317646967
 20
-137.4238253779704
 30
0.0
 10
111.3644341084436
 20
-137.4238253779704
 30
0.0
 10
111.4619303106762
 20
-137.4153848940316
 30
0.0
 10
111.4619303106762
 20
-137.4153848940316
 30
0.0
 10
111.4619303106762
 20
-137.6100327889482
 30
0.0
 10
111.4619303106762
 20
-137.6100327889482
 30
0.0
 10
111.4236897507899
 20
-137.6077934768828
 30
0.0
 10
111.356165879279
 20
-137.6036593623005
 30
0.0
 10
111.2207736267087
 20
-137.6057264195916
 30
0.0
 10
111.2207736267087
 20
-137.6057264195916
 30
0.0
 10
111.2207736267087
 20
-137.9442070510174
 30
0.0
 10
111.2207736267087
 20
-137.9442070510174
 30
0.0
 10
111.2758951544727
 20
-137.920952656492
 30
0.0
 10
111.3413519686924
 20
-137.89339189261
 30
0.0
 10
111.3899278150344
 20
-137.8701374980845
 30
0.0
 10
111.3899278150344
 20
-137.8701374980845
 30
0.0
 10
111.3899278150344
 20
-137.6925428258199
 30
0.0
 10
111.3899278150344
 20
-137.6925428258199
 30
0.0
 10
111.5043049851447
 20
-137.7051174243411
 30
0.0
 10
111.6228162698373
 20
-137.7051174243411
 30
0.0
 10
111.7389159876903
 20
-137.7051174243411
 30
0.0
 10
111.7158338479391
 20
-137.6100327889482
 30
0.0
 10
111.6882730840571
 20
-137.5275227520764
 30
0.0
 10
111.6248833271285
 20
-137.3941975567973
 30
0.0
 10
111.5804415953688
 20
-137.3962646140884
 30
0.0
 10
111.4977593037228
 20
-137.400570983445
 30
0.0
 10
111.459863253385
 20
-137.4026380407361
 30
0.0
 10
111.459863253385
 20
-137.4026380407361
 30
0.0
 10
111.459863253385
 20
-137.2228040564061
 30
0.0
 10
111.459863253385
 20
-137.2228040564061
 30
0.0
 10
111.5845757099511
 20
-137.2312445403449
 30
0.0
 10
111.7582085224076
 20
-137.2355509097015
 30
0.0
 10
111.8405463045051
 20
-137.2355509097015
 30
0.0
 10
111.8405463045051
 20
-137.2355509097015
 30
0.0
 10
111.9232285961511
 20
-137.2355509097015
 30
0.0
 10
111.9232285961511
 20
-137.2355509097015
 30
0.0
 10
111.9232285961511
 20
-137.0725978932492
 30
0.0
 10
111.9232285961511
 20
-137.0620903520192
 30
0.0
 10
111.9208170293114
 20
-137.0071410790295
 30
0.0
 10
111.9208170293114
 20
-137.0071410790295
 30
0.0
 10
112.1450927454012
 20
-137.032462530846
 30
0.0
 10
112.1450927454012
 20
-137.032462530846
 30
0.0
 10
112.149571369532
 20
-137.032462530846
 30
0.0
 10
112.170586451992
 20
-137.0345295881372
 30
0.0
 10
112.170586451992
 20
-137.0514105560149
 30
0.0
 10
112.170586451992
 20
-137.0662244666015
 30
0.0
 10
112.1599066559878
 20
-137.0748372053146
 30
0.0
 10
112.1323458921058
 20
-137.0896511159012
 30
0.0
 10
112.1261447202323
 20
-137.1551079301209
 30
0.0
 10
112.1240776629412
 20
-137.1762952673552
 30
0.0
 10
112.1240776629412
 20
-137.2355509097015
 30
0.0
 10
112.1240776629412
 20
-137.2355509097015
 30
0.0
 10
112.2191622983341
 20
-137.2355509097015
 30
0.0
 10
112.2191622983341
 20
-137.2355509097015
 30
0.0
 10
112.3018445899801
 20
-137.2355509097015
 30
0.0
 10
112.4751328928881
 20
-137.2312445403449
 30
0.0
 10
112.6001898590027
 20
-137.2228040564061
 30
0.0
 10
112.6001898590027
 20
-137.2228040564061
 30
0.0
 10
112.6001898590027
 20
-137.4026380407361
 30
0.0
 10
112.6001898590027
 20
-137.4026380407361
 30
0.0
 10
112.5705620378296
 20
-137.400570983445
 30
0.0
 10
112.452050753137
 20
-137.3962646140884
 30
0.0
 10
112.4117431359595
 20
-137.3941975567973
 30
0.0
 10
112.396929225373
 20
-137.4450127152047
 30
0.0
 10
112.3631672896175
 20
-137.5571505732496
 30
0.0
 10
112.2973659658493
 20
-137.6966769404022
 30
0.0
 10
112.3397406403178
 20
-137.6966769404022
 30
0.0
 10
112.6170708268804
 20
-137.6777289152333
 30
0.0
 10
112.6783935265179
 20
-137.6754896031679
 30
0.0
 10
112.6783935265179
 20
-137.6754896031679
 30
0.0
 10
112.6783935265179
 20
-137.8596299568545
 30
0.0
 10
112.6783935265179
 20
-137.8596299568545
 30
0.0
 10
112.6487657053447
 20
-137.8596299568545
 30
0.0
 10
112.631884737467
 20
-137.855323587498
 30
0.0
 10
112.4689317210147
 20
-137.855323587498
 30
0.0
  0
HATCH
  5
F8
330
F1
100
AcDbEntity
  8
レイヤー 1
 62
   250
420
  2299925
440
 33554687
100
AcDbHatch
 10
0.0
 20
0.0
 30
0.0
210
0.0
220
0.0
230
1.0
  2
SOLID
 70
     1
 71
     1
 91
        3
 92
        1
 93
        1
 72
     4
 94
        3
 73
     0
 74
     0
 95
       17
 96
       13
 40
0.0
 40
0.0
 40
0.0
 40
0.0
 40
1.0
 40
1.0
 40
1.0
 40
2.0
 40
2.0
 40
2.0
 40
3.0
 40
3.0
 40
3.0
 40
4.0
 40
4.0
 40
4.0
 40
4.0
 10
111.9039360614337
 20
-138.2404852627489
 10
111.887055093556
 20
-138.2699408291478
 10
111.8364121899228
 20
-138.3631306620238
 10
111.8257323939185
 20
-138.3820786871927
 10
112.0162461742529
 20
-138.441334329539
 10
112.0372612567129
 20
-138.4477077561867
 10
112.1092637523546
 20
-138.4752685200687
 10
112.1643852801186
 20
-138.3884521138404
 10
112.1874674198698
 20
-138.3143825609075
 10
112.2022813304563
 20
-138.2404852627489
 10
112.2022813304563
 20
-138.2404852627489
 10
111.9039360614337
 20
-138.2404852627489
 10
111.9039360614337
 20
-138.2404852627489
 97
        0
 97
        1
330
F5
 92
        1
 93
        1
 72
     4
 94
        3
 73
     0
 74
     0
 95
       20
 96
       16
 40
0.0
 40
0.0
 40
0.0
 40
0.0
 40
1.0
 40
1.0
 40
1.0
 40
2.0
 40
2.0
 40
2.0
 40
3.0
 40
3.0
 40
3.0
 40
4.0
 40
4.0
 40
4.0
 40
5.0
 40
5.0
 40
5.0
 40
5.0
 10
111.8405463045051
 20
-137.390063442215
 10
111.8405463045051
 20
-137.390063442215
 10
111.8088514260408
 20
-137.390063442215
 10
111.8088514260408
 20
-137.390063442215
 10
111.8553602150917
 20
-137.4894544469644
 10
111.887055093556
 20
-137.5697251717707
 10
111.9208170293114
 20
-137.6966769404022
 10
111.9208170293114
 20
-137.6966769404022
 10
112.1282117775235
 20
-137.6966769404022
 10
112.1282117775235
 20
-137.6966769404022
 10
112.1599066559878
 20
-137.6036593623005
 10
112.1833333052875
 20
-137.5190822681376
 10
112.2064154450386
 20
-137.390063442215
 10
112.2064154450386
 20
-137.390063442215
 10
111.8405463045051
 20
-137.390063442215
 10
111.8405463045051
 20
-137.390063442215
 97
        0
 97
        1
330
F6
 92
        1
 93
        1
 72
     4
 94
        3
 73
     0
 74
     0
 95
      242
 96
      238
 40
0.0
 40
0.0
 40
0.0
 40
0.0
 40
1.0
 40
1.0
 40
1.0
 40
2.0
 40
2.0
 40
2.0
 40
3.0
 40
3.0
 40
3.0
 40
4.0
 40
4.0
 40
4.0
 40
5.0
 40
5.0
 40
5.0
 40
6.0
 40
6.0
 40
6.0
 40
7.0
 40
7.0
 40
7.0
 40
8.0
 40
8.0
 40
8.0
 40
9.0
 40
9.0
 40
9.0
 40
10.0
 40
10.0
 40
10.0
 40
11.0
 40
11.0
 40
11.0
 40
12.0
 40
12.0
 40
12.0
 40
13.0
 40
13.0
 40
13.0
 40
14.0
 40
14.0
 40
14.0
 40
15.0
 40
15.0
 40
15.0
 40
16.0
 40
16.0
 40
16.0
 40
17.0
 40
17.0
 40
17.0
 40
18.0
 40
18.0
 40
18.0
 40
19.0
 40
19.0
 40
19.0
 40
20.0
 40
20.0
 40
20.0
 40
21.0
 40
21.0
 40
21.0
 40
22.0
 40
22.0
 40
22.0
 40
23.0
 40
23.0
 40
23.0
 40
24.0
 40
24.0
 40
24.0
 40
25.0
 40
25.0
 40
25.0
 40
26.0
 40
26.0
 40
26.0
 40
27.0
 40
27.0
 40
27.0
 40
28.0
 40
28.0
 40
28.0
 40
29.0
 40
29.0
 40
29.0
 40
30.0
 40
30.0
 40
30.0
 40
31.0
 40
31.0
 40
31.0
 40
32.0
 40
32.0
 40
32.0
 40
33.0
 40
33.0
 40
33.0
 40
34.0
 40
34.0
 40
34.0
 40
35.0
 40
35.0
 40
35.0
 40
36.0
 40
36.0
 40
36.0
 40
37.0
 40
37.0
 40
37.0
 40
38.0
 40
38.0
 40
38.0
 40
39.0
 40
39.0
 40
39.0
 40
40.0
 40
40.0
 40
40.0
 40
41.0
 40
41.0
 40
41.0
 40
42.0
 40
42.0
 40
42.0
 40
43.0
 40
43.0
 40
43.0
 40
44.0
 40
44.0
 40
44.0
 40
45.0
 40
45.0
 40
45.0
 40
46.0
 40
46.0
 40
46.0
 40
47.0
 40
47.0
 40
47.0
 40
48.0
 40
48.0
 40
48.0
 40
49.0
 40
49.0
 40
49.0
 40
50.0
 40
50.0
 40
50.0
 40
51.0
 40
51.0
 40
51.0
 40
52.0
 40
52.0
 40
52.0
 40
53.0
 40
53.0
 40
53.0
 40
54.0
 40
54.0
 40
54.0
 40
55.0
 40
55.0
 40
55.0
 40
56.0
 40
56.0
 40
56.0
 40
57.0
 40
57.0
 40
57.0
 40
58.0
 40
58.0
 40
58.0
 40
59.0
 40
59.0
 40
59.0
 40
60.0
 40
60.0
 40
60.0
 40
61.0
 40
61.0
 40
61.0
 40
62.0
 40
62.0
 40
62.0
 40
63.0
 40
63.0
 40
63.0
 40
64.0
 40
64.0
 40
64.0
 40
65.0
 40
65.0
 40
65.0
 40
66.0
 40
66.0
 40
66.0
 40
67.0
 40
67.0
 40
67.0
 40
68.0
 40
68.0
 40
68.0
 40
69.0
 40
69.0
 40
69.0
 40
70.0
 40
70.0
 40
70.0
 40
71.0
 40
71.0
 40
71.0
 40
72.0
 40
72.0
 40
72.0
 40
73.0
 40
73.0
 40
73.0
 40
74.0
 40
74.0
 40
74.0
 40
75.0
 40
75.0
 40
75.0
 40
76.0
 40
76.0
 40
76.0
 40
77.0
 40
77.0
 40
77.0
 40
78.0
 40
78.0
 40
78.0
 40
79.0
 40
79.0
 40
79.0
 40
79.0
 10
112.4689317210147
 20
-137.855323587498
 10
112.4689317210147
 20
-137.855323587498
 10
112.2150281837518
 20
-137.855323587498
 10
112.2150281837518
 20
-137.855323587498
 10
112.2150281837518
 20
-137.855323587498
 10
111.9380425067377
 20
-137.855323587498
 10
111.9380425067377
 20
-137.855323587498
 10
111.9380425067377
 20
-137.855323587498
 10
112.0648220205949
 20
-137.8976982619665
 10
112.0648220205949
 20
-137.8976982619665
 10
112.0755018165992
 20
-137.9020046313231
 10
112.0882486698946
 20
-137.9082058031966
 10
112.0882486698946
 20
-137.920952656492
 10
112.0882486698946
 20
-137.9421399937262
 10
112.0562092818818
 20
-137.948513420374
 10
112.0351941994217
 20
-137.9526475349563
 10
112.0245144034175
 20
-137.9759019294817
 10
111.9948865822443
 20
-138.0415309984757
 10
111.9759385570754
 20
-138.0859727302354
 10
111.9759385570754
 20
-138.0859727302354
 10
112.2467230622161
 20
-138.0859727302354
 10
112.2467230622161
 20
-138.0859727302354
 10
112.3376735830267
 20
-138.0859727302354
 10
112.5343885352344
 20
-138.0816663608789
 10
112.6763264692267
 20
-138.07322587694
 10
112.6763264692267
 20
-138.07322587694
 10
112.6763264692267
 20
-138.2509928039789
 10
112.6763264692267
 20
-138.2509928039789
 10
112.5936441775807
 20
-138.2466864346223
 10
112.5726290951207
 20
-138.2466864346223
 10
112.3927951107907
 20
-138.24255232004
 10
112.3611002323264
 20
-138.3968925977792
 10
112.3166585005666
 20
-138.4773355773598
 10
112.2722167688069
 20
-138.5470987609361
 10
112.3927951107907
 20
-138.6063544032824
 10
112.4985595421878
 20
-138.6740505295676
 10
112.6022569162939
 20
-138.7565605664393
 10
112.6022569162939
 20
-138.7565605664393
 10
112.4837456316013
 20
-138.9236476974739
 10
112.4837456316013
 20
-138.9236476974739
 10
112.4603189823016
 20
-138.904699672305
 10
112.4475721290061
 20
-138.8962591883662
 10
112.3356065257355
 20
-138.811509839429
 10
112.2870306793935
 20
-138.773441534317
 10
112.2277750370472
 20
-138.7376125412704
 10
112.1471598026924
 20
-138.6931708095107
 10
111.935630939898
 20
-138.8793782204885
 10
111.7306477585257
 20
-138.9026326150139
 10
111.4405707186676
 20
-138.932260436187
 10
111.4405707186676
 20
-138.932260436187
 10
111.3372178541101
 20
-138.752426451857
 10
111.3372178541101
 20
-138.752426451857
 10
111.6545111483016
 20
-138.7481200825004
 10
111.8298665085008
 20
-138.7227986306839
 10
111.9821397289489
 20
-138.6127278299301
 10
111.8639729538048
 20
-138.5619126715227
 10
111.7750894902854
 20
-138.534524162415
 10
111.7389159876903
 20
-138.5217773091195
 10
111.7199679625214
 20
-138.5493380730015
 10
111.7051540519348
 20
-138.5682860981704
 10
111.6775932880528
 20
-138.6022202887001
 10
111.6775932880528
 20
-138.6022202887001
 10
111.480878335845
 20
-138.5197102518284
 10
111.480878335845
 20
-138.5197102518284
 10
111.563560627491
 20
-138.4392672722478
 10
111.6248833271285
 20
-138.3440103820807
 10
111.6817274026351
 20
-138.24255232004
 10
111.4915581318493
 20
-138.2466864346223
 10
111.4701985398408
 20
-138.2466864346223
 10
111.3878607577433
 20
-138.2509928039789
 10
111.3878607577433
 20
-138.2509928039789
 10
111.3878607577433
 20
-138.07322587694
 10
111.3878607577433
 20
-138.07322587694
 10
111.5273871248959
 20
-138.0795993035877
 10
111.7368489303991
 20
-138.0839056729443
 10
111.7623426369899
 20
-138.0839056729443
 10
111.7792236048677
 20
-138.0499714824146
 10
111.8343451326317
 20
-137.9293931404308
 10
111.8532931578005
 20
-137.855323587498
 10
111.8343451326317
 20
-137.855323587498
 10
111.6565782055928
 20
-137.8616970141457
 10
111.4619303106762
 20
-137.8744438674411
 10
111.4619303106762
 20
-137.8744438674411
 10
111.4619303106762
 20
-138.0077690627203
 10
111.4619303106762
 20
-138.0077690627203
 10
111.4133544643341
 20
-138.0330905145368
 10
111.3540988219879
 20
-138.0647853930011
 10
111.2207736267087
 20
-138.1304144619951
 10
111.2207736267087
 20
-138.1304144619951
 10
111.2207736267087
 20
-138.2763142557955
 10
111.2207736267087
 20
-138.2763142557955
 10
111.2207736267087
 20
-138.2763142557955
 10
111.2207736267087
 20
-138.7439859679181
 10
111.2207736267087
 20
-138.7439859679181
 10
111.2207736267087
 20
-138.8707654817753
 10
111.1846001241135
 20
-138.9300211241216
 10
110.901413275226
 20
-138.9215806401828
 10
110.901413275226
 20
-138.9215806401828
 10
110.79771590112
 20
-138.714358146745
 10
110.79771590112
 20
-138.714358146745
 10
110.8611056580486
 20
-138.7269327452662
 10
110.9096815043906
 20
-138.7312391146227
 10
110.949989121568
 20
-138.7312391146227
 10
111.0261257317921
 20
-138.7312391146227
 10
111.0368055277963
 20
-138.7079847200973
 10
111.0368055277963
 20
-138.6423556511033
 10
111.0368055277963
 20
-138.6423556511033
 10
111.0368055277963
 20
-138.2129244988669
 10
111.0368055277963
 20
-138.2129244988669
 10
110.9393093255638
 20
-138.2530598612701
 10
110.922428357686
 20
-138.2594332879177
 10
110.8759195686352
 20
-138.2785535678609
 10
110.8717854540529
 20
-138.2995686503209
 10
110.867306829922
 20
-138.3291964714941
 10
110.8483588047532
 20
-138.3291964714941
 10
110.8400905755886
 20
-138.3291964714941
 10
110.8294107795843
 20
-138.3250623569118
 10
110.8228650981623
 20
-138.3018079623863
 10
110.8228650981623
 20
-138.3018079623863
 10
110.770155137238
 20
-138.1092271247609
 10
110.770155137238
 20
-138.1092271247609
 10
110.9162271858126
 20
-138.06271833571
 10
110.9816840000323
 20
-138.0394639411846
 10
111.0368055277963
 20
-138.0182766039503
 10
111.0368055277963
 20
-138.0182766039503
 10
111.0368055277963
 20
-137.6057264195916
 10
111.0368055277963
 20
-137.6057264195916
 10
111.0368055277963
 20
-137.6057264195916
 10
110.9837510573235
 20
-137.6057264195916
 10
110.9837510573235
 20
-137.6057264195916
 10
110.9837510573235
 20
-137.6057264195916
 10
110.9055473898083
 20
-137.6057264195916
 10
110.9055473898083
 20
-137.6057264195916
 10
110.8376790087489
 20
-137.6057264195916
 10
110.8294107795843
 20
-137.6057264195916
 10
110.7932372769892
 20
-137.6120998462393
 10
110.7932372769892
 20
-137.6120998462393
 10
110.7932372769892
 20
-137.4174519513227
 10
110.7932372769892
 20
-137.4174519513227
 10
110.8207980408712
 20
-137.4238253779704
 10
110.8294107795843
 20
-137.4238253779704
 10
110.8990017083863
 20
-137.4238253779704
 10
110.8990017083863
 20
-137.4238253779704
 10
111.0323269036655
 20
-137.4238253779704
 10
111.0323269036655
 20
-137.4238253779704
 10
111.0323269036655
 20
-137.3540621943941
 10
111.0323269036655
 20
-137.2715521575224
 10
111.0302598463744
 20
-137.2672457881658
 10
111.0219916172098
 20
-137.0874118038358
 10
111.0219916172098
 20
-137.0684637786669
 10
111.0195800503701
 20
-137.021954989616
 10
111.0195800503701
 20
-137.021954989616
 10
111.2355875372952
 20
-137.0303954735549
 10
111.2355875372952
 20
-137.0303954735549
 10
111.2462673332995
 20
-137.0303954735549
 10
111.2672824157595
 20
-137.032462530846
 10
111.2672824157595
 20
-137.0493434987237
 10
111.2672824157595
 20
-137.0684637786669
 10
111.252468505173
 20
-137.0789713198969
 10
111.2269747985821
 20
-137.09809159984
 10
111.2269747985821
 20
-137.1487345034732
 10
111.2207736267087
 20
-137.3773165889195
 10
111.2228406839998
 20
-137.4238253779704
 10
111.3520317646967
 20
-137.4238253779704
 10
111.3644341084436
 20
-137.4238253779704
 10
111.4619303106762
 20
-137.4153848940316
 10
111.4619303106762
 20
-137.4153848940316
 10
111.4619303106762
 20
-137.6100327889482
 10
111.4619303106762
 20
-137.6100327889482
 10
111.4236897507899
 20
-137.6077934768828
 10
111.356165879279
 20
-137.6036593623005
 10
111.2207736267087
 20
-137.6057264195916
 10
111.2207736267087
 20
-137.6057264195916
 10
111.2207736267087
 20
-137.9442070510174
 10
111.2207736267087
 20
-137.9442070510174
 10
111.2758951544727
 20
-137.920952656492
 10
111.3413519686924
 20
-137.89339189261
 10
111.3899278150344
 20
-137.8701374980845
 10
111.3899278150344
 20
-137.8701374980845
 10
111.3899278150344
 20
-137.6925428258199
 10
111.3899278150344
 20
-137.6925428258199
 10
111.5043049851447
 20
-137.7051174243411
 10
111.6228162698373
 20
-137.7051174243411
 10
111.7389159876903
 20
-137.7051174243411
 10
111.7158338479391
 20
-137.6100327889482
 10
111.6882730840571
 20
-137.5275227520764
 10
111.6248833271285
 20
-137.3941975567973
 10
111.5804415953688
 20
-137.3962646140884
 10
111.4977593037228
 20
-137.400570983445
 10
111.459863253385
 20
-137.4026380407361
 10
111.459863253385
 20
-137.4026380407361
 10
111.459863253385
 20
-137.2228040564061
 10
111.459863253385
 20
-137.2228040564061
 10
111.5845757099511
 20
-137.2312445403449
 10
111.7582085224076
 20
-137.2355509097015
 10
111.8405463045051
 20
-137.2355509097015
 10
111.8405463045051
 20
-137.2355509097015
 10
111.9232285961511
 20
-137.2355509097015
 10
111.9232285961511
 20
-137.2355509097015
 10
111.9232285961511
 20
-137.0725978932492
 10
111.9232285961511
 20
-137.0620903520192
 10
111.9208170293114
 20
-137.0071410790295
 10
111.9208170293114
 20
-137.0071410790295
 10
112.1450927454012
 20
-137.032462530846
 10
112.1450927454012
 20
-137.032462530846
 10
112.149571369532
 20
-137.032462530846
 10
112.170586451992
 20
-137.0345295881372
 10
112.170586451992
 20
-137.0514105560149
 10
112.170586451992
 20
-137.0662244666015
 10
112.1599066559878
 20
-137.0748372053146
 10
112.1323458921058
 20
-137.0896511159012
 10
112.1261447202323
 20
-137.1551079301209
 10
112.1240776629412
 20
-137.1762952673552
 10
112.1240776629412
 20
-137.2355509097015
 10
112.1240776629412
 20
-137.2355509097015
 10
112.2191622983341
 20
-137.2355509097015
 10
112.2191622983341
 20
-137.2355509097015
 10
112.3018445899801
 20
-137.2355509097015
 10
112.4751328928881
 20
-137.2312445403449
 10
112.6001898590027
 20
-137.2228040564061
 10
112.6001898590027
 20
-137.2228040564061
 10
112.6001898590027
 20
-137.4026380407361
 10
112.6001898590027
 20
-137.4026380407361
 10
112.5705620378296
 20
-137.400570983445
 10
112.452050753137
 20
-137.3962646140884
 10
112.4117431359595
 20
-137.3941975567973
 10
112.396929225373
 20
-137.4450127152047
 10
112.3631672896175
 20
-137.5571505732496
 10
112.2973659658493
 20
-137.6966769404022
 10
112.3397406403178
 20
-137.6966769404022
 10
112.6170708268804
 20
-137.6777289152333
 10
112.6783935265179
 20
-137.6754896031679
 10
112.6783935265179
 20
-137.6754896031679
 10
112.6783935265179
 20
-137.8596299568545
 10
112.6783935265179
 20
-137.8596299568545
 10
112.6487657053447
 20
-137.8596299568545
 10
112.631884737467
 20
-137.855323587498
 10
112.4689317210147
 20
-137.855323587498
 97
        0
 97
        1
330
F7
 75
     2
 76
     1
 98
        1
 10
0.0
 20
0.0
450
        0
451
        0
460
0.0
461
0.0
452
        0
462
0.0
453
        0
470

  0
SPLINE
  5
F9
330
F1
100
AcDbEntity
  8
レイヤー 1
100
AcDbSpline
210
0.0
220
0.0
230
1.0
 70
    11
 71
     3
 72
    17
 73
    13
 74
     0
 42
0.0000000001
 43
0.0000000001
 40
0.0
 40
0.0
 40
0.0
 40
0.0
 40
1.0
 40
1.0
 40
1.0
 40
2.0
 40
2.0
 40
2.0
 40
3.0
 40
3.0
 40
3.0
 40
4.0
 40
4.0
 40
4.0
 40
4.0
 10
114.3254936780158
 20
-138.6551025043987
 30
0.0
 10
114.3254936780158
 20
-138.6551025043987
 30
0.0
 10
113.6189045939911
 20
-138.6551025043987
 30
0.0
 10
113.6189045939911
 20
-138.6551025043987
 30
0.0
 10
113.6189045939911
 20
-138.6551025043987
 30
0.0
 10
113.6189045939911
 20
-138.7693074197347
 30
0.0
 10
113.6189045939911
 20
-138.7693074197347
 30
0.0
 10
113.6189045939911
 20
-138.7693074197347
 30
0.0
 10
114.3254936780158
 20
-138.7693074197347
 30
0.0
 10
114.3254936780158
 20
-138.7693074197347
 30
0.0
 10
114.3254936780158
 20
-138.7693074197347
 30
0.0
 10
114.3254936780158
 20
-138.6551025043987
 30
0.0
 10
114.3254936780158
 20
-138.6551025043987
 30
0.0
  0
SPLINE
  5
FA
330
F1
100
AcDbEntity
  8
レイヤー 1
100
AcDbSpline
210
0.0
220
0.0
230
1.0
 70
    11
 71
     3
 72
    17
 73
    13
 74
     0
 42
0.0000000001
 43
0.0000000001
 40
0.0
 40
0.0
 40
0.0
 40
0.0
 40
1.0
 40
1.0
 40
1.0
 40
2.0
 40
2.0
 40
2.0
 40
3.0
 40
3.0
 40
3.0
 40
4.0
 40
4.0
 40
4.0
 40
4.0
 10
114.3254936780158
 20
-138.4117065083658
 30
0.0
 10
114.3254936780158
 20
-138.4117065083658
 30
0.0
 10
113.6189045939911
 20
-138.4117065083658
 30
0.0
 10
113.6189045939911
 20
-138.4117065083658
 30
0.0
 10
113.6189045939911
 20
-138.4117065083658
 30
0.0
 10
113.6189045939911
 20
-138.5260836784761
 30
0.0
 10
113.6189045939911
 20
-138.5260836784761
 30
0.0
 10
113.6189045939911
 20
-138.5260836784761
 30
0.0
 10
114.3254936780158
 20
-138.5260836784761
 30
0.0
 10
114.3254936780158
 20
-138.5260836784761
 30
0.0
 10
114.3254936780158
 20
-138.5260836784761
 30
0.0
 10
114.3254936780158
 20
-138.4117065083658
 30
0.0
 10
114.3254936780158
 20
-138.4117065083658
 30
0.0
  0
SPLINE
  5
FB
330
F1
100
AcDbEntity
  8
レイヤー 1
100
AcDbSpline
210
0.0
220
0.0
230
1.0
 70
    11
 71
     3
 72
    17
 73
    13
 74
     0
 42
0.0000000001
 43
0.0000000001
 40
0.0
 40
0.0
 40
0.0
 40
0.0
 40
1.0
 40
1.0
 40
1.0
 40
2.0
 40
2.0
 40
2.0
 40
3.0
 40
3.0
 40
3.0
 40
4.0
 40
4.0
 40
4.0
 40
4.0
 10
114.3254936780158
 20
-138.1789903083372
 30
0.0
 10
114.3254936780158
 20
-138.1789903083372
 30
0.0
 10
113.6189045939911
 20
-138.1789903083372
 30
0.0
 10
113.6189045939911
 20
-138.1789903083372
 30
0.0
 10
113.6189045939911
 20
-138.1789903083372
 30
0.0
 10
113.6189045939911
 20
-138.2869940517998
 30
0.0
 10
113.6189045939911
 20
-138.2869940517998
 30
0.0
 10
113.6189045939911
 20
-138.2869940517998
 30
0.0
 10
114.3254936780158
 20
-138.2869940517998
 30
0.0
 10
114.3254936780158
 20
-138.2869940517998
 30
0.0
 10
114.3254936780158
 20
-138.2869940517998
 30
0.0
 10
114.3254936780158
 20
-138.1789903083372
 30
0.0
 10
114.3254936780158
 20
-138.1789903083372
 30
0.0
  0
SPLINE
  5
FC
330
F1
100
AcDbEntity
  8
レイヤー 1
100
AcDbSpline
210
0.0
220
0.0
230
1.0
 70
     9
 71
     3
 72
   203
 73
   199
 74
     0
 42
0.0000000001
 43
0.0000000001
 40
0.0
 40
0.0
 40
0.0
 40
0.0
 40
1.0
 40
1.0
 40
1.0
 40
2.0
 40
2.0
 40
2.0
 40
3.0
 40
3.0
 40
3.0
 40
4.0
 40
4.0
 40
4.0
 40
5.0
 40
5.0
 40
5.0
 40
6.0
 40
6.0
 40
6.0
 40
7.0
 40
7.0
 40
7.0
 40
8.0
 40
8.0
 40
8.0
 40
9.0
 40
9.0
 40
9.0
 40
10.0
 40
10.0
 40
10.0
 40
11.0
 40
11.0
 40
11.0
 40
12.0
 40
12.0
 40
12.0
 40
13.0
 40
13.0
 40
13.0
 40
14.0
 40
14.0
 40
14.0
 40
15.0
 40
15.0
 40
15.0
 40
16.0
 40
16.0
 40
16.0
 40
17.0
 40
17.0
 40
17.0
 40
18.0
 40
18.0
 40
18.0
 40
19.0
 40
19.0
 40
19.0
 40
20.0
 40
20.0
 40
20.0
 40
21.0
 40
21.0
 40
21.0
 40
22.0
 40
22.0
 40
22.0
 40
23.0
 40
23.0
 40
23.0
 40
24.0
 40
24.0
 40
24.0
 40
25.0
 40
25.0
 40
25.0
 40
26.0
 40
26.0
 40
26.0
 40
27.0
 40
27.0
 40
27.0
 40
28.0
 40
28.0
 40
28.0
 40
29.0
 40
29.0
 40
29.0
 40
30.0
 40
30.0
 40
30.0
 40
31.0
 40
31.0
 40
31.0
 40
32.0
 40
32.0
 40
32.0
 40
33.0
 40
33.0
 40
33.0
 40
34.0
 40
34.0
 40
34.0
 40
35.0
 40
35.0
 40
35.0
 40
36.0
 40
36.0
 40
36.0
 40
37.0
 40
37.0
 40
37.0
 40
38.0
 40
38.0
 40
38.0
 40
39.0
 40
39.0
 40
39.0
 40
40.0
 40
40.0
 40
40.0
 40
41.0
 40
41.0
 40
41.0
 40
42.0
 40
42.0
 40
42.0
 40
43.0
 40
43.0
 40
43.0
 40
44.0
 40
44.0
 40
44.0
 40
45.0
 40
45.0
 40
45.0
 40
46.0
 40
46.0
 40
46.0
 40
47.0
 40
47.0
 40
47.0
 40
48.0
 40
48.0
 40
48.0
 40
49.0
 40
49.0
 40
49.0
 40
50.0
 40
50.0
 40
50.0
 40
51.0
 40
51.0
 40
51.0
 40
52.0
 40
52.0
 40
52.0
 40
53.0
 40
53.0
 40
53.0
 40
54.0
 40
54.0
 40
54.0
 40
55.0
 40
55.0
 40
55.0
 40
56.0
 40
56.0
 40
56.0
 40
57.0
 40
57.0
 40
57.0
 40
58.0
 40
58.0
 40
58.0
 40
59.0
 40
59.0
 40
59.0
 40
60.0
 40
60.0
 40
60.0
 40
61.0
 40
61.0
 40
61.0
 40
62.0
 40
62.0
 40
62.0
 40
63.0
 40
63.0
 40
63.0
 40
64.0
 40
64.0
 40
64.0
 40
65.0
 40
65.0
 40
65.0
 40
66.0
 40
66.0
 40
66.0
 40
66.0
 10
114.1604736042724
 20
-137.9230197137831
 30
0.0
 10
114.1604736042724
 20
-137.9230197137831
 30
0.0
 10
113.6016791165648
 20
-137.9230197137831
 30
0.0
 10
113.6016791165648
 20
-137.9230197137831
 30
0.0
 10
113.5913438301091
 20
-137.9674614455428
 30
0.0
 10
113.582731091396
 20
-137.9991563240071
 30
0.0
 10
113.5699842381005
 20
-138.0373968838934
 30
0.0
 10
113.5954779446914
 20
-138.0373968838934
 30
0.0
 10
113.610291855278
 20
-138.0394639411846
 30
0.0
 10
113.6164930271514
 20
-138.0394639411846
 30
0.0
 10
113.6164930271514
 20
-138.0394639411846
 30
0.0
 10
113.8049397501946
 20
-138.0394639411846
 30
0.0
 10
113.8049397501946
 20
-138.0394639411846
 30
0.0
 10
113.8049397501946
 20
-138.0394639411846
 30
0.0
 10
114.1794216294412
 20
-138.0394639411846
 30
0.0
 10
114.1794216294412
 20
-138.0394639411846
 30
0.0
 10
114.2300645330744
 20
-138.0394639411846
 30
0.0
 10
114.5135958915105
 20
-138.0267170878891
 30
0.0
 10
114.5452907699748
 20
-138.0267170878891
 30
0.0
 10
114.5432237126836
 20
-138.0542778517711
 30
0.0
 10
114.5411566553925
 20
-138.07322587694
 30
0.0
 10
114.5411566553925
 20
-138.1028536981132
 30
0.0
 10
114.5390895981013
 20
-138.1345485765775
 30
0.0
 10
114.5390895981013
 20
-138.2699408291478
 30
0.0
 10
114.5390895981013
 20
-138.2975015930298
 30
0.0
 10
114.5390895981013
 20
-138.2975015930298
 30
0.0
 10
114.5390895981013
 20
-138.5429646463538
 30
0.0
 10
114.5390895981013
 20
-138.5429646463538
 30
0.0
 10
114.5390895981013
 20
-138.5874063781135
 30
0.0
 10
114.5432237126836
 20
-138.7841213303213
 30
0.0
 10
114.5473578272659
 20
-138.9363945507694
 30
0.0
 10
114.5473578272659
 20
-138.9363945507694
 30
0.0
 10
114.321015053885
 20
-138.9363945507694
 30
0.0
 10
114.321015053885
 20
-138.9363945507694
 30
0.0
 10
114.321015053885
 20
-138.9363945507694
 30
0.0
 10
114.3230821111762
 20
-138.9026326150139
 30
0.0
 10
114.3230821111762
 20
-138.9026326150139
 30
0.0
 10
114.3230821111762
 20
-138.9026326150139
 30
0.0
 10
113.6209716512822
 20
-138.9026326150139
 30
0.0
 10
113.6209716512822
 20
-138.9026326150139
 30
0.0
 10
113.6209716512822
 20
-138.9026326150139
 30
0.0
 10
113.6230387085734
 20
-138.9363945507694
 30
0.0
 10
113.6230387085734
 20
-138.9363945507694
 30
0.0
 10
113.6230387085734
 20
-138.9363945507694
 30
0.0
 10
113.4049641643571
 20
-138.9363945507694
 30
0.0
 10
113.4049641643571
 20
-138.9363945507694
 30
0.0
 10
113.4094427884879
 20
-138.8814452777796
 30
0.0
 10
113.4094427884879
 20
-138.8686984244842
 30
0.0
 10
113.4156439603614
 20
-138.7544935091481
 30
0.0
 10
113.4177110176525
 20
-138.7269327452662
 30
0.0
 10
113.4197780749437
 20
-138.5937798047613
 30
0.0
 10
113.4197780749437
 20
-138.5746595248181
 30
0.0
 10
113.4197780749437
 20
-138.5746595248181
 30
0.0
 10
113.4197780749437
 20
-138.3715711459626
 30
0.0
 10
113.4197780749437
 20
-138.3715711459626
 30
0.0
 10
113.280251707791
 20
-138.621168313869
 30
0.0
 10
113.1110975194653
 20
-138.752426451857
 30
0.0
 10
113.0053330880681
 20
-138.8178832660768
 30
0.0
 10
113.0053330880681
 20
-138.8178832660768
 30
0.0
 10
112.8317002756115
 20
-138.6783568989241
 30
0.0
 10
112.8317002756115
 20
-138.6783568989241
 30
0.0
 10
112.920583739131
 20
-138.6275417405167
 30
0.0
 10
113.0645887304144
 20
-138.5407253342884
 30
0.0
 10
113.2020480402759
 20
-138.3462496941461
 30
0.0
 10
113.2929985610864
 20
-138.2192979255146
 30
0.0
 10
113.3584553753062
 20
-138.0754651890054
 30
0.0
 10
113.3925618206102
 20
-137.9230197137831
 30
0.0
 10
113.1638074803896
 20
-137.9252590258485
 30
0.0
 10
112.9839734960595
 20
-137.9316324524962
 30
0.0
 10
112.8888888606667
 20
-137.9336995097874
 30
0.0
 10
112.8888888606667
 20
-137.9336995097874
 30
0.0
 10
112.8888888606667
 20
-137.7559325827485
 30
0.0
 10
112.8888888606667
 20
-137.7559325827485
 30
0.0
 10
113.0856038128744
 20
-137.7623060093962
 30
0.0
 10
113.3691351713105
 20
-137.7666123787528
 30
0.0
 10
113.5193413344674
 20
-137.7666123787528
 30
0.0
 10
113.5193413344674
 20
-137.7666123787528
 30
0.0
 10
113.7329372545529
 20
-137.7666123787528
 30
0.0
 10
113.7329372545529
 20
-137.7666123787528
 30
0.0
 10
113.7329372545529
 20
-137.7666123787528
 30
0.0
 10
113.7329372545529
 20
-137.6586086352902
 30
0.0
 10
113.7329372545529
 20
-137.6586086352902
 30
0.0
 10
113.7329372545529
 20
-137.6586086352902
 30
0.0
 10
113.5868652059783
 20
-137.6586086352902
 30
0.0
 10
113.5868652059783
 20
-137.6586086352902
 30
0.0
 10
113.4177110176525
 20
-137.6586086352902
 30
0.0
 10
113.2485568293267
 20
-137.6629150046468
 30
0.0
 10
113.0814696982921
 20
-137.6692884312945
 30
0.0
 10
113.0814696982921
 20
-137.6692884312945
 30
0.0
 10
113.0814696982921
 20
-137.4978949309033
 30
0.0
 10
113.0814696982921
 20
-137.4978949309033
 30
0.0
 10
113.2358099760313
 20
-137.5084024721333
 30
0.0
 10
113.4218451322348
 20
-137.5084024721333
 30
0.0
 10
113.5868652059783
 20
-137.5084024721333
 30
0.0
 10
113.5868652059783
 20
-137.5084024721333
 30
0.0
 10
113.7329372545529
 20
-137.5084024721333
 30
0.0
 10
113.7329372545529
 20
-137.5084024721333
 30
0.0
 10
113.7329372545529
 20
-137.5084024721333
 30
0.0
 10
113.7329372545529
 20
-137.390063442215
 30
0.0
 10
113.7329372545529
 20
-137.390063442215
 30
0.0
 10
113.7329372545529
 20
-137.390063442215
 30
0.0
 10
113.6016791165648
 20
-137.390063442215
 30
0.0
 10
113.6016791165648
 20
-137.390063442215
 30
0.0
 10
113.555170327514
 20
-137.390063442215
 30
0.0
 10
113.3522542034328
 20
-137.3985039261538
 30
0.0
 10
113.3098795289642
 20
-137.3985039261538
 30
0.0
 10
113.106963404883
 20
-137.4026380407361
 30
0.0
 10
113.0304822851104
 20
-137.4047050980273
 30
0.0
 10
112.9522786175952
 20
-137.4069444100927
 30
0.0
 10
112.9522786175952
 20
-137.4069444100927
 30
0.0
 10
112.9522786175952
 20
-137.2228040564061
 30
0.0
 10
112.9522786175952
 20
-137.2228040564061
 30
0.0
 10
113.0666557877055
 20
-137.2312445403449
 30
0.0
 10
113.1110975194653
 20
-137.2312445403449
 30
0.0
 10
113.4938476278765
 20
-137.2398572790581
 30
0.0
 10
113.4304578709479
 20
-137.1446003888909
 30
0.0
 10
113.4028971070659
 20
-137.1170396250089
 30
0.0
 10
113.3670681140193
 20
-137.0810383771881
 30
0.0
 10
113.3670681140193
 20
-137.0810383771881
 30
0.0
 10
113.5424234742185
 20
-136.9985283403163
 30
0.0
 10
113.5424234742185
 20
-136.9985283403163
 30
0.0
 10
113.582731091396
 20
-137.0345295881372
 30
0.0
 10
113.6271728231557
 20
-137.0769042626058
 30
0.0
 10
113.7012423760886
 20
-137.1868028085852
 30
0.0
 10
113.7012423760886
 20
-137.1868028085852
 30
0.0
 10
113.5868652059783
 20
-137.2419243363492
 30
0.0
 10
113.5868652059783
 20
-137.2419243363492
 30
0.0
 10
113.5868652059783
 20
-137.2419243363492
 30
0.0
 10
113.5975450019826
 20
-137.2419243363492
 30
0.0
 10
113.5975450019826
 20
-137.2419243363492
 30
0.0
 10
113.5975450019826
 20
-137.2419243363492
 30
0.0
 10
114.1201659870949
 20
-137.2419243363492
 30
0.0
 10
114.1201659870949
 20
-137.2419243363492
 30
0.0
 10
114.1201659870949
 20
-137.2419243363492
 30
0.0
 10
114.025081351702
 20
-137.1974826045895
 30
0.0
 10
114.025081351702
 20
-137.1974826045895
 30
0.0
 10
114.0522976060355
 20
-137.1594142994775
 30
0.0
 10
114.1094861910907
 20
-137.0789713198969
 30
0.0
 10
114.1243001016772
 20
-137.004901766964
 30
0.0
 10
114.1243001016772
 20
-137.004901766964
 30
0.0
 10
114.3378960217627
 20
-137.0684637786669
 30
0.0
 10
114.3378960217627
 20
-137.0684637786669
 30
0.0
 10
114.3465087604759
 20
-137.070530835958
 30
0.0
 10
114.3675238429359
 20
-137.0810383771881
 30
0.0
 10
114.3675238429359
 20
-137.1022257144223
 30
0.0
 10
114.3675238429359
 20
-137.1402940195343
 30
0.0
 10
114.3020670287161
 20
-137.1402940195343
 30
0.0
 10
114.2831190035473
 20
-137.1402940195343
 30
0.0
 10
114.272439207543
 20
-137.1594142994775
 30
0.0
 10
114.2490125582433
 20
-137.1995496618806
 30
0.0
 10
114.2193847370701
 20
-137.2398572790581
 30
0.0
 10
114.6193603229076
 20
-137.2334838524104
 30
0.0
 10
114.6489881440808
 20
-137.2312445403449
 30
0.0
 10
114.7251247543048
 20
-137.2250433684715
 30
0.0
 10
114.7251247543048
 20
-137.2250433684715
 30
0.0
 10
114.7251247543048
 20
-137.4069444100927
 30
0.0
 10
114.7251247543048
 20
-137.4069444100927
 30
0.0
 10
114.7061767291359
 20
-137.4069444100927
 30
0.0
 10
114.6806830225451
 20
-137.4047050980273
 30
0.0
 10
114.4608859305861
 20
-137.3962646140884
 30
0.0
 10
114.4098985174045
 20
-137.3941975567973
 30
0.0
 10
114.1901014254455
 20
-137.390063442215
 30
0.0
 10
114.1456596936858
 20
-137.390063442215
 30
0.0
 10
114.1456596936858
 20
-137.390063442215
 30
0.0
 10
113.9296522067606
 20
-137.390063442215
 30
0.0
 10
113.9296522067606
 20
-137.390063442215
 30
0.0
 10
113.9296522067606
 20
-137.390063442215
 30
0.0
 10
113.9296522067606
 20
-137.5084024721333
 30
0.0
 10
113.9296522067606
 20
-137.5084024721333
 30
0.0
 10
113.9296522067606
 20
-137.5084024721333
 30
0.0
 10
114.1032850192172
 20
-137.5084024721333
 30
0.0
 10
114.1032850192172
 20
-137.5084024721333
 30
0.0
 10
114.2662380356695
 20
-137.5084024721333
 30
0.0
 10
114.4564073064553
 20
-137.5084024721333
 30
0.0
 10
114.6131591510342
 20
-137.4978949309033
 30
0.0
 10
114.6131591510342
 20
-137.4978949309033
 30
0.0
 10
114.6131591510342
 20
-137.6692884312945
 30
0.0
 10
114.6131591510342
 20
-137.6692884312945
 30
0.0
 10
114.403697345531
 20
-137.6608479473556
 30
0.0
 10
114.2069823933232
 20
-137.6586086352902
 30
0.0
 10
114.1032850192172
 20
-137.6586086352902
 30
0.0
 10
114.1032850192172
 20
-137.6586086352902
 30
0.0
 10
113.9296522067606
 20
-137.6586086352902
 30
0.0
 10
113.9296522067606
 20
-137.6586086352902
 30
0.0
 10
113.9296522067606
 20
-137.6586086352902
 30
0.0
 10
113.9296522067606
 20
-137.7666123787528
 30
0.0
 10
113.9296522067606
 20
-137.7666123787528
 30
0.0
 10
113.9296522067606
 20
-137.7666123787528
 30
0.0
 10
114.1604736042724
 20
-137.7666123787528
 30
0.0
 10
114.1604736042724
 20
-137.7666123787528
 30
0.0
 10
114.293454290003
 20
-137.7666123787528
 30
0.0
 10
114.5814642725699
 20
-137.7623060093962
 30
0.0
 10
114.7905815685246
 20
-137.7559325827485
 30
0.0
 10
114.7905815685246
 20
-137.7559325827485
 30
0.0
 10
114.7905815685246
 20
-137.9336995097874
 30
0.0
 10
114.7905815685246
 20
-137.9336995097874
 30
0.0
 10
114.5983452404476
 20
-137.9273260831397
 30
0.0
 10
114.2851860608384
 20
-137.9230197137831
 30
0.0
 10
114.1604736042724
 20
-137.9230197137831
 30
0.0
  0
HATCH
  5
FD
330
F1
100
AcDbEntity
  8
レイヤー 1
 62
   250
420
  2299925
440
 33554687
100
AcDbHatch
 10
0.0
 20
0.0
 30
0.0
210
0.0
220
0.0
230
1.0
  2
SOLID
 70
     1
 71
     1
 91
        4
 92
        1
 93
        1
 72
     4
 94
        3
 73
     0
 74
     0
 95
       17
 96
       13
 40
0.0
 40
0.0
 40
0.0
 40
0.0
 40
1.0
 40
1.0
 40
1.0
 40
2.0
 40
2.0
 40
2.0
 40
3.0
 40
3.0
 40
3.0
 40
4.0
 40
4.0
 40
4.0
 40
4.0
 10
114.3254936780158
 20
-138.6551025043987
 10
114.3254936780158
 20
-138.6551025043987
 10
113.6189045939911
 20
-138.6551025043987
 10
113.6189045939911
 20
-138.6551025043987
 10
113.6189045939911
 20
-138.6551025043987
 10
113.6189045939911
 20
-138.7693074197347
 10
113.6189045939911
 20
-138.7693074197347
 10
113.6189045939911
 20
-138.7693074197347
 10
114.3254936780158
 20
-138.7693074197347
 10
114.3254936780158
 20
-138.7693074197347
 10
114.3254936780158
 20
-138.7693074197347
 10
114.3254936780158
 20
-138.6551025043987
 10
114.3254936780158
 20
-138.6551025043987
 97
        0
 97
        1
330
F9
 92
        1
 93
        1
 72
     4
 94
        3
 73
     0
 74
     0
 95
       17
 96
       13
 40
0.0
 40
0.0
 40
0.0
 40
0.0
 40
1.0
 40
1.0
 40
1.0
 40
2.0
 40
2.0
 40
2.0
 40
3.0
 40
3.0
 40
3.0
 40
4.0
 40
4.0
 40
4.0
 40
4.0
 10
114.3254936780158
 20
-138.4117065083658
 10
114.3254936780158
 20
-138.4117065083658
 10
113.6189045939911
 20
-138.4117065083658
 10
113.6189045939911
 20
-138.4117065083658
 10
113.6189045939911
 20
-138.4117065083658
 10
113.6189045939911
 20
-138.5260836784761
 10
113.6189045939911
 20
-138.5260836784761
 10
113.6189045939911
 20
-138.5260836784761
 10
114.3254936780158
 20
-138.5260836784761
 10
114.3254936780158
 20
-138.5260836784761
 10
114.3254936780158
 20
-138.5260836784761
 10
114.3254936780158
 20
-138.4117065083658
 10
114.3254936780158
 20
-138.4117065083658
 97
        0
 97
        1
330
FA
 92
        1
 93
        1
 72
     4
 94
        3
 73
     0
 74
     0
 95
       17
 96
       13
 40
0.0
 40
0.0
 40
0.0
 40
0.0
 40
1.0
 40
1.0
 40
1.0
 40
2.0
 40
2.0
 40
2.0
 40
3.0
 40
3.0
 40
3.0
 40
4.0
 40
4.0
 40
4.0
 40
4.0
 10
114.3254936780158
 20
-138.1789903083372
 10
114.3254936780158
 20
-138.1789903083372
 10
113.6189045939911
 20
-138.1789903083372
 10
113.6189045939911
 20
-138.1789903083372
 10
113.6189045939911
 20
-138.1789903083372
 10
113.6189045939911
 20
-138.2869940517998
 10
113.6189045939911
 20
-138.2869940517998
 10
113.6189045939911
 20
-138.2869940517998
 10
114.3254936780158
 20
-138.2869940517998
 10
114.3254936780158
 20
-138.2869940517998
 10
114.3254936780158
 20
-138.2869940517998
 10
114.3254936780158
 20
-138.1789903083372
 10
114.3254936780158
 20
-138.1789903083372
 97
        0
 97
        1
330
FB
 92
        1
 93
        1
 72
     4
 94
        3
 73
     0
 74
     0
 95
      203
 96
      199
 40
0.0
 40
0.0
 40
0.0
 40
0.0
 40
1.0
 40
1.0
 40
1.0
 40
2.0
 40
2.0
 40
2.0
 40
3.0
 40
3.0
 40
3.0
 40
4.0
 40
4.0
 40
4.0
 40
5.0
 40
5.0
 40
5.0
 40
6.0
 40
6.0
 40
6.0
 40
7.0
 40
7.0
 40
7.0
 40
8.0
 40
8.0
 40
8.0
 40
9.0
 40
9.0
 40
9.0
 40
10.0
 40
10.0
 40
10.0
 40
11.0
 40
11.0
 40
11.0
 40
12.0
 40
12.0
 40
12.0
 40
13.0
 40
13.0
 40
13.0
 40
14.0
 40
14.0
 40
14.0
 40
15.0
 40
15.0
 40
15.0
 40
16.0
 40
16.0
 40
16.0
 40
17.0
 40
17.0
 40
17.0
 40
18.0
 40
18.0
 40
18.0
 40
19.0
 40
19.0
 40
19.0
 40
20.0
 40
20.0
 40
20.0
 40
21.0
 40
21.0
 40
21.0
 40
22.0
 40
22.0
 40
22.0
 40
23.0
 40
23.0
 40
23.0
 40
24.0
 40
24.0
 40
24.0
 40
25.0
 40
25.0
 40
25.0
 40
26.0
 40
26.0
 40
26.0
 40
27.0
 40
27.0
 40
27.0
 40
28.0
 40
28.0
 40
28.0
 40
29.0
 40
29.0
 40
29.0
 40
30.0
 40
30.0
 40
30.0
 40
31.0
 40
31.0
 40
31.0
 40
32.0
 40
32.0
 40
32.0
 40
33.0
 40
33.0
 40
33.0
 40
34.0
 40
34.0
 40
34.0
 40
35.0
 40
35.0
 40
35.0
 40
36.0
 40
36.0
 40
36.0
 40
37.0
 40
37.0
 40
37.0
 40
38.0
 40
38.0
 40
38.0
 40
39.0
 40
39.0
 40
39.0
 40
40.0
 40
40.0
 40
40.0
 40
41.0
 40
41.0
 40
41.0
 40
42.0
 40
42.0
 40
42.0
 40
43.0
 40
43.0
 40
43.0
 40
44.0
 40
44.0
 40
44.0
 40
45.0
 40
45.0
 40
45.0
 40
46.0
 40
46.0
 40
46.0
 40
47.0
 40
47.0
 40
47.0
 40
48.0
 40
48.0
 40
48.0
 40
49.0
 40
49.0
 40
49.0
 40
50.0
 40
50.0
 40
50.0
 40
51.0
 40
51.0
 40
51.0
 40
52.0
 40
52.0
 40
52.0
 40
53.0
 40
53.0
 40
53.0
 40
54.0
 40
54.0
 40
54.0
 40
55.0
 40
55.0
 40
55.0
 40
56.0
 40
56.0
 40
56.0
 40
57.0
 40
57.0
 40
57.0
 40
58.0
 40
58.0
 40
58.0
 40
59.0
 40
59.0
 40
59.0
 40
60.0
 40
60.0
 40
60.0
 40
61.0
 40
61.0
 40
61.0
 40
62.0
 40
62.0
 40
62.0
 40
63.0
 40
63.0
 40
63.0
 40
64.0
 40
64.0
 40
64.0
 40
65.0
 40
65.0
 40
65.0
 40
66.0
 40
66.0
 40
66.0
 40
66.0
 10
114.1604736042724
 20
-137.9230197137831
 10
114.1604736042724
 20
-137.9230197137831
 10
113.6016791165648
 20
-137.9230197137831
 10
113.6016791165648
 20
-137.9230197137831
 10
113.5913438301091
 20
-137.9674614455428
 10
113.582731091396
 20
-137.9991563240071
 10
113.5699842381005
 20
-138.0373968838934
 10
113.5954779446914
 20
-138.0373968838934
 10
113.610291855278
 20
-138.0394639411846
 10
113.6164930271514
 20
-138.0394639411846
 10
113.6164930271514
 20
-138.0394639411846
 10
113.8049397501946
 20
-138.0394639411846
 10
113.8049397501946
 20
-138.0394639411846
 10
113.8049397501946
 20
-138.0394639411846
 10
114.1794216294412
 20
-138.0394639411846
 10
114.1794216294412
 20
-138.0394639411846
 10
114.2300645330744
 20
-138.0394639411846
 10
114.5135958915105
 20
-138.0267170878891
 10
114.5452907699748
 20
-138.0267170878891
 10
114.5432237126836
 20
-138.0542778517711
 10
114.5411566553925
 20
-138.07322587694
 10
114.5411566553925
 20
-138.1028536981132
 10
114.5390895981013
 20
-138.1345485765775
 10
114.5390895981013
 20
-138.2699408291478
 10
114.5390895981013
 20
-138.2975015930298
 10
114.5390895981013
 20
-138.2975015930298
 10
114.5390895981013
 20
-138.5429646463538
 10
114.5390895981013
 20
-138.5429646463538
 10
114.5390895981013
 20
-138.5874063781135
 10
114.5432237126836
 20
-138.7841213303213
 10
114.5473578272659
 20
-138.9363945507694
 10
114.5473578272659
 20
-138.9363945507694
 10
114.321015053885
 20
-138.9363945507694
 10
114.321015053885
 20
-138.9363945507694
 10
114.321015053885
 20
-138.9363945507694
 10
114.3230821111762
 20
-138.9026326150139
 10
114.3230821111762
 20
-138.9026326150139
 10
114.3230821111762
 20
-138.9026326150139
 10
113.6209716512822
 20
-138.9026326150139
 10
113.6209716512822
 20
-138.9026326150139
 10
113.6209716512822
 20
-138.9026326150139
 10
113.6230387085734
 20
-138.9363945507694
 10
113.6230387085734
 20
-138.9363945507694
 10
113.6230387085734
 20
-138.9363945507694
 10
113.4049641643571
 20
-138.9363945507694
 10
113.4049641643571
 20
-138.9363945507694
 10
113.4094427884879
 20
-138.8814452777796
 10
113.4094427884879
 20
-138.8686984244842
 10
113.4156439603614
 20
-138.7544935091481
 10
113.4177110176525
 20
-138.7269327452662
 10
113.4197780749437
 20
-138.5937798047613
 10
113.4197780749437
 20
-138.5746595248181
 10
113.4197780749437
 20
-138.5746595248181
 10
113.4197780749437
 20
-138.3715711459626
 10
113.4197780749437
 20
-138.3715711459626
 10
113.280251707791
 20
-138.621168313869
 10
113.1110975194653
 20
-138.752426451857
 10
113.0053330880681
 20
-138.8178832660768
 10
113.0053330880681
 20
-138.8178832660768
 10
112.8317002756115
 20
-138.6783568989241
 10
112.8317002756115
 20
-138.6783568989241
 10
112.920583739131
 20
-138.6275417405167
 10
113.0645887304144
 20
-138.5407253342884
 10
113.2020480402759
 20
-138.3462496941461
 10
113.2929985610864
 20
-138.2192979255146
 10
113.3584553753062
 20
-138.0754651890054
 10
113.3925618206102
 20
-137.9230197137831
 10
113.1638074803896
 20
-137.9252590258485
 10
112.9839734960595
 20
-137.9316324524962
 10
112.8888888606667
 20
-137.9336995097874
 10
112.8888888606667
 20
-137.9336995097874
 10
112.8888888606667
 20
-137.7559325827485
 10
112.8888888606667
 20
-137.7559325827485
 10
113.0856038128744
 20
-137.7623060093962
 10
113.3691351713105
 20
-137.7666123787528
 10
113.5193413344674
 20
-137.7666123787528
 10
113.5193413344674
 20
-137.7666123787528
 10
113.7329372545529
 20
-137.7666123787528
 10
113.7329372545529
 20
-137.7666123787528
 10
113.7329372545529
 20
-137.7666123787528
 10
113.7329372545529
 20
-137.6586086352902
 10
113.7329372545529
 20
-137.6586086352902
 10
113.7329372545529
 20
-137.6586086352902
 10
113.5868652059783
 20
-137.6586086352902
 10
113.5868652059783
 20
-137.6586086352902
 10
113.4177110176525
 20
-137.6586086352902
 10
113.2485568293267
 20
-137.6629150046468
 10
113.0814696982921
 20
-137.6692884312945
 10
113.0814696982921
 20
-137.6692884312945
 10
113.0814696982921
 20
-137.4978949309033
 10
113.0814696982921
 20
-137.4978949309033
 10
113.2358099760313
 20
-137.5084024721333
 10
113.4218451322348
 20
-137.5084024721333
 10
113.5868652059783
 20
-137.5084024721333
 10
113.5868652059783
 20
-137.5084024721333
 10
113.7329372545529
 20
-137.5084024721333
 10
113.7329372545529
 20
-137.5084024721333
 10
113.7329372545529
 20
-137.5084024721333
 10
113.7329372545529
 20
-137.390063442215
 10
113.7329372545529
 20
-137.390063442215
 10
113.7329372545529
 20
-137.390063442215
 10
113.6016791165648
 20
-137.390063442215
 10
113.6016791165648
 20
-137.390063442215
 10
113.555170327514
 20
-137.390063442215
 10
113.3522542034328
 20
-137.3985039261538
 10
113.3098795289642
 20
-137.3985039261538
 10
113.106963404883
 20
-137.4026380407361
 10
113.0304822851104
 20
-137.4047050980273
 10
112.9522786175952
 20
-137.4069444100927
 10
112.9522786175952
 20
-137.4069444100927
 10
112.9522786175952
 20
-137.2228040564061
 10
112.9522786175952
 20
-137.2228040564061
 10
113.0666557877055
 20
-137.2312445403449
 10
113.1110975194653
 20
-137.2312445403449
 10
113.4938476278765
 20
-137.2398572790581
 10
113.4304578709479
 20
-137.1446003888909
 10
113.4028971070659
 20
-137.1170396250089
 10
113.3670681140193
 20
-137.0810383771881
 10
113.3670681140193
 20
-137.0810383771881
 10
113.5424234742185
 20
-136.9985283403163
 10
113.5424234742185
 20
-136.9985283403163
 10
113.582731091396
 20
-137.0345295881372
 10
113.6271728231557
 20
-137.0769042626058
 10
113.7012423760886
 20
-137.1868028085852
 10
113.7012423760886
 20
-137.1868028085852
 10
113.5868652059783
 20
-137.2419243363492
 10
113.5868652059783
 20
-137.2419243363492
 10
113.5868652059783
 20
-137.2419243363492
 10
113.5975450019826
 20
-137.2419243363492
 10
113.5975450019826
 20
-137.2419243363492
 10
113.5975450019826
 20
-137.2419243363492
 10
114.1201659870949
 20
-137.2419243363492
 10
114.1201659870949
 20
-137.2419243363492
 10
114.1201659870949
 20
-137.2419243363492
 10
114.025081351702
 20
-137.1974826045895
 10
114.025081351702
 20
-137.1974826045895
 10
114.0522976060355
 20
-137.1594142994775
 10
114.1094861910907
 20
-137.0789713198969
 10
114.1243001016772
 20
-137.004901766964
 10
114.1243001016772
 20
-137.004901766964
 10
114.3378960217627
 20
-137.0684637786669
 10
114.3378960217627
 20
-137.0684637786669
 10
114.3465087604759
 20
-137.070530835958
 10
114.3675238429359
 20
-137.0810383771881
 10
114.3675238429359
 20
-137.1022257144223
 10
114.3675238429359
 20
-137.1402940195343
 10
114.3020670287161
 20
-137.1402940195343
 10
114.2831190035473
 20
-137.1402940195343
 10
114.272439207543
 20
-137.1594142994775
 10
114.2490125582433
 20
-137.1995496618806
 10
114.2193847370701
 20
-137.2398572790581
 10
114.6193603229076
 20
-137.2334838524104
 10
114.6489881440808
 20
-137.2312445403449
 10
114.7251247543048
 20
-137.2250433684715
 10
114.7251247543048
 20
-137.2250433684715
 10
114.7251247543048
 20
-137.4069444100927
 10
114.7251247543048
 20
-137.4069444100927
 10
114.7061767291359
 20
-137.4069444100927
 10
114.6806830225451
 20
-137.4047050980273
 10
114.4608859305861
 20
-137.3962646140884
 10
114.4098985174045
 20
-137.3941975567973
 10
114.1901014254455
 20
-137.390063442215
 10
114.1456596936858
 20
-137.390063442215
 10
114.1456596936858
 20
-137.390063442215
 10
113.9296522067606
 20
-137.390063442215
 10
113.9296522067606
 20
-137.390063442215
 10
113.9296522067606
 20
-137.390063442215
 10
113.9296522067606
 20
-137.5084024721333
 10
113.9296522067606
 20
-137.5084024721333
 10
113.9296522067606
 20
-137.5084024721333
 10
114.1032850192172
 20
-137.5084024721333
 10
114.1032850192172
 20
-137.5084024721333
 10
114.2662380356695
 20
-137.5084024721333
 10
114.4564073064553
 20
-137.5084024721333
 10
114.6131591510342
 20
-137.4978949309033
 10
114.6131591510342
 20
-137.4978949309033
 10
114.6131591510342
 20
-137.6692884312945
 10
114.6131591510342
 20
-137.6692884312945
 10
114.403697345531
 20
-137.6608479473556
 10
114.2069823933232
 20
-137.6586086352902
 10
114.1032850192172
 20
-137.6586086352902
 10
114.1032850192172
 20
-137.6586086352902
 10
113.9296522067606
 20
-137.6586086352902
 10
113.9296522067606
 20
-137.6586086352902
 10
113.9296522067606
 20
-137.6586086352902
 10
113.9296522067606
 20
-137.7666123787528
 10
113.9296522067606
 20
-137.7666123787528
 10
113.9296522067606
 20
-137.7666123787528
 10
114.1604736042724
 20
-137.7666123787528
 10
114.1604736042724
 20
-137.7666123787528
 10
114.293454290003
 20
-137.7666123787528
 10
114.5814642725699
 20
-137.7623060093962
 10
114.7905815685246
 20
-137.7559325827485
 10
114.7905815685246
 20
-137.7559325827485
 10
114.7905815685246
 20
-137.9336995097874
 10
114.7905815685246
 20
-137.9336995097874
 10
114.5983452404476
 20
-137.9273260831397
 10
114.2851860608384
 20
-137.9230197137831
 10
114.1604736042724
 20
-137.9230197137831
 97
        0
 97
        1
330
FC
 75
     2
 76
     1
 98
        1
 10
0.0
 20
0.0
450
        0
451
        0
460
0.0
461
0.0
452
        0
462
0.0
453
        0
470

  0
SPLINE
  5
FE
330
F1
100
AcDbEntity
  8
レイヤー 1
100
AcDbSpline
210
0.0
220
0.0
230
1.0
 70
     9
 71
     3
 72
    29
 73
    25
 74
     0
 42
0.0000000001
 43
0.0000000001
 40
0.0
 40
0.0
 40
0.0
 40
0.0
 40
1.0
 40
1.0
 40
1.0
 40
2.0
 40
2.0
 40
2.0
 40
3.0
 40
3.0
 40
3.0
 40
4.0
 40
4.0
 40
4.0
 40
5.0
 40
5.0
 40
5.0
 40
6.0
 40
6.0
 40
6.0
 40
7.0
 40
7.0
 40
7.0
 40
8.0
 40
8.0
 40
8.0
 40
8.0
 10
116.0356390768938
 20
-137.3709431622718
 30
0.0
 10
116.0356390768938
 20
-137.3709431622718
 30
0.0
 10
115.6821722801072
 20
-137.3709431622718
 30
0.0
 10
115.6821722801072
 20
-137.3709431622718
 30
0.0
 10
115.5702066768366
 20
-137.3709431622718
 30
0.0
 10
115.430680309684
 20
-137.3773165889195
 30
0.0
 10
115.3228488209957
 20
-137.390063442215
 30
0.0
 10
115.3228488209957
 20
-137.390063442215
 30
0.0
 10
115.3228488209957
 20
-137.1551079301209
 30
0.0
 10
115.3228488209957
 20
-137.1551079301209
 30
0.0
 10
115.4410155961397
 20
-137.1699218407075
 30
0.0
 10
115.6253282046006
 20
-137.1742282100641
 30
0.0
 10
115.6821722801072
 20
-137.1742282100641
 30
0.0
 10
115.6821722801072
 20
-137.1742282100641
 30
0.0
 10
116.0356390768938
 20
-137.1742282100641
 30
0.0
 10
116.0356390768938
 20
-137.1742282100641
 30
0.0
 10
116.0545871020627
 20
-137.1742282100641
 30
0.0
 10
116.2578477356925
 20
-137.1742282100641
 30
0.0
 10
116.3994411601362
 20
-137.1551079301209
 30
0.0
 10
116.3994411601362
 20
-137.1551079301209
 30
0.0
 10
116.3994411601362
 20
-137.390063442215
 30
0.0
 10
116.3994411601362
 20
-137.390063442215
 30
0.0
 10
116.2430338251059
 20
-137.3709431622718
 30
0.0
 10
116.0525200447716
 20
-137.3709431622718
 30
0.0
 10
116.0356390768938
 20
-137.3709431622718
 30
0.0
  0
SPLINE
  5
FF
330
F1
100
AcDbEntity
  8
レイヤー 1
100
AcDbSpline
210
0.0
220
0.0
230
1.0
 70
     9
 71
     3
 72
    47
 73
    43
 74
     0
 42
0.0000000001
 43
0.0000000001
 40
0.0
 40
0.0
 40
0.0
 40
0.0
 40
1.0
 40
1.0
 40
1.0
 40
2.0
 40
2.0
 40
2.0
 40
3.0
 40
3.0
 40
3.0
 40
4.0
 40
4.0
 40
4.0
 40
5.0
 40
5.0
 40
5.0
 40
6.0
 40
6.0
 40
6.0
 40
7.0
 40
7.0
 40
7.0
 40
8.0
 40
8.0
 40
8.0
 40
9.0
 40
9.0
 40
9.0
 40
10.0
 40
10.0
 40
10.0
 40
11.0
 40
11.0
 40
11.0
 40
12.0
 40
12.0
 40
12.0
 40
13.0
 40
13.0
 40
13.0
 40
14.0
 40
14.0
 40
14.0
 40
14.0
 10
116.1372693937087
 20
-137.8997653192577
 30
0.0
 10
116.1372693937087
 20
-137.8997653192577
 30
0.0
 10
116.0356390768938
 20
-137.8997653192577
 30
0.0
 10
116.0356390768938
 20
-137.8997653192577
 30
0.0
 10
116.0356390768938
 20
-137.986581725486
 30
0.0
 10
116.0146239944338
 20
-138.3758775153192
 30
0.0
 10
115.8179090422261
 20
-138.5958468620524
 30
0.0
 10
115.6652913122295
 20
-138.7650010503782
 30
0.0
 10
115.458241073566
 20
-138.8349364887288
 30
0.0
 10
115.3734917246288
 20
-138.8623249978365
 30
0.0
 10
115.3734917246288
 20
-138.8623249978365
 30
0.0
 10
115.1788438297122
 20
-138.6952378668019
 30
0.0
 10
115.1788438297122
 20
-138.6952378668019
 30
0.0
 10
115.2763400319448
 20
-138.6824910135064
 30
0.0
 10
115.451695392144
 20
-138.659236618981
 30
0.0
 10
115.6401421151872
 20
-138.4709621507121
 30
0.0
 10
115.71421166812
 20
-138.3991319098446
 30
0.0
 10
115.8179090422261
 20
-138.2594332879177
 30
0.0
 10
115.8179090422261
 20
-137.8997653192577
 30
0.0
 10
115.8179090422261
 20
-137.8997653192577
 30
0.0
 10
115.5870876447143
 20
-137.8997653192577
 30
0.0
 10
115.5870876447143
 20
-137.8997653192577
 30
0.0
 10
115.4010524885108
 20
-137.8997653192577
 30
0.0
 10
115.2146728227588
 20
-137.9040716886142
 30
0.0
 10
115.0286376665553
 20
-137.9188855992008
 30
0.0
 10
115.0286376665553
 20
-137.9188855992008
 30
0.0
 10
115.0286376665553
 20
-137.6989162524676
 30
0.0
 10
115.0286376665553
 20
-137.6989162524676
 30
0.0
 10
115.2170843895985
 20
-137.7137301630542
 30
0.0
 10
115.5026828053257
 20
-137.7178642776365
 30
0.0
 10
115.5870876447143
 20
-137.7178642776365
 30
0.0
 10
115.5870876447143
 20
-137.7178642776365
 30
0.0
 10
116.1372693937087
 20
-137.7178642776365
 30
0.0
 10
116.1372693937087
 20
-137.7178642776365
 30
0.0
 10
116.1562174188776
 20
-137.7178642776365
 30
0.0
 10
116.4735107130691
 20
-137.7178642776365
 30
0.0
 10
116.7019205437412
 20
-137.6989162524676
 30
0.0
 10
116.7019205437412
 20
-137.6989162524676
 30
0.0
 10
116.7019205437412
 20
-137.9188855992008
 30
0.0
 10
116.7019205437412
 20
-137.9188855992008
 30
0.0
 10
116.5138183302465
 20
-137.9040716886142
 30
0.0
 10
116.3253716072033
 20
-137.8997653192577
 30
0.0
 10
116.1372693937087
 20
-137.8997653192577
 30
0.0
  0
HATCH
  5
100
330
F1
100
AcDbEntity
  8
レイヤー 1
 62
   250
420
  2299925
440
 33554687
100
AcDbHatch
 10
0.0
 20
0.0
 30
0.0
210
0.0
220
0.0
230
1.0
  2
SOLID
 70
     1
 71
     1
 91
        2
 92
        1
 93
        1
 72
     4
 94
        3
 73
     0
 74
     0
 95
       29
 96
       25
 40
0.0
 40
0.0
 40
0.0
 40
0.0
 40
1.0
 40
1.0
 40
1.0
 40
2.0
 40
2.0
 40
2.0
 40
3.0
 40
3.0
 40
3.0
 40
4.0
 40
4.0
 40
4.0
 40
5.0
 40
5.0
 40
5.0
 40
6.0
 40
6.0
 40
6.0
 40
7.0
 40
7.0
 40
7.0
 40
8.0
 40
8.0
 40
8.0
 40
8.0
 10
116.0356390768938
 20
-137.3709431622718
 10
116.0356390768938
 20
-137.3709431622718
 10
115.6821722801072
 20
-137.3709431622718
 10
115.6821722801072
 20
-137.3709431622718
 10
115.5702066768366
 20
-137.3709431622718
 10
115.430680309684
 20
-137.3773165889195
 10
115.3228488209957
 20
-137.390063442215
 10
115.3228488209957
 20
-137.390063442215
 10
115.3228488209957
 20
-137.1551079301209
 10
115.3228488209957
 20
-137.1551079301209
 10
115.4410155961397
 20
-137.1699218407075
 10
115.6253282046006
 20
-137.1742282100641
 10
115.6821722801072
 20
-137.1742282100641
 10
115.6821722801072
 20
-137.1742282100641
 10
116.0356390768938
 20
-137.1742282100641
 10
116.0356390768938
 20
-137.1742282100641
 10
116.0545871020627
 20
-137.1742282100641
 10
116.2578477356925
 20
-137.1742282100641
 10
116.3994411601362
 20
-137.1551079301209
 10
116.3994411601362
 20
-137.1551079301209
 10
116.3994411601362
 20
-137.390063442215
 10
116.3994411601362
 20
-137.390063442215
 10
116.2430338251059
 20
-137.3709431622718
 10
116.0525200447716
 20
-137.3709431622718
 10
116.0356390768938
 20
-137.3709431622718
 97
        0
 97
        1
330
FE
 92
        1
 93
        1
 72
     4
 94
        3
 73
     0
 74
     0
 95
       47
 96
       43
 40
0.0
 40
0.0
 40
0.0
 40
0.0
 40
1.0
 40
1.0
 40
1.0
 40
2.0
 40
2.0
 40
2.0
 40
3.0
 40
3.0
 40
3.0
 40
4.0
 40
4.0
 40
4.0
 40
5.0
 40
5.0
 40
5.0
 40
6.0
 40
6.0
 40
6.0
 40
7.0
 40
7.0
 40
7.0
 40
8.0
 40
8.0
 40
8.0
 40
9.0
 40
9.0
 40
9.0
 40
10.0
 40
10.0
 40
10.0
 40
11.0
 40
11.0
 40
11.0
 40
12.0
 40
12.0
 40
12.0
 40
13.0
 40
13.0
 40
13.0
 40
14.0
 40
14.0
 40
14.0
 40
14.0
 10
116.1372693937087
 20
-137.8997653192577
 10
116.1372693937087
 20
-137.8997653192577
 10
116.0356390768938
 20
-137.8997653192577
 10
116.0356390768938
 20
-137.8997653192577
 10
116.0356390768938
 20
-137.986581725486
 10
116.0146239944338
 20
-138.3758775153192
 10
115.8179090422261
 20
-138.5958468620524
 10
115.6652913122295
 20
-138.7650010503782
 10
115.458241073566
 20
-138.8349364887288
 10
115.3734917246288
 20
-138.8623249978365
 10
115.3734917246288
 20
-138.8623249978365
 10
115.1788438297122
 20
-138.6952378668019
 10
115.1788438297122
 20
-138.6952378668019
 10
115.2763400319448
 20
-138.6824910135064
 10
115.451695392144
 20
-138.659236618981
 10
115.6401421151872
 20
-138.4709621507121
 10
115.71421166812
 20
-138.3991319098446
 10
115.8179090422261
 20
-138.2594332879177
 10
115.8179090422261
 20
-137.8997653192577
 10
115.8179090422261
 20
-137.8997653192577
 10
115.5870876447143
 20
-137.8997653192577
 10
115.5870876447143
 20
-137.8997653192577
 10
115.4010524885108
 20
-137.8997653192577
 10
115.2146728227588
 20
-137.9040716886142
 10
115.0286376665553
 20
-137.9188855992008
 10
115.0286376665553
 20
-137.9188855992008
 10
115.0286376665553
 20
-137.6989162524676
 10
115.0286376665553
 20
-137.6989162524676
 10
115.2170843895985
 20
-137.7137301630542
 10
115.5026828053257
 20
-137.7178642776365
 10
115.5870876447143
 20
-137.7178642776365
 10
115.5870876447143
 20
-137.7178642776365
 10
116.1372693937087
 20
-137.7178642776365
 10
116.1372693937087
 20
-137.7178642776365
 10
116.1562174188776
 20
-137.7178642776365
 10
116.4735107130691
 20
-137.7178642776365
 10
116.7019205437412
 20
-137.6989162524676
 10
116.7019205437412
 20
-137.6989162524676
 10
116.7019205437412
 20
-137.9188855992008
 10
116.7019205437412
 20
-137.9188855992008
 10
116.5138183302465
 20
-137.9040716886142
 10
116.3253716072033
 20
-137.8997653192577
 10
116.1372693937087
 20
-137.8997653192577
 97
        0
 97
        1
330
FF
 75
     2
 76
     1
 98
        1
 10
0.0
 20
0.0
450
        0
451
        0
460
0.0
461
0.0
452
        0
462
0.0
453
        0
470

  0
SPLINE
  5
101
330
F1
100
AcDbEntity
  8
レイヤー 1
100
AcDbSpline
210
0.0
220
0.0
230
1.0
 70
     9
 71
     3
 72
    29
 73
    25
 74
     0
 42
0.0000000001
 43
0.0000000001
 40
0.0
 40
0.0
 40
0.0
 40
0.0
 40
1.0
 40
1.0
 40
1.0
 40
2.0
 40
2.0
 40
2.0
 40
3.0
 40
3.0
 40
3.0
 40
4.0
 40
4.0
 40
4.0
 40
5.0
 40
5.0
 40
5.0
 40
6.0
 40
6.0
 40
6.0
 40
7.0
 40
7.0
 40
7.0
 40
8.0
 40
8.0
 40
8.0
 40
8.0
 10
117.9831515547056
 20
-138.06271833571
 30
0.0
 10
117.9831515547056
 20
-138.06271833571
 30
0.0
 10
117.4987711294795
 20
-138.06271833571
 30
0.0
 10
117.4987711294795
 20
-138.06271833571
 30
0.0
 10
117.4712103655975
 20
-138.06271833571
 30
0.0
 10
117.1539170714059
 20
-138.06271833571
 30
0.0
 10
116.9423882086116
 20
-138.0880397875266
 30
0.0
 10
116.9423882086116
 20
-138.0880397875266
 30
0.0
 10
116.9423882086116
 20
-137.8575628995634
 30
0.0
 10
116.9423882086116
 20
-137.8575628995634
 30
0.0
 10
117.1008626009331
 20
-137.8808172940888
 30
0.0
 10
117.2913763812674
 20
-137.8828843513799
 30
0.0
 10
117.4987711294795
 20
-137.8828843513799
 30
0.0
 10
117.4987711294795
 20
-137.8828843513799
 30
0.0
 10
117.9831515547056
 20
-137.8828843513799
 30
0.0
 10
117.9831515547056
 20
-137.8828843513799
 30
0.0
 10
118.1691867109091
 20
-137.8828843513799
 30
0.0
 10
118.3555663766611
 20
-137.8808172940888
 30
0.0
 10
118.5395344755734
 20
-137.8575628995634
 30
0.0
 10
118.5395344755734
 20
-137.8575628995634
 30
0.0
 10
118.5395344755734
 20
-138.0880397875266
 30
0.0
 10
118.5395344755734
 20
-138.0880397875266
 30
0.0
 10
118.3555663766611
 20
-138.0647853930011
 30
0.0
 10
118.1078640112716
 20
-138.06271833571
 30
0.0
 10
117.9831515547056
 20
-138.06271833571
 30
0.0
  0
HATCH
  5
102
330
F1
100
AcDbEntity
  8
レイヤー 1
 62
   250
420
  2299925
440
 33554687
100
AcDbHatch
 10
0.0
 20
0.0
 30
0.0
210
0.0
220
0.0
230
1.0
  2
SOLID
 70
     1
 71
     1
 91
        1
 92
        1
 93
        1
 72
     4
 94
        3
 73
     0
 74
     0
 95
       29
 96
       25
 40
0.0
 40
0.0
 40
0.0
 40
0.0
 40
1.0
 40
1.0
 40
1.0
 40
2.0
 40
2.0
 40
2.0
 40
3.0
 40
3.0
 40
3.0
 40
4.0
 40
4.0
 40
4.0
 40
5.0
 40
5.0
 40
5.0
 40
6.0
 40
6.0
 40
6.0
 40
7.0
 40
7.0
 40
7.0
 40
8.0
 40
8.0
 40
8.0
 40
8.0
 10
117.9831515547056
 20
-138.06271833571
 10
117.9831515547056
 20
-138.06271833571
 10
117.4987711294795
 20
-138.06271833571
 10
117.4987711294795
 20
-138.06271833571
 10
117.4712103655975
 20
-138.06271833571
 10
117.1539170714059
 20
-138.06271833571
 10
116.9423882086116
 20
-138.0880397875266
 10
116.9423882086116
 20
-138.0880397875266
 10
116.9423882086116
 20
-137.8575628995634
 10
116.9423882086116
 20
-137.8575628995634
 10
117.1008626009331
 20
-137.8808172940888
 10
117.2913763812674
 20
-137.8828843513799
 10
117.4987711294795
 20
-137.8828843513799
 10
117.4987711294795
 20
-137.8828843513799
 10
117.9831515547056
 20
-137.8828843513799
 10
117.9831515547056
 20
-137.8828843513799
 10
118.1691867109091
 20
-137.8828843513799
 10
118.3555663766611
 20
-137.8808172940888
 10
118.5395344755734
 20
-137.8575628995634
 10
118.5395344755734
 20
-137.8575628995634
 10
118.5395344755734
 20
-138.0880397875266
 10
118.5395344755734
 20
-138.0880397875266
 10
118.3555663766611
 20
-138.0647853930011
 10
118.1078640112716
 20
-138.06271833571
 10
117.9831515547056
 20
-138.06271833571
 97
        0
 97
        1
330
101
 75
     2
 76
     1
 98
        1
 10
0.0
 20
0.0
450
        0
451
        0
460
0.0
461
0.0
452
        0
462
0.0
453
        0
470

  0
SPLINE
  5
103
330
F1
100
AcDbEntity
  8
レイヤー 1
100
AcDbSpline
210
0.0
220
0.0
230
1.0
 70
     9
 71
     3
 72
    17
 73
    13
 74
     0
 42
0.0000000001
 43
0.0000000001
 40
0.0
 40
0.0
 40
0.0
 40
0.0
 40
1.0
 40
1.0
 40
1.0
 40
2.0
 40
2.0
 40
2.0
 40
3.0
 40
3.0
 40
3.0
 40
4.0
 40
4.0
 40
4.0
 40
4.0
 10
120.4019530948995
 20
-137.0958522877746
 30
0.0
 10
120.347176076684
 20
-137.0958522877746
 30
0.0
 10
120.3027343449243
 20
-137.1402940195343
 30
0.0
 10
120.3027343449243
 20
-137.1954155472984
 30
0.0
 10
120.3027343449243
 20
-137.2524318775792
 30
0.0
 10
120.347176076684
 20
-137.3011799786955
 30
0.0
 10
120.4060872094818
 20
-137.3011799786955
 30
0.0
 10
120.4653428518281
 20
-137.3011799786955
 30
0.0
 10
120.5056504690055
 20
-137.2503648202881
 30
0.0
 10
120.5056504690055
 20
-137.1974826045895
 30
0.0
 10
120.5056504690055
 20
-137.1402940195343
 30
0.0
 10
120.4591416799546
 20
-137.0958522877746
 30
0.0
 10
120.4019530948995
 20
-137.0958522877746
 30
0.0
  0
SPLINE
  5
104
330
F1
100
AcDbEntity
  8
レイヤー 1
100
AcDbSpline
210
0.0
220
0.0
230
1.0
 70
     9
 71
     3
 72
    17
 73
    13
 74
     0
 42
0.0000000001
 43
0.0000000001
 40
0.0
 40
0.0
 40
0.0
 40
0.0
 40
1.0
 40
1.0
 40
1.0
 40
2.0
 40
2.0
 40
2.0
 40
3.0
 40
3.0
 40
3.0
 40
4.0
 40
4.0
 40
4.0
 40
4.0
 10
120.4040201521906
 20
-137.4258924352616
 30
0.0
 10
120.2772406383334
 20
-137.4258924352616
 30
0.0
 10
120.1756103215186
 20
-137.324434373221
 30
0.0
 10
120.1756103215186
 20
-137.1974826045895
 30
0.0
 10
120.1756103215186
 20
-137.070530835958
 30
0.0
 10
120.2772406383334
 20
-136.966833461852
 30
0.0
 10
120.4040201521906
 20
-136.966833461852
 30
0.0
 10
120.5311441755964
 20
-136.966833461852
 30
0.0
 10
120.6348415497024
 20
-137.070530835958
 30
0.0
 10
120.6348415497024
 20
-137.1974826045895
 30
0.0
 10
120.6348415497024
 20
-137.324434373221
 30
0.0
 10
120.5311441755964
 20
-137.4258924352616
 30
0.0
 10
120.4040201521906
 20
-137.4258924352616
 30
0.0
  0
SPLINE
  5
105
330
F1
100
AcDbEntity
  8
レイヤー 1
100
AcDbSpline
210
0.0
220
0.0
230
1.0
 70
     9
 71
     3
 72
    44
 73
    40
 74
     0
 42
0.0000000001
 43
0.0000000001
 40
0.0
 40
0.0
 40
0.0
 40
0.0
 40
1.0
 40
1.0
 40
1.0
 40
2.0
 40
2.0
 40
2.0
 40
3.0
 40
3.0
 40
3.0
 40
4.0
 40
4.0
 40
4.0
 40
5.0
 40
5.0
 40
5.0
 40
6.0
 40
6.0
 40
6.0
 40
7.0
 40
7.0
 40
7.0
 40
8.0
 40
8.0
 40
8.0
 40
9.0
 40
9.0
 40
9.0
 40
10.0
 40
10.0
 40
10.0
 40
11.0
 40
11.0
 40
11.0
 40
12.0
 40
12.0
 40
12.0
 40
13.0
 40
13.0
 40
13.0
 40
13.0
 10
120.1945583466875
 20
-137.6248466995347
 30
0.0
 10
120.0825927434168
 20
-137.9929551521337
 30
0.0
 10
120.0319498397837
 20
-138.1516017992294
 30
0.0
 10
119.8352348875759
 20
-138.4011989671358
 30
0.0
 10
119.650922279115
 20
-138.6318481098733
 30
0.0
 10
119.4142442192784
 20
-138.8178832660768
 30
0.0
 10
119.1348469754246
 20
-138.9110730989528
 30
0.0
 10
119.1348469754246
 20
-138.9110730989528
 30
0.0
 10
118.9422661377991
 20
-138.7312391146227
 30
0.0
 10
118.9422661377991
 20
-138.7312391146227
 30
0.0
 10
119.5833984076041
 20
-138.5789658941747
 30
0.0
 10
119.9134385550911
 20
-138.0225829733068
 30
0.0
 10
119.9768283120197
 20
-137.5824720250662
 30
0.0
 10
119.9768283120197
 20
-137.5824720250662
 30
0.0
 10
119.2109835856486
 20
-137.5824720250662
 30
0.0
 10
119.2109835856486
 20
-137.5824720250662
 30
0.0
 10
119.1179660075469
 20
-137.5824720250662
 30
0.0
 10
118.9339979086345
 20
-137.5867783944227
 30
0.0
 10
118.7772460640557
 20
-137.6057264195916
 30
0.0
 10
118.7772460640557
 20
-137.6057264195916
 30
0.0
 10
118.7772460640557
 20
-137.3857570728584
 30
0.0
 10
118.7772460640557
 20
-137.3857570728584
 30
0.0
 10
118.864062470284
 20
-137.4069444100927
 30
0.0
 10
119.1158989502557
 20
-137.4069444100927
 30
0.0
 10
119.2151177002309
 20
-137.4069444100927
 30
0.0
 10
119.2151177002309
 20
-137.4069444100927
 30
0.0
 10
119.6467881645327
 20
-137.4069444100927
 30
0.0
 10
119.6467881645327
 20
-137.4069444100927
 30
0.0
 10
119.6891628390013
 20
-137.4069444100927
 30
0.0
 10
119.9237738415468
 20
-137.4047050980273
 30
0.0
 10
119.9620144014331
 20
-137.3985039261538
 30
0.0
 10
120.0043890759017
 20
-137.3921304995061
 30
0.0
 10
120.0064561331928
 20
-137.390063442215
 30
0.0
 10
120.0677788328303
 20
-137.3497558250375
 30
0.0
 10
120.0677788328303
 20
-137.3497558250375
 30
0.0
 10
120.2558810463249
 20
-137.504268357551
 30
0.0
 10
120.2558810463249
 20
-137.504268357551
 30
0.0
 10
120.2265977347003
 20
-137.5338961787242
 30
0.0
 10
120.2117838241137
 20
-137.5655910571884
 30
0.0
 10
120.1945583466875
 20
-137.6248466995347
 30
0.0
  0
HATCH
  5
106
330
F1
100
AcDbEntity
  8
レイヤー 1
 62
   250
420
  2299925
440
 33554687
100
AcDbHatch
 10
0.0
 20
0.0
 30
0.0
210
0.0
220
0.0
230
1.0
  2
SOLID
 70
     1
 71
     1
 91
        3
 92
        1
 93
        1
 72
     4
 94
        3
 73
     0
 74
     0
 95
       17
 96
       13
 40
0.0
 40
0.0
 40
0.0
 40
0.0
 40
1.0
 40
1.0
 40
1.0
 40
2.0
 40
2.0
 40
2.0
 40
3.0
 40
3.0
 40
3.0
 40
4.0
 40
4.0
 40
4.0
 40
4.0
 10
120.4019530948995
 20
-137.0958522877746
 10
120.347176076684
 20
-137.0958522877746
 10
120.3027343449243
 20
-137.1402940195343
 10
120.3027343449243
 20
-137.1954155472984
 10
120.3027343449243
 20
-137.2524318775792
 10
120.347176076684
 20
-137.3011799786955
 10
120.4060872094818
 20
-137.3011799786955
 10
120.4653428518281
 20
-137.3011799786955
 10
120.5056504690055
 20
-137.2503648202881
 10
120.5056504690055
 20
-137.1974826045895
 10
120.5056504690055
 20
-137.1402940195343
 10
120.4591416799546
 20
-137.0958522877746
 10
120.4019530948995
 20
-137.0958522877746
 97
        0
 97
        1
330
103
 92
        1
 93
        1
 72
     4
 94
        3
 73
     0
 74
     0
 95
       17
 96
       13
 40
0.0
 40
0.0
 40
0.0
 40
0.0
 40
1.0
 40
1.0
 40
1.0
 40
2.0
 40
2.0
 40
2.0
 40
3.0
 40
3.0
 40
3.0
 40
4.0
 40
4.0
 40
4.0
 40
4.0
 10
120.4040201521906
 20
-137.4258924352616
 10
120.2772406383334
 20
-137.4258924352616
 10
120.1756103215186
 20
-137.324434373221
 10
120.1756103215186
 20
-137.1974826045895
 10
120.1756103215186
 20
-137.070530835958
 10
120.2772406383334
 20
-136.966833461852
 10
120.4040201521906
 20
-136.966833461852
 10
120.5311441755964
 20
-136.966833461852
 10
120.6348415497024
 20
-137.070530835958
 10
120.6348415497024
 20
-137.1974826045895
 10
120.6348415497024
 20
-137.324434373221
 10
120.5311441755964
 20
-137.4258924352616
 10
120.4040201521906
 20
-137.4258924352616
 97
        0
 97
        1
330
104
 92
        1
 93
        1
 72
     4
 94
        3
 73
     0
 74
     0
 95
       44
 96
       40
 40
0.0
 40
0.0
 40
0.0
 40
0.0
 40
1.0
 40
1.0
 40
1.0
 40
2.0
 40
2.0
 40
2.0
 40
3.0
 40
3.0
 40
3.0
 40
4.0
 40
4.0
 40
4.0
 40
5.0
 40
5.0
 40
5.0
 40
6.0
 40
6.0
 40
6.0
 40
7.0
 40
7.0
 40
7.0
 40
8.0
 40
8.0
 40
8.0
 40
9.0
 40
9.0
 40
9.0
 40
10.0
 40
10.0
 40
10.0
 40
11.0
 40
11.0
 40
11.0
 40
12.0
 40
12.0
 40
12.0
 40
13.0
 40
13.0
 40
13.0
 40
13.0
 10
120.1945583466875
 20
-137.6248466995347
 10
120.0825927434168
 20
-137.9929551521337
 10
120.0319498397837
 20
-138.1516017992294
 10
119.8352348875759
 20
-138.4011989671358
 10
119.650922279115
 20
-138.6318481098733
 10
119.4142442192784
 20
-138.8178832660768
 10
119.1348469754246
 20
-138.9110730989528
 10
119.1348469754246
 20
-138.9110730989528
 10
118.9422661377991
 20
-138.7312391146227
 10
118.9422661377991
 20
-138.7312391146227
 10
119.5833984076041
 20
-138.5789658941747
 10
119.9134385550911
 20
-138.0225829733068
 10
119.9768283120197
 20
-137.5824720250662
 10
119.9768283120197
 20
-137.5824720250662
 10
119.2109835856486
 20
-137.5824720250662
 10
119.2109835856486
 20
-137.5824720250662
 10
119.1179660075469
 20
-137.5824720250662
 10
118.9339979086345
 20
-137.5867783944227
 10
118.7772460640557
 20
-137.6057264195916
 10
118.7772460640557
 20
-137.6057264195916
 10
118.7772460640557
 20
-137.3857570728584
 10
118.7772460640557
 20
-137.3857570728584
 10
118.864062470284
 20
-137.4069444100927
 10
119.1158989502557
 20
-137.4069444100927
 10
119.2151177002309
 20
-137.4069444100927
 10
119.2151177002309
 20
-137.4069444100927
 10
119.6467881645327
 20
-137.4069444100927
 10
119.6467881645327
 20
-137.4069444100927
 10
119.6891628390013
 20
-137.4069444100927
 10
119.9237738415468
 20
-137.4047050980273
 10
119.9620144014331
 20
-137.3985039261538
 10
120.0043890759017
 20
-137.3921304995061
 10
120.0064561331928
 20
-137.390063442215
 10
120.0677788328303
 20
-137.3497558250375
 10
120.0677788328303
 20
-137.3497558250375
 10
120.2558810463249
 20
-137.504268357551
 10
120.2558810463249
 20
-137.504268357551
 10
120.2265977347003
 20
-137.5338961787242
 10
120.2117838241137
 20
-137.5655910571884
 10
120.1945583466875
 20
-137.6248466995347
 97
        0
 97
        1
330
105
 75
     2
 76
     1
 98
        1
 10
0.0
 20
0.0
450
        0
451
        0
460
0.0
461
0.0
452
        0
462
0.0
453
        0
470

  0
ENDBLK
  5
F4
330
F1
100
AcDbEntity
  8
0
100
AcDbBlockEnd
  0
ENDSEC
  0
SECTION
  2
ENTITIES
  0
CIRCLE
  5
79
330
70
100
AcDbEntity
  8
レイヤー 1
 62
    18
420
        0
370
     9
100
AcDbCircle
 10
122.0833202719225
 20
-136.3974932821079
 30
0.0
 40
0.0999066641178353
  0
CIRCLE
  5
7A
330
70
100
AcDbEntity
  8
レイヤー 1
 62
    18
420
        0
370
     9
100
AcDbCircle
 10
90.08355442163788
 20
-136.3974932821079
 30
0.0
 40
0.0999066641178353
  0
LINE
  5
7B
330
70
100
AcDbEntity
  8
レイヤー 1
 62
    18
420
        0
370
     9
100
AcDbLine
 10
90.08355442163788
 20
-136.3974932821079
 30
0.0
 11
122.0833202719225
 21
-136.3974932821079
 31
0.0
  0
LINE
  5
7C
330
70
100
AcDbEntity
  8
レイヤー 1
 62
    18
420
        0
370
     9
100
AcDbLine
 10
90.08355442163788
 20
-139.5576765348183
 30
0.0
 11
90.08355442163788
 21
-135.397721085392
 31
0.0
  0
LINE
  5
7D
330
70
100
AcDbEntity
  8
レイヤー 1
 62
    18
420
        0
370
     9
100
AcDbLine
 10
122.0833202719225
 20
-139.5576765348183
 30
0.0
 11
122.0833202719225
 21
-135.397721085392
 31
0.0
  0
INSERT
  5
7F
330
70
100
AcDbEntity
  8
レイヤー 1
100
AcDbBlockReference
  2
Block_0
 10
0.0
 20
0.0
 30
0.0
  0
SPLINE
  5
8A
330
70
100
AcDbEntity
  8
レイヤー 1
 62
    18
420
        0
370
     9
100
AcDbSpline
210
0.0
220
0.0
230
1.0
 70
     9
 71
     3
 72
    17
 73
    13
 74
     0
 42
0.0000000001
 43
0.0000000001
 40
0.0
 40
0.0
 40
0.0
 40
0.0
 40
1.0
 40
1.0
 40
1.0
 40
2.0
 40
2.0
 40
2.0
 40
3.0
 40
3.0
 40
3.0
 40
4.0
 40
4.0
 40
4.0
 40
4.0
 10
112.1831413578304
 20
-162.6522319729421
 30
0.0
 10
112.1831413578304
 20
-162.5970987248114
 30
0.0
 10
112.1383738589726
 20
-162.5523312259535
 30
0.0
 10
112.0832389004938
 20
-162.5523312259535
 30
0.0
 10
112.0281308062295
 20
-162.5523312259535
 30
0.0
 10
111.9833280295948
 20
-162.5970987248114
 30
0.0
 10
111.9833280295948
 20
-162.6522319729421
 30
0.0
 10
111.9833280295948
 20
-162.7073417775544
 30
0.0
 10
112.0281308062295
 20
-162.7521445541892
 30
0.0
 10
112.0832389004938
 20
-162.7521445541892
 30
0.0
 10
112.1383738589726
 20
-162.7521445541892
 30
0.0
 10
112.1831413578304
 20
-162.7073417775544
 30
0.0
 10
112.1831413578304
 20
-162.6522319729421
 30
0.0
  0
SPLINE
  5
8B
330
70
100
AcDbEntity
  8
レイヤー 1
 62
    18
420
        0
370
     9
100
AcDbSpline
210
0.0
220
0.0
230
1.0
 70
     9
 71
     3
 72
    17
 73
    13
 74
     0
 42
0.0000000001
 43
0.0000000001
 40
0.0
 40
0.0
 40
0.0
 40
0.0
 40
1.0
 40
1.0
 40
1.0
 40
2.0
 40
2.0
 40
2.0
 40
3.0
 40
3.0
 40
3.0
 40
4.0
 40
4.0
 40
4.0
 40
4.0
 10
102.1830910573974
 20
-162.6522319729421
 30
0.0
 10
102.1830910573974
 20
-162.5970987248114
 30
0.0
 10
102.1386410585314
 20
-162.5523312259535
 30
0.0
 10
102.0831843932796
 20
-162.5523312259535
 30
0.0
 10
102.0276924502508
 20
-162.5523312259535
 30
0.0
 10
101.982924951393
 20
-162.5970987248114
 30
0.0
 10
101.982924951393
 20
-162.6522319729421
 30
0.0
 10
101.982924951393
 20
-162.7073417775544
 30
0.0
 10
102.0276924502508
 20
-162.7521445541892
 30
0.0
 10
102.0831843932796
 20
-162.7521445541892
 30
0.0
 10
102.1386410585314
 20
-162.7521445541892
 30
0.0
 10
102.1830910573974
 20
-162.7073417775544
 30
0.0
 10
102.1830910573974
 20
-162.6522319729421
 30
0.0
  0
SPLINE
  5
8C
330
70
100
AcDbEntity
  8
レイヤー 1
 62
    18
420
        0
370
     9
100
AcDbSpline
210
0.0
220
0.0
230
1.0
 70
     9
 71
     3
 72
    17
 73
    13
 74
     0
 42
0.0000000001
 43
0.0000000001
 40
0.0
 40
0.0
 40
0.0
 40
0.0
 40
1.0
 40
1.0
 40
1.0
 40
2.0
 40
2.0
 40
2.0
 40
3.0
 40
3.0
 40
3.0
 40
4.0
 40
4.0
 40
4.0
 40
4.0
 10
90.18310830798695
 20
-162.6522319729421
 30
0.0
 10
90.18310830798695
 20
-162.5970987248114
 30
0.0
 10
90.13834446153561
 20
-162.5523312259535
 30
0.0
 10
90.0832016438691
 20
-162.5523312259535
 30
0.0
 10
90.02774497861727
 20
-162.5523312259535
 30
0.0
 10
89.98297747975938
 20
-162.5970987248114
 30
0.0
 10
89.98297747975938
 20
-162.6522319729421
 30
0.0
 10
89.98297747975938
 20
-162.7073417775544
 30
0.0
 10
90.02774497861727
 20
-162.7521445541892
 30
0.0
 10
90.0832016438691
 20
-162.7521445541892
 30
0.0
 10
90.13834446153561
 20
-162.7521445541892
 30
0.0
 10
90.18310830798695
 20
-162.7073417775544
 30
0.0
 10
90.18310830798695
 20
-162.6522319729421
 30
0.0
  0
LINE
  5
8D
330
70
100
AcDbEntity
  8
レイヤー 1
 62
    18
420
        0
370
     9
100
AcDbLine
 10
102.0831843932796
 20
-162.6522319729421
 30
0.0
 11
112.0832389004938
 21
-162.6522319729421
 31
0.0
  0
LINE
  5
8E
330
70
100
AcDbEntity
  8
レイヤー 1
 62
    18
420
        0
370
     9
100
AcDbLine
 10
102.0831843932796
 20
-161.1921965384312
 30
0.0
 11
102.0831843932796
 21
-163.6520041949146
 31
0.0
  0
LINE
  5
8F
330
70
100
AcDbEntity
  8
レイヤー 1
 62
    18
420
        0
370
     9
100
AcDbLine
 10
112.0832389004938
 20
-161.1921965384312
 30
0.0
 11
112.0832389004938
 21
-163.6520041949146
 31
0.0
  0
INSERT
  5
91
330
70
100
AcDbEntity
  8
レイヤー 1
100
AcDbBlockReference
  2
Block_2
 10
0.0
 20
0.0
 30
0.0
  0
LINE
  5
9D
330
70
100
AcDbEntity
  8
レイヤー 1
 62
    18
420
        0
370
     9
100
AcDbLine
 10
102.0831843932796
 20
-162.6522319729421
 30
0.0
 11
90.0832016438691
 21
-162.6522319729421
 31
0.0
  0
LINE
  5
9E
330
70
100
AcDbEntity
  8
レイヤー 1
 62
    18
420
        0
370
     9
100
AcDbLine
 10
90.0832016438691
 20
-146.1581485886484
 30
0.0
 11
90.0832016438691
 21
-163.6520041949146
 31
0.0
  0
INSERT
  5
A0
330
70
100
AcDbEntity
  8
レイヤー 1
100
AcDbBlockReference
  2
Block_4
 10
0.0
 20
0.0
 30
0.0
  0
SPLINE
  5
AB
330
70
100
AcDbEntity
  8
レイヤー 1
 62
    18
420
        0
370
     9
100
AcDbSpline
210
0.0
220
0.0
230
1.0
 70
     9
 71
     3
 72
    17
 73
    13
 74
     0
 42
0.0000000001
 43
0.0000000001
 40
0.0
 40
0.0
 40
0.0
 40
0.0
 40
1.0
 40
1.0
 40
1.0
 40
2.0
 40
2.0
 40
2.0
 40
3.0
 40
3.0
 40
3.0
 40
4.0
 40
4.0
 40
4.0
 40
4.0
 10
126.1433690572309
 20
-141.9572003624902
 30
0.0
 10
126.1433690572309
 20
-141.9020611972302
 30
0.0
 10
126.098601558373
 20
-141.8572936983724
 30
0.0
 10
126.0427921153524
 20
-141.8572936983724
 30
0.0
 10
125.9876529500924
 20
-141.8572936983724
 30
0.0
 10
125.9428501734577
 20
-141.9020611972302
 30
0.0
 10
125.9428501734577
 20
-141.9572003624902
 30
0.0
 10
125.9428501734577
 20
-142.0123042499733
 30
0.0
 10
125.9876529500924
 20
-142.057107026608
 30
0.0
 10
126.0427921153524
 20
-142.057107026608
 30
0.0
 10
126.098601558373
 20
-142.057107026608
 30
0.0
 10
126.1433690572309
 20
-142.0123042499733
 30
0.0
 10
126.1433690572309
 20
-141.9572003624902
 30
0.0
  0
SPLINE
  5
AC
330
70
100
AcDbEntity
  8
レイヤー 1
 62
    18
420
        0
370
     9
100
AcDbSpline
210
0.0
220
0.0
230
1.0
 70
     9
 71
     3
 72
    17
 73
    13
 74
     0
 42
0.0000000001
 43
0.0000000001
 40
0.0
 40
0.0
 40
0.0
 40
0.0
 40
1.0
 40
1.0
 40
1.0
 40
2.0
 40
2.0
 40
2.0
 40
3.0
 40
3.0
 40
3.0
 40
4.0
 40
4.0
 40
4.0
 40
4.0
 10
126.1433690572309
 20
-142.9576428369668
 30
0.0
 10
126.1433690572309
 20
-142.9018333939461
 30
0.0
 10
126.098601558373
 20
-142.857736172849
 30
0.0
 10
126.0427921153524
 20
-142.857736172849
 30
0.0
 10
125.9876529500924
 20
-142.857736172849
 30
0.0
 10
125.9428501734577
 20
-142.9018333939461
 30
0.0
 10
125.9428501734577
 20
-142.9576428369668
 30
0.0
 10
125.9428501734577
 20
-143.0127820022267
 30
0.0
 10
125.9876529500924
 20
-143.0575430889519
 30
0.0
 10
126.0427921153524
 20
-143.0575430889519
 30
0.0
 10
126.098601558373
 20
-143.0575430889519
 30
0.0
 10
126.1433690572309
 20
-143.0127820022267
 30
0.0
 10
126.1433690572309
 20
-142.9576428369668
 30
0.0
  0
SPLINE
  5
AD
330
70
100
AcDbEntity
  8
レイヤー 1
 62
    18
420
        0
370
     9
100
AcDbSpline
210
0.0
220
0.0
230
1.0
 70
     9
 71
     3
 72
    17
 73
    13
 74
     0
 42
0.0000000001
 43
0.0000000001
 40
0.0
 40
0.0
 40
0.0
 40
0.0
 40
1.0
 40
1.0
 40
1.0
 40
2.0
 40
2.0
 40
2.0
 40
3.0
 40
3.0
 40
3.0
 40
4.0
 40
4.0
 40
4.0
 40
4.0
 10
126.1433690572309
 20
-155.8578086189672
 30
0.0
 10
126.1433690572309
 20
-155.8026986413214
 30
0.0
 10
126.098601558373
 20
-155.7578958635546
 30
0.0
 10
126.0427921153524
 20
-155.7578958635546
 30
0.0
 10
125.9876529500924
 20
-155.7578958635546
 30
0.0
 10
125.9428501734577
 20
-155.8026986413214
 30
0.0
 10
125.9428501734577
 20
-155.8578086189672
 30
0.0
 10
125.9428501734577
 20
-155.9129477842272
 30
0.0
 10
125.9876529500924
 20
-155.9577152830851
 30
0.0
 10
126.0427921153524
 20
-155.9577152830851
 30
0.0
 10
126.098601558373
 20
-155.9577152830851
 30
0.0
 10
126.1433690572309
 20
-155.9129477842272
 30
0.0
 10
126.1433690572309
 20
-155.8578086189672
 30
0.0
  0
SPLINE
  5
AE
330
70
100
AcDbEntity
  8
レイヤー 1
 62
    18
420
        0
370
     9
100
AcDbSpline
210
0.0
220
0.0
230
1.0
 70
     9
 71
     3
 72
    17
 73
    13
 74
     0
 42
0.0000000001
 43
0.0000000001
 40
0.0
 40
0.0
 40
0.0
 40
0.0
 40
1.0
 40
1.0
 40
1.0
 40
2.0
 40
2.0
 40
2.0
 40
3.0
 40
3.0
 40
3.0
 40
4.0
 40
4.0
 40
4.0
 40
4.0
 10
126.1433690572309
 20
-158.8577954868756
 30
0.0
 10
126.1433690572309
 20
-158.8026915993926
 30
0.0
 10
126.098601558373
 20
-158.7578888227578
 30
0.0
 10
126.0427921153524
 20
-158.7578888227578
 30
0.0
 10
125.9876529500924
 20
-158.7578888227578
 30
0.0
 10
125.9428501734577
 20
-158.8026915993926
 30
0.0
 10
125.9428501734577
 20
-158.8577954868756
 30
0.0
 10
125.9428501734577
 20
-158.9129346521356
 30
0.0
 10
125.9876529500924
 20
-158.9577021509935
 30
0.0
 10
126.0427921153524
 20
-158.9577021509935
 30
0.0
 10
126.098601558373
 20
-158.9577021509935
 30
0.0
 10
126.1433690572309
 20
-158.9129346521356
 30
0.0
 10
126.1433690572309
 20
-158.8577954868756
 30
0.0
  0
LINE
  5
AF
330
70
100
AcDbEntity
  8
レイヤー 1
 62
    18
420
        0
370
     9
100
AcDbLine
 10
126.0427921153524
 20
-141.9572003624902
 30
0.0
 11
126.0427921153524
 21
-138.1868879586789
 31
0.0
  0
LINE
  5
B0
330
70
100
AcDbEntity
  8
レイヤー 1
 62
    18
420
        0
370
     9
100
AcDbLine
 10
126.0427921153524
 20
-141.9572003624902
 30
0.0
 11
126.0427921153524
 21
-142.9576428369668
 31
0.0
  0
LINE
  5
B1
330
70
100
AcDbEntity
  8
レイヤー 1
 62
    18
420
        0
370
     9
100
AcDbLine
 10
124.3329841034177
 20
-141.9572003624902
 30
0.0
 11
127.043234589829
 21
-141.9572003624902
 31
0.0
  0
LINE
  5
B2
330
70
100
AcDbEntity
  8
レイヤー 1
 62
    18
420
        0
370
     9
100
AcDbLine
 10
124.3329841034177
 20
-142.9576428369668
 30
0.0
 11
127.043234589829
 21
-142.9576428369668
 31
0.0
  0
INSERT
  5
B4
330
70
100
AcDbEntity
  8
レイヤー 1
100
AcDbBlockReference
  2
Block_6
 10
0.0
 20
0.0
 30
0.0
  0
LINE
  5
B9
330
70
100
AcDbEntity
  8
レイヤー 1
 62
    18
420
        0
370
     9
100
AcDbLine
 10
126.0427921153524
 20
-155.8578086189672
 30
0.0
 11
126.0427921153524
 21
-158.8577954868756
 31
0.0
  0
LINE
  5
BA
330
70
100
AcDbEntity
  8
レイヤー 1
 62
    18
420
        0
370
     9
100
AcDbLine
 10
114.5833750109798
 20
-158.8577954868756
 30
0.0
 11
127.043234589829
 21
-158.8577954868756
 31
0.0
  0
INSERT
  5
BC
330
70
100
AcDbEntity
  8
レイヤー 1
100
AcDbBlockReference
  2
Block_7
 10
0.0
 20
0.0
 30
0.0
  0
LINE
  5
C1
330
70
100
AcDbEntity
  8
レイヤー 1
 62
    18
420
        0
370
     9
100
AcDbLine
 10
126.0427921153524
 20
-142.9576428369668
 30
0.0
 11
126.0427921153524
 21
-155.8578086189672
 31
0.0
  0
LINE
  5
C2
330
70
100
AcDbEntity
  8
レイヤー 1
 62
    18
420
        0
370
     9
100
AcDbLine
 10
114.5833750109798
 20
-155.8578086189672
 30
0.0
 11
127.043234589829
 21
-155.8578086189672
 31
0.0
  0
INSERT
  5
C4
330
70
100
AcDbEntity
  8
レイヤー 1
100
AcDbBlockReference
  2
Block_8
 10
0.0
 20
0.0
 30
0.0
  0
SPLINE
  5
D5
330
70
100
AcDbEntity
  8
レイヤー 1
 62
    18
420
        0
370
     9
100
AcDbSpline
210
0.0
220
0.0
230
1.0
 70
     9
 71
     3
 72
    17
 73
    13
 74
     0
 42
0.0000000001
 43
0.0000000001
 40
0.0
 40
0.0
 40
0.0
 40
0.0
 40
1.0
 40
1.0
 40
1.0
 40
2.0
 40
2.0
 40
2.0
 40
3.0
 40
3.0
 40
3.0
 40
4.0
 40
4.0
 40
4.0
 40
4.0
 10
86.68394446239876
 20
-144.0576680887016
 30
0.0
 10
86.68394446239876
 20
-144.0022178103174
 30
0.0
 10
86.639141684633
 20
-143.9577678114515
 30
0.0
 10
86.5840342331403
 20
-143.9577678114515
 30
0.0
 10
86.52889506788035
 20
-143.9577678114515
 30
0.0
 10
86.48412756902247
 20
-144.0022178103174
 30
0.0
 10
86.48412756902247
 20
-144.0576680887016
 30
0.0
 10
86.48412756902247
 20
-144.1127783630524
 30
0.0
 10
86.52889506788035
 20
-144.1575811396871
 30
0.0
 10
86.5840342331403
 20
-144.1575811396871
 30
0.0
 10
86.639141684633
 20
-144.1575811396871
 30
0.0
 10
86.68394446239876
 20
-144.1127783630524
 30
0.0
 10
86.68394446239876
 20
-144.0576680887016
 30
0.0
  0
SPLINE
  5
D6
330
70
100
AcDbEntity
  8
レイヤー 1
 62
    18
420
        0
370
     9
100
AcDbSpline
210
0.0
220
0.0
230
1.0
 70
     9
 71
     3
 72
    17
 73
    13
 74
     0
 42
0.0000000001
 43
0.0000000001
 40
0.0
 40
0.0
 40
0.0
 40
0.0
 40
1.0
 40
1.0
 40
1.0
 40
2.0
 40
2.0
 40
2.0
 40
3.0
 40
3.0
 40
3.0
 40
4.0
 40
4.0
 40
4.0
 40
4.0
 10
86.68394446239876
 20
-142.05777086698
 30
0.0
 10
86.68394446239876
 20
-142.0019678613481
 30
0.0
 10
86.639141684633
 20
-141.9572003624902
 30
0.0
 10
86.5840342331403
 20
-141.9572003624902
 30
0.0
 10
86.52889506788035
 20
-141.9572003624902
 30
0.0
 10
86.48412756902247
 20
-142.0019678613481
 30
0.0
 10
86.48412756902247
 20
-142.05777086698
 30
0.0
 10
86.48412756902247
 20
-142.1129164696287
 30
0.0
 10
86.52889506788035
 20
-142.1576839684865
 30
0.0
 10
86.5840342331403
 20
-142.1576839684865
 30
0.0
 10
86.639141684633
 20
-142.1576839684865
 30
0.0
 10
86.68394446239876
 20
-142.1129164696287
 30
0.0
 10
86.68394446239876
 20
-142.05777086698
 30
0.0
  0
LINE
  5
D7
330
70
100
AcDbEntity
  8
レイヤー 1
 62
    18
420
        0
370
     9
100
AcDbLine
 10
86.5840342331403
 20
-142.05777086698
 30
0.0
 11
86.5840342331403
 21
-144.0576680887016
 31
0.0
  0
LINE
  5
D8
330
70
100
AcDbEntity
  8
レイヤー 1
 62
    18
420
        0
370
     9
100
AcDbLine
 10
85.12399288150017
 20
-142.05777086698
 30
0.0
 11
87.58380642985621
 21
-142.05777086698
 31
0.0
  0
LINE
  5
D9
330
70
100
AcDbEntity
  8
レイヤー 1
 62
    18
420
        0
370
     9
100
AcDbLine
 10
85.12399288150017
 20
-144.0576680887016
 30
0.0
 11
87.58380642985621
 21
-144.0576680887016
 31
0.0
  0
INSERT
  5
DB
330
70
100
AcDbEntity
  8
レイヤー 1
100
AcDbBlockReference
  2
Block_10
 10
0.0
 20
0.0
 30
0.0
  0
LWPOLYLINE
  5
E0
330
70
100
AcDbEntity
  8
レイヤー 1
 62
    18
420
        0
370
    25
100
AcDbPolyline
 90
        4
 70
     0
 43
0.0
 10
102.0838546710402
 20
-142.05777086698
 10
90.08355442163788
 20
-142.05777086698
 10
90.08355442163788
 20
-144.0576680887016
 10
102.0838546710402
 20
-144.0576680887016
  0
LWPOLYLINE
  5
E1
330
70
100
AcDbEntity
  8
レイヤー 1
 62
    18
420
        0
370
    25
100
AcDbPolyline
 90
        5
 70
     0
 43
0.0
 10
102.0835018932715
 20
-142.05777086698
 10
122.0833202719225
 20
-142.05777086698
 10
122.0833202719225
 20
-143.0575430889519
 10
103.0832740899874
 20
-143.0575430889519
 10
103.0832740899874
 20
-155.8578086189672
  0
LINE
  5
E2
330
70
100
AcDbEntity
  8
レイヤー 1
 62
    18
420
        0
370
    25
100
AcDbLine
 10
102.0838546710402
 20
-142.1149625806876
 30
0.0
 11
102.0838546710402
 21
-155.8578086189672
 31
0.0
  0
LWPOLYLINE
  5
E3
330
70
100
AcDbEntity
  8
レイヤー 1
 62
    18
420
        0
370
    25
100
AcDbPolyline
 90
        3
 70
     0
 43
0.0
 10
103.0832740899874
 20
-155.8578086189672
 10
102.5906199358894
 20
-156.3435836065741
 10
102.0838546710402
 20
-155.8578086189672
  0
LWPOLYLINE
  5
E4
330
70
100
AcDbEntity
  8
レイヤー 1
 62
    18
420
        0
370
    25
100
AcDbPolyline
 90
        6
 70
     0
 43
0.0
 10
103.0832740899874
 20
-155.8578086189672
 10
112.0832389004938
 20
-155.8578086189672
 10
112.0832389004938
 20
-158.8577954868756
 10
102.0831843932796
 20
-158.8577954868756
 10
102.0838546710402
 20
-158.8577954868756
 10
102.0838546710402
 20
-155.8578086189672
  0
INSERT
  5
E6
330
70
100
AcDbEntity
  8
レイヤー 1
100
AcDbBlockReference
  2
Block_11
 10
0.0
 20
0.0
 30
0.0
  0
ENDSEC
  0
SECTION
  2
OBJECTS
  0
DICTIONARY
  5
C
330
0
100
AcDbDictionary
281
     1
  3
ACAD_COLOR
350
63
  3
ACAD_DETAILVIEWSTYLE
350
6A
  3
ACAD_GROUP
350
D
  3
ACAD_LAYOUT
350
62
  3
ACAD_MATERIAL
350
10
  3
ACAD_MLEADERSTYLE
350
66
  3
ACAD_MLINESTYLE
350
5F
  3
ACAD_PLOTSETTINGS
350
61
  3
ACAD_PLOTSTYLENAME
350
E
  3
ACAD_SCALELIST
350
42
  3
ACAD_SECTIONVIEWSTYLE
350
68
  3
ACAD_TABLESTYLE
350
64
  3
ACAD_VISUALSTYLE
350
29
  3
ACDB_RECOMPOSE_DATA
350
10F
  3
AcDbVariableDictionary
350
107
  0
DICTIONARY
  5
63
102
{ACAD_REACTORS
330
C
102
}
330
C
100
AcDbDictionary
281
     1
  0
DICTIONARY
  5
6A
102
{ACAD_REACTORS
330
C
102
}
330
C
100
AcDbDictionary
281
     1
  3
Imperial24
350
6B
  0
DICTIONARY
  5
D
102
{ACAD_REACTORS
330
C
102
}
330
C
100
AcDbDictionary
281
     1
  0
DICTIONARY
  5
62
102
{ACAD_REACTORS
330
C
102
}
330
C
100
AcDbDictionary
281
     1
  3
Layout1
350
6F
  3
Layout2
350
77
  3
Model
350
73
  0
DICTIONARY
  5
10
102
{ACAD_REACTORS
330
C
102
}
330
C
100
AcDbDictionary
281
     1
  3
ByBlock
350
19
  3
ByLayer
350
11
  3
Global
350
21
  0
DICTIONARY
  5
66
102
{ACAD_REACTORS
330
C
102
}
330
C
100
AcDbDictionary
281
     1
  3
Standard
350
67
  0
DICTIONARY
  5
5F
102
{ACAD_REACTORS
330
C
102
}
330
C
100
AcDbDictionary
281
     1
  3
Standard
350
60
  0
DICTIONARY
  5
61
102
{ACAD_REACTORS
330
C
102
}
330
C
100
AcDbDictionary
281
     1
  0
ACDBDICTIONARYWDFLT
  5
E
102
{ACAD_REACTORS
330
C
102
}
330
C
100
AcDbDictionary
281
     1
  3
Normal
350
F
100
AcDbDictionaryWithDefault
340
F
  0
DICTIONARY
  5
42
102
{ACAD_REACTORS
330
C
102
}
330
C
100
AcDbDictionary
281
     1
  3
A0
350
43
  3
A1
350
44
  3
A2
350
45
  3
A3
350
46
  3
A4
350
47
  3
A5
350
48
  3
A6
350
49
  3
A7
350
4A
  3
A8
350
4B
  3
A9
350
4C
  3
B0
350
4D
  3
B1
350
4E
  3
B2
350
4F
  3
B3
350
50
  3
B4
350
51
  3
B5
350
52
  3
B6
350
53
  0
DICTIONARY
  5
68
102
{ACAD_REACTORS
330
C
102
}
330
C
100
AcDbDictionary
281
     1
  3
Imperial24
350
69
  0
DICTIONARY
  5
64
102
{ACAD_REACTORS
330
C
102
}
330
C
100
AcDbDictionary
281
     1
  3
Standard
350
65
  0
DICTIONARY
  5
29
102
{ACAD_REACTORS
330
C
102
}
330
C
100
AcDbDictionary
281
     1
  3
2dWireframe
350
2F
  3
Basic
350
2E
  3
Brighten
350
35
  3
ColorChange
350
39
  3
Conceptual
350
32
  3
Dim
350
34
  3
EdgeColorOff
350
41
  3
Facepattern
350
38
  3
Flat
350
2A
  3
FlatWithEdges
350
2B
  3
Gouraud
350
2C
  3
GouraudWithEdges
350
2D
  3
Hidden
350
31
  3
JitterOff
350
3F
  3
Linepattern
350
37
  3
OverhangOff
350
40
  3
Realistic
350
33
  3
Shaded
350
3E
  3
Shaded with edges
350
3D
  3
Shades of Gray
350
3A
  3
Sketchy
350
3B
  3
Thicken
350
36
  3
Wireframe
350
30
  3
X-Ray
350
3C
  0
XRECORD
  5
10F
102
{ACAD_REACTORS
330
C
102
}
330
C
100
AcDbXrecord
280
     1
 90
        1
330
65
  0
DICTIONARY
  5
107
102
{ACAD_REACTORS
330
C
102
}
330
C
100
AcDbDictionary
281
     1
  3
CANNOSCALE
350
10C
  3
CMLEADERSTYLE
350
109
  3
CTABLESTYLE
350
108
  3
CVIEWDETAILSTYLE
350
10A
  3
CVIEWSECTIONSTYLE
350
10B
  0
ACDBDETAILVIEWSTYLE
  5
6B
102
{ACAD_XDICTIONARY
360
144
102
}
102
{ACAD_REACTORS
330
6A
102
}
330
6A
100
AcDbModelDocViewStyle
 70
     0
  3
Imperial24
290
     0
100
AcDbDetailViewStyle
 70
     0
 71
     0
 90
        3
 71
     1
340
55
 62
   256
 40
0.24
340
0
 62
   256
 40
0.24
300

 40
0.36
280
     3
 71
     2
340
5D
 90
       25
 62
   256
 71
     3
340
55
 62
   256
 40
0.24
 90
        1
 40
0.75
 90
        1
300
%<\AcVar ViewType \f "%tc1">% %<\AcVar ViewDetailId>%\PSCALE %<\AcVar ViewScale \f "%sn">%
 71
     4
340
5D
 90
       25
 62
   256
340
5D
 90
       25
 62
   256
280
     0
  0
LAYOUT
  5
6F
102
{ACAD_REACTORS
330
62
102
}
330
62
100
AcDbPlotSettings
  1

  2

  4

  6

 40
0.0
 41
0.0
 42
0.0
 43
0.0
 44
0.0
 45
0.0
 46
0.0
 47
0.0
 48
0.0
 49
0.0
140
0.0
141
0.0
142
1.0
143
1.0
 70
   688
 72
     0
 73
     0
 74
     5
  7

 75
    16
147
1.0
 76
     0
 77
     2
 78
   300
148
0.0
149
0.0
100
AcDbLayout
  1
Layout1
 70
     1
 71
     1
 10
0.0
 20
0.0
 11
12.0
 21
9.0
 12
0.0
 22
0.0
 32
0.0
 14
0.0
 24
0.0
 34
0.0
 15
0.0
 25
0.0
 35
0.0
146
0.0
 13
0.0
 23
0.0
 33
0.0
 16
1.0
 26
0.0
 36
0.0
 17
0.0
 27
1.0
 37
0.0
 76
     0
330
6C
  0
LAYOUT
  5
77
102
{ACAD_REACTORS
330
62
102
}
330
62
100
AcDbPlotSettings
  1

  2

  4

  6

 40
0.0
 41
0.0
 42
0.0
 43
0.0
 44
0.0
 45
0.0
 46
0.0
 47
0.0
 48
0.0
 49
0.0
140
0.0
141
0.0
142
1.0
143
1.0
 70
   688
 72
     0
 73
     0
 74
     5
  7

 75
    16
147
1.0
 76
     0
 77
     2
 78
   300
148
0.0
149
0.0
100
AcDbLayout
  1
Layout2
 70
     1
 71
     2
 10
0.0
 20
0.0
 11
12.0
 21
9.0
 12
0.0
 22
0.0
 32
0.0
 14
0.0
 24
0.0
 34
0.0
 15
0.0
 25
0.0
 35
0.0
146
0.0
 13
0.0
 23
0.0
 33
0.0
 16
1.0
 26
0.0
 36
0.0
 17
0.0
 27
1.0
 37
0.0
 76
     0
330
74
  0
LAYOUT
  5
73
102
{ACAD_REACTORS
330
62
102
}
330
62
100
AcDbPlotSettings
  1

  2

  4

  6

 40
0.0
 41
0.0
 42
0.0
 43
0.0
 44
0.0
 45
0.0
 46
0.0
 47
0.0
 48
0.0
 49
0.0
140
0.0
141
0.0
142
1.0
143
1.0
 70
  1712
 72
     0
 73
     0
 74
     0
  7

 75
     0
147
1.0
 76
     0
 77
     2
 78
   300
148
0.0
149
0.0
100
AcDbLayout
  1
Model
 70
     1
 71
     0
 10
0.0
 20
0.0
 11
12.0
 21
9.0
 12
0.0
 22
0.0
 32
0.0
 14
0.0
 24
0.0
 34
0.0
 15
0.0
 25
0.0
 35
0.0
146
0.0
 13
0.0
 23
0.0
 33
0.0
 16
1.0
 26
0.0
 36
0.0
 17
0.0
 27
1.0
 37
0.0
 76
     0
330
70
  0
MATERIAL
  5
19
102
{ACAD_XDICTIONARY
360
1A
102
}
102
{ACAD_REACTORS
330
10
102
}
330
10
100
AcDbMaterial
  1
ByBlock
 72
     0
 43
0.0208333333333333
 43
0.0
 43
0.0
 43
0.0
 43
0.0
 43
0.0208333333333333
 43
0.0
 43
0.0
 43
0.0
 43
0.0
 43
1.0
 43
0.0
 43
0.0
 43
0.0
 43
0.0
 43
1.0
 77
     0
 47
0.0208333333333333
 47
0.0
 47
0.0
 47
0.0
 47
0.0
 47
0.0208333333333333
 47
0.0
 47
0.0
 47
0.0
 47
0.0
 47
1.0
 47
0.0
 47
0.0
 47
0.0
 47
0.0
 47
1.0
171
     0
 49
0.0208333333333333
 49
0.0
 49
0.0
 49
0.0
 49
0.0
 49
0.0208333333333333
 49
0.0
 49
0.0
 49
0.0
 49
0.0
 49
1.0
 49
0.0
 49
0.0
 49
0.0
 49
0.0
 49
1.0
175
     0
142
0.0208333333333333
142
0.0
142
0.0
142
0.0
142
0.0
142
0.0208333333333333
142
0.0
142
0.0
142
0.0
142
0.0
142
1.0
142
0.0
142
0.0
142
0.0
142
0.0
142
1.0
179
     0
144
0.0208333333333333
144
0.0
144
0.0
144
0.0
144
0.0
144
0.0208333333333333
144
0.0
144
0.0
144
0.0
144
0.0
144
1.0
144
0.0
144
0.0
144
0.0
144
0.0
144
1.0
147
0.0208333333333333
147
0.0
147
0.0
147
0.0
147
0.0
147
0.0208333333333333
147
0.0
147
0.0
147
0.0
147
0.0
147
1.0
147
0.0
147
0.0
147
0.0
147
0.0
147
1.0
  0
MATERIAL
  5
11
102
{ACAD_XDICTIONARY
360
12
102
}
102
{ACAD_REACTORS
330
10
102
}
330
10
100
AcDbMaterial
  1
ByLayer
 72
     0
 43
0.0208333333333333
 43
0.0
 43
0.0
 43
0.0
 43
0.0
 43
0.0208333333333333
 43
0.0
 43
0.0
 43
0.0
 43
0.0
 43
1.0
 43
0.0
 43
0.0
 43
0.0
 43
0.0
 43
1.0
 77
     0
 47
0.0208333333333333
 47
0.0
 47
0.0
 47
0.0
 47
0.0
 47
0.0208333333333333
 47
0.0
 47
0.0
 47
0.0
 47
0.0
 47
1.0
 47
0.0
 47
0.0
 47
0.0
 47
0.0
 47
1.0
171
     0
 49
0.0208333333333333
 49
0.0
 49
0.0
 49
0.0
 49
0.0
 49
0.0208333333333333
 49
0.0
 49
0.0
 49
0.0
 49
0.0
 49
1.0
 49
0.0
 49
0.0
 49
0.0
 49
0.0
 49
1.0
175
     0
142
0.0208333333333333
142
0.0
142
0.0
142
0.0
142
0.0
142
0.0208333333333333
142
0.0
142
0.0
142
0.0
142
0.0
142
1.0
142
0.0
142
0.0
142
0.0
142
0.0
142
1.0
179
     0
144
0.0208333333333333
144
0.0
144
0.0
144
0.0
144
0.0
144
0.0208333333333333
144
0.0
144
0.0
144
0.0
144
0.0
144
1.0
144
0.0
144
0.0
144
0.0
144
0.0
144
1.0
147
0.0208333333333333
147
0.0
147
0.0
147
0.0
147
0.0
147
0.0208333333333333
147
0.0
147
0.0
147
0.0
147
0.0
147
1.0
147
0.0
147
0.0
147
0.0
147
0.0
147
1.0
  0
MATERIAL
  5
21
102
{ACAD_XDICTIONARY
360
22
102
}
102
{ACAD_REACTORS
330
10
102
}
330
10
100
AcDbMaterial
  1
Global
 72
     0
 43
0.0208333333333333
 43
0.0
 43
0.0
 43
0.0
 43
0.0
 43
0.0208333333333333
 43
0.0
 43
0.0
 43
0.0
 43
0.0
 43
1.0
 43
0.0
 43
0.0
 43
0.0
 43
0.0
 43
1.0
 77
     0
 47
0.0208333333333333
 47
0.0
 47
0.0
 47
0.0
 47
0.0
 47
0.0208333333333333
 47
0.0
 47
0.0
 47
0.0
 47
0.0
 47
1.0
 47
0.0
 47
0.0
 47
0.0
 47
0.0
 47
1.0
171
     0
 49
0.0208333333333333
 49
0.0
 49
0.0
 49
0.0
 49
0.0
 49
0.0208333333333333
 49
0.0
 49
0.0
 49
0.0
 49
0.0
 49
1.0
 49
0.0
 49
0.0
 49
0.0
 49
0.0
 49
1.0
175
     0
142
0.0208333333333333
142
0.0
142
0.0
142
0.0
142
0.0
142
0.0208333333333333
142
0.0
142
0.0
142
0.0
142
0.0
142
1.0
142
0.0
142
0.0
142
0.0
142
0.0
142
1.0
179
     0
144
0.0208333333333333
144
0.0
144
0.0
144
0.0
144
0.0
144
0.0208333333333333
144
0.0
144
0.0
144
0.0
144
0.0
144
1.0
144
0.0
144
0.0
144
0.0
144
0.0
144
1.0
147
0.0208333333333333
147
0.0
147
0.0
147
0.0
147
0.0
147
0.0208333333333333
147
0.0
147
0.0
147
0.0
147
0.0
147
1.0
147
0.0
147
0.0
147
0.0
147
0.0
147
1.0
  0
MLEADERSTYLE
  5
67
102
{ACAD_XDICTIONARY
360
140
102
}
102
{ACAD_REACTORS
330
66
102
}
330
66
100
AcDbMLeaderStyle
179
     2
170
     2
171
     1
172
     0
 90
        2
 40
0.0
 41
0.0
173
     1
 91
-1056964608
340
5B
 92
       -2
290
     1
 42
0.09
291
     1
 43
0.36
  3
Standard
 44
0.18
300

342
55
174
     1
178
     6
175
     1
176
     0
 93
-1056964608
 45
0.18
292
     0
297
     0
 46
0.18
 94
-1056964608
 47
1.0
 49
1.0
140
1.0
293
     1
141
0.0
294
     1
177
     0
142
1.0
295
     0
296
     0
143
0.125
271
     0
272
     9
273
     9
  0
MLINESTYLE
  5
60
102
{ACAD_REACTORS
330
5F
102
}
330
5F
100
AcDbMlineStyle
  2
STANDARD
 70
     0
  3

 62
   256
 51
90.0
 52
90.0
 71
     2
 49
0.5
 62
   256
  6
BYLAYER
 49
-0.5
 62
   256
  6
BYLAYER
  0
ACDBPLACEHOLDER
  5
F
102
{ACAD_REACTORS
330
E
102
}
330
E
  0
SCALE
  5
43
102
{ACAD_REACTORS
330
42
102
}
330
42
100
AcDbScale
 70
     0
300
1:1
140
1.0
141
1.0
290
     1
  0
SCALE
  5
44
102
{ACAD_REACTORS
330
42
102
}
330
42
100
AcDbScale
 70
     0
300
1/128" = 1'-0"
140
0.0078125
141
12.0
290
     0
  0
SCALE
  5
45
102
{ACAD_REACTORS
330
42
102
}
330
42
100
AcDbScale
 70
     0
300
1/64" = 1'-0"
140
0.015625
141
12.0
290
     0
  0
SCALE
  5
46
102
{ACAD_REACTORS
330
42
102
}
330
42
100
AcDbScale
 70
     0
300
1/32" = 1'-0"
140
0.03125
141
12.0
290
     0
  0
SCALE
  5
47
102
{ACAD_REACTORS
330
42
102
}
330
42
100
AcDbScale
 70
     0
300
1/16" = 1'-0"
140
0.0625
141
12.0
290
     0
  0
SCALE
  5
48
102
{ACAD_REACTORS
330
42
102
}
330
42
100
AcDbScale
 70
     0
300
3/32" = 1'-0"
140
0.09375
141
12.0
290
     0
  0
SCALE
  5
49
102
{ACAD_REACTORS
330
42
102
}
330
42
100
AcDbScale
 70
     0
300
1/8" = 1'-0"
140
0.125
141
12.0
290
     0
  0
SCALE
  5
4A
102
{ACAD_REACTORS
330
42
102
}
330
42
100
AcDbScale
 70
     0
300
3/16" = 1'-0"
140
0.1875
141
12.0
290
     0
  0
SCALE
  5
4B
102
{ACAD_REACTORS
330
42
102
}
330
42
100
AcDbScale
 70
     0
300
1/4" = 1'-0"
140
0.25
141
12.0
290
     0
  0
SCALE
  5
4C
102
{ACAD_REACTORS
330
42
102
}
330
42
100
AcDbScale
 70
     0
300
3/8" = 1'-0"
140
0.375
141
12.0
290
     0
  0
SCALE
  5
4D
102
{ACAD_REACTORS
330
42
102
}
330
42
100
AcDbScale
 70
     0
300
1/2" = 1'-0"
140
0.5
141
12.0
290
     0
  0
SCALE
  5
4E
102
{ACAD_REACTORS
330
42
102
}
330
42
100
AcDbScale
 70
     0
300
3/4" = 1'-0"
140
0.75
141
12.0
290
     0
  0
SCALE
  5
4F
102
{ACAD_REACTORS
330
42
102
}
330
42
100
AcDbScale
 70
     0
300
1" = 1'-0"
140
1.0
141
12.0
290
     0
  0
SCALE
  5
50
102
{ACAD_REACTORS
330
42
102
}
330
42
100
AcDbScale
 70
     0
300
1-1/2" = 1'-0"
140
1.5
141
12.0
290
     0
  0
SCALE
  5
51
102
{ACAD_REACTORS
330
42
102
}
330
42
100
AcDbScale
 70
     0
300
3" = 1'-0"
140
3.0
141
12.0
290
     0
  0
SCALE
  5
52
102
{ACAD_REACTORS
330
42
102
}
330
42
100
AcDbScale
 70
     0
300
6" = 1'-0"
140
6.0
141
12.0
290
     0
  0
SCALE
  5
53
102
{ACAD_REACTORS
330
42
102
}
330
42
100
AcDbScale
 70
     0
300
1'-0" = 1'-0"
140
12.0
141
12.0
290
     0
  0
ACDBSECTIONVIEWSTYLE
  5
69
102
{ACAD_XDICTIONARY
360
142
102
}
102
{ACAD_REACTORS
330
68
102
}
330
68
100
AcDbModelDocViewStyle
 70
     0
  3
Imperial24
290
     0
100
AcDbSectionViewStyle
 70
     0
 71
     0
 90
       78
 71
     1
340
55
 62
   256
 40
0.24
340
0
340
0
 62
   256
 40
0.24
300
I, O, Q, S, X, Z
 40
0.48
 90
        3
 40
0.18
 90
        1
 71
     2
340
5D
 90
       25
 62
   256
340
5D
 90
       50
 62
   256
 40
0.24
 40
0.0
 40
0.24
 71
     3
340
55
 62
   256
 40
0.24
 90
        1
 40
0.75
 90
        1
300
%<\AcVar ViewType \f "%tc1">% %<\AcVar ViewSectionStartId>%-%<\AcVar ViewSectionEndId>%\PSCALE %<\AcVar ViewScale \f "%sn">%
 71
     4
 62
   256
 62
   257
300
ANSI31
 40
1.0
 90
        0
290
     0
290
     0
 90
        6
 40
0.0
 40
1.570796326794896
 40
0.2617993877991494
 40
1.308996938995747
 40
-0.2617993877991494
 40
1.832595714594046
  0
TABLESTYLE
  5
65
102
{ACAD_XDICTIONARY
360
10D
102
}
102
{ACAD_REACTORS
330
64
102
}
330
64
100
AcDbTableStyle
280
     0
  3
Standard
 70
     0
 71
     0
 40
0.06
 41
0.06
280
     0
281
     0
  7
Standard
140
0.18
170
     2
 62
     0
 63
     7
283
     0
 90
      512
 91
        0
  1

274
    -2
284
     1
 64
     0
275
    -2
285
     1
 65
     0
276
    -2
286
     1
 66
     0
277
    -2
287
     1
 67
     0
278
    -2
288
     1
 68
     0
279
    -2
289
     1
 69
     0
  7
Standard
140
0.25
170
     5
 62
     0
 63
     7
283
     0
 90
      512
 91
        0
  1

274
    -2
284
     1
 64
     0
275
    -2
285
     1
 65
     0
276
    -2
286
     1
 66
     0
277
    -2
287
     1
 67
     0
278
    -2
288
     1
 68
     0
279
    -2
289
     1
 69
     0
  7
Standard
140
0.18
170
     5
 62
     0
 63
     7
283
     0
 90
      512
 91
        0
  1

274
    -2
284
     1
 64
     0
275
    -2
285
     1
 65
     0
276
    -2
286
     1
 66
     0
277
    -2
287
     1
 67
     0
278
    -2
288
     1
 68
     0
279
    -2
289
     1
 69
     0
  0
VISUALSTYLE
  5
2F
102
{ACAD_XDICTIONARY
360
11A
102
}
102
{ACAD_REACTORS
330
29
102
}
330
29
100
AcDbVisualStyle
  2
2dWireframe
 70
     4
177
     2
291
     0
 71
     0
176
     1
 72
     2
176
     1
 73
     0
176
     1
 90
        0
176
     1
 40
0.6
176
     1
 41
30.0
176
     1
 63
     7
421
 16777215
176
     1
 74
     1
176
     1
 91
        4
176
     1
 64
     7
176
     1
 65
   257
176
     1
 75
     1
176
     1
175
     1
176
     1
 42
1.0
176
     1
 92
        0
176
     1
 66
   257
176
     1
 43
1.0
176
     1
 76
     1
176
     1
 77
     6
176
     1
 78
     2
176
     1
 67
     7
176
     1
 79
     5
176
     1
170
     0
176
     1
171
     0
176
     1
290
     0
176
     1
 93
        1
176
     1
 44
0.0
176
     1
173
     0
176
     1
1001
ACAD
1000
AcDbSavedByObjectVersion
1070
     0
  0
VISUALSTYLE
  5
2E
102
{ACAD_XDICTIONARY
360
118
102
}
102
{ACAD_REACTORS
330
29
102
}
330
29
100
AcDbVisualStyle
  2
Basic
 70
     7
177
     2
291
     1
 71
     1
176
     1
 72
     0
176
     1
 73
     1
176
     1
 90
        0
176
     1
 40
0.6
176
     1
 41
30.0
176
     1
 63
     7
421
 16777215
176
     1
 74
     0
176
     1
 91
        4
176
     1
 64
     7
176
     1
 65
   257
176
     1
 75
     1
176
     1
175
     1
176
     1
 42
1.0
176
     1
 92
        8
176
     1
 66
     7
176
     1
 43
1.0
176
     1
 76
     1
176
     1
 77
     6
176
     1
 78
     2
176
     1
 67
     7
176
     1
 79
     5
176
     1
170
     0
176
     1
171
     0
176
     1
290
     0
176
     1
 93
        1
176
     1
 44
0.0
176
     1
173
     0
176
     1
1001
ACAD
1000
AcDbSavedByObjectVersion
1070
     0
  0
VISUALSTYLE
  5
35
102
{ACAD_XDICTIONARY
360
126
102
}
102
{ACAD_REACTORS
330
29
102
}
330
29
100
AcDbVisualStyle
  2
Brighten
 70
    12
177
     2
291
     1
 71
     2
176
     1
 72
     2
176
     1
 73
     0
176
     1
 90
        0
176
     1
 40
0.6
176
     1
 41
30.0
176
     1
 63
     7
421
 16777215
176
     1
 74
     1
176
     1
 91
        4
176
     1
 64
     7
176
     1
 65
   257
176
     1
 75
     1
176
     1
175
     1
176
     1
 42
1.0
176
     1
 92
        8
176
     1
 66
     7
176
     1
 43
1.0
176
     1
 76
     1
176
     1
 77
     6
176
     1
 78
     2
176
     1
 67
     7
176
     1
 79
     5
176
     1
170
     0
176
     1
171
     0
176
     1
290
     0
176
     1
 93
        1
176
     1
 44
50.0
176
     1
173
     0
176
     1
1001
ACAD
1000
AcDbSavedByObjectVersion
1070
     0
  0
VISUALSTYLE
  5
39
102
{ACAD_XDICTIONARY
360
12E
102
}
102
{ACAD_REACTORS
330
29
102
}
330
29
100
AcDbVisualStyle
  2
ColorChange
 70
    16
177
     2
291
     1
 71
     2
176
     1
 72
     2
176
     1
 73
     3
176
     1
 90
        0
176
     1
 40
0.6
176
     1
 41
30.0
176
     1
 63
     8
421
  8421504
176
     1
 74
     1
176
     1
 91
        4
176
     1
 64
     7
176
     1
 65
   257
176
     1
 75
     1
176
     1
175
     1
176
     1
 42
1.0
176
     1
 92
        8
176
     1
 66
     8
424
  8421504
176
     1
 43
1.0
176
     1
 76
     1
176
     1
 77
     6
176
     1
 78
     2
176
     1
 67
     7
176
     1
 79
     5
176
     1
170
     0
176
     1
171
     0
176
     1
290
     0
176
     1
 93
        1
176
     1
 44
0.0
176
     1
173
     0
176
     1
1001
ACAD
1000
AcDbSavedByObjectVersion
1070
     0
  0
VISUALSTYLE
  5
32
102
{ACAD_XDICTIONARY
360
120
102
}
102
{ACAD_REACTORS
330
29
102
}
330
29
100
AcDbVisualStyle
  2
Conceptual
 70
     9
177
     2
291
     0
 71
     3
176
     1
 72
     2
176
     1
 73
     0
176
     1
 90
        0
176
     1
 40
0.6
176
     1
 41
30.0
176
     1
 63
     7
421
 16777215
176
     1
 74
     2
176
     1
 91
        2
176
     1
 64
     7
176
     1
 65
   257
176
     1
 75
     1
176
     1
175
     1
176
     1
 42
179.0
176
     1
 92
        8
176
     1
 66
     7
176
     1
 43
1.0
176
     1
 76
     1
176
     1
 77
     6
176
     1
 78
     2
176
     1
 67
     7
176
     1
 79
     3
176
     1
170
     0
176
     1
171
     0
176
     1
290
     0
176
     1
 93
        1
176
     1
 44
0.0
176
     1
173
     0
176
     1
1001
ACAD
1000
AcDbSavedByObjectVersion
1070
     0
  0
VISUALSTYLE
  5
34
102
{ACAD_XDICTIONARY
360
124
102
}
102
{ACAD_REACTORS
330
29
102
}
330
29
100
AcDbVisualStyle
  2
Dim
 70
    11
177
     2
291
     1
 71
     2
176
     1
 72
     2
176
     1
 73
     0
176
     1
 90
        0
176
     1
 40
0.6
176
     1
 41
30.0
176
     1
 63
     7
421
 16777215
176
     1
 74
     1
176
     1
 91
        4
176
     1
 64
     7
176
     1
 65
   257
176
     1
 75
     1
176
     1
175
     1
176
     1
 42
1.0
176
     1
 92
        8
176
     1
 66
     7
176
     1
 43
1.0
176
     1
 76
     1
176
     1
 77
     6
176
     1
 78
     2
176
     1
 67
     7
176
     1
 79
     5
176
     1
170
     0
176
     1
171
     0
176
     1
290
     0
176
     1
 93
        1
176
     1
 44
-50.0
176
     1
173
     0
176
     1
1001
ACAD
1000
AcDbSavedByObjectVersion
1070
     0
  0
VISUALSTYLE
  5
41
102
{ACAD_XDICTIONARY
360
13E
102
}
102
{ACAD_REACTORS
330
29
102
}
330
29
100
AcDbVisualStyle
  2
EdgeColorOff
 70
    22
177
     2
291
     1
 71
     2
176
     0
 72
     2
176
     0
 73
     0
176
     0
 90
        0
176
     0
 40
0.6
176
     0
 41
30.0
176
     0
 63
     7
421
 16777215
176
     0
 74
     1
176
     0
 91
        4
176
     0
 64
     7
176
     0
 65
   257
176
     0
 75
     1
176
     0
175
     1
176
     0
 42
1.0
176
     0
 92
        8
176
     2
 66
     7
176
     0
 43
1.0
176
     0
 76
     1
176
     0
 77
     6
176
     0
 78
     2
176
     0
 67
     7
176
     0
 79
     5
176
     0
170
     0
176
     0
171
     0
176
     0
290
     0
176
     0
 93
        1
176
     0
 44
0.0
176
     0
173
     0
176
     0
1001
ACAD
1000
AcDbSavedByObjectVersion
1070
     0
  0
VISUALSTYLE
  5
38
102
{ACAD_XDICTIONARY
360
12C
102
}
102
{ACAD_REACTORS
330
29
102
}
330
29
100
AcDbVisualStyle
  2
Facepattern
 70
    15
177
     2
291
     1
 71
     2
176
     1
 72
     2
176
     1
 73
     0
176
     1
 90
        0
176
     1
 40
0.6
176
     1
 41
30.0
176
     1
 63
     7
421
 16777215
176
     1
 74
     1
176
     1
 91
        4
176
     1
 64
     7
176
     1
 65
   257
176
     1
 75
     1
176
     1
175
     1
176
     1
 42
1.0
176
     1
 92
        8
176
     1
 66
     7
176
     1
 43
1.0
176
     1
 76
     1
176
     1
 77
     6
176
     1
 78
     2
176
     1
 67
     7
176
     1
 79
     5
176
     1
170
     0
176
     1
171
     0
176
     1
290
     0
176
     1
 93
        1
176
     1
 44
0.0
176
     1
173
     0
176
     1
1001
ACAD
1000
AcDbSavedByObjectVersion
1070
     0
  0
VISUALSTYLE
  5
2A
102
{ACAD_XDICTIONARY
360
110
102
}
102
{ACAD_REACTORS
330
29
102
}
330
29
100
AcDbVisualStyle
  2
Flat
 70
     0
177
     2
291
     1
 71
     2
176
     1
 72
     1
176
     1
 73
     1
176
     1
 90
        2
176
     1
 40
0.6
176
     1
 41
30.0
176
     1
 63
     7
421
 16777215
176
     1
 74
     0
176
     1
 91
        0
176
     1
 64
     7
176
     1
 65
   257
176
     1
 75
     1
176
     1
175
     1
176
     1
 42
1.0
176
     1
 92
        8
176
     1
 66
     7
176
     1
 43
1.0
176
     1
 76
     1
176
     1
 77
     6
176
     1
 78
     2
176
     1
 67
     7
176
     1
 79
     5
176
     1
170
     0
176
     1
171
     0
176
     1
290
     0
176
     1
 93
       13
176
     1
 44
0.0
176
     1
173
     0
176
     1
1001
ACAD
1000
AcDbSavedByObjectVersion
1070
     0
  0
VISUALSTYLE
  5
2B
102
{ACAD_XDICTIONARY
360
112
102
}
102
{ACAD_REACTORS
330
29
102
}
330
29
100
AcDbVisualStyle
  2
FlatWithEdges
 70
     1
177
     2
291
     1
 71
     2
176
     1
 72
     1
176
     1
 73
     1
176
     1
 90
        2
176
     1
 40
0.6
176
     1
 41
30.0
176
     1
 63
     7
421
 16777215
176
     1
 74
     1
176
     1
 91
        0
176
     1
 64
     7
176
     1
 65
   257
176
     1
 75
     1
176
     1
175
     1
176
     1
 42
1.0
176
     1
 92
        0
176
     1
 66
   257
176
     1
 43
1.0
176
     1
 76
     1
176
     1
 77
     6
176
     1
 78
     2
176
     1
 67
     7
176
     1
 79
     5
176
     1
170
     0
176
     1
171
     0
176
     1
290
     0
176
     1
 93
       13
176
     1
 44
0.0
176
     1
173
     0
176
     1
1001
ACAD
1000
AcDbSavedByObjectVersion
1070
     0
  0
VISUALSTYLE
  5
2C
102
{ACAD_XDICTIONARY
360
114
102
}
102
{ACAD_REACTORS
330
29
102
}
330
29
100
AcDbVisualStyle
  2
Gouraud
 70
     2
177
     2
291
     1
 71
     2
176
     1
 72
     2
176
     1
 73
     1
176
     1
 90
        2
176
     1
 40
0.6
176
     1
 41
30.0
176
     1
 63
     7
421
 16777215
176
     1
 74
     0
176
     1
 91
        0
176
     1
 64
     7
176
     1
 65
   257
176
     1
 75
     1
176
     1
175
     1
176
     1
 42
1.0
176
     1
 92
        0
176
     1
 66
     7
176
     1
 43
1.0
176
     1
 76
     1
176
     1
 77
     6
176
     1
 78
     2
176
     1
 67
     7
176
     1
 79
     5
176
     1
170
     0
176
     1
171
     0
176
     1
290
     0
176
     1
 93
       13
176
     1
 44
0.0
176
     1
173
     0
176
     1
1001
ACAD
1000
AcDbSavedByObjectVersion
1070
     0
  0
VISUALSTYLE
  5
2D
102
{ACAD_XDICTIONARY
360
116
102
}
102
{ACAD_REACTORS
330
29
102
}
330
29
100
AcDbVisualStyle
  2
GouraudWithEdges
 70
     3
177
     2
291
     1
 71
     2
176
     1
 72
     2
176
     1
 73
     1
176
     1
 90
        2
176
     1
 40
0.6
176
     1
 41
30.0
176
     1
 63
     7
421
 16777215
176
     1
 74
     1
176
     1
 91
        0
176
     1
 64
     7
176
     1
 65
   257
176
     1
 75
     1
176
     1
175
     1
176
     1
 42
1.0
176
     1
 92
        0
176
     1
 66
   257
176
     1
 43
1.0
176
     1
 76
     1
176
     1
 77
     6
176
     1
 78
     2
176
     1
 67
     7
176
     1
 79
     5
176
     1
170
     0
176
     1
171
     0
176
     1
290
     0
176
     1
 93
       13
176
     1
 44
0.0
176
     1
173
     0
176
     1
1001
ACAD
1000
AcDbSavedByObjectVersion
1070
     0
  0
VISUALSTYLE
  5
31
102
{ACAD_XDICTIONARY
360
11E
102
}
102
{ACAD_REACTORS
330
29
102
}
330
29
100
AcDbVisualStyle
  2
Hidden
 70
     6
177
     2
291
     0
 71
     1
176
     1
 72
     2
176
     1
 73
     2
176
     1
 90
        0
176
     1
 40
0.6
176
     1
 41
30.0
176
     1
 63
     7
421
 16777215
176
     1
 74
     2
176
     1
 91
        2
176
     1
 64
     7
176
     1
 65
   257
176
     1
 75
     2
176
     1
175
     1
176
     1
 42
40.0
176
     1
 92
        0
176
     1
 66
   257
176
     1
 43
1.0
176
     1
 76
     1
176
     1
 77
     6
176
     1
 78
     2
176
     1
 67
     7
176
     1
 79
     3
176
     1
170
     0
176
     1
171
     0
176
     1
290
     0
176
     1
 93
        1
176
     1
 44
0.0
176
     1
173
     0
176
     1
1001
ACAD
1000
AcDbSavedByObjectVersion
1070
     0
  0
VISUALSTYLE
  5
3F
102
{ACAD_XDICTIONARY
360
13A
102
}
102
{ACAD_REACTORS
330
29
102
}
330
29
100
AcDbVisualStyle
  2
JitterOff
 70
    20
177
     2
291
     1
 71
     2
176
     0
 72
     2
176
     0
 73
     0
176
     0
 90
        0
176
     0
 40
0.6
176
     0
 41
30.0
176
     0
 63
     7
421
 16777215
176
     0
 74
     1
176
     0
 91
        4
176
     0
 64
     7
176
     0
 65
   257
176
     0
 75
     1
176
     0
175
     1
176
     0
 42
1.0
176
     0
 92
       10
176
     2
 66
     7
176
     0
 43
1.0
176
     0
 76
     1
176
     0
 77
     6
176
     0
 78
     2
176
     0
 67
     7
176
     0
 79
     5
176
     0
170
     0
176
     0
171
     0
176
     0
290
     0
176
     0
 93
        1
176
     0
 44
0.0
176
     0
173
     0
176
     0
1001
ACAD
1000
AcDbSavedByObjectVersion
1070
     0
  0
VISUALSTYLE
  5
37
102
{ACAD_XDICTIONARY
360
12A
102
}
102
{ACAD_REACTORS
330
29
102
}
330
29
100
AcDbVisualStyle
  2
Linepattern
 70
    14
177
     2
291
     1
 71
     2
176
     1
 72
     2
176
     1
 73
     0
176
     1
 90
        0
176
     1
 40
0.6
176
     1
 41
30.0
176
     1
 63
     7
421
 16777215
176
     1
 74
     1
176
     1
 91
        4
176
     1
 64
     7
176
     1
 65
   257
176
     1
 75
     7
176
     1
175
     7
176
     1
 42
1.0
176
     1
 92
        8
176
     1
 66
     7
176
     1
 43
1.0
176
     1
 76
     1
176
     1
 77
     6
176
     1
 78
     2
176
     1
 67
     7
176
     1
 79
     5
176
     1
170
     0
176
     1
171
     0
176
     1
290
     0
176
     1
 93
        1
176
     1
 44
0.0
176
     1
173
     0
176
     1
1001
ACAD
1000
AcDbSavedByObjectVersion
1070
     0
  0
VISUALSTYLE
  5
40
102
{ACAD_XDICTIONARY
360
13C
102
}
102
{ACAD_REACTORS
330
29
102
}
330
29
100
AcDbVisualStyle
  2
OverhangOff
 70
    21
177
     2
291
     1
 71
     2
176
     0
 72
     2
176
     0
 73
     0
176
     0
 90
        0
176
     0
 40
0.6
176
     0
 41
30.0
176
     0
 63
     7
421
 16777215
176
     0
 74
     1
176
     0
 91
        4
176
     0
 64
     7
176
     0
 65
   257
176
     0
 75
     1
176
     0
175
     1
176
     0
 42
1.0
176
     0
 92
        9
176
     2
 66
     7
176
     0
 43
1.0
176
     0
 76
     1
176
     0
 77
     6
176
     0
 78
     2
176
     0
 67
     7
176
     0
 79
     5
176
     0
170
     0
176
     0
171
     0
176
     0
290
     0
176
     0
 93
        1
176
     0
 44
0.0
176
     0
173
     0
176
     0
1001
ACAD
1000
AcDbSavedByObjectVersion
1070
     0
  0
VISUALSTYLE
  5
33
102
{ACAD_XDICTIONARY
360
122
102
}
102
{ACAD_REACTORS
330
29
102
}
330
29
100
AcDbVisualStyle
  2
Realistic
 70
     8
177
     2
291
     0
 71
     2
176
     1
 72
     3
176
     1
 73
     0
176
     1
 90
        2
176
     1
 40
0.6
176
     1
 41
30.0
176
     1
 63
     7
421
 16777215
176
     1
 74
     0
176
     1
 91
        0
176
     1
 64
     7
176
     1
 65
   257
176
     1
 75
     1
176
     1
175
     1
176
     1
 42
1.0
176
     1
 92
        8
176
     1
 66
   257
176
     1
 43
1.0
176
     1
 76
     1
176
     1
 77
     6
176
     1
 78
     2
176
     1
 67
     7
176
     1
 79
     3
176
     1
170
     0
176
     1
171
     0
176
     1
290
     0
176
     1
 93
       13
176
     1
 44
0.0
176
     1
173
     0
176
     1
1001
ACAD
1000
AcDbSavedByObjectVersion
1070
     0
  0
VISUALSTYLE
  5
3E
102
{ACAD_XDICTIONARY
360
138
102
}
102
{ACAD_REACTORS
330
29
102
}
330
29
100
AcDbVisualStyle
  2
Shaded
 70
    27
177
     2
291
     0
 71
     2
176
     1
 72
     2
176
     1
 73
     1
176
     1
 90
        2
176
     1
 40
0.6
176
     1
 41
30.0
176
     1
 63
     7
421
 16777215
176
     1
 74
     0
176
     1
 91
        4
176
     1
 64
     7
176
     1
 65
   257
176
     1
 75
     1
176
     1
175
     1
176
     1
 42
1.0
176
     1
 92
        8
176
     1
 66
   257
176
     1
 43
1.0
176
     1
 76
     1
176
     1
 77
     6
176
     1
 78
     2
176
     1
 67
     8
425
  7895160
176
     1
 79
     3
176
     1
170
     0
176
     1
171
     0
176
     1
290
     0
176
     1
 93
        5
176
     1
 44
0.0
176
     1
173
     0
176
     1
1001
ACAD
1000
AcDbSavedByObjectVersion
1070
     0
  0
VISUALSTYLE
  5
3D
102
{ACAD_XDICTIONARY
360
136
102
}
102
{ACAD_REACTORS
330
29
102
}
330
29
100
AcDbVisualStyle
  2
Shaded with edges
 70
    26
177
     2
291
     0
 71
     2
176
     1
 72
     2
176
     1
 73
     1
176
     1
 90
        2
176
     1
 40
0.6
176
     1
 41
30.0
176
     1
 63
     7
421
 16777215
176
     1
 74
     1
176
     1
 91
        2
176
     1
 64
     7
176
     1
 65
   257
176
     1
 75
     2
176
     1
175
     1
176
     1
 42
1.0
176
     1
 92
        8
176
     1
 66
   257
176
     1
 43
1.0
176
     1
 76
     1
176
     1
 77
     6
176
     1
 78
     2
176
     1
 67
     7
176
     1
 79
     3
176
     1
170
     0
176
     1
171
     0
176
     1
290
     0
176
     1
 93
        5
176
     1
 44
0.0
176
     1
173
     0
176
     1
1001
ACAD
1000
AcDbSavedByObjectVersion
1070
     0
  0
VISUALSTYLE
  5
3A
102
{ACAD_XDICTIONARY
360
130
102
}
102
{ACAD_REACTORS
330
29
102
}
330
29
100
AcDbVisualStyle
  2
Shades of Gray
 70
    23
177
     2
291
     0
 71
     2
176
     1
 72
     2
176
     1
 73
     3
176
     1
 90
        0
176
     1
 40
0.6
176
     1
 41
30.0
176
     1
 63
     7
421
 16777215
176
     1
 74
     2
176
     1
 91
        2
176
     1
 64
     7
176
     1
 65
     7
176
     1
 75
     1
176
     1
175
     1
176
     1
 42
40.0
176
     1
 92
        8
176
     1
 66
     7
176
     1
 43
1.0
176
     1
 76
     1
176
     1
 77
     6
176
     1
 78
     2
176
     1
 67
     7
176
     1
 79
     3
176
     1
170
     0
176
     1
171
     0
176
     1
290
     0
176
     1
 93
        1
176
     1
 44
0.0
176
     1
173
     0
176
     1
1001
ACAD
1000
AcDbSavedByObjectVersion
1070
     0
  0
VISUALSTYLE
  5
3B
102
{ACAD_XDICTIONARY
360
132
102
}
102
{ACAD_REACTORS
330
29
102
}
330
29
100
AcDbVisualStyle
  2
Sketchy
 70
    24
177
     2
291
     0
 71
     1
176
     1
 72
     2
176
     1
 73
     2
176
     1
 90
        0
176
     1
 40
0.6
176
     1
 41
30.0
176
     1
 63
     7
421
 16777215
176
     1
 74
     2
176
     1
 91
        2
176
     1
 64
     7
176
     1
 65
     7
176
     1
 75
     1
176
     1
175
     1
176
     1
 42
40.0
176
     1
 92
       11
176
     1
 66
     7
176
     1
 43
1.0
176
     1
 76
     1
176
     1
 77
     6
176
     1
 78
     2
176
     1
 67
     7
176
     1
 79
     6
176
     1
170
     0
176
     1
171
     0
176
     1
290
     0
176
     1
 93
        1
176
     1
 44
0.0
176
     1
173
     0
176
     1
1001
ACAD
1000
AcDbSavedByObjectVersion
1070
     0
  0
VISUALSTYLE
  5
36
102
{ACAD_XDICTIONARY
360
128
102
}
102
{ACAD_REACTORS
330
29
102
}
330
29
100
AcDbVisualStyle
  2
Thicken
 70
    13
177
     2
291
     1
 71
     2
176
     1
 72
     2
176
     1
 73
     0
176
     1
 90
        0
176
     1
 40
0.6
176
     1
 41
30.0
176
     1
 63
     7
421
 16777215
176
     1
 74
     1
176
     1
 91
        4
176
     1
 64
     7
176
     1
 65
   257
176
     1
 75
     1
176
     1
175
     1
176
     1
 42
1.0
176
     1
 92
       12
176
     1
 66
     7
176
     1
 43
1.0
176
     1
 76
     1
176
     1
 77
     6
176
     1
 78
     2
176
     1
 67
     7
176
     1
 79
     5
176
     1
170
     0
176
     1
171
     0
176
     1
290
     0
176
     1
 93
        1
176
     1
 44
0.0
176
     1
173
     0
176
     1
1001
ACAD
1000
AcDbSavedByObjectVersion
1070
     0
  0
VISUALSTYLE
  5
30
102
{ACAD_XDICTIONARY
360
11C
102
}
102
{ACAD_REACTORS
330
29
102
}
330
29
100
AcDbVisualStyle
  2
Wireframe
 70
     5
177
     2
291
     0
 71
     0
176
     1
 72
     2
176
     1
 73
     0
176
     1
 90
        0
176
     1
 40
0.6
176
     1
 41
30.0
176
     1
 63
     7
421
 16777215
176
     1
 74
     1
176
     1
 91
        4
176
     1
 64
     7
176
     1
 65
   257
176
     1
 75
     1
176
     1
175
     1
176
     1
 42
1.0
176
     1
 92
        0
176
     1
 66
   257
176
     1
 43
1.0
176
     1
 76
     1
176
     1
 77
     6
176
     1
 78
     2
176
     1
 67
     7
176
     1
 79
     3
176
     1
170
     0
176
     1
171
     0
176
     1
290
     0
176
     1
 93
        1
176
     1
 44
0.0
176
     1
173
     0
176
     1
1001
ACAD
1000
AcDbSavedByObjectVersion
1070
     0
  0
VISUALSTYLE
  5
3C
102
{ACAD_XDICTIONARY
360
134
102
}
102
{ACAD_REACTORS
330
29
102
}
330
29
100
AcDbVisualStyle
  2
X-Ray
 70
    25
177
     2
291
     0
 71
     2
176
     1
 72
     2
176
     1
 73
     1
176
     1
 90
        1
176
     1
 40
0.5
176
     1
 41
30.0
176
     1
 63
     7
421
 16777215
176
     1
 74
     1
176
     1
 91
        0
176
     1
 64
     7
176
     1
 65
   257
176
     1
 75
     1
176
     1
175
     1
176
     1
 42
1.0
176
     1
 92
        8
176
     1
 66
     7
176
     1
 43
1.0
176
     1
 76
     1
176
     1
 77
     6
176
     1
 78
     2
176
     1
 67
     7
176
     1
 79
     3
176
     1
170
     0
176
     1
171
     0
176
     1
290
     0
176
     1
 93
       13
176
     1
 44
0.0
176
     1
173
     0
176
     1
1001
ACAD
1000
AcDbSavedByObjectVersion
1070
     0
  0
DICTIONARYVAR
  5
10C
102
{ACAD_REACTORS
330
107
102
}
330
107
100
DictionaryVariables
280
     0
  1
1:1
  0
DICTIONARYVAR
  5
109
102
{ACAD_REACTORS
330
107
102
}
330
107
100
DictionaryVariables
280
     0
  1
STANDARD
  0
DICTIONARYVAR
  5
108
102
{ACAD_REACTORS
330
107
102
}
330
107
100
DictionaryVariables
280
     0
  1
STANDARD
  0
DICTIONARYVAR
  5
10A
102
{ACAD_REACTORS
330
107
102
}
330
107
100
DictionaryVariables
280
     0
  1
Imperial24
  0
DICTIONARYVAR
  5
10B
102
{ACAD_REACTORS
330
107
102
}
330
107
100
DictionaryVariables
280
     0
  1
Imperial24
  0
DICTIONARY
  5
144
330
6B
100
AcDbDictionary
280
     1
281
     1
  3
ACAD_XREC_ROUNDTRIP
360
145
  0
DICTIONARY
  5
1A
330
19
100
AcDbDictionary
280
     1
281
     1
  3
BUMPTILE
360
1C
  3
DIFFUSETILE
360
1B
  3
OPACITYTILE
360
1F
  3
REFLECTIONTILE
360
1E
  3
REFRACTIONTILE
360
20
  3
SPECULARTILE
360
1D
  0
DICTIONARY
  5
12
330
11
100
AcDbDictionary
280
     1
281
     1
  3
BUMPTILE
360
14
  3
DIFFUSETILE
360
13
  3
OPACITYTILE
360
17
  3
REFLECTIONTILE
360
16
  3
REFRACTIONTILE
360
18
  3
SPECULARTILE
360
15
  0
DICTIONARY
  5
22
330
21
100
AcDbDictionary
280
     1
281
     1
  3
BUMPTILE
360
24
  3
DIFFUSETILE
360
23
  3
OPACITYTILE
360
27
  3
REFLECTIONTILE
360
26
  3
REFRACTIONTILE
360
28
  3
SPECULARTILE
360
25
  0
DICTIONARY
  5
140
330
67
100
AcDbDictionary
280
     1
281
     1
  3
ACAD_XREC_ROUNDTRIP
360
141
  0
DICTIONARY
  5
142
330
69
100
AcDbDictionary
280
     1
281
     1
  3
ACAD_XREC_ROUNDTRIP
360
143
  0
DICTIONARY
  5
10D
330
65
100
AcDbDictionary
280
     1
281
     1
  3
ACAD_ROUNDTRIP_2008_TABLESTYLE_CELLSTYLEMAP
360
10E
  0
DICTIONARY
  5
11A
330
2F
100
AcDbDictionary
280
     1
281
     1
  3
ACAD_XREC_ROUNDTRIP
360
11B
  0
DICTIONARY
  5
118
330
2E
100
AcDbDictionary
280
     1
281
     1
  3
ACAD_XREC_ROUNDTRIP
360
119
  0
DICTIONARY
  5
126
330
35
100
AcDbDictionary
280
     1
281
     1
  3
ACAD_XREC_ROUNDTRIP
360
127
  0
DICTIONARY
  5
12E
330
39
100
AcDbDictionary
280
     1
281
     1
  3
ACAD_XREC_ROUNDTRIP
360
12F
  0
DICTIONARY
  5
120
330
32
100
AcDbDictionary
280
     1
281
     1
  3
ACAD_XREC_ROUNDTRIP
360
121
  0
DICTIONARY
  5
124
330
34
100
AcDbDictionary
280
     1
281
     1
  3
ACAD_XREC_ROUNDTRIP
360
125
  0
DICTIONARY
  5
13E
330
41
100
AcDbDictionary
280
     1
281
     1
  3
ACAD_XREC_ROUNDTRIP
360
13F
  0
DICTIONARY
  5
12C
330
38
100
AcDbDictionary
280
     1
281
     1
  3
ACAD_XREC_ROUNDTRIP
360
12D
  0
DICTIONARY
  5
110
330
2A
100
AcDbDictionary
280
     1
281
     1
  3
ACAD_XREC_ROUNDTRIP
360
111
  0
DICTIONARY
  5
112
330
2B
100
AcDbDictionary
280
     1
281
     1
  3
ACAD_XREC_ROUNDTRIP
360
113
  0
DICTIONARY
  5
114
330
2C
100
AcDbDictionary
280
     1
281
     1
  3
ACAD_XREC_ROUNDTRIP
360
115
  0
DICTIONARY
  5
116
330
2D
100
AcDbDictionary
280
     1
281
     1
  3
ACAD_XREC_ROUNDTRIP
360
117
  0
DICTIONARY
  5
11E
330
31
100
AcDbDictionary
280
     1
281
     1
  3
ACAD_XREC_ROUNDTRIP
360
11F
  0
DICTIONARY
  5
13A
330
3F
100
AcDbDictionary
280
     1
281
     1
  3
ACAD_XREC_ROUNDTRIP
360
13B
  0
DICTIONARY
  5
12A
330
37
100
AcDbDictionary
280
     1
281
     1
  3
ACAD_XREC_ROUNDTRIP
360
12B
  0
DICTIONARY
  5
13C
330
40
100
AcDbDictionary
280
     1
281
     1
  3
ACAD_XREC_ROUNDTRIP
360
13D
  0
DICTIONARY
  5
122
330
33
100
AcDbDictionary
280
     1
281
     1
  3
ACAD_XREC_ROUNDTRIP
360
123
  0
DICTIONARY
  5
138
330
3E
100
AcDbDictionary
280
     1
281
     1
  3
ACAD_XREC_ROUNDTRIP
360
139
  0
DICTIONARY
  5
136
330
3D
100
AcDbDictionary
280
     1
281
     1
  3
ACAD_XREC_ROUNDTRIP
360
137
  0
DICTIONARY
  5
130
330
3A
100
AcDbDictionary
280
     1
281
     1
  3
ACAD_XREC_ROUNDTRIP
360
131
  0
DICTIONARY
  5
132
330
3B
100
AcDbDictionary
280
     1
281
     1
  3
ACAD_XREC_ROUNDTRIP
360
133
  0
DICTIONARY
  5
128
330
36
100
AcDbDictionary
280
     1
281
     1
  3
ACAD_XREC_ROUNDTRIP
360
129
  0
DICTIONARY
  5
11C
330
30
100
AcDbDictionary
280
     1
281
     1
  3
ACAD_XREC_ROUNDTRIP
360
11D
  0
DICTIONARY
  5
134
330
3C
100
AcDbDictionary
280
     1
281
     1
  3
ACAD_XREC_ROUNDTRIP
360
135
  0
XRECORD
  5
145
102
{ACAD_REACTORS
330
144
102
}
330
144
100
AcDbXrecord
280
     1
102
DISPLAYNAME
  1
Imperial24
102
FLAGS
 90
        0
  0
XRECORD
  5
1C
102
{ACAD_REACTORS
330
1A
102
}
330
1A
100
AcDbXrecord
280
     1
270
     1
271
     1
  0
XRECORD
  5
1B
102
{ACAD_REACTORS
330
1A
102
}
330
1A
100
AcDbXrecord
280
     1
270
     1
271
     1
  0
XRECORD
  5
1F
102
{ACAD_REACTORS
330
1A
102
}
330
1A
100
AcDbXrecord
280
     1
270
     1
271
     1
  0
XRECORD
  5
1E
102
{ACAD_REACTORS
330
1A
102
}
330
1A
100
AcDbXrecord
280
     1
270
     1
271
     1
  0
XRECORD
  5
20
102
{ACAD_REACTORS
330
1A
102
}
330
1A
100
AcDbXrecord
280
     1
270
     1
271
     1
  0
XRECORD
  5
1D
102
{ACAD_REACTORS
330
1A
102
}
330
1A
100
AcDbXrecord
280
     1
270
     1
271
     1
  0
XRECORD
  5
14
102
{ACAD_REACTORS
330
12
102
}
330
12
100
AcDbXrecord
280
     1
270
     1
271
     1
  0
XRECORD
  5
13
102
{ACAD_REACTORS
330
12
102
}
330
12
100
AcDbXrecord
280
     1
270
     1
271
     1
  0
XRECORD
  5
17
102
{ACAD_REACTORS
330
12
102
}
330
12
100
AcDbXrecord
280
     1
270
     1
271
     1
  0
XRECORD
  5
16
102
{ACAD_REACTORS
330
12
102
}
330
12
100
AcDbXrecord
280
     1
270
     1
271
     1
  0
XRECORD
  5
18
102
{ACAD_REACTORS
330
12
102
}
330
12
100
AcDbXrecord
280
     1
270
     1
271
     1
  0
XRECORD
  5
15
102
{ACAD_REACTORS
330
12
102
}
330
12
100
AcDbXrecord
280
     1
270
     1
271
     1
  0
XRECORD
  5
24
102
{ACAD_REACTORS
330
22
102
}
330
22
100
AcDbXrecord
280
     1
270
     1
271
     1
  0
XRECORD
  5
23
102
{ACAD_REACTORS
330
22
102
}
330
22
100
AcDbXrecord
280
     1
270
     1
271
     1
  0
XRECORD
  5
27
102
{ACAD_REACTORS
330
22
102
}
330
22
100
AcDbXrecord
280
     1
270
     1
271
     1
  0
XRECORD
  5
26
102
{ACAD_REACTORS
330
22
102
}
330
22
100
AcDbXrecord
280
     1
270
     1
271
     1
  0
XRECORD
  5
28
102
{ACAD_REACTORS
330
22
102
}
330
22
100
AcDbXrecord
280
     1
270
     1
271
     1
  0
XRECORD
  5
25
102
{ACAD_REACTORS
330
22
102
}
330
22
100
AcDbXrecord
280
     1
270
     1
271
     1
  0
XRECORD
  5
141
102
{ACAD_REACTORS
330
140
102
}
330
140
100
AcDbXrecord
280
     1
102
ACAD_ROUNDTRIP_2012_MLEADER_STYLE
298
     1
  0
XRECORD
  5
143
102
{ACAD_REACTORS
330
142
102
}
330
142
100
AcDbXrecord
280
     1
102
DISPLAYNAME
  1
Imperial24
102
FLAGS
 90
        0
  0
CELLSTYLEMAP
  5
10E
102
{ACAD_REACTORS
330
10D
102
}
330
10D
100
AcDbCellStyleMap
 90
        3
300
CELLSTYLE
  1
TABLEFORMAT_BEGIN
 90
        5
170
     1
 91
        0
 92
    32768
 62
   257
 93
        1
300
CONTENTFORMAT
  1
CONTENTFORMAT_BEGIN
 90
        0
 91
        0
 92
      512
 93
        0
300

 40
0.0
140
1.0
 94
        5
 62
     0
340
55
144
0.25
309
CONTENTFORMAT_END
171
     0
 94
        0
309
TABLEFORMAT_END
  1
CELLSTYLE_BEGIN
 90
        1
 91
        1
300
_TITLE
309
CELLSTYLE_END
300
CELLSTYLE
  1
TABLEFORMAT_BEGIN
 90
        5
170
     1
 91
        0
 92
        0
 62
   257
 93
        1
300
CONTENTFORMAT
  1
CONTENTFORMAT_BEGIN
 90
        0
 91
        0
 92
      512
 93
        0
300

 40
0.0
140
1.0
 94
        5
 62
     0
340
55
144
0.18
309
CONTENTFORMAT_END
171
     0
 94
        0
309
TABLEFORMAT_END
  1
CELLSTYLE_BEGIN
 90
        2
 91
        1
300
_HEADER
309
CELLSTYLE_END
300
CELLSTYLE
  1
TABLEFORMAT_BEGIN
 90
        5
170
     1
 91
        0
 92
        0
 62
   257
 93
        1
300
CONTENTFORMAT
  1
CONTENTFORMAT_BEGIN
 90
        0
 91
        0
 92
      512
 93
        0
300

 40
0.0
140
1.0
 94
        2
 62
     0
340
55
144
0.18
309
CONTENTFORMAT_END
171
     0
 94
        0
309
TABLEFORMAT_END
  1
CELLSTYLE_BEGIN
 90
        3
 91
        2
300
_DATA
309
CELLSTYLE_END
  0
XRECORD
  5
11B
102
{ACAD_REACTORS
330
11A
102
}
330
11A
100
AcDbXrecord
280
     1
102
RTVSPost2010Prop28
280
     1
102
RTVSPost2010PropOp28
 70
     1
102
RTVSPost2010Prop29
280
     1
102
RTVSPost2010PropOp29
 70
     1
102
RTVSPost2010Prop30
280
     0
102
RTVSPost2010PropOp30
 70
     1
102
RTVSPost2010Prop31
280
     0
102
RTVSPost2010PropOp31
 70
     1
102
RTVSPost2010Prop32
280
     0
102
RTVSPost2010PropOp32
 70
     1
102
RTVSPost2010Prop33
280
     0
102
RTVSPost2010PropOp33
 70
     1
102
RTVSPost2010Prop34
280
     0
102
RTVSPost2010PropOp34
 70
     1
102
RTVSPost2010Prop35
280
     0
102
RTVSPost2010PropOp35
 70
     1
102
RTVSPost2010Prop36
280
     0
102
RTVSPost2010PropOp36
 70
     1
102
RTVSPost2010Prop37
 90
       50
102
RTVSPost2010PropOp37
 70
     1
102
RTVSPost2010Prop38
140
0.0
102
RTVSPost2010PropOp38
 70
     1
102
RTVSPost2010Prop39
140
1.0
102
RTVSPost2010PropOp39
 70
     1
102
RTVSPost2010Prop40
 90
        0
102
RTVSPost2010PropOp40
 70
     1
102
RTVSPost2010Prop41ColorIndex
 90
       18
102
RTVSPost2010Prop41ColorRGB
 90
        0
102
RTVSPost2010PropOp41
 70
     1
102
RTVSPost2010Prop42
 90
       50
102
RTVSPost2010PropOp42
 70
     1
102
RTVSPost2010Prop43
 90
        3
102
RTVSPost2010PropOp43
 70
     1
102
RTVSPost2010Prop44ColorIndex
 90
        5
102
RTVSPost2010Prop44ColorRGB
 90
      255
102
RTVSPost2010PropOp44
 70
     1
102
RTVSPost2010Prop45
280
     0
102
RTVSPost2010PropOp45
 70
     1
102
RTVSPost2010Prop46
 90
       50
102
RTVSPost2010PropOp46
 70
     1
102
RTVSPost2010Prop47
 90
       50
102
RTVSPost2010PropOp47
 70
     1
102
RTVSPost2010Prop48
 90
       50
102
RTVSPost2010PropOp48
 70
     1
102
RTVSPost2010Prop49
280
     0
102
RTVSPost2010PropOp49
 70
     1
102
RTVSPost2010Prop50
 90
       50
102
RTVSPost2010PropOp50
 70
     1
102
RTVSPost2010Prop51ColorIndex
 90
      256
102
RTVSPost2010Prop51ColorRGB
 90
-16777216
102
RTVSPost2010PropOp51
 70
     0
102
RTVSPost2010Prop52
140
1.0
102
RTVSPost2010PropOp52
 70
     0
102
RTVSPost2010Prop53
 90
        2
102
RTVSPost2010PropOp53
 70
     1
102
RTVSPost2010Prop54
  1
strokes_ogs.tif
102
RTVSPost2010PropOp54
 70
     1
102
RTVSPost2010Prop55
280
     0
102
RTVSPost2010PropOp55
 70
     1
102
RTVSPost2010Prop56
140
1.0
102
RTVSPost2010PropOp56
 70
     1
102
RTVSPost2010Prop57
140
1.0
102
RTVSPost2010PropOp57
 70
     1
  0
XRECORD
  5
119
102
{ACAD_REACTORS
330
118
102
}
330
118
100
AcDbXrecord
280
     1
102
RTVSPost2010Prop28
280
     0
102
RTVSPost2010PropOp28
 70
     1
102
RTVSPost2010Prop29
280
     1
102
RTVSPost2010PropOp29
 70
     1
102
RTVSPost2010Prop30
280
     1
102
RTVSPost2010PropOp30
 70
     1
102
RTVSPost2010Prop31
280
     0
102
RTVSPost2010PropOp31
 70
     1
102
RTVSPost2010Prop32
280
     0
102
RTVSPost2010PropOp32
 70
     1
102
RTVSPost2010Prop33
280
     0
102
RTVSPost2010PropOp33
 70
     1
102
RTVSPost2010Prop34
280
     0
102
RTVSPost2010PropOp34
 70
     1
102
RTVSPost2010Prop35
280
     0
102
RTVSPost2010PropOp35
 70
     1
102
RTVSPost2010Prop36
280
     0
102
RTVSPost2010PropOp36
 70
     1
102
RTVSPost2010Prop37
 90
       50
102
RTVSPost2010PropOp37
 70
     1
102
RTVSPost2010Prop38
140
0.0
102
RTVSPost2010PropOp38
 70
     1
102
RTVSPost2010Prop39
140
1.0
102
RTVSPost2010PropOp39
 70
     1
102
RTVSPost2010Prop40
 90
        0
102
RTVSPost2010PropOp40
 70
     1
102
RTVSPost2010Prop41ColorIndex
 90
       18
102
RTVSPost2010Prop41ColorRGB
 90
        0
102
RTVSPost2010PropOp41
 70
     1
102
RTVSPost2010Prop42
 90
       50
102
RTVSPost2010PropOp42
 70
     1
102
RTVSPost2010Prop43
 90
        3
102
RTVSPost2010PropOp43
 70
     1
102
RTVSPost2010Prop44ColorIndex
 90
        5
102
RTVSPost2010Prop44ColorRGB
 90
      255
102
RTVSPost2010PropOp44
 70
     1
102
RTVSPost2010Prop45
280
     0
102
RTVSPost2010PropOp45
 70
     1
102
RTVSPost2010Prop46
 90
       50
102
RTVSPost2010PropOp46
 70
     1
102
RTVSPost2010Prop47
 90
       50
102
RTVSPost2010PropOp47
 70
     1
102
RTVSPost2010Prop48
 90
       50
102
RTVSPost2010PropOp48
 70
     1
102
RTVSPost2010Prop49
280
     0
102
RTVSPost2010PropOp49
 70
     1
102
RTVSPost2010Prop50
 90
       50
102
RTVSPost2010PropOp50
 70
     1
102
RTVSPost2010Prop51ColorIndex
 90
      256
102
RTVSPost2010Prop51ColorRGB
 90
-16777216
102
RTVSPost2010PropOp51
 70
     0
102
RTVSPost2010Prop52
140
1.0
102
RTVSPost2010PropOp52
 70
     0
102
RTVSPost2010Prop53
 90
        2
102
RTVSPost2010PropOp53
 70
     1
102
RTVSPost2010Prop54
  1
strokes_ogs.tif
102
RTVSPost2010PropOp54
 70
     1
102
RTVSPost2010Prop55
280
     0
102
RTVSPost2010PropOp55
 70
     1
102
RTVSPost2010Prop56
140
1.0
102
RTVSPost2010PropOp56
 70
     1
102
RTVSPost2010Prop57
140
1.0
102
RTVSPost2010PropOp57
 70
     1
  0
XRECORD
  5
127
102
{ACAD_REACTORS
330
126
102
}
330
126
100
AcDbXrecord
280
     1
102
RTVSPost2010Prop28
280
     0
102
RTVSPost2010PropOp28
 70
     1
102
RTVSPost2010Prop29
280
     1
102
RTVSPost2010PropOp29
 70
     1
102
RTVSPost2010Prop30
280
     1
102
RTVSPost2010PropOp30
 70
     1
102
RTVSPost2010Prop31
280
     0
102
RTVSPost2010PropOp31
 70
     1
102
RTVSPost2010Prop32
280
     0
102
RTVSPost2010PropOp32
 70
     1
102
RTVSPost2010Prop33
280
     0
102
RTVSPost2010PropOp33
 70
     1
102
RTVSPost2010Prop34
280
     0
102
RTVSPost2010PropOp34
 70
     1
102
RTVSPost2010Prop35
280
     0
102
RTVSPost2010PropOp35
 70
     1
102
RTVSPost2010Prop36
280
     0
102
RTVSPost2010PropOp36
 70
     1
102
RTVSPost2010Prop37
 90
       50
102
RTVSPost2010PropOp37
 70
     1
102
RTVSPost2010Prop38
140
0.0
102
RTVSPost2010PropOp38
 70
     1
102
RTVSPost2010Prop39
140
1.0
102
RTVSPost2010PropOp39
 70
     1
102
RTVSPost2010Prop40
 90
        0
102
RTVSPost2010PropOp40
 70
     1
102
RTVSPost2010Prop41ColorIndex
 90
       18
102
RTVSPost2010Prop41ColorRGB
 90
        0
102
RTVSPost2010PropOp41
 70
     1
102
RTVSPost2010Prop42
 90
       50
102
RTVSPost2010PropOp42
 70
     1
102
RTVSPost2010Prop43
 90
        3
102
RTVSPost2010PropOp43
 70
     1
102
RTVSPost2010Prop44ColorIndex
 90
        5
102
RTVSPost2010Prop44ColorRGB
 90
      255
102
RTVSPost2010PropOp44
 70
     1
102
RTVSPost2010Prop45
280
     0
102
RTVSPost2010PropOp45
 70
     1
102
RTVSPost2010Prop46
 90
       50
102
RTVSPost2010PropOp46
 70
     1
102
RTVSPost2010Prop47
 90
       50
102
RTVSPost2010PropOp47
 70
     1
102
RTVSPost2010Prop48
 90
       50
102
RTVSPost2010PropOp48
 70
     1
102
RTVSPost2010Prop49
280
     0
102
RTVSPost2010PropOp49
 70
     1
102
RTVSPost2010Prop50
 90
       50
102
RTVSPost2010PropOp50
 70
     1
102
RTVSPost2010Prop51ColorIndex
 90
      256
102
RTVSPost2010Prop51ColorRGB
 90
-16777216
102
RTVSPost2010PropOp51
 70
     0
102
RTVSPost2010Prop52
140
1.0
102
RTVSPost2010PropOp52
 70
     0
102
RTVSPost2010Prop53
 90
        2
102
RTVSPost2010PropOp53
 70
     1
102
RTVSPost2010Prop54
  1
strokes_ogs.tif
102
RTVSPost2010PropOp54
 70
     1
102
RTVSPost2010Prop55
280
     0
102
RTVSPost2010PropOp55
 70
     1
102
RTVSPost2010Prop56
140
1.0
102
RTVSPost2010PropOp56
 70
     1
102
RTVSPost2010Prop57
140
1.0
102
RTVSPost2010PropOp57
 70
     1
  0
XRECORD
  5
12F
102
{ACAD_REACTORS
330
12E
102
}
330
12E
100
AcDbXrecord
280
     1
102
RTVSPost2010Prop28
280
     0
102
RTVSPost2010PropOp28
 70
     1
102
RTVSPost2010Prop29
280
     1
102
RTVSPost2010PropOp29
 70
     1
102
RTVSPost2010Prop30
280
     1
102
RTVSPost2010PropOp30
 70
     1
102
RTVSPost2010Prop31
280
     0
102
RTVSPost2010PropOp31
 70
     1
102
RTVSPost2010Prop32
280
     0
102
RTVSPost2010PropOp32
 70
     1
102
RTVSPost2010Prop33
280
     0
102
RTVSPost2010PropOp33
 70
     1
102
RTVSPost2010Prop34
280
     0
102
RTVSPost2010PropOp34
 70
     1
102
RTVSPost2010Prop35
280
     0
102
RTVSPost2010PropOp35
 70
     1
102
RTVSPost2010Prop36
280
     0
102
RTVSPost2010PropOp36
 70
     1
102
RTVSPost2010Prop37
 90
       50
102
RTVSPost2010PropOp37
 70
     1
102
RTVSPost2010Prop38
140
0.0
102
RTVSPost2010PropOp38
 70
     1
102
RTVSPost2010Prop39
140
1.0
102
RTVSPost2010PropOp39
 70
     1
102
RTVSPost2010Prop40
 90
        0
102
RTVSPost2010PropOp40
 70
     1
102
RTVSPost2010Prop41ColorIndex
 90
       18
102
RTVSPost2010Prop41ColorRGB
 90
        0
102
RTVSPost2010PropOp41
 70
     1
102
RTVSPost2010Prop42
 90
       50
102
RTVSPost2010PropOp42
 70
     1
102
RTVSPost2010Prop43
 90
        3
102
RTVSPost2010PropOp43
 70
     1
102
RTVSPost2010Prop44ColorIndex
 90
        5
102
RTVSPost2010Prop44ColorRGB
 90
      255
102
RTVSPost2010PropOp44
 70
     1
102
RTVSPost2010Prop45
280
     0
102
RTVSPost2010PropOp45
 70
     1
102
RTVSPost2010Prop46
 90
       50
102
RTVSPost2010PropOp46
 70
     1
102
RTVSPost2010Prop47
 90
       50
102
RTVSPost2010PropOp47
 70
     1
102
RTVSPost2010Prop48
 90
       50
102
RTVSPost2010PropOp48
 70
     1
102
RTVSPost2010Prop49
280
     0
102
RTVSPost2010PropOp49
 70
     1
102
RTVSPost2010Prop50
 90
       50
102
RTVSPost2010PropOp50
 70
     1
102
RTVSPost2010Prop51ColorIndex
 90
      256
102
RTVSPost2010Prop51ColorRGB
 90
-16777216
102
RTVSPost2010PropOp51
 70
     0
102
RTVSPost2010Prop52
140
1.0
102
RTVSPost2010PropOp52
 70
     0
102
RTVSPost2010Prop53
 90
        2
102
RTVSPost2010PropOp53
 70
     1
102
RTVSPost2010Prop54
  1
strokes_ogs.tif
102
RTVSPost2010PropOp54
 70
     1
102
RTVSPost2010Prop55
280
     0
102
RTVSPost2010PropOp55
 70
     1
102
RTVSPost2010Prop56
140
1.0
102
RTVSPost2010PropOp56
 70
     1
102
RTVSPost2010Prop57
140
1.0
102
RTVSPost2010PropOp57
 70
     1
  0
XRECORD
  5
121
102
{ACAD_REACTORS
330
120
102
}
330
120
100
AcDbXrecord
280
     1
102
RTVSPost2010Prop28
280
     0
102
RTVSPost2010PropOp28
 70
     1
102
RTVSPost2010Prop29
280
     1
102
RTVSPost2010PropOp29
 70
     1
102
RTVSPost2010Prop30
280
     1
102
RTVSPost2010PropOp30
 70
     1
102
RTVSPost2010Prop31
280
     0
102
RTVSPost2010PropOp31
 70
     1
102
RTVSPost2010Prop32
280
     0
102
RTVSPost2010PropOp32
 70
     1
102
RTVSPost2010Prop33
280
     0
102
RTVSPost2010PropOp33
 70
     1
102
RTVSPost2010Prop34
280
     0
102
RTVSPost2010PropOp34
 70
     1
102
RTVSPost2010Prop35
280
     0
102
RTVSPost2010PropOp35
 70
     1
102
RTVSPost2010Prop36
280
     0
102
RTVSPost2010PropOp36
 70
     1
102
RTVSPost2010Prop37
 90
       50
102
RTVSPost2010PropOp37
 70
     1
102
RTVSPost2010Prop38
140
0.0
102
RTVSPost2010PropOp38
 70
     1
102
RTVSPost2010Prop39
140
1.0
102
RTVSPost2010PropOp39
 70
     1
102
RTVSPost2010Prop40
 90
        0
102
RTVSPost2010PropOp40
 70
     1
102
RTVSPost2010Prop41ColorIndex
 90
       18
102
RTVSPost2010Prop41ColorRGB
 90
        0
102
RTVSPost2010PropOp41
 70
     1
102
RTVSPost2010Prop42
 90
       50
102
RTVSPost2010PropOp42
 70
     1
102
RTVSPost2010Prop43
 90
        3
102
RTVSPost2010PropOp43
 70
     1
102
RTVSPost2010Prop44ColorIndex
 90
        5
102
RTVSPost2010Prop44ColorRGB
 90
      255
102
RTVSPost2010PropOp44
 70
     1
102
RTVSPost2010Prop45
280
     0
102
RTVSPost2010PropOp45
 70
     1
102
RTVSPost2010Prop46
 90
       50
102
RTVSPost2010PropOp46
 70
     1
102
RTVSPost2010Prop47
 90
       50
102
RTVSPost2010PropOp47
 70
     1
102
RTVSPost2010Prop48
 90
       50
102
RTVSPost2010PropOp48
 70
     1
102
RTVSPost2010Prop49
280
     0
102
RTVSPost2010PropOp49
 70
     1
102
RTVSPost2010Prop50
 90
       50
102
RTVSPost2010PropOp50
 70
     1
102
RTVSPost2010Prop51ColorIndex
 90
      256
102
RTVSPost2010Prop51ColorRGB
 90
-16777216
102
RTVSPost2010PropOp51
 70
     0
102
RTVSPost2010Prop52
140
1.0
102
RTVSPost2010PropOp52
 70
     0
102
RTVSPost2010Prop53
 90
        2
102
RTVSPost2010PropOp53
 70
     1
102
RTVSPost2010Prop54
  1
strokes_ogs.tif
102
RTVSPost2010PropOp54
 70
     1
102
RTVSPost2010Prop55
280
     0
102
RTVSPost2010PropOp55
 70
     1
102
RTVSPost2010Prop56
140
1.0
102
RTVSPost2010PropOp56
 70
     1
102
RTVSPost2010Prop57
140
1.0
102
RTVSPost2010PropOp57
 70
     1
  0
XRECORD
  5
125
102
{ACAD_REACTORS
330
124
102
}
330
124
100
AcDbXrecord
280
     1
102
RTVSPost2010Prop28
280
     0
102
RTVSPost2010PropOp28
 70
     1
102
RTVSPost2010Prop29
280
     1
102
RTVSPost2010PropOp29
 70
     1
102
RTVSPost2010Prop30
280
     1
102
RTVSPost2010PropOp30
 70
     1
102
RTVSPost2010Prop31
280
     0
102
RTVSPost2010PropOp31
 70
     1
102
RTVSPost2010Prop32
280
     0
102
RTVSPost2010PropOp32
 70
     1
102
RTVSPost2010Prop33
280
     0
102
RTVSPost2010PropOp33
 70
     1
102
RTVSPost2010Prop34
280
     0
102
RTVSPost2010PropOp34
 70
     1
102
RTVSPost2010Prop35
280
     0
102
RTVSPost2010PropOp35
 70
     1
102
RTVSPost2010Prop36
280
     0
102
RTVSPost2010PropOp36
 70
     1
102
RTVSPost2010Prop37
 90
       50
102
RTVSPost2010PropOp37
 70
     1
102
RTVSPost2010Prop38
140
0.0
102
RTVSPost2010PropOp38
 70
     1
102
RTVSPost2010Prop39
140
1.0
102
RTVSPost2010PropOp39
 70
     1
102
RTVSPost2010Prop40
 90
        0
102
RTVSPost2010PropOp40
 70
     1
102
RTVSPost2010Prop41ColorIndex
 90
       18
102
RTVSPost2010Prop41ColorRGB
 90
        0
102
RTVSPost2010PropOp41
 70
     1
102
RTVSPost2010Prop42
 90
       50
102
RTVSPost2010PropOp42
 70
     1
102
RTVSPost2010Prop43
 90
        3
102
RTVSPost2010PropOp43
 70
     1
102
RTVSPost2010Prop44ColorIndex
 90
        5
102
RTVSPost2010Prop44ColorRGB
 90
      255
102
RTVSPost2010PropOp44
 70
     1
102
RTVSPost2010Prop45
280
     0
102
RTVSPost2010PropOp45
 70
     1
102
RTVSPost2010Prop46
 90
       50
102
RTVSPost2010PropOp46
 70
     1
102
RTVSPost2010Prop47
 90
       50
102
RTVSPost2010PropOp47
 70
     1
102
RTVSPost2010Prop48
 90
       50
102
RTVSPost2010PropOp48
 70
     1
102
RTVSPost2010Prop49
280
     0
102
RTVSPost2010PropOp49
 70
     1
102
RTVSPost2010Prop50
 90
       50
102
RTVSPost2010PropOp50
 70
     1
102
RTVSPost2010Prop51ColorIndex
 90
      256
102
RTVSPost2010Prop51ColorRGB
 90
-16777216
102
RTVSPost2010PropOp51
 70
     0
102
RTVSPost2010Prop52
140
1.0
102
RTVSPost2010PropOp52
 70
     0
102
RTVSPost2010Prop53
 90
        2
102
RTVSPost2010PropOp53
 70
     1
102
RTVSPost2010Prop54
  1
strokes_ogs.tif
102
RTVSPost2010PropOp54
 70
     1
102
RTVSPost2010Prop55
280
     0
102
RTVSPost2010PropOp55
 70
     1
102
RTVSPost2010Prop56
140
1.0
102
RTVSPost2010PropOp56
 70
     1
102
RTVSPost2010Prop57
140
1.0
102
RTVSPost2010PropOp57
 70
     1
  0
XRECORD
  5
13F
102
{ACAD_REACTORS
330
13E
102
}
330
13E
100
AcDbXrecord
280
     1
102
RTVSPost2010Prop28
280
     0
102
RTVSPost2010PropOp28
 70
     0
102
RTVSPost2010Prop29
280
     1
102
RTVSPost2010PropOp29
 70
     0
102
RTVSPost2010Prop30
280
     1
102
RTVSPost2010PropOp30
 70
     0
102
RTVSPost2010Prop31
280
     0
102
RTVSPost2010PropOp31
 70
     0
102
RTVSPost2010Prop32
280
     0
102
RTVSPost2010PropOp32
 70
     0
102
RTVSPost2010Prop33
280
     0
102
RTVSPost2010PropOp33
 70
     0
102
RTVSPost2010Prop34
280
     0
102
RTVSPost2010PropOp34
 70
     0
102
RTVSPost2010Prop35
280
     0
102
RTVSPost2010PropOp35
 70
     0
102
RTVSPost2010Prop36
280
     0
102
RTVSPost2010PropOp36
 70
     0
102
RTVSPost2010Prop37
 90
       50
102
RTVSPost2010PropOp37
 70
     0
102
RTVSPost2010Prop38
140
0.0
102
RTVSPost2010PropOp38
 70
     0
102
RTVSPost2010Prop39
140
1.0
102
RTVSPost2010PropOp39
 70
     0
102
RTVSPost2010Prop40
 90
        0
102
RTVSPost2010PropOp40
 70
     0
102
RTVSPost2010Prop41ColorIndex
 90
       18
102
RTVSPost2010Prop41ColorRGB
 90
        0
102
RTVSPost2010PropOp41
 70
     0
102
RTVSPost2010Prop42
 90
       50
102
RTVSPost2010PropOp42
 70
     0
102
RTVSPost2010Prop43
 90
        3
102
RTVSPost2010PropOp43
 70
     0
102
RTVSPost2010Prop44ColorIndex
 90
        5
102
RTVSPost2010Prop44ColorRGB
 90
      255
102
RTVSPost2010PropOp44
 70
     0
102
RTVSPost2010Prop45
280
     0
102
RTVSPost2010PropOp45
 70
     0
102
RTVSPost2010Prop46
 90
       50
102
RTVSPost2010PropOp46
 70
     0
102
RTVSPost2010Prop47
 90
       50
102
RTVSPost2010PropOp47
 70
     0
102
RTVSPost2010Prop48
 90
       50
102
RTVSPost2010PropOp48
 70
     0
102
RTVSPost2010Prop49
280
     0
102
RTVSPost2010PropOp49
 70
     0
102
RTVSPost2010Prop50
 90
       50
102
RTVSPost2010PropOp50
 70
     0
102
RTVSPost2010Prop51ColorIndex
 90
      256
102
RTVSPost2010Prop51ColorRGB
 90
-16777216
102
RTVSPost2010PropOp51
 70
     0
102
RTVSPost2010Prop52
140
1.0
102
RTVSPost2010PropOp52
 70
     0
102
RTVSPost2010Prop53
 90
        2
102
RTVSPost2010PropOp53
 70
     0
102
RTVSPost2010Prop54
  1
strokes_ogs.tif
102
RTVSPost2010PropOp54
 70
     0
102
RTVSPost2010Prop55
280
     0
102
RTVSPost2010PropOp55
 70
     0
102
RTVSPost2010Prop56
140
1.0
102
RTVSPost2010PropOp56
 70
     0
102
RTVSPost2010Prop57
140
1.0
102
RTVSPost2010PropOp57
 70
     0
  0
XRECORD
  5
12D
102
{ACAD_REACTORS
330
12C
102
}
330
12C
100
AcDbXrecord
280
     1
102
RTVSPost2010Prop28
280
     0
102
RTVSPost2010PropOp28
 70
     1
102
RTVSPost2010Prop29
280
     1
102
RTVSPost2010PropOp29
 70
     1
102
RTVSPost2010Prop30
280
     1
102
RTVSPost2010PropOp30
 70
     1
102
RTVSPost2010Prop31
280
     0
102
RTVSPost2010PropOp31
 70
     1
102
RTVSPost2010Prop32
280
     0
102
RTVSPost2010PropOp32
 70
     1
102
RTVSPost2010Prop33
280
     0
102
RTVSPost2010PropOp33
 70
     1
102
RTVSPost2010Prop34
280
     0
102
RTVSPost2010PropOp34
 70
     1
102
RTVSPost2010Prop35
280
     0
102
RTVSPost2010PropOp35
 70
     1
102
RTVSPost2010Prop36
280
     0
102
RTVSPost2010PropOp36
 70
     1
102
RTVSPost2010Prop37
 90
       50
102
RTVSPost2010PropOp37
 70
     1
102
RTVSPost2010Prop38
140
0.0
102
RTVSPost2010PropOp38
 70
     1
102
RTVSPost2010Prop39
140
1.0
102
RTVSPost2010PropOp39
 70
     1
102
RTVSPost2010Prop40
 90
        0
102
RTVSPost2010PropOp40
 70
     1
102
RTVSPost2010Prop41ColorIndex
 90
       18
102
RTVSPost2010Prop41ColorRGB
 90
        0
102
RTVSPost2010PropOp41
 70
     1
102
RTVSPost2010Prop42
 90
       50
102
RTVSPost2010PropOp42
 70
     1
102
RTVSPost2010Prop43
 90
        3
102
RTVSPost2010PropOp43
 70
     1
102
RTVSPost2010Prop44ColorIndex
 90
        5
102
RTVSPost2010Prop44ColorRGB
 90
      255
102
RTVSPost2010PropOp44
 70
     1
102
RTVSPost2010Prop45
280
     0
102
RTVSPost2010PropOp45
 70
     1
102
RTVSPost2010Prop46
 90
       50
102
RTVSPost2010PropOp46
 70
     1
102
RTVSPost2010Prop47
 90
       50
102
RTVSPost2010PropOp47
 70
     1
102
RTVSPost2010Prop48
 90
       50
102
RTVSPost2010PropOp48
 70
     1
102
RTVSPost2010Prop49
280
     0
102
RTVSPost2010PropOp49
 70
     1
102
RTVSPost2010Prop50
 90
       50
102
RTVSPost2010PropOp50
 70
     1
102
RTVSPost2010Prop51ColorIndex
 90
      256
102
RTVSPost2010Prop51ColorRGB
 90
-16777216
102
RTVSPost2010PropOp51
 70
     0
102
RTVSPost2010Prop52
140
1.0
102
RTVSPost2010PropOp52
 70
     0
102
RTVSPost2010Prop53
 90
        2
102
RTVSPost2010PropOp53
 70
     1
102
RTVSPost2010Prop54
  1
strokes_ogs.tif
102
RTVSPost2010PropOp54
 70
     1
102
RTVSPost2010Prop55
280
     0
102
RTVSPost2010PropOp55
 70
     1
102
RTVSPost2010Prop56
140
1.0
102
RTVSPost2010PropOp56
 70
     1
102
RTVSPost2010Prop57
140
1.0
102
RTVSPost2010PropOp57
 70
     1
  0
XRECORD
  5
111
102
{ACAD_REACTORS
330
110
102
}
330
110
100
AcDbXrecord
280
     1
102
RTVSPost2010Prop28
280
     0
102
RTVSPost2010PropOp28
 70
     1
102
RTVSPost2010Prop29
280
     1
102
RTVSPost2010PropOp29
 70
     1
102
RTVSPost2010Prop30
280
     1
102
RTVSPost2010PropOp30
 70
     1
102
RTVSPost2010Prop31
280
     0
102
RTVSPost2010PropOp31
 70
     1
102
RTVSPost2010Prop32
280
     0
102
RTVSPost2010PropOp32
 70
     1
102
RTVSPost2010Prop33
280
     0
102
RTVSPost2010PropOp33
 70
     1
102
RTVSPost2010Prop34
280
     0
102
RTVSPost2010PropOp34
 70
     1
102
RTVSPost2010Prop35
280
     0
102
RTVSPost2010PropOp35
 70
     1
102
RTVSPost2010Prop36
280
     0
102
RTVSPost2010PropOp36
 70
     1
102
RTVSPost2010Prop37
 90
       50
102
RTVSPost2010PropOp37
 70
     1
102
RTVSPost2010Prop38
140
0.0
102
RTVSPost2010PropOp38
 70
     1
102
RTVSPost2010Prop39
140
1.0
102
RTVSPost2010PropOp39
 70
     1
102
RTVSPost2010Prop40
 90
        0
102
RTVSPost2010PropOp40
 70
     1
102
RTVSPost2010Prop41ColorIndex
 90
       18
102
RTVSPost2010Prop41ColorRGB
 90
        0
102
RTVSPost2010PropOp41
 70
     1
102
RTVSPost2010Prop42
 90
       50
102
RTVSPost2010PropOp42
 70
     1
102
RTVSPost2010Prop43
 90
        3
102
RTVSPost2010PropOp43
 70
     1
102
RTVSPost2010Prop44ColorIndex
 90
        5
102
RTVSPost2010Prop44ColorRGB
 90
      255
102
RTVSPost2010PropOp44
 70
     1
102
RTVSPost2010Prop45
280
     0
102
RTVSPost2010PropOp45
 70
     1
102
RTVSPost2010Prop46
 90
       50
102
RTVSPost2010PropOp46
 70
     1
102
RTVSPost2010Prop47
 90
       50
102
RTVSPost2010PropOp47
 70
     1
102
RTVSPost2010Prop48
 90
       50
102
RTVSPost2010PropOp48
 70
     1
102
RTVSPost2010Prop49
280
     0
102
RTVSPost2010PropOp49
 70
     1
102
RTVSPost2010Prop50
 90
       50
102
RTVSPost2010PropOp50
 70
     1
102
RTVSPost2010Prop51ColorIndex
 90
      256
102
RTVSPost2010Prop51ColorRGB
 90
-16777216
102
RTVSPost2010PropOp51
 70
     0
102
RTVSPost2010Prop52
140
1.0
102
RTVSPost2010PropOp52
 70
     0
102
RTVSPost2010Prop53
 90
        2
102
RTVSPost2010PropOp53
 70
     1
102
RTVSPost2010Prop54
  1
strokes_ogs.tif
102
RTVSPost2010PropOp54
 70
     1
102
RTVSPost2010Prop55
280
     0
102
RTVSPost2010PropOp55
 70
     1
102
RTVSPost2010Prop56
140
1.0
102
RTVSPost2010PropOp56
 70
     1
102
RTVSPost2010Prop57
140
1.0
102
RTVSPost2010PropOp57
 70
     1
  0
XRECORD
  5
113
102
{ACAD_REACTORS
330
112
102
}
330
112
100
AcDbXrecord
280
     1
102
RTVSPost2010Prop28
280
     0
102
RTVSPost2010PropOp28
 70
     1
102
RTVSPost2010Prop29
280
     1
102
RTVSPost2010PropOp29
 70
     1
102
RTVSPost2010Prop30
280
     1
102
RTVSPost2010PropOp30
 70
     1
102
RTVSPost2010Prop31
280
     0
102
RTVSPost2010PropOp31
 70
     1
102
RTVSPost2010Prop32
280
     0
102
RTVSPost2010PropOp32
 70
     1
102
RTVSPost2010Prop33
280
     0
102
RTVSPost2010PropOp33
 70
     1
102
RTVSPost2010Prop34
280
     0
102
RTVSPost2010PropOp34
 70
     1
102
RTVSPost2010Prop35
280
     0
102
RTVSPost2010PropOp35
 70
     1
102
RTVSPost2010Prop36
280
     0
102
RTVSPost2010PropOp36
 70
     1
102
RTVSPost2010Prop37
 90
       50
102
RTVSPost2010PropOp37
 70
     1
102
RTVSPost2010Prop38
140
0.0
102
RTVSPost2010PropOp38
 70
     1
102
RTVSPost2010Prop39
140
1.0
102
RTVSPost2010PropOp39
 70
     1
102
RTVSPost2010Prop40
 90
        0
102
RTVSPost2010PropOp40
 70
     1
102
RTVSPost2010Prop41ColorIndex
 90
       18
102
RTVSPost2010Prop41ColorRGB
 90
        0
102
RTVSPost2010PropOp41
 70
     1
102
RTVSPost2010Prop42
 90
       50
102
RTVSPost2010PropOp42
 70
     1
102
RTVSPost2010Prop43
 90
        3
102
RTVSPost2010PropOp43
 70
     1
102
RTVSPost2010Prop44ColorIndex
 90
        5
102
RTVSPost2010Prop44ColorRGB
 90
      255
102
RTVSPost2010PropOp44
 70
     1
102
RTVSPost2010Prop45
280
     0
102
RTVSPost2010PropOp45
 70
     1
102
RTVSPost2010Prop46
 90
       50
102
RTVSPost2010PropOp46
 70
     1
102
RTVSPost2010Prop47
 90
       50
102
RTVSPost2010PropOp47
 70
     1
102
RTVSPost2010Prop48
 90
       50
102
RTVSPost2010PropOp48
 70
     1
102
RTVSPost2010Prop49
280
     0
102
RTVSPost2010PropOp49
 70
     1
102
RTVSPost2010Prop50
 90
       50
102
RTVSPost2010PropOp50
 70
     1
102
RTVSPost2010Prop51ColorIndex
 90
      256
102
RTVSPost2010Prop51ColorRGB
 90
-16777216
102
RTVSPost2010PropOp51
 70
     0
102
RTVSPost2010Prop52
140
1.0
102
RTVSPost2010PropOp52
 70
     0
102
RTVSPost2010Prop53
 90
        2
102
RTVSPost2010PropOp53
 70
     1
102
RTVSPost2010Prop54
  1
strokes_ogs.tif
102
RTVSPost2010PropOp54
 70
     1
102
RTVSPost2010Prop55
280
     0
102
RTVSPost2010PropOp55
 70
     1
102
RTVSPost2010Prop56
140
1.0
102
RTVSPost2010PropOp56
 70
     1
102
RTVSPost2010Prop57
140
1.0
102
RTVSPost2010PropOp57
 70
     1
  0
XRECORD
  5
115
102
{ACAD_REACTORS
330
114
102
}
330
114
100
AcDbXrecord
280
     1
102
RTVSPost2010Prop28
280
     0
102
RTVSPost2010PropOp28
 70
     1
102
RTVSPost2010Prop29
280
     1
102
RTVSPost2010PropOp29
 70
     1
102
RTVSPost2010Prop30
280
     1
102
RTVSPost2010PropOp30
 70
     1
102
RTVSPost2010Prop31
280
     0
102
RTVSPost2010PropOp31
 70
     1
102
RTVSPost2010Prop32
280
     0
102
RTVSPost2010PropOp32
 70
     1
102
RTVSPost2010Prop33
280
     0
102
RTVSPost2010PropOp33
 70
     1
102
RTVSPost2010Prop34
280
     0
102
RTVSPost2010PropOp34
 70
     1
102
RTVSPost2010Prop35
280
     0
102
RTVSPost2010PropOp35
 70
     1
102
RTVSPost2010Prop36
280
     0
102
RTVSPost2010PropOp36
 70
     1
102
RTVSPost2010Prop37
 90
       50
102
RTVSPost2010PropOp37
 70
     1
102
RTVSPost2010Prop38
140
0.0
102
RTVSPost2010PropOp38
 70
     1
102
RTVSPost2010Prop39
140
1.0
102
RTVSPost2010PropOp39
 70
     1
102
RTVSPost2010Prop40
 90
        0
102
RTVSPost2010PropOp40
 70
     1
102
RTVSPost2010Prop41ColorIndex
 90
       18
102
RTVSPost2010Prop41ColorRGB
 90
        0
102
RTVSPost2010PropOp41
 70
     1
102
RTVSPost2010Prop42
 90
       50
102
RTVSPost2010PropOp42
 70
     1
102
RTVSPost2010Prop43
 90
        3
102
RTVSPost2010PropOp43
 70
     1
102
RTVSPost2010Prop44ColorIndex
 90
        5
102
RTVSPost2010Prop44ColorRGB
 90
      255
102
RTVSPost2010PropOp44
 70
     1
102
RTVSPost2010Prop45
280
     0
102
RTVSPost2010PropOp45
 70
     1
102
RTVSPost2010Prop46
 90
       50
102
RTVSPost2010PropOp46
 70
     1
102
RTVSPost2010Prop47
 90
       50
102
RTVSPost2010PropOp47
 70
     1
102
RTVSPost2010Prop48
 90
       50
102
RTVSPost2010PropOp48
 70
     1
102
RTVSPost2010Prop49
280
     0
102
RTVSPost2010PropOp49
 70
     1
102
RTVSPost2010Prop50
 90
       50
102
RTVSPost2010PropOp50
 70
     1
102
RTVSPost2010Prop51ColorIndex
 90
      256
102
RTVSPost2010Prop51ColorRGB
 90
-16777216
102
RTVSPost2010PropOp51
 70
     0
102
RTVSPost2010Prop52
140
1.0
102
RTVSPost2010PropOp52
 70
     0
102
RTVSPost2010Prop53
 90
        2
102
RTVSPost2010PropOp53
 70
     1
102
RTVSPost2010Prop54
  1
strokes_ogs.tif
102
RTVSPost2010PropOp54
 70
     1
102
RTVSPost2010Prop55
280
     0
102
RTVSPost2010PropOp55
 70
     1
102
RTVSPost2010Prop56
140
1.0
102
RTVSPost2010PropOp56
 70
     1
102
RTVSPost2010Prop57
140
1.0
102
RTVSPost2010PropOp57
 70
     1
  0
XRECORD
  5
117
102
{ACAD_REACTORS
330
116
102
}
330
116
100
AcDbXrecord
280
     1
102
RTVSPost2010Prop28
280
     0
102
RTVSPost2010PropOp28
 70
     1
102
RTVSPost2010Prop29
280
     1
102
RTVSPost2010PropOp29
 70
     1
102
RTVSPost2010Prop30
280
     1
102
RTVSPost2010PropOp30
 70
     1
102
RTVSPost2010Prop31
280
     0
102
RTVSPost2010PropOp31
 70
     1
102
RTVSPost2010Prop32
280
     0
102
RTVSPost2010PropOp32
 70
     1
102
RTVSPost2010Prop33
280
     0
102
RTVSPost2010PropOp33
 70
     1
102
RTVSPost2010Prop34
280
     0
102
RTVSPost2010PropOp34
 70
     1
102
RTVSPost2010Prop35
280
     0
102
RTVSPost2010PropOp35
 70
     1
102
RTVSPost2010Prop36
280
     0
102
RTVSPost2010PropOp36
 70
     1
102
RTVSPost2010Prop37
 90
       50
102
RTVSPost2010PropOp37
 70
     1
102
RTVSPost2010Prop38
140
0.0
102
RTVSPost2010PropOp38
 70
     1
102
RTVSPost2010Prop39
140
1.0
102
RTVSPost2010PropOp39
 70
     1
102
RTVSPost2010Prop40
 90
        0
102
RTVSPost2010PropOp40
 70
     1
102
RTVSPost2010Prop41ColorIndex
 90
       18
102
RTVSPost2010Prop41ColorRGB
 90
        0
102
RTVSPost2010PropOp41
 70
     1
102
RTVSPost2010Prop42
 90
       50
102
RTVSPost2010PropOp42
 70
     1
102
RTVSPost2010Prop43
 90
        3
102
RTVSPost2010PropOp43
 70
     1
102
RTVSPost2010Prop44ColorIndex
 90
        5
102
RTVSPost2010Prop44ColorRGB
 90
      255
102
RTVSPost2010PropOp44
 70
     1
102
RTVSPost2010Prop45
280
     0
102
RTVSPost2010PropOp45
 70
     1
102
RTVSPost2010Prop46
 90
       50
102
RTVSPost2010PropOp46
 70
     1
102
RTVSPost2010Prop47
 90
       50
102
RTVSPost2010PropOp47
 70
     1
102
RTVSPost2010Prop48
 90
       50
102
RTVSPost2010PropOp48
 70
     1
102
RTVSPost2010Prop49
280
     0
102
RTVSPost2010PropOp49
 70
     1
102
RTVSPost2010Prop50
 90
       50
102
RTVSPost2010PropOp50
 70
     1
102
RTVSPost2010Prop51ColorIndex
 90
      256
102
RTVSPost2010Prop51ColorRGB
 90
-16777216
102
RTVSPost2010PropOp51
 70
     0
102
RTVSPost2010Prop52
140
1.0
102
RTVSPost2010PropOp52
 70
     0
102
RTVSPost2010Prop53
 90
        2
102
RTVSPost2010PropOp53
 70
     1
102
RTVSPost2010Prop54
  1
strokes_ogs.tif
102
RTVSPost2010PropOp54
 70
     1
102
RTVSPost2010Prop55
280
     0
102
RTVSPost2010PropOp55
 70
     1
102
RTVSPost2010Prop56
140
1.0
102
RTVSPost2010PropOp56
 70
     1
102
RTVSPost2010Prop57
140
1.0
102
RTVSPost2010PropOp57
 70
     1
  0
XRECORD
  5
11F
102
{ACAD_REACTORS
330
11E
102
}
330
11E
100
AcDbXrecord
280
     1
102
RTVSPost2010Prop28
280
     0
102
RTVSPost2010PropOp28
 70
     1
102
RTVSPost2010Prop29
280
     1
102
RTVSPost2010PropOp29
 70
     1
102
RTVSPost2010Prop30
280
     1
102
RTVSPost2010PropOp30
 70
     1
102
RTVSPost2010Prop31
280
     0
102
RTVSPost2010PropOp31
 70
     1
102
RTVSPost2010Prop32
280
     0
102
RTVSPost2010PropOp32
 70
     1
102
RTVSPost2010Prop33
280
     0
102
RTVSPost2010PropOp33
 70
     1
102
RTVSPost2010Prop34
280
     0
102
RTVSPost2010PropOp34
 70
     1
102
RTVSPost2010Prop35
280
     0
102
RTVSPost2010PropOp35
 70
     1
102
RTVSPost2010Prop36
280
     0
102
RTVSPost2010PropOp36
 70
     1
102
RTVSPost2010Prop37
 90
       50
102
RTVSPost2010PropOp37
 70
     1
102
RTVSPost2010Prop38
140
0.0
102
RTVSPost2010PropOp38
 70
     1
102
RTVSPost2010Prop39
140
1.0
102
RTVSPost2010PropOp39
 70
     1
102
RTVSPost2010Prop40
 90
        0
102
RTVSPost2010PropOp40
 70
     1
102
RTVSPost2010Prop41ColorIndex
 90
       18
102
RTVSPost2010Prop41ColorRGB
 90
        0
102
RTVSPost2010PropOp41
 70
     1
102
RTVSPost2010Prop42
 90
       50
102
RTVSPost2010PropOp42
 70
     1
102
RTVSPost2010Prop43
 90
        3
102
RTVSPost2010PropOp43
 70
     1
102
RTVSPost2010Prop44ColorIndex
 90
        5
102
RTVSPost2010Prop44ColorRGB
 90
      255
102
RTVSPost2010PropOp44
 70
     1
102
RTVSPost2010Prop45
280
     0
102
RTVSPost2010PropOp45
 70
     1
102
RTVSPost2010Prop46
 90
       50
102
RTVSPost2010PropOp46
 70
     1
102
RTVSPost2010Prop47
 90
       50
102
RTVSPost2010PropOp47
 70
     1
102
RTVSPost2010Prop48
 90
       50
102
RTVSPost2010PropOp48
 70
     1
102
RTVSPost2010Prop49
280
     0
102
RTVSPost2010PropOp49
 70
     1
102
RTVSPost2010Prop50
 90
       50
102
RTVSPost2010PropOp50
 70
     1
102
RTVSPost2010Prop51ColorIndex
 90
      256
102
RTVSPost2010Prop51ColorRGB
 90
-16777216
102
RTVSPost2010PropOp51
 70
     0
102
RTVSPost2010Prop52
140
1.0
102
RTVSPost2010PropOp52
 70
     0
102
RTVSPost2010Prop53
 90
        2
102
RTVSPost2010PropOp53
 70
     1
102
RTVSPost2010Prop54
  1
strokes_ogs.tif
102
RTVSPost2010PropOp54
 70
     1
102
RTVSPost2010Prop55
280
     0
102
RTVSPost2010PropOp55
 70
     1
102
RTVSPost2010Prop56
140
1.0
102
RTVSPost2010PropOp56
 70
     1
102
RTVSPost2010Prop57
140
1.0
102
RTVSPost2010PropOp57
 70
     1
  0
XRECORD
  5
13B
102
{ACAD_REACTORS
330
13A
102
}
330
13A
100
AcDbXrecord
280
     1
102
RTVSPost2010Prop28
280
     0
102
RTVSPost2010PropOp28
 70
     0
102
RTVSPost2010Prop29
280
     1
102
RTVSPost2010PropOp29
 70
     0
102
RTVSPost2010Prop30
280
     1
102
RTVSPost2010PropOp30
 70
     0
102
RTVSPost2010Prop31
280
     0
102
RTVSPost2010PropOp31
 70
     0
102
RTVSPost2010Prop32
280
     0
102
RTVSPost2010PropOp32
 70
     0
102
RTVSPost2010Prop33
280
     0
102
RTVSPost2010PropOp33
 70
     0
102
RTVSPost2010Prop34
280
     0
102
RTVSPost2010PropOp34
 70
     0
102
RTVSPost2010Prop35
280
     0
102
RTVSPost2010PropOp35
 70
     0
102
RTVSPost2010Prop36
280
     0
102
RTVSPost2010PropOp36
 70
     0
102
RTVSPost2010Prop37
 90
       50
102
RTVSPost2010PropOp37
 70
     0
102
RTVSPost2010Prop38
140
0.0
102
RTVSPost2010PropOp38
 70
     0
102
RTVSPost2010Prop39
140
1.0
102
RTVSPost2010PropOp39
 70
     0
102
RTVSPost2010Prop40
 90
        0
102
RTVSPost2010PropOp40
 70
     0
102
RTVSPost2010Prop41ColorIndex
 90
       18
102
RTVSPost2010Prop41ColorRGB
 90
        0
102
RTVSPost2010PropOp41
 70
     0
102
RTVSPost2010Prop42
 90
       50
102
RTVSPost2010PropOp42
 70
     0
102
RTVSPost2010Prop43
 90
        3
102
RTVSPost2010PropOp43
 70
     0
102
RTVSPost2010Prop44ColorIndex
 90
        5
102
RTVSPost2010Prop44ColorRGB
 90
      255
102
RTVSPost2010PropOp44
 70
     0
102
RTVSPost2010Prop45
280
     0
102
RTVSPost2010PropOp45
 70
     0
102
RTVSPost2010Prop46
 90
       50
102
RTVSPost2010PropOp46
 70
     0
102
RTVSPost2010Prop47
 90
       50
102
RTVSPost2010PropOp47
 70
     0
102
RTVSPost2010Prop48
 90
       50
102
RTVSPost2010PropOp48
 70
     0
102
RTVSPost2010Prop49
280
     0
102
RTVSPost2010PropOp49
 70
     0
102
RTVSPost2010Prop50
 90
       50
102
RTVSPost2010PropOp50
 70
     0
102
RTVSPost2010Prop51ColorIndex
 90
      256
102
RTVSPost2010Prop51ColorRGB
 90
-16777216
102
RTVSPost2010PropOp51
 70
     0
102
RTVSPost2010Prop52
140
1.0
102
RTVSPost2010PropOp52
 70
     0
102
RTVSPost2010Prop53
 90
        2
102
RTVSPost2010PropOp53
 70
     0
102
RTVSPost2010Prop54
  1
strokes_ogs.tif
102
RTVSPost2010PropOp54
 70
     0
102
RTVSPost2010Prop55
280
     0
102
RTVSPost2010PropOp55
 70
     0
102
RTVSPost2010Prop56
140
1.0
102
RTVSPost2010PropOp56
 70
     0
102
RTVSPost2010Prop57
140
1.0
102
RTVSPost2010PropOp57
 70
     0
  0
XRECORD
  5
12B
102
{ACAD_REACTORS
330
12A
102
}
330
12A
100
AcDbXrecord
280
     1
102
RTVSPost2010Prop28
280
     0
102
RTVSPost2010PropOp28
 70
     1
102
RTVSPost2010Prop29
280
     1
102
RTVSPost2010PropOp29
 70
     1
102
RTVSPost2010Prop30
280
     1
102
RTVSPost2010PropOp30
 70
     1
102
RTVSPost2010Prop31
280
     0
102
RTVSPost2010PropOp31
 70
     1
102
RTVSPost2010Prop32
280
     0
102
RTVSPost2010PropOp32
 70
     1
102
RTVSPost2010Prop33
280
     0
102
RTVSPost2010PropOp33
 70
     1
102
RTVSPost2010Prop34
280
     0
102
RTVSPost2010PropOp34
 70
     1
102
RTVSPost2010Prop35
280
     0
102
RTVSPost2010PropOp35
 70
     1
102
RTVSPost2010Prop36
280
     0
102
RTVSPost2010PropOp36
 70
     1
102
RTVSPost2010Prop37
 90
       50
102
RTVSPost2010PropOp37
 70
     1
102
RTVSPost2010Prop38
140
0.0
102
RTVSPost2010PropOp38
 70
     1
102
RTVSPost2010Prop39
140
1.0
102
RTVSPost2010PropOp39
 70
     1
102
RTVSPost2010Prop40
 90
        0
102
RTVSPost2010PropOp40
 70
     1
102
RTVSPost2010Prop41ColorIndex
 90
       18
102
RTVSPost2010Prop41ColorRGB
 90
        0
102
RTVSPost2010PropOp41
 70
     1
102
RTVSPost2010Prop42
 90
       50
102
RTVSPost2010PropOp42
 70
     1
102
RTVSPost2010Prop43
 90
        3
102
RTVSPost2010PropOp43
 70
     1
102
RTVSPost2010Prop44ColorIndex
 90
        5
102
RTVSPost2010Prop44ColorRGB
 90
      255
102
RTVSPost2010PropOp44
 70
     1
102
RTVSPost2010Prop45
280
     0
102
RTVSPost2010PropOp45
 70
     1
102
RTVSPost2010Prop46
 90
       50
102
RTVSPost2010PropOp46
 70
     1
102
RTVSPost2010Prop47
 90
       50
102
RTVSPost2010PropOp47
 70
     1
102
RTVSPost2010Prop48
 90
       50
102
RTVSPost2010PropOp48
 70
     1
102
RTVSPost2010Prop49
280
     0
102
RTVSPost2010PropOp49
 70
     1
102
RTVSPost2010Prop50
 90
       50
102
RTVSPost2010PropOp50
 70
     1
102
RTVSPost2010Prop51ColorIndex
 90
      256
102
RTVSPost2010Prop51ColorRGB
 90
-16777216
102
RTVSPost2010PropOp51
 70
     0
102
RTVSPost2010Prop52
140
1.0
102
RTVSPost2010PropOp52
 70
     0
102
RTVSPost2010Prop53
 90
        2
102
RTVSPost2010PropOp53
 70
     1
102
RTVSPost2010Prop54
  1
strokes_ogs.tif
102
RTVSPost2010PropOp54
 70
     1
102
RTVSPost2010Prop55
280
     0
102
RTVSPost2010PropOp55
 70
     1
102
RTVSPost2010Prop56
140
1.0
102
RTVSPost2010PropOp56
 70
     1
102
RTVSPost2010Prop57
140
1.0
102
RTVSPost2010PropOp57
 70
     1
  0
XRECORD
  5
13D
102
{ACAD_REACTORS
330
13C
102
}
330
13C
100
AcDbXrecord
280
     1
102
RTVSPost2010Prop28
280
     0
102
RTVSPost2010PropOp28
 70
     0
102
RTVSPost2010Prop29
280
     1
102
RTVSPost2010PropOp29
 70
     0
102
RTVSPost2010Prop30
280
     1
102
RTVSPost2010PropOp30
 70
     0
102
RTVSPost2010Prop31
280
     0
102
RTVSPost2010PropOp31
 70
     0
102
RTVSPost2010Prop32
280
     0
102
RTVSPost2010PropOp32
 70
     0
102
RTVSPost2010Prop33
280
     0
102
RTVSPost2010PropOp33
 70
     0
102
RTVSPost2010Prop34
280
     0
102
RTVSPost2010PropOp34
 70
     0
102
RTVSPost2010Prop35
280
     0
102
RTVSPost2010PropOp35
 70
     0
102
RTVSPost2010Prop36
280
     0
102
RTVSPost2010PropOp36
 70
     0
102
RTVSPost2010Prop37
 90
       50
102
RTVSPost2010PropOp37
 70
     0
102
RTVSPost2010Prop38
140
0.0
102
RTVSPost2010PropOp38
 70
     0
102
RTVSPost2010Prop39
140
1.0
102
RTVSPost2010PropOp39
 70
     0
102
RTVSPost2010Prop40
 90
        0
102
RTVSPost2010PropOp40
 70
     0
102
RTVSPost2010Prop41ColorIndex
 90
       18
102
RTVSPost2010Prop41ColorRGB
 90
        0
102
RTVSPost2010PropOp41
 70
     0
102
RTVSPost2010Prop42
 90
       50
102
RTVSPost2010PropOp42
 70
     0
102
RTVSPost2010Prop43
 90
        3
102
RTVSPost2010PropOp43
 70
     0
102
RTVSPost2010Prop44ColorIndex
 90
        5
102
RTVSPost2010Prop44ColorRGB
 90
      255
102
RTVSPost2010PropOp44
 70
     0
102
RTVSPost2010Prop45
280
     0
102
RTVSPost2010PropOp45
 70
     0
102
RTVSPost2010Prop46
 90
       50
102
RTVSPost2010PropOp46
 70
     0
102
RTVSPost2010Prop47
 90
       50
102
RTVSPost2010PropOp47
 70
     0
102
RTVSPost2010Prop48
 90
       50
102
RTVSPost2010PropOp48
 70
     0
102
RTVSPost2010Prop49
280
     0
102
RTVSPost2010PropOp49
 70
     0
102
RTVSPost2010Prop50
 90
       50
102
RTVSPost2010PropOp50
 70
     0
102
RTVSPost2010Prop51ColorIndex
 90
      256
102
RTVSPost2010Prop51ColorRGB
 90
-16777216
102
RTVSPost2010PropOp51
 70
     0
102
RTVSPost2010Prop52
140
1.0
102
RTVSPost2010PropOp52
 70
     0
102
RTVSPost2010Prop53
 90
        2
102
RTVSPost2010PropOp53
 70
     0
102
RTVSPost2010Prop54
  1
strokes_ogs.tif
102
RTVSPost2010PropOp54
 70
     0
102
RTVSPost2010Prop55
280
     0
102
RTVSPost2010PropOp55
 70
     0
102
RTVSPost2010Prop56
140
1.0
102
RTVSPost2010PropOp56
 70
     0
102
RTVSPost2010Prop57
140
1.0
102
RTVSPost2010PropOp57
 70
     0
  0
XRECORD
  5
123
102
{ACAD_REACTORS
330
122
102
}
330
122
100
AcDbXrecord
280
     1
102
RTVSPost2010Prop28
280
     0
102
RTVSPost2010PropOp28
 70
     1
102
RTVSPost2010Prop29
280
     1
102
RTVSPost2010PropOp29
 70
     1
102
RTVSPost2010Prop30
280
     1
102
RTVSPost2010PropOp30
 70
     1
102
RTVSPost2010Prop31
280
     0
102
RTVSPost2010PropOp31
 70
     1
102
RTVSPost2010Prop32
280
     0
102
RTVSPost2010PropOp32
 70
     1
102
RTVSPost2010Prop33
280
     0
102
RTVSPost2010PropOp33
 70
     1
102
RTVSPost2010Prop34
280
     0
102
RTVSPost2010PropOp34
 70
     1
102
RTVSPost2010Prop35
280
     0
102
RTVSPost2010PropOp35
 70
     1
102
RTVSPost2010Prop36
280
     0
102
RTVSPost2010PropOp36
 70
     1
102
RTVSPost2010Prop37
 90
       50
102
RTVSPost2010PropOp37
 70
     1
102
RTVSPost2010Prop38
140
0.0
102
RTVSPost2010PropOp38
 70
     1
102
RTVSPost2010Prop39
140
1.0
102
RTVSPost2010PropOp39
 70
     1
102
RTVSPost2010Prop40
 90
        0
102
RTVSPost2010PropOp40
 70
     1
102
RTVSPost2010Prop41ColorIndex
 90
       18
102
RTVSPost2010Prop41ColorRGB
 90
        0
102
RTVSPost2010PropOp41
 70
     1
102
RTVSPost2010Prop42
 90
       50
102
RTVSPost2010PropOp42
 70
     1
102
RTVSPost2010Prop43
 90
        3
102
RTVSPost2010PropOp43
 70
     1
102
RTVSPost2010Prop44ColorIndex
 90
        5
102
RTVSPost2010Prop44ColorRGB
 90
      255
102
RTVSPost2010PropOp44
 70
     1
102
RTVSPost2010Prop45
280
     0
102
RTVSPost2010PropOp45
 70
     1
102
RTVSPost2010Prop46
 90
       50
102
RTVSPost2010PropOp46
 70
     1
102
RTVSPost2010Prop47
 90
       50
102
RTVSPost2010PropOp47
 70
     1
102
RTVSPost2010Prop48
 90
       50
102
RTVSPost2010PropOp48
 70
     1
102
RTVSPost2010Prop49
280
     0
102
RTVSPost2010PropOp49
 70
     1
102
RTVSPost2010Prop50
 90
       50
102
RTVSPost2010PropOp50
 70
     1
102
RTVSPost2010Prop51ColorIndex
 90
      256
102
RTVSPost2010Prop51ColorRGB
 90
-16777216
102
RTVSPost2010PropOp51
 70
     0
102
RTVSPost2010Prop52
140
1.0
102
RTVSPost2010PropOp52
 70
     0
102
RTVSPost2010Prop53
 90
        2
102
RTVSPost2010PropOp53
 70
     1
102
RTVSPost2010Prop54
  1
strokes_ogs.tif
102
RTVSPost2010PropOp54
 70
     1
102
RTVSPost2010Prop55
280
     0
102
RTVSPost2010PropOp55
 70
     1
102
RTVSPost2010Prop56
140
1.0
102
RTVSPost2010PropOp56
 70
     1
102
RTVSPost2010Prop57
140
1.0
102
RTVSPost2010PropOp57
 70
     1
  0
XRECORD
  5
139
102
{ACAD_REACTORS
330
138
102
}
330
138
100
AcDbXrecord
280
     1
102
RTVSPost2010Prop28
280
     0
102
RTVSPost2010PropOp28
 70
     1
102
RTVSPost2010Prop29
280
     1
102
RTVSPost2010PropOp29
 70
     1
102
RTVSPost2010Prop30
280
     1
102
RTVSPost2010PropOp30
 70
     1
102
RTVSPost2010Prop31
280
     0
102
RTVSPost2010PropOp31
 70
     1
102
RTVSPost2010Prop32
280
     0
102
RTVSPost2010PropOp32
 70
     1
102
RTVSPost2010Prop33
280
     0
102
RTVSPost2010PropOp33
 70
     1
102
RTVSPost2010Prop34
280
     0
102
RTVSPost2010PropOp34
 70
     1
102
RTVSPost2010Prop35
280
     0
102
RTVSPost2010PropOp35
 70
     1
102
RTVSPost2010Prop36
280
     0
102
RTVSPost2010PropOp36
 70
     1
102
RTVSPost2010Prop37
 90
       50
102
RTVSPost2010PropOp37
 70
     1
102
RTVSPost2010Prop38
140
0.0
102
RTVSPost2010PropOp38
 70
     1
102
RTVSPost2010Prop39
140
1.0
102
RTVSPost2010PropOp39
 70
     1
102
RTVSPost2010Prop40
 90
        0
102
RTVSPost2010PropOp40
 70
     1
102
RTVSPost2010Prop41ColorIndex
 90
       18
102
RTVSPost2010Prop41ColorRGB
 90
        0
102
RTVSPost2010PropOp41
 70
     1
102
RTVSPost2010Prop42
 90
       50
102
RTVSPost2010PropOp42
 70
     1
102
RTVSPost2010Prop43
 90
        3
102
RTVSPost2010PropOp43
 70
     1
102
RTVSPost2010Prop44ColorIndex
 90
        5
102
RTVSPost2010Prop44ColorRGB
 90
      255
102
RTVSPost2010PropOp44
 70
     1
102
RTVSPost2010Prop45
280
     0
102
RTVSPost2010PropOp45
 70
     1
102
RTVSPost2010Prop46
 90
       50
102
RTVSPost2010PropOp46
 70
     1
102
RTVSPost2010Prop47
 90
       50
102
RTVSPost2010PropOp47
 70
     1
102
RTVSPost2010Prop48
 90
       50
102
RTVSPost2010PropOp48
 70
     1
102
RTVSPost2010Prop49
280
     0
102
RTVSPost2010PropOp49
 70
     1
102
RTVSPost2010Prop50
 90
       50
102
RTVSPost2010PropOp50
 70
     1
102
RTVSPost2010Prop51ColorIndex
 90
      256
102
RTVSPost2010Prop51ColorRGB
 90
-16777216
102
RTVSPost2010PropOp51
 70
     0
102
RTVSPost2010Prop52
140
1.0
102
RTVSPost2010PropOp52
 70
     0
102
RTVSPost2010Prop53
 90
        2
102
RTVSPost2010PropOp53
 70
     1
102
RTVSPost2010Prop54
  1
strokes_ogs.tif
102
RTVSPost2010PropOp54
 70
     1
102
RTVSPost2010Prop55
280
     0
102
RTVSPost2010PropOp55
 70
     1
102
RTVSPost2010Prop56
140
1.0
102
RTVSPost2010PropOp56
 70
     1
102
RTVSPost2010Prop57
140
1.0
102
RTVSPost2010PropOp57
 70
     1
  0
XRECORD
  5
137
102
{ACAD_REACTORS
330
136
102
}
330
136
100
AcDbXrecord
280
     1
102
RTVSPost2010Prop28
280
     0
102
RTVSPost2010PropOp28
 70
     1
102
RTVSPost2010Prop29
280
     1
102
RTVSPost2010PropOp29
 70
     1
102
RTVSPost2010Prop30
280
     1
102
RTVSPost2010PropOp30
 70
     1
102
RTVSPost2010Prop31
280
     0
102
RTVSPost2010PropOp31
 70
     1
102
RTVSPost2010Prop32
280
     0
102
RTVSPost2010PropOp32
 70
     1
102
RTVSPost2010Prop33
280
     0
102
RTVSPost2010PropOp33
 70
     1
102
RTVSPost2010Prop34
280
     0
102
RTVSPost2010PropOp34
 70
     1
102
RTVSPost2010Prop35
280
     0
102
RTVSPost2010PropOp35
 70
     1
102
RTVSPost2010Prop36
280
     0
102
RTVSPost2010PropOp36
 70
     1
102
RTVSPost2010Prop37
 90
       50
102
RTVSPost2010PropOp37
 70
     1
102
RTVSPost2010Prop38
140
0.0
102
RTVSPost2010PropOp38
 70
     1
102
RTVSPost2010Prop39
140
1.0
102
RTVSPost2010PropOp39
 70
     1
102
RTVSPost2010Prop40
 90
        0
102
RTVSPost2010PropOp40
 70
     1
102
RTVSPost2010Prop41ColorIndex
 90
       18
102
RTVSPost2010Prop41ColorRGB
 90
        0
102
RTVSPost2010PropOp41
 70
     1
102
RTVSPost2010Prop42
 90
       50
102
RTVSPost2010PropOp42
 70
     1
102
RTVSPost2010Prop43
 90
        3
102
RTVSPost2010PropOp43
 70
     1
102
RTVSPost2010Prop44ColorIndex
 90
        5
102
RTVSPost2010Prop44ColorRGB
 90
      255
102
RTVSPost2010PropOp44
 70
     1
102
RTVSPost2010Prop45
280
     0
102
RTVSPost2010PropOp45
 70
     1
102
RTVSPost2010Prop46
 90
       50
102
RTVSPost2010PropOp46
 70
     1
102
RTVSPost2010Prop47
 90
       50
102
RTVSPost2010PropOp47
 70
     1
102
RTVSPost2010Prop48
 90
       50
102
RTVSPost2010PropOp48
 70
     1
102
RTVSPost2010Prop49
280
     0
102
RTVSPost2010PropOp49
 70
     1
102
RTVSPost2010Prop50
 90
       50
102
RTVSPost2010PropOp50
 70
     1
102
RTVSPost2010Prop51ColorIndex
 90
      256
102
RTVSPost2010Prop51ColorRGB
 90
-16777216
102
RTVSPost2010PropOp51
 70
     0
102
RTVSPost2010Prop52
140
1.0
102
RTVSPost2010PropOp52
 70
     0
102
RTVSPost2010Prop53
 90
        2
102
RTVSPost2010PropOp53
 70
     1
102
RTVSPost2010Prop54
  1
strokes_ogs.tif
102
RTVSPost2010PropOp54
 70
     1
102
RTVSPost2010Prop55
280
     0
102
RTVSPost2010PropOp55
 70
     1
102
RTVSPost2010Prop56
140
1.0
102
RTVSPost2010PropOp56
 70
     1
102
RTVSPost2010Prop57
140
1.0
102
RTVSPost2010PropOp57
 70
     1
  0
XRECORD
  5
131
102
{ACAD_REACTORS
330
130
102
}
330
130
100
AcDbXrecord
280
     1
102
RTVSPost2010Prop28
280
     0
102
RTVSPost2010PropOp28
 70
     1
102
RTVSPost2010Prop29
280
     1
102
RTVSPost2010PropOp29
 70
     1
102
RTVSPost2010Prop30
280
     1
102
RTVSPost2010PropOp30
 70
     1
102
RTVSPost2010Prop31
280
     0
102
RTVSPost2010PropOp31
 70
     1
102
RTVSPost2010Prop32
280
     0
102
RTVSPost2010PropOp32
 70
     1
102
RTVSPost2010Prop33
280
     0
102
RTVSPost2010PropOp33
 70
     1
102
RTVSPost2010Prop34
280
     0
102
RTVSPost2010PropOp34
 70
     1
102
RTVSPost2010Prop35
280
     0
102
RTVSPost2010PropOp35
 70
     1
102
RTVSPost2010Prop36
280
     0
102
RTVSPost2010PropOp36
 70
     1
102
RTVSPost2010Prop37
 90
       50
102
RTVSPost2010PropOp37
 70
     1
102
RTVSPost2010Prop38
140
0.0
102
RTVSPost2010PropOp38
 70
     1
102
RTVSPost2010Prop39
140
1.0
102
RTVSPost2010PropOp39
 70
     1
102
RTVSPost2010Prop40
 90
        0
102
RTVSPost2010PropOp40
 70
     1
102
RTVSPost2010Prop41ColorIndex
 90
       18
102
RTVSPost2010Prop41ColorRGB
 90
        0
102
RTVSPost2010PropOp41
 70
     1
102
RTVSPost2010Prop42
 90
       50
102
RTVSPost2010PropOp42
 70
     1
102
RTVSPost2010Prop43
 90
        3
102
RTVSPost2010PropOp43
 70
     1
102
RTVSPost2010Prop44ColorIndex
 90
        5
102
RTVSPost2010Prop44ColorRGB
 90
      255
102
RTVSPost2010PropOp44
 70
     1
102
RTVSPost2010Prop45
280
     0
102
RTVSPost2010PropOp45
 70
     1
102
RTVSPost2010Prop46
 90
       50
102
RTVSPost2010PropOp46
 70
     1
102
RTVSPost2010Prop47
 90
       50
102
RTVSPost2010PropOp47
 70
     1
102
RTVSPost2010Prop48
 90
       50
102
RTVSPost2010PropOp48
 70
     1
102
RTVSPost2010Prop49
280
     0
102
RTVSPost2010PropOp49
 70
     1
102
RTVSPost2010Prop50
 90
       50
102
RTVSPost2010PropOp50
 70
     1
102
RTVSPost2010Prop51ColorIndex
 90
      256
102
RTVSPost2010Prop51ColorRGB
 90
-16777216
102
RTVSPost2010PropOp51
 70
     0
102
RTVSPost2010Prop52
140
1.0
102
RTVSPost2010PropOp52
 70
     0
102
RTVSPost2010Prop53
 90
        2
102
RTVSPost2010PropOp53
 70
     1
102
RTVSPost2010Prop54
  1
strokes_ogs.tif
102
RTVSPost2010PropOp54
 70
     1
102
RTVSPost2010Prop55
280
     0
102
RTVSPost2010PropOp55
 70
     1
102
RTVSPost2010Prop56
140
1.0
102
RTVSPost2010PropOp56
 70
     1
102
RTVSPost2010Prop57
140
1.0
102
RTVSPost2010PropOp57
 70
     1
  0
XRECORD
  5
133
102
{ACAD_REACTORS
330
132
102
}
330
132
100
AcDbXrecord
280
     1
102
RTVSPost2010Prop28
280
     0
102
RTVSPost2010PropOp28
 70
     1
102
RTVSPost2010Prop29
280
     1
102
RTVSPost2010PropOp29
 70
     1
102
RTVSPost2010Prop30
280
     1
102
RTVSPost2010PropOp30
 70
     1
102
RTVSPost2010Prop31
280
     0
102
RTVSPost2010PropOp31
 70
     1
102
RTVSPost2010Prop32
280
     0
102
RTVSPost2010PropOp32
 70
     1
102
RTVSPost2010Prop33
280
     0
102
RTVSPost2010PropOp33
 70
     1
102
RTVSPost2010Prop34
280
     0
102
RTVSPost2010PropOp34
 70
     1
102
RTVSPost2010Prop35
280
     0
102
RTVSPost2010PropOp35
 70
     1
102
RTVSPost2010Prop36
280
     0
102
RTVSPost2010PropOp36
 70
     1
102
RTVSPost2010Prop37
 90
       50
102
RTVSPost2010PropOp37
 70
     1
102
RTVSPost2010Prop38
140
0.0
102
RTVSPost2010PropOp38
 70
     1
102
RTVSPost2010Prop39
140
1.0
102
RTVSPost2010PropOp39
 70
     1
102
RTVSPost2010Prop40
 90
        0
102
RTVSPost2010PropOp40
 70
     1
102
RTVSPost2010Prop41ColorIndex
 90
       18
102
RTVSPost2010Prop41ColorRGB
 90
        0
102
RTVSPost2010PropOp41
 70
     1
102
RTVSPost2010Prop42
 90
       50
102
RTVSPost2010PropOp42
 70
     1
102
RTVSPost2010Prop43
 90
        3
102
RTVSPost2010PropOp43
 70
     1
102
RTVSPost2010Prop44ColorIndex
 90
        5
102
RTVSPost2010Prop44ColorRGB
 90
      255
102
RTVSPost2010PropOp44
 70
     1
102
RTVSPost2010Prop45
280
     0
102
RTVSPost2010PropOp45
 70
     1
102
RTVSPost2010Prop46
 90
       50
102
RTVSPost2010PropOp46
 70
     1
102
RTVSPost2010Prop47
 90
       50
102
RTVSPost2010PropOp47
 70
     1
102
RTVSPost2010Prop48
 90
       50
102
RTVSPost2010PropOp48
 70
     1
102
RTVSPost2010Prop49
280
     0
102
RTVSPost2010PropOp49
 70
     1
102
RTVSPost2010Prop50
 90
       50
102
RTVSPost2010PropOp50
 70
     1
102
RTVSPost2010Prop51ColorIndex
 90
      256
102
RTVSPost2010Prop51ColorRGB
 90
-16777216
102
RTVSPost2010PropOp51
 70
     0
102
RTVSPost2010Prop52
140
1.0
102
RTVSPost2010PropOp52
 70
     0
102
RTVSPost2010Prop53
 90
        2
102
RTVSPost2010PropOp53
 70
     1
102
RTVSPost2010Prop54
  1
strokes_ogs.tif
102
RTVSPost2010PropOp54
 70
     1
102
RTVSPost2010Prop55
280
     0
102
RTVSPost2010PropOp55
 70
     1
102
RTVSPost2010Prop56
140
1.0
102
RTVSPost2010PropOp56
 70
     1
102
RTVSPost2010Prop57
140
1.0
102
RTVSPost2010PropOp57
 70
     1
  0
XRECORD
  5
129
102
{ACAD_REACTORS
330
128
102
}
330
128
100
AcDbXrecord
280
     1
102
RTVSPost2010Prop28
280
     0
102
RTVSPost2010PropOp28
 70
     1
102
RTVSPost2010Prop29
280
     1
102
RTVSPost2010PropOp29
 70
     1
102
RTVSPost2010Prop30
280
     1
102
RTVSPost2010PropOp30
 70
     1
102
RTVSPost2010Prop31
280
     0
102
RTVSPost2010PropOp31
 70
     1
102
RTVSPost2010Prop32
280
     0
102
RTVSPost2010PropOp32
 70
     1
102
RTVSPost2010Prop33
280
     0
102
RTVSPost2010PropOp33
 70
     1
102
RTVSPost2010Prop34
280
     0
102
RTVSPost2010PropOp34
 70
     1
102
RTVSPost2010Prop35
280
     0
102
RTVSPost2010PropOp35
 70
     1
102
RTVSPost2010Prop36
280
     0
102
RTVSPost2010PropOp36
 70
     1
102
RTVSPost2010Prop37
 90
       50
102
RTVSPost2010PropOp37
 70
     1
102
RTVSPost2010Prop38
140
0.0
102
RTVSPost2010PropOp38
 70
     1
102
RTVSPost2010Prop39
140
1.0
102
RTVSPost2010PropOp39
 70
     1
102
RTVSPost2010Prop40
 90
        0
102
RTVSPost2010PropOp40
 70
     1
102
RTVSPost2010Prop41ColorIndex
 90
       18
102
RTVSPost2010Prop41ColorRGB
 90
        0
102
RTVSPost2010PropOp41
 70
     1
102
RTVSPost2010Prop42
 90
       50
102
RTVSPost2010PropOp42
 70
     1
102
RTVSPost2010Prop43
 90
        3
102
RTVSPost2010PropOp43
 70
     1
102
RTVSPost2010Prop44ColorIndex
 90
        5
102
RTVSPost2010Prop44ColorRGB
 90
      255
102
RTVSPost2010PropOp44
 70
     1
102
RTVSPost2010Prop45
280
     0
102
RTVSPost2010PropOp45
 70
     1
102
RTVSPost2010Prop46
 90
       50
102
RTVSPost2010PropOp46
 70
     1
102
RTVSPost2010Prop47
 90
       50
102
RTVSPost2010PropOp47
 70
     1
102
RTVSPost2010Prop48
 90
       50
102
RTVSPost2010PropOp48
 70
     1
102
RTVSPost2010Prop49
280
     0
102
RTVSPost2010PropOp49
 70
     1
102
RTVSPost2010Prop50
 90
       50
102
RTVSPost2010PropOp50
 70
     1
102
RTVSPost2010Prop51ColorIndex
 90
      256
102
RTVSPost2010Prop51ColorRGB
 90
-16777216
102
RTVSPost2010PropOp51
 70
     0
102
RTVSPost2010Prop52
140
1.0
102
RTVSPost2010PropOp52
 70
     0
102
RTVSPost2010Prop53
 90
        2
102
RTVSPost2010PropOp53
 70
     1
102
RTVSPost2010Prop54
  1
strokes_ogs.tif
102
RTVSPost2010PropOp54
 70
     1
102
RTVSPost2010Prop55
280
     0
102
RTVSPost2010PropOp55
 70
     1
102
RTVSPost2010Prop56
140
1.0
102
RTVSPost2010PropOp56
 70
     1
102
RTVSPost2010Prop57
140
1.0
102
RTVSPost2010PropOp57
 70
     1
  0
XRECORD
  5
11D
102
{ACAD_REACTORS
330
11C
102
}
330
11C
100
AcDbXrecord
280
     1
102
RTVSPost2010Prop28
280
     0
102
RTVSPost2010PropOp28
 70
     1
102
RTVSPost2010Prop29
280
     1
102
RTVSPost2010PropOp29
 70
     1
102
RTVSPost2010Prop30
280
     1
102
RTVSPost2010PropOp30
 70
     1
102
RTVSPost2010Prop31
280
     0
102
RTVSPost2010PropOp31
 70
     1
102
RTVSPost2010Prop32
280
     0
102
RTVSPost2010PropOp32
 70
     1
102
RTVSPost2010Prop33
280
     0
102
RTVSPost2010PropOp33
 70
     1
102
RTVSPost2010Prop34
280
     0
102
RTVSPost2010PropOp34
 70
     1
102
RTVSPost2010Prop35
280
     0
102
RTVSPost2010PropOp35
 70
     1
102
RTVSPost2010Prop36
280
     0
102
RTVSPost2010PropOp36
 70
     1
102
RTVSPost2010Prop37
 90
       50
102
RTVSPost2010PropOp37
 70
     1
102
RTVSPost2010Prop38
140
0.0
102
RTVSPost2010PropOp38
 70
     1
102
RTVSPost2010Prop39
140
1.0
102
RTVSPost2010PropOp39
 70
     1
102
RTVSPost2010Prop40
 90
        0
102
RTVSPost2010PropOp40
 70
     1
102
RTVSPost2010Prop41ColorIndex
 90
       18
102
RTVSPost2010Prop41ColorRGB
 90
        0
102
RTVSPost2010PropOp41
 70
     1
102
RTVSPost2010Prop42
 90
       50
102
RTVSPost2010PropOp42
 70
     1
102
RTVSPost2010Prop43
 90
        3
102
RTVSPost2010PropOp43
 70
     1
102
RTVSPost2010Prop44ColorIndex
 90
        5
102
RTVSPost2010Prop44ColorRGB
 90
      255
102
RTVSPost2010PropOp44
 70
     1
102
RTVSPost2010Prop45
280
     0
102
RTVSPost2010PropOp45
 70
     1
102
RTVSPost2010Prop46
 90
       50
102
RTVSPost2010PropOp46
 70
     1
102
RTVSPost2010Prop47
 90
       50
102
RTVSPost2010PropOp47
 70
     1
102
RTVSPost2010Prop48
 90
       50
102
RTVSPost2010PropOp48
 70
     1
102
RTVSPost2010Prop49
280
     0
102
RTVSPost2010PropOp49
 70
     1
102
RTVSPost2010Prop50
 90
       50
102
RTVSPost2010PropOp50
 70
     1
102
RTVSPost2010Prop51ColorIndex
 90
      256
102
RTVSPost2010Prop51ColorRGB
 90
-16777216
102
RTVSPost2010PropOp51
 70
     0
102
RTVSPost2010Prop52
140
1.0
102
RTVSPost2010PropOp52
 70
     0
102
RTVSPost2010Prop53
 90
        2
102
RTVSPost2010PropOp53
 70
     1
102
RTVSPost2010Prop54
  1
strokes_ogs.tif
102
RTVSPost2010PropOp54
 70
     1
102
RTVSPost2010Prop55
280
     0
102
RTVSPost2010PropOp55
 70
     1
102
RTVSPost2010Prop56
140
1.0
102
RTVSPost2010PropOp56
 70
     1
102
RTVSPost2010Prop57
140
1.0
102
RTVSPost2010PropOp57
 70
     1
  0
XRECORD
  5
135
102
{ACAD_REACTORS
330
134
102
}
330
134
100
AcDbXrecord
280
     1
102
RTVSPost2010Prop28
280
     0
102
RTVSPost2010PropOp28
 70
     1
102
RTVSPost2010Prop29
280
     1
102
RTVSPost2010PropOp29
 70
     1
102
RTVSPost2010Prop30
280
     1
102
RTVSPost2010PropOp30
 70
     1
102
RTVSPost2010Prop31
280
     0
102
RTVSPost2010PropOp31
 70
     1
102
RTVSPost2010Prop32
280
     0
102
RTVSPost2010PropOp32
 70
     1
102
RTVSPost2010Prop33
280
     0
102
RTVSPost2010PropOp33
 70
     1
102
RTVSPost2010Prop34
280
     0
102
RTVSPost2010PropOp34
 70
     1
102
RTVSPost2010Prop35
280
     0
102
RTVSPost2010PropOp35
 70
     1
102
RTVSPost2010Prop36
280
     0
102
RTVSPost2010PropOp36
 70
     1
102
RTVSPost2010Prop37
 90
       50
102
RTVSPost2010PropOp37
 70
     1
102
RTVSPost2010Prop38
140
0.0
102
RTVSPost2010PropOp38
 70
     1
102
RTVSPost2010Prop39
140
1.0
102
RTVSPost2010PropOp39
 70
     1
102
RTVSPost2010Prop40
 90
        0
102
RTVSPost2010PropOp40
 70
     1
102
RTVSPost2010Prop41ColorIndex
 90
       18
102
RTVSPost2010Prop41ColorRGB
 90
        0
102
RTVSPost2010PropOp41
 70
     1
102
RTVSPost2010Prop42
 90
       50
102
RTVSPost2010PropOp42
 70
     1
102
RTVSPost2010Prop43
 90
        3
102
RTVSPost2010PropOp43
 70
     1
102
RTVSPost2010Prop44ColorIndex
 90
        5
102
RTVSPost2010Prop44ColorRGB
 90
      255
102
RTVSPost2010PropOp44
 70
     1
102
RTVSPost2010Prop45
280
     0
102
RTVSPost2010PropOp45
 70
     1
102
RTVSPost2010Prop46
 90
       50
102
RTVSPost2010PropOp46
 70
     1
102
RTVSPost2010Prop47
 90
       50
102
RTVSPost2010PropOp47
 70
     1
102
RTVSPost2010Prop48
 90
       50
102
RTVSPost2010PropOp48
 70
     1
102
RTVSPost2010Prop49
280
     0
102
RTVSPost2010PropOp49
 70
     1
102
RTVSPost2010Prop50
 90
       50
102
RTVSPost2010PropOp50
 70
     1
102
RTVSPost2010Prop51ColorIndex
 90
      256
102
RTVSPost2010Prop51ColorRGB
 90
-16777216
102
RTVSPost2010PropOp51
 70
     0
102
RTVSPost2010Prop52
140
1.0
102
RTVSPost2010PropOp52
 70
     0
102
RTVSPost2010Prop53
 90
        2
102
RTVSPost2010PropOp53
 70
     1
102
RTVSPost2010Prop54
  1
strokes_ogs.tif
102
RTVSPost2010PropOp54
 70
     1
102
RTVSPost2010Prop55
280
     0
102
RTVSPost2010PropOp55
 70
     1
102
RTVSPost2010Prop56
140
1.0
102
RTVSPost2010PropOp56
 70
     1
102
RTVSPost2010Prop57
140
1.0
102
RTVSPost2010PropOp57
 70
     1
  0
ENDSEC
  0
EOF
