  0
SECTION
  2
HEADER
  9
$ACADVER
  1
AC1024
  9
$ACADMAINTVER
 70
     6
  9
$DWGCODEPAGE
  3
UNDEFINED
  9
$INSBASE
 10
0.0
 20
0.0
 30
0.0
  9
$EXTMIN
 10
1.000000000000000E+20
 20
1.000000000000000E+20
 30
1.000000000000000E+20
  9
$EXTMAX
 10
-1.000000000000000E+20
 20
-1.000000000000000E+20
 30
-1.000000000000000E+20
  9
$LIMMIN
 10
0.0
 20
0.0
  9
$LIMMAX
 10
12.0
 20
9.0
  9
$ORTHOMODE
 70
     0
  9
$REGENMODE
 70
     1
  9
$FILLMODE
 70
     1
  9
$QTEXTMODE
 70
     0
  9
$MIRRTEXT
 70
     1
  9
$LTSCALE
 40
1.0
  9
$ATTMODE
 70
     1
  9
$TEXTSIZE
 40
0.2
  9
$TRACEWID
 40
0.05
  9
$TEXTSTYLE
  7
Standard
  9
$CLAYER
  8
0
  9
$CELTYPE
  6
ByLayer
  9
$CECOLOR
 62
   256
  9
$CELTSCALE
 40
1.0
  9
$DISPSILH
 70
     0
  9
$DIMSCALE
 40
1.0
  9
$DIMASZ
 40
0.18
  9
$DIMEXO
 40
0.0625
  9
$DIMDLI
 40
0.38
  9
$DIMRND
 40
0.0
  9
$DIMDLE
 40
0.0
  9
$DIMEXE
 40
0.18
  9
$DIMTP
 40
0.0
  9
$DIMTM
 40
0.0
  9
$DIMTXT
 40
0.18
  9
$DIMCEN
 40
0.09
  9
$DIMTSZ
 40
0.0
  9
$DIMTOL
 70
     0
  9
$DIMLIM
 70
     0
  9
$DIMTIH
 70
     1
  9
$DIMTOH
 70
     1
  9
$DIMSE1
 70
     0
  9
$DIMSE2
 70
     0
  9
$DIMTAD
 70
     0
  9
$DIMZIN
 70
     0
  9
$DIMBLK
  1

  9
$DIMASO
 70
     1
  9
$DIMSHO
 70
     1
  9
$DIMPOST
  1

  9
$DIMAPOST
  1

  9
$DIMALT
 70
     0
  9
$DIMALTD
 70
     2
  9
$DIMALTF
 40
25.4
  9
$DIMLFAC
 40
1.0
  9
$DIMTOFL
 70
     0
  9
$DIMTVP
 40
0.0
  9
$DIMTIX
 70
     0
  9
$DIMSOXD
 70
     0
  9
$DIMSAH
 70
     0
  9
$DIMBLK1
  1

  9
$DIMBLK2
  1

  9
$DIMSTYLE
  2
Standard
  9
$DIMCLRD
 70
     0
  9
$DIMCLRE
 70
     0
  9
$DIMCLRT
 70
     0
  9
$DIMTFAC
 40
1.0
  9
$DIMGAP
 40
0.09
  9
$DIMJUST
 70
     0
  9
$DIMSD1
 70
     0
  9
$DIMSD2
 70
     0
  9
$DIMTOLJ
 70
     1
  9
$DIMTZIN
 70
     0
  9
$DIMALTZ
 70
     0
  9
$DIMALTTZ
 70
     0
  9
$DIMUPT
 70
     0
  9
$DIMDEC
 70
     4
  9
$DIMTDEC
 70
     4
  9
$DIMALTU
 70
     2
  9
$DIMALTTD
 70
     2
  9
$DIMTXSTY
  7
Standard
  9
$DIMAUNIT
 70
     0
  9
$DIMADEC
 70
     0
  9
$DIMALTRND
 40
0.0
  9
$DIMAZIN
 70
     0
  9
$DIMDSEP
 70
    46
  9
$DIMATFIT
 70
     3
  9
$DIMFRAC
 70
     0
  9
$DIMLDRBLK
  1

  9
$DIMLUNIT
 70
     2
  9
$DIMLWD
 70
    -2
  9
$DIMLWE
 70
    -2
  9
$DIMTMOVE
 70
     0
  9
$DIMFXL
 40
1.0
  9
$DIMFXLON
 70
     0
  9
$DIMJOGANG
 40
0.7853981633974483
  9
$DIMTFILL
 70
     0
  9
$DIMTFILLCLR
 70
     0
  9
$DIMARCSYM
 70
     0
  9
$DIMLTYPE
  6

  9
$DIMLTEX1
  6

  9
$DIMLTEX2
  6

  9
$DIMTXTDIRECTION
 70
     0
  9
$LUNITS
 70
     2
  9
$LUPREC
 70
     4
  9
$SKETCHINC
 40
0.1
  9
$FILLETRAD
 40
0.5
  9
$AUNITS
 70
     0
  9
$AUPREC
 70
     0
  9
$MENU
  1
.
  9
$ELEVATION
 40
0.0
  9
$PELEVATION
 40
0.0
  9
$THICKNESS
 40
0.0
  9
$LIMCHECK
 70
     0
  9
$CHAMFERA
 40
0.5
  9
$CHAMFERB
 40
0.5
  9
$CHAMFERC
 40
1.0
  9
$CHAMFERD
 40
0.0
  9
$SKPOLY
 70
     0
  9
$TDCREATE
 40
2457917.592118056
  9
$TDUCREATE
 40
2457917.217118056
  9
$TDUPDATE
 40
2457917.592118056
  9
$TDUUPDATE
 40
2457917.217118056
  9
$TDINDWG
 40
0.0000000116
  9
$TDUSRTIMER
 40
0.0000000116
  9
$USRTIMER
 70
     1
  9
$ANGBASE
 50
0.0
  9
$ANGDIR
 70
     0
  9
$PDMODE
 70
     0
  9
$PDSIZE
 40
0.0
  9
$PLINEWID
 40
0.0
  9
$SPLFRAME
 70
     0
  9
$SPLINETYPE
 70
     6
  9
$SPLINESEGS
 70
     8
  9
$HANDSEED
  5
F1
  9
$SURFTAB1
 70
     6
  9
$SURFTAB2
 70
     6
  9
$SURFTYPE
 70
     6
  9
$SURFU
 70
     6
  9
$SURFV
 70
     6
  9
$UCSBASE
  2

  9
$UCSNAME
  2

  9
$UCSORG
 10
0.0
 20
0.0
 30
0.0
  9
$UCSXDIR
 10
1.0
 20
0.0
 30
0.0
  9
$UCSYDIR
 10
0.0
 20
1.0
 30
0.0
  9
$UCSORTHOREF
  2

  9
$UCSORTHOVIEW
 70
     0
  9
$UCSORGTOP
 10
0.0
 20
0.0
 30
0.0
  9
$UCSORGBOTTOM
 10
0.0
 20
0.0
 30
0.0
  9
$UCSORGLEFT
 10
0.0
 20
0.0
 30
0.0
  9
$UCSORGRIGHT
 10
0.0
 20
0.0
 30
0.0
  9
$UCSORGFRONT
 10
0.0
 20
0.0
 30
0.0
  9
$UCSORGBACK
 10
0.0
 20
0.0
 30
0.0
  9
$PUCSBASE
  2

  9
$PUCSNAME
  2

  9
$PUCSORG
 10
0.0
 20
0.0
 30
0.0
  9
$PUCSXDIR
 10
1.0
 20
0.0
 30
0.0
  9
$PUCSYDIR
 10
0.0
 20
1.0
 30
0.0
  9
$PUCSORTHOREF
  2

  9
$PUCSORTHOVIEW
 70
     0
  9
$PUCSORGTOP
 10
0.0
 20
0.0
 30
0.0
  9
$PUCSORGBOTTOM
 10
0.0
 20
0.0
 30
0.0
  9
$PUCSORGLEFT
 10
0.0
 20
0.0
 30
0.0
  9
$PUCSORGRIGHT
 10
0.0
 20
0.0
 30
0.0
  9
$PUCSORGFRONT
 10
0.0
 20
0.0
 30
0.0
  9
$PUCSORGBACK
 10
0.0
 20
0.0
 30
0.0
  9
$USERI1
 70
     0
  9
$USERI2
 70
     0
  9
$USERI3
 70
     0
  9
$USERI4
 70
     0
  9
$USERI5
 70
     0
  9
$USERR1
 40
0.0
  9
$USERR2
 40
0.0
  9
$USERR3
 40
0.0
  9
$USERR4
 40
0.0
  9
$USERR5
 40
0.0
  9
$WORLDVIEW
 70
     1
  9
$SHADEDGE
 70
     3
  9
$SHADEDIF
 70
    70
  9
$TILEMODE
 70
     1
  9
$MAXACTVP
 70
    64
  9
$PINSBASE
 10
0.0
 20
0.0
 30
0.0
  9
$PLIMCHECK
 70
     0
  9
$PEXTMIN
 10
1.000000000000000E+20
 20
1.000000000000000E+20
 30
1.000000000000000E+20
  9
$PEXTMAX
 10
-1.000000000000000E+20
 20
-1.000000000000000E+20
 30
-1.000000000000000E+20
  9
$PLIMMIN
 10
0.0
 20
0.0
  9
$PLIMMAX
 10
12.0
 20
9.0
  9
$UNITMODE
 70
     0
  9
$VISRETAIN
 70
     1
  9
$PLINEGEN
 70
     0
  9
$PSLTSCALE
 70
     1
  9
$TREEDEPTH
 70
  3020
  9
$CMLSTYLE
  2
Standard
  9
$CMLJUST
 70
     0
  9
$CMLSCALE
 40
1.0
  9
$PROXYGRAPHICS
 70
     1
  9
$MEASUREMENT
 70
     0
  9
$CELWEIGHT
370
    -1
  9
$ENDCAPS
280
     0
  9
$JOINSTYLE
280
     0
  9
$LWDISPLAY
290
     1
  9
$INSUNITS
 70
     1
  9
$HYPERLINKBASE
  1

  9
$STYLESHEET
  1

  9
$XEDIT
290
     1
  9
$CEPSNTYPE
380
     0
  9
$PSTYLEMODE
290
     1
  9
$FINGERPRINTGUID
  2
{BCDDDDC0-D9D2-DA95-C34B-F6D671E68BCD}
  9
$VERSIONGUID
  2
{FAEB1C32-E019-11D5-929B-00C0DF256EC4}
  9
$EXTNAMES
290
     1
  9
$PSVPSCALE
 40
0.0
  9
$OLESTARTUP
290
     0
  9
$SORTENTS
280
   127
  9
$INDEXCTL
280
     0
  9
$HIDETEXT
280
     1
  9
$XCLIPFRAME
280
     2
  9
$HALOGAP
280
     0
  9
$OBSCOLOR
 70
   257
  9
$OBSLTYPE
280
     0
  9
$INTERSECTIONDISPLAY
280
     0
  9
$INTERSECTIONCOLOR
 70
   257
  9
$DIMASSOC
280
     2
  9
$PROJECTNAME
  1

  9
$CAMERADISPLAY
290
     0
  9
$LENSLENGTH
 40
50.0
  9
$CAMERAHEIGHT
 40
0.0
  9
$STEPSPERSEC
 40
2.0
  9
$STEPSIZE
 40
6.0
  9
$3DDWFPREC
 40
2.0
  9
$PSOLWIDTH
 40
0.25
  9
$PSOLHEIGHT
 40
4.0
  9
$LOFTANG1
 40
1.570796326794897
  9
$LOFTANG2
 40
1.570796326794897
  9
$LOFTMAG1
 40
0.0
  9
$LOFTMAG2
 40
0.0
  9
$LOFTPARAM
 70
     7
  9
$LOFTNORMALS
280
     1
  9
$LATITUDE
 40
37.795
  9
$LONGITUDE
 40
-122.394
  9
$NORTHDIRECTION
 40
0.0
  9
$TIMEZONE
 70
 -8000
  9
$LIGHTGLYPHDISPLAY
280
     1
  9
$TILEMODELIGHTSYNCH
280
     1
  9
$CMATERIAL
347
3C
  9
$SOLIDHIST
280
     1
  9
$SHOWHIST
280
     1
  9
$DWFFRAME
280
     2
  9
$DGNFRAME
280
     2
  9
$REALWORLDSCALE
290
     1
  9
$INTERFERECOLOR
 62
   256
  9
$CSHADOW
280
     0
  9
$SHADOWPLANELOCATION
 40
0.0
  0
ENDSEC
  0
SECTION
  2
CLASSES
  0
CLASS
  1
ACDBDICTIONARYWDFLT
  2
AcDbDictionaryWithDefault
  3
ObjectDBX Classes
 90
        0
 91
        4
280
     0
281
     0
  0
CLASS
  1
VISUALSTYLE
  2
AcDbVisualStyle
  3
ObjectDBX Classes
 90
     4095
 91
        4
280
     0
281
     0
  0
CLASS
  1
MATERIAL
  2
AcDbMaterial
  3
ObjectDBX Classes
 90
     1153
 91
        4
280
     0
281
     0
  0
CLASS
  1
SUN
  2
AcDbSun
  3
SCENEOE
 90
     1024
 91
        4
280
     0
281
     0
  0
ENDSEC
  0
SECTION
  2
TABLES
  0
TABLE
  2
VPORT
  5
8
330
0
100
AcDbSymbolTable
 70
     1
  0
VPORT
  5
29
330
8
100
AcDbSymbolTableRecord
100
AcDbViewportTableRecord
  2
*Active
 70
     0
 10
0.0
 20
0.0
 11
1.0
 21
1.0
 12
0.0
 22
0.0
 13
0.0
 23
0.0
 14
0.5
 24
0.5
 15
0.5
 25
0.5
 16
0.0
 26
0.0
 36
1.0
 17
91.00082462281999
 27
-128.4993055234307
 37
0.0
 40
256.9986110468615
 41
0.7081814508812795
 42
50.0
 43
0.0
 44
0.0
 50
0.0
 51
0.0
 71
     0
 72
   100
 73
     1
 74
     3
 75
     0
 76
     0
 77
     0
 78
     0
281
     0
 65
     1
110
0.0
120
0.0
130
0.0
111
1.0
121
0.0
131
0.0
112
0.0
122
1.0
132
0.0
 79
     0
146
0.0
 60
     3
 61
     5
292
     1
282
     1
141
0.0
142
0.0
 63
   250
361
3F
  0
ENDTAB
  0
TABLE
  2
LTYPE
  5
5
330
0
100
AcDbSymbolTable
 70
     1
  0
LTYPE
  5
14
330
5
100
AcDbSymbolTableRecord
100
AcDbLinetypeTableRecord
  2
ByBlock
 70
     0
  3

 72
    65
 73
     0
 40
0.0
  0
LTYPE
  5
15
330
5
100
AcDbSymbolTableRecord
100
AcDbLinetypeTableRecord
  2
ByLayer
 70
     0
  3

 72
    65
 73
     0
 40
0.0
  0
LTYPE
  5
16
330
5
100
AcDbSymbolTableRecord
100
AcDbLinetypeTableRecord
  2
Continuous
 70
     0
  3
Solid line
 72
    65
 73
     0
 40
0.0
  0
ENDTAB
  0
TABLE
  2
LAYER
  5
2
330
0
100
AcDbSymbolTable
 70
     2
  0
LAYER
  5
10
330
2
100
AcDbSymbolTableRecord
100
AcDbLayerTableRecord
  2
0
 70
     0
 62
     7
  6
Continuous
370
    -3
390
F
347
3E
  0
LAYER
  5
40
330
2
100
AcDbSymbolTableRecord
100
AcDbLayerTableRecord
  2
_U+30EC_U+30A4_U+30E4_U+30FC 1
 70
     0
 62
     7
  6
Continuous
370
    -3
390
F
347
3E
  0
ENDTAB
  0
TABLE
  2
STYLE
  5
3
330
0
100
AcDbSymbolTable
 70
     1
  0
STYLE
  5
11
330
3
100
AcDbSymbolTableRecord
100
AcDbTextStyleTableRecord
  2
Standard
 70
     0
 40
0.0
 41
1.0
 50
0.0
 71
     0
 42
0.2
  3
txt
  4

  0
ENDTAB
  0
TABLE
  2
VIEW
  5
6
330
0
100
AcDbSymbolTable
 70
     0
  0
ENDTAB
  0
TABLE
  2
UCS
  5
7
330
0
100
AcDbSymbolTable
 70
     0
  0
ENDTAB
  0
TABLE
  2
APPID
  5
9
330
0
100
AcDbSymbolTable
 70
     1
  0
APPID
  5
12
330
9
100
AcDbSymbolTableRecord
100
AcDbRegAppTableRecord
  2
ACAD
 70
     0
  0
ENDTAB
  0
TABLE
  2
DIMSTYLE
  5
A
330
0
100
AcDbSymbolTable
 70
     1
100
AcDbDimStyleTable
  0
DIMSTYLE
105
27
330
A
100
AcDbSymbolTableRecord
100
AcDbDimStyleTableRecord
  2
Standard
 70
     0
178
     0
340
11
  0
ENDTAB
  0
TABLE
  2
BLOCK_RECORD
  5
1
330
0
100
AcDbSymbolTable
 70
     8
  0
BLOCK_RECORD
  5
1F
330
1
100
AcDbSymbolTableRecord
100
AcDbBlockTableRecord
  2
*Model_Space
340
22
 70
     0
280
     1
281
     0
  0
BLOCK_RECORD
  5
1B
330
1
100
AcDbSymbolTableRecord
100
AcDbBlockTableRecord
  2
*Paper_Space
340
1E
 70
     0
280
     1
281
     0
  0
BLOCK_RECORD
  5
23
330
1
100
AcDbSymbolTableRecord
100
AcDbBlockTableRecord
  2
*Paper_Space0
340
26
 70
     0
280
     1
281
     0
  0
BLOCK_RECORD
  5
4F
330
1
100
AcDbSymbolTableRecord
100
AcDbBlockTableRecord
  2
block 2
340
0
102
{BLKREFS
331
50
102
}
 70
     0
280
     1
281
     0
  0
BLOCK_RECORD
  5
66
330
1
100
AcDbSymbolTableRecord
100
AcDbBlockTableRecord
  2
block 3
340
0
102
{BLKREFS
331
67
102
}
 70
     0
280
     1
281
     0
  0
BLOCK_RECORD
  5
77
330
1
100
AcDbSymbolTableRecord
100
AcDbBlockTableRecord
  2
block 4
340
0
102
{BLKREFS
331
78
102
}
 70
     0
280
     1
281
     0
  0
BLOCK_RECORD
  5
93
330
1
100
AcDbSymbolTableRecord
100
AcDbBlockTableRecord
  2
block 5
340
0
102
{BLKREFS
331
94
102
}
 70
     0
280
     1
281
     0
  0
BLOCK_RECORD
  5
A1
330
1
100
AcDbSymbolTableRecord
100
AcDbBlockTableRecord
  2
block 6
340
0
102
{BLKREFS
331
A2
102
}
 70
     0
280
     1
281
     0
  0
BLOCK_RECORD
  5
AF
330
1
100
AcDbSymbolTableRecord
100
AcDbBlockTableRecord
  2
block 7
340
0
102
{BLKREFS
331
B0
102
}
 70
     0
280
     1
281
     0
  0
BLOCK_RECORD
  5
CE
330
1
100
AcDbSymbolTableRecord
100
AcDbBlockTableRecord
  2
block 8
340
0
102
{BLKREFS
331
CF
102
}
 70
     0
280
     1
281
     0
  0
ENDTAB
  0
ENDSEC
  0
SECTION
  2
BLOCKS
  0
BLOCK
  5
20
330
1F
100
AcDbEntity
  8
0
100
AcDbBlockBegin
  2
*Model_Space
 70
     0
 10
0.0
 20
0.0
 30
0.0
  3
*Model_Space
  1

  0
ENDBLK
  5
21
330
1F
100
AcDbEntity
  8
0
100
AcDbBlockEnd
  0
BLOCK
  5
1C
330
1B
100
AcDbEntity
 67
     1
  8
0
100
AcDbBlockBegin
  2
*Paper_Space
 70
     0
 10
0.0
 20
0.0
 30
0.0
  3
*Paper_Space
  1

  0
ENDBLK
  5
1D
330
1B
100
AcDbEntity
 67
     1
  8
0
100
AcDbBlockEnd
  0
BLOCK
  5
24
330
23
100
AcDbEntity
  8
0
100
AcDbBlockBegin
  2
*Paper_Space0
 70
     0
 10
0.0
 20
0.0
 30
0.0
  3
*Paper_Space0
  1

  0
ENDBLK
  5
25
330
23
100
AcDbEntity
  8
0
100
AcDbBlockEnd
  0
BLOCK
  5
51
330
4F
100
AcDbEntity
  8
0
100
AcDbBlockBegin
  2
block 2
 70
     0
 10
0.0
 20
0.0
 30
0.0
  3
block 2
  1

  0
SPLINE
  5
53
330
4F
100
AcDbEntity
  8
_U+30EC_U+30A4_U+30E4_U+30FC 1
370
     0
100
AcDbSpline
210
0.0
220
0.0
230
1.0
 70
    11
 71
     3
 72
    62
 73
    58
 74
     0
 42
0.0000000001
 43
0.0000000001
 12
1.0
 22
0.0
 32
0.0
 13
1.0
 23
0.0
 33
0.0
 40
0.0
 40
0.0
 40
0.0
 40
0.0
 40
1.0
 40
1.0
 40
1.0
 40
2.0
 40
2.0
 40
2.0
 40
3.0
 40
3.0
 40
3.0
 40
4.0
 40
4.0
 40
4.0
 40
5.0
 40
5.0
 40
5.0
 40
6.0
 40
6.0
 40
6.0
 40
7.0
 40
7.0
 40
7.0
 40
8.0
 40
8.0
 40
8.0
 40
9.0
 40
9.0
 40
9.0
 40
10.0
 40
10.0
 40
10.0
 40
11.0
 40
11.0
 40
11.0
 40
12.0
 40
12.0
 40
12.0
 40
13.0
 40
13.0
 40
13.0
 40
14.0
 40
14.0
 40
14.0
 40
15.0
 40
15.0
 40
15.0
 40
16.0
 40
16.0
 40
16.0
 40
17.0
 40
17.0
 40
17.0
 40
18.0
 40
18.0
 40
18.0
 40
19.0
 40
19.0
 40
19.0
 40
19.0
 10
91.19029945636909
 20
-119.0230536269283
 30
0.0
 10
91.08866913955423
 20
-119.0230536269283
 30
0.0
 10
90.85578068475134
 20
-119.001866289694
 30
0.0
 10
90.72245548947217
 20
-118.8156588787162
 30
0.0
 10
90.64321829331142
 20
-118.7035210206713
 30
0.0
 10
90.6387396691806
 20
-118.6041300159219
 30
0.0
 10
90.63426104504977
 20
-118.519552921759
 30
0.0
 10
90.63426104504977
 20
-118.519552921759
 30
0.0
 10
90.86921655714382
 20
-118.519552921759
 30
0.0
 10
90.86921655714382
 20
-118.519552921759
 30
0.0
 10
90.87162812398348
 20
-118.5936224746919
 30
0.0
 10
90.8829969390848
 20
-118.8284057320117
 30
0.0
 10
91.18582083223828
 20
-118.8284057320117
 30
0.0
 10
91.33292640945844
 20
-118.8284057320117
 30
0.0
 10
91.49553491636223
 20
-118.7586425484353
 30
0.0
 10
91.49553491636223
 20
-118.530060462989
 30
0.0
 10
91.49553491636223
 20
-118.4137884903618
 30
0.0
 10
91.45488278963629
 20
-118.3650403892456
 30
0.0
 10
91.42077634433231
 20
-118.3333455107813
 30
0.0
 10
91.34188365772009
 20
-118.2592759578484
 30
0.0
 10
91.21751571070257
 20
-118.2467013593272
 30
0.0
 10
91.1586045779048
 20
-118.2467013593272
 30
0.0
 10
91.13827851454182
 20
-118.2467013593272
 30
0.0
 10
91.10003795465555
 20
-118.2487684166184
 30
0.0
 10
91.0704101334824
 20
-118.2529025312007
 30
0.0
 10
91.0704101334824
 20
-118.2529025312007
 30
0.0
 10
91.0704101334824
 20
-118.058254636284
 30
0.0
 10
91.0704101334824
 20
-118.058254636284
 30
0.0
 10
91.11106226020836
 20
-118.0646280629318
 30
0.0
 10
91.15653752061365
 20
-118.0668673749972
 30
0.0
 10
91.16308320203562
 20
-118.0668673749972
 30
0.0
 10
91.23336314993472
 20
-118.0668673749972
 30
0.0
 10
91.44592554137463
 20
-118.0456800377629
 30
0.0
 10
91.44592554137463
 20
-117.8086574683777
 30
0.0
 10
91.44592554137463
 20
-117.6310627961131
 30
0.0
 10
91.30571015512497
 20
-117.5759412683491
 30
0.0
 10
91.18823239907795
 20
-117.5759412683491
 30
0.0
 10
90.90539005973893
 20
-117.5759412683491
 30
0.0
 10
90.89643281147728
 20
-117.8086574683777
 30
0.0
 10
90.89195418734646
 20
-117.8806599640194
 30
0.0
 10
90.89195418734646
 20
-117.8806599640194
 30
0.0
 10
90.67491317177571
 20
-117.8806599640194
 30
0.0
 10
90.67491317177571
 20
-117.8806599640194
 30
0.0
 10
90.68387042003737
 20
-117.7557752526791
 30
0.0
 10
90.71315373166199
 20
-117.3792263161413
 30
0.0
 10
91.20166827147042
 20
-117.3792263161413
 30
0.0
 10
91.44144691724381
 20
-117.3792263161413
 30
0.0
 10
91.6991400595405
 20
-117.5061780847728
 30
0.0
 10
91.6991400595405
 20
-117.80228404173
 30
0.0
 10
91.6991400595405
 20
-117.9884914527077
 30
0.0
 10
91.59716523317711
 20
-118.0710014895795
 30
0.0
 10
91.4910562922314
 20
-118.1323241892169
 30
0.0
 10
91.55651310645115
 20
-118.1598849530989
 30
0.0
 10
91.75116100136776
 20
-118.2403279326795
 30
0.0
 10
91.75116100136776
 20
-118.5174858644679
 30
0.0
 10
91.75116100136776
 20
-118.8559664958937
 30
0.0
 10
91.48657766810058
 20
-119.0230536269283
 30
0.0
 10
91.19029945636909
 20
-119.0230536269283
 30
0.0
  0
HATCH
  5
54
330
4F
100
AcDbEntity
  8
_U+30EC_U+30A4_U+30E4_U+30FC 1
 62
     7
420
 16777215
100
AcDbHatch
 10
0.0
 20
0.0
 30
0.0
210
0.0
220
0.0
230
1.0
  2
SOLID
 70
     1
 71
     0
 91
        1
 92
        1
 93
        1
 72
     4
 94
        3
 73
     0
 74
     1
 95
       62
 96
       58
 40
0.0
 40
0.0
 40
0.0
 40
0.0
 40
1.0
 40
1.0
 40
1.0
 40
2.0
 40
2.0
 40
2.0
 40
3.0
 40
3.0
 40
3.0
 40
4.0
 40
4.0
 40
4.0
 40
5.0
 40
5.0
 40
5.0
 40
6.0
 40
6.0
 40
6.0
 40
7.0
 40
7.0
 40
7.0
 40
8.0
 40
8.0
 40
8.0
 40
9.0
 40
9.0
 40
9.0
 40
10.0
 40
10.0
 40
10.0
 40
11.0
 40
11.0
 40
11.0
 40
12.0
 40
12.0
 40
12.0
 40
13.0
 40
13.0
 40
13.0
 40
14.0
 40
14.0
 40
14.0
 40
15.0
 40
15.0
 40
15.0
 40
16.0
 40
16.0
 40
16.0
 40
17.0
 40
17.0
 40
17.0
 40
18.0
 40
18.0
 40
18.0
 40
19.0
 40
19.0
 40
19.0
 40
19.0
 10
91.19029945636909
 20
-119.0230536269283
 10
91.08866913955423
 20
-119.0230536269283
 10
90.85578068475134
 20
-119.001866289694
 10
90.72245548947217
 20
-118.8156588787162
 10
90.64321829331142
 20
-118.7035210206713
 10
90.6387396691806
 20
-118.6041300159219
 10
90.63426104504977
 20
-118.519552921759
 10
90.63426104504977
 20
-118.519552921759
 10
90.86921655714382
 20
-118.519552921759
 10
90.86921655714382
 20
-118.519552921759
 10
90.87162812398348
 20
-118.5936224746919
 10
90.8829969390848
 20
-118.8284057320117
 10
91.18582083223828
 20
-118.8284057320117
 10
91.33292640945844
 20
-118.8284057320117
 10
91.49553491636223
 20
-118.7586425484353
 10
91.49553491636223
 20
-118.530060462989
 10
91.49553491636223
 20
-118.4137884903618
 10
91.45488278963629
 20
-118.3650403892456
 10
91.42077634433231
 20
-118.3333455107813
 10
91.34188365772009
 20
-118.2592759578484
 10
91.21751571070257
 20
-118.2467013593272
 10
91.1586045779048
 20
-118.2467013593272
 10
91.13827851454182
 20
-118.2467013593272
 10
91.10003795465555
 20
-118.2487684166184
 10
91.0704101334824
 20
-118.2529025312007
 10
91.0704101334824
 20
-118.2529025312007
 10
91.0704101334824
 20
-118.058254636284
 10
91.0704101334824
 20
-118.058254636284
 10
91.11106226020836
 20
-118.0646280629318
 10
91.15653752061365
 20
-118.0668673749972
 10
91.16308320203562
 20
-118.0668673749972
 10
91.23336314993472
 20
-118.0668673749972
 10
91.44592554137463
 20
-118.0456800377629
 10
91.44592554137463
 20
-117.8086574683777
 10
91.44592554137463
 20
-117.6310627961131
 10
91.30571015512497
 20
-117.5759412683491
 10
91.18823239907795
 20
-117.5759412683491
 10
90.90539005973893
 20
-117.5759412683491
 10
90.89643281147728
 20
-117.8086574683777
 10
90.89195418734646
 20
-117.8806599640194
 10
90.89195418734646
 20
-117.8806599640194
 10
90.67491317177571
 20
-117.8806599640194
 10
90.67491317177571
 20
-117.8806599640194
 10
90.68387042003737
 20
-117.7557752526791
 10
90.71315373166199
 20
-117.3792263161413
 10
91.20166827147042
 20
-117.3792263161413
 10
91.44144691724381
 20
-117.3792263161413
 10
91.6991400595405
 20
-117.5061780847728
 10
91.6991400595405
 20
-117.80228404173
 10
91.6991400595405
 20
-117.9884914527077
 10
91.59716523317711
 20
-118.0710014895795
 10
91.4910562922314
 20
-118.1323241892169
 10
91.55651310645115
 20
-118.1598849530989
 10
91.75116100136776
 20
-118.2403279326795
 10
91.75116100136776
 20
-118.5174858644679
 10
91.75116100136776
 20
-118.8559664958937
 10
91.48657766810058
 20
-119.0230536269283
 10
91.19029945636909
 20
-119.0230536269283
 97
        0
 97
        0
 75
     2
 76
     1
 98
        0
  0
SPLINE
  5
55
330
4F
100
AcDbEntity
  8
_U+30EC_U+30A4_U+30E4_U+30FC 1
370
     0
100
AcDbSpline
210
0.0
220
0.0
230
1.0
 70
    11
 71
     3
 72
    44
 73
    40
 74
     0
 42
0.0000000001
 43
0.0000000001
 12
1.0
 22
0.0
 32
0.0
 13
1.0
 23
0.0
 33
0.0
 40
0.0
 40
0.0
 40
0.0
 40
0.0
 40
1.0
 40
1.0
 40
1.0
 40
2.0
 40
2.0
 40
2.0
 40
3.0
 40
3.0
 40
3.0
 40
4.0
 40
4.0
 40
4.0
 40
5.0
 40
5.0
 40
5.0
 40
6.0
 40
6.0
 40
6.0
 40
7.0
 40
7.0
 40
7.0
 40
8.0
 40
8.0
 40
8.0
 40
9.0
 40
9.0
 40
9.0
 40
10.0
 40
10.0
 40
10.0
 40
11.0
 40
11.0
 40
11.0
 40
12.0
 40
12.0
 40
12.0
 40
13.0
 40
13.0
 40
13.0
 40
13.0
 10
92.55662432581919
 20
-118.3905340958364
 30
0.0
 10
92.3237358710163
 20
-118.5491807429322
 30
0.0
 10
92.22417261149258
 20
-118.623250295865
 30
0.0
 10
92.17249617921382
 20
-118.7670830323742
 30
0.0
 10
92.17249617921382
 20
-118.7670830323742
 30
0.0
 10
93.00414222935314
 20
-118.7670830323742
 30
0.0
 10
93.00414222935314
 20
-118.7670830323742
 30
0.0
 10
93.00414222935314
 20
-118.7670830323742
 30
0.0
 10
93.00414222935314
 20
-118.9722384685208
 30
0.0
 10
93.00414222935314
 20
-118.9722384685208
 30
0.0
 10
93.00414222935314
 20
-118.9722384685208
 30
0.0
 10
91.90550127910696
 20
-118.9722384685208
 30
0.0
 10
91.90550127910696
 20
-118.9722384685208
 30
0.0
 10
91.93960772441093
 20
-118.6146375571519
 30
0.0
 10
92.0095431627615
 20
-118.5364338896367
 30
0.0
 10
92.42088756370033
 20
-118.2380886206141
 30
0.0
 10
92.69442814522918
 20
-118.0393066111152
 30
0.0
 10
92.76470809312828
 20
-117.97161048483
 30
0.0
 10
92.76470809312828
 20
-117.8341511749686
 30
0.0
 10
92.76470809312828
 20
-117.715639890276
 30
0.0
 10
92.6878824638072
 20
-117.5845540070622
 30
0.0
 10
92.47738712965844
 20
-117.5845540070622
 30
0.0
 10
92.19936792399878
 20
-117.5845540070622
 30
0.0
 10
92.19041067573713
 20
-117.8150308950254
 30
0.0
 10
92.1859320516063
 20
-117.9314751224269
 30
0.0
 10
92.1859320516063
 20
-117.9314751224269
 30
0.0
 10
91.94615340583292
 20
-117.9314751224269
 30
0.0
 10
91.94615340583292
 20
-117.9314751224269
 30
0.0
 10
91.95545516364308
 20
-117.8045233537954
 30
0.0
 10
91.96647946919589
 20
-117.6923854957505
 30
0.0
 10
92.05260685632713
 20
-117.5738742110579
 30
0.0
 10
92.17008461237415
 20
-117.413160506671
 30
0.0
 10
92.36886662187307
 20
-117.3792263161413
 30
0.0
 10
92.49323456889059
 20
-117.3792263161413
 30
0.0
 10
92.78951278062208
 20
-117.3792263161413
 30
0.0
 10
93.01103242032363
 20
-117.5633666698279
 30
0.0
 10
93.01103242032363
 20
-117.8362182322597
 30
0.0
 10
93.01103242032363
 20
-118.0646280629318
 30
0.0
 10
92.88666447330611
 20
-118.1641913224555
 30
0.0
 10
92.55662432581919
 20
-118.3905340958364
 30
0.0
  0
HATCH
  5
56
330
4F
100
AcDbEntity
  8
_U+30EC_U+30A4_U+30E4_U+30FC 1
 62
     7
420
 16777215
100
AcDbHatch
 10
0.0
 20
0.0
 30
0.0
210
0.0
220
0.0
230
1.0
  2
SOLID
 70
     1
 71
     0
 91
        1
 92
        1
 93
        1
 72
     4
 94
        3
 73
     0
 74
     1
 95
       44
 96
       40
 40
0.0
 40
0.0
 40
0.0
 40
0.0
 40
1.0
 40
1.0
 40
1.0
 40
2.0
 40
2.0
 40
2.0
 40
3.0
 40
3.0
 40
3.0
 40
4.0
 40
4.0
 40
4.0
 40
5.0
 40
5.0
 40
5.0
 40
6.0
 40
6.0
 40
6.0
 40
7.0
 40
7.0
 40
7.0
 40
8.0
 40
8.0
 40
8.0
 40
9.0
 40
9.0
 40
9.0
 40
10.0
 40
10.0
 40
10.0
 40
11.0
 40
11.0
 40
11.0
 40
12.0
 40
12.0
 40
12.0
 40
13.0
 40
13.0
 40
13.0
 40
13.0
 10
92.55662432581919
 20
-118.3905340958364
 10
92.3237358710163
 20
-118.5491807429322
 10
92.22417261149258
 20
-118.623250295865
 10
92.17249617921382
 20
-118.7670830323742
 10
92.17249617921382
 20
-118.7670830323742
 10
93.00414222935314
 20
-118.7670830323742
 10
93.00414222935314
 20
-118.7670830323742
 10
93.00414222935314
 20
-118.7670830323742
 10
93.00414222935314
 20
-118.9722384685208
 10
93.00414222935314
 20
-118.9722384685208
 10
93.00414222935314
 20
-118.9722384685208
 10
91.90550127910696
 20
-118.9722384685208
 10
91.90550127910696
 20
-118.9722384685208
 10
91.93960772441093
 20
-118.6146375571519
 10
92.0095431627615
 20
-118.5364338896367
 10
92.42088756370033
 20
-118.2380886206141
 10
92.69442814522918
 20
-118.0393066111152
 10
92.76470809312828
 20
-117.97161048483
 10
92.76470809312828
 20
-117.8341511749686
 10
92.76470809312828
 20
-117.715639890276
 10
92.6878824638072
 20
-117.5845540070622
 10
92.47738712965844
 20
-117.5845540070622
 10
92.19936792399878
 20
-117.5845540070622
 10
92.19041067573713
 20
-117.8150308950254
 10
92.1859320516063
 20
-117.9314751224269
 10
92.1859320516063
 20
-117.9314751224269
 10
91.94615340583292
 20
-117.9314751224269
 10
91.94615340583292
 20
-117.9314751224269
 10
91.95545516364308
 20
-117.8045233537954
 10
91.96647946919589
 20
-117.6923854957505
 10
92.05260685632713
 20
-117.5738742110579
 10
92.17008461237415
 20
-117.413160506671
 10
92.36886662187307
 20
-117.3792263161413
 10
92.49323456889059
 20
-117.3792263161413
 10
92.78951278062208
 20
-117.3792263161413
 10
93.01103242032363
 20
-117.5633666698279
 10
93.01103242032363
 20
-117.8362182322597
 10
93.01103242032363
 20
-118.0646280629318
 10
92.88666447330611
 20
-118.1641913224555
 10
92.55662432581919
 20
-118.3905340958364
 97
        0
 97
        0
 75
     2
 76
     1
 98
        0
  0
ENDBLK
  5
52
330
4F
100
AcDbEntity
  8
0
100
AcDbBlockEnd
  0
BLOCK
  5
68
330
66
100
AcDbEntity
  8
0
100
AcDbBlockBegin
  2
block 3
 70
     0
 10
0.0
 20
0.0
 30
0.0
  3
block 3
  1

  0
SPLINE
  5
6A
330
66
100
AcDbEntity
  8
_U+30EC_U+30A4_U+30E4_U+30FC 1
370
     0
100
AcDbSpline
210
0.0
220
0.0
230
1.0
 70
    11
 71
     3
 72
    26
 73
    22
 74
     0
 42
0.0000000001
 43
0.0000000001
 12
1.0
 22
0.0
 32
0.0
 13
1.0
 23
0.0
 33
0.0
 40
0.0
 40
0.0
 40
0.0
 40
0.0
 40
1.0
 40
1.0
 40
1.0
 40
2.0
 40
2.0
 40
2.0
 40
3.0
 40
3.0
 40
3.0
 40
4.0
 40
4.0
 40
4.0
 40
5.0
 40
5.0
 40
5.0
 40
6.0
 40
6.0
 40
6.0
 40
7.0
 40
7.0
 40
7.0
 40
7.0
 10
92.14631345352592
 20
-138.7267604904919
 30
0.0
 10
92.14631345352592
 20
-138.7267604904919
 30
0.0
 10
92.14631345352592
 20
-137.6226073874693
 30
0.0
 10
92.14631345352592
 20
-137.6226073874693
 30
0.0
 10
92.14631345352592
 20
-137.6226073874693
 30
0.0
 10
91.79388018538486
 20
-137.6226073874693
 30
0.0
 10
91.79388018538486
 20
-137.6226073874693
 30
0.0
 10
91.79388018538486
 20
-137.6226073874693
 30
0.0
 10
91.79388018538486
 20
-137.4744682816036
 30
0.0
 10
91.79388018538486
 20
-137.4744682816036
 30
0.0
 10
92.1487250203656
 20
-137.459654371017
 30
0.0
 10
92.1983343953532
 20
-137.2967013545647
 30
0.0
 10
92.2300292738175
 20
-137.1823241844544
 30
0.0
 10
92.2300292738175
 20
-137.1823241844544
 30
0.0
 10
92.38609209929932
 20
-137.1823241844544
 30
0.0
 10
92.38609209929932
 20
-137.1823241844544
 30
0.0
 10
92.38609209929932
 20
-137.1823241844544
 30
0.0
 10
92.38609209929932
 20
-138.7267604904919
 30
0.0
 10
92.38609209929932
 20
-138.7267604904919
 30
0.0
 10
92.38609209929932
 20
-138.7267604904919
 30
0.0
 10
92.14631345352592
 20
-138.7267604904919
 30
0.0
 10
92.14631345352592
 20
-138.7267604904919
 30
0.0
  0
HATCH
  5
6B
330
66
100
AcDbEntity
  8
_U+30EC_U+30A4_U+30E4_U+30FC 1
 62
     7
420
 16777215
100
AcDbHatch
 10
0.0
 20
0.0
 30
0.0
210
0.0
220
0.0
230
1.0
  2
SOLID
 70
     1
 71
     0
 91
        1
 92
        1
 93
        1
 72
     4
 94
        3
 73
     0
 74
     1
 95
       26
 96
       22
 40
0.0
 40
0.0
 40
0.0
 40
0.0
 40
1.0
 40
1.0
 40
1.0
 40
2.0
 40
2.0
 40
2.0
 40
3.0
 40
3.0
 40
3.0
 40
4.0
 40
4.0
 40
4.0
 40
5.0
 40
5.0
 40
5.0
 40
6.0
 40
6.0
 40
6.0
 40
7.0
 40
7.0
 40
7.0
 40
7.0
 10
92.14631345352592
 20
-138.7267604904919
 10
92.14631345352592
 20
-138.7267604904919
 10
92.14631345352592
 20
-137.6226073874693
 10
92.14631345352592
 20
-137.6226073874693
 10
92.14631345352592
 20
-137.6226073874693
 10
91.79388018538486
 20
-137.6226073874693
 10
91.79388018538486
 20
-137.6226073874693
 10
91.79388018538486
 20
-137.6226073874693
 10
91.79388018538486
 20
-137.4744682816036
 10
91.79388018538486
 20
-137.4744682816036
 10
92.1487250203656
 20
-137.459654371017
 10
92.1983343953532
 20
-137.2967013545647
 10
92.2300292738175
 20
-137.1823241844544
 10
92.2300292738175
 20
-137.1823241844544
 10
92.38609209929932
 20
-137.1823241844544
 10
92.38609209929932
 20
-137.1823241844544
 10
92.38609209929932
 20
-137.1823241844544
 10
92.38609209929932
 20
-138.7267604904919
 10
92.38609209929932
 20
-138.7267604904919
 10
92.38609209929932
 20
-138.7267604904919
 10
92.14631345352592
 20
-138.7267604904919
 10
92.14631345352592
 20
-138.7267604904919
 97
        0
 97
        0
 75
     2
 76
     1
 98
        0
  0
SPLINE
  5
6C
330
66
100
AcDbEntity
  8
_U+30EC_U+30A4_U+30E4_U+30FC 1
370
     0
100
AcDbSpline
210
0.0
220
0.0
230
1.0
 70
    11
 71
     3
 72
    29
 73
    25
 74
     0
 42
0.0000000001
 43
0.0000000001
 12
1.0
 22
0.0
 32
0.0
 13
1.0
 23
0.0
 33
0.0
 40
0.0
 40
0.0
 40
0.0
 40
0.0
 40
1.0
 40
1.0
 40
1.0
 40
2.0
 40
2.0
 40
2.0
 40
3.0
 40
3.0
 40
3.0
 40
4.0
 40
4.0
 40
4.0
 40
5.0
 40
5.0
 40
5.0
 40
6.0
 40
6.0
 40
6.0
 40
7.0
 40
7.0
 40
7.0
 40
8.0
 40
8.0
 40
8.0
 40
8.0
 10
93.88126353989774
 20
-138.548993563453
 30
0.0
 10
93.76585284114188
 20
-138.7584553689562
 30
0.0
 10
93.58050670403543
 20
-138.7774033941251
 30
0.0
 10
93.45613875701791
 20
-138.7774033941251
 30
0.0
 10
93.28457300185248
 20
-138.7774033941251
 30
0.0
 10
93.13298880050148
 20
-138.7308946050742
 30
0.0
 10
93.0313584836866
 20
-138.548993563453
 30
0.0
 10
92.92042640906156
 20
-138.3543456685364
 30
0.0
 10
92.90010034569859
 20
-138.1173230991512
 30
0.0
 10
92.90010034569859
 20
-137.9547145922474
 30
0.0
 10
92.90010034569859
 20
-137.810709600964
 30
0.0
 10
92.9180148422219
 20
-137.5588731209922
 30
0.0
 10
93.0313584836866
 20
-137.3600911114933
 30
0.0
 10
93.14642467289396
 20
-137.1571749874121
 30
0.0
 10
93.31833493760791
 20
-137.1337483381124
 30
0.0
 10
93.45613875701791
 20
-137.1337483381124
 30
0.0
 10
93.62598196444073
 20
-137.1337483381124
 30
0.0
 10
93.77963322308287
 20
-137.1781900698721
 30
0.0
 10
93.88126353989774
 20
-137.3600911114933
 30
0.0
 10
93.98771699039196
 20
-137.5526719491188
 30
0.0
 10
94.01252167788576
 20
-137.7810817797908
 30
0.0
 10
94.01252167788576
 20
-137.9547145922474
 30
0.0
 10
94.01252167788576
 20
-138.1259358378643
 30
0.0
 10
93.98978404768312
 20
-138.3564127258276
 30
0.0
 10
93.88126353989774
 20
-138.548993563453
 30
0.0
  0
SPLINE
  5
6D
330
66
100
AcDbEntity
  8
_U+30EC_U+30A4_U+30E4_U+30FC 1
370
     0
100
AcDbSpline
210
0.0
220
0.0
230
1.0
 70
    11
 71
     3
 72
    17
 73
    13
 74
     0
 42
0.0000000001
 43
0.0000000001
 12
1.0
 22
0.0
 32
0.0
 13
1.0
 23
0.0
 33
0.0
 40
0.0
 40
0.0
 40
0.0
 40
0.0
 40
1.0
 40
1.0
 40
1.0
 40
2.0
 40
2.0
 40
2.0
 40
3.0
 40
3.0
 40
3.0
 40
4.0
 40
4.0
 40
4.0
 40
4.0
 10
93.45613875701791
 20
-137.3263291757379
 30
0.0
 10
93.18948836645957
 20
-137.3263291757379
 30
0.0
 10
93.13987899147197
 20
-137.6098605341739
 30
0.0
 10
93.13987899147197
 20
-137.9547145922474
 30
0.0
 10
93.13987899147197
 20
-138.2740749437301
 30
0.0
 10
93.17811955135825
 20
-138.5827554992085
 30
0.0
 10
93.45613875701791
 20
-138.5827554992085
 30
0.0
 10
93.72072209028511
 20
-138.5827554992085
 30
0.0
 10
93.77274303211237
 20
-138.3016357076121
 30
0.0
 10
93.77274303211237
 20
-137.9547145922474
 30
0.0
 10
93.77274303211237
 20
-137.6350097312163
 30
0.0
 10
93.73209090538643
 20
-137.3263291757379
 30
0.0
 10
93.45613875701791
 20
-137.3263291757379
 30
0.0
  0
HATCH
  5
6E
330
66
100
AcDbEntity
  8
_U+30EC_U+30A4_U+30E4_U+30FC 1
 62
     7
420
 16777215
100
AcDbHatch
 10
0.0
 20
0.0
 30
0.0
210
0.0
220
0.0
230
1.0
  2
SOLID
 70
     1
 71
     0
 91
        2
 92
        1
 93
        1
 72
     4
 94
        3
 73
     0
 74
     1
 95
       29
 96
       25
 40
0.0
 40
0.0
 40
0.0
 40
0.0
 40
1.0
 40
1.0
 40
1.0
 40
2.0
 40
2.0
 40
2.0
 40
3.0
 40
3.0
 40
3.0
 40
4.0
 40
4.0
 40
4.0
 40
5.0
 40
5.0
 40
5.0
 40
6.0
 40
6.0
 40
6.0
 40
7.0
 40
7.0
 40
7.0
 40
8.0
 40
8.0
 40
8.0
 40
8.0
 10
93.88126353989774
 20
-138.548993563453
 10
93.76585284114188
 20
-138.7584553689562
 10
93.58050670403543
 20
-138.7774033941251
 10
93.45613875701791
 20
-138.7774033941251
 10
93.28457300185248
 20
-138.7774033941251
 10
93.13298880050148
 20
-138.7308946050742
 10
93.0313584836866
 20
-138.548993563453
 10
92.92042640906156
 20
-138.3543456685364
 10
92.90010034569859
 20
-138.1173230991512
 10
92.90010034569859
 20
-137.9547145922474
 10
92.90010034569859
 20
-137.810709600964
 10
92.9180148422219
 20
-137.5588731209922
 10
93.0313584836866
 20
-137.3600911114933
 10
93.14642467289396
 20
-137.1571749874121
 10
93.31833493760791
 20
-137.1337483381124
 10
93.45613875701791
 20
-137.1337483381124
 10
93.62598196444073
 20
-137.1337483381124
 10
93.77963322308287
 20
-137.1781900698721
 10
93.88126353989774
 20
-137.3600911114933
 10
93.98771699039196
 20
-137.5526719491188
 10
94.01252167788576
 20
-137.7810817797908
 10
94.01252167788576
 20
-137.9547145922474
 10
94.01252167788576
 20
-138.1259358378643
 10
93.98978404768312
 20
-138.3564127258276
 10
93.88126353989774
 20
-138.548993563453
 97
        0
 97
        0
 92
        1
 93
        1
 72
     4
 94
        3
 73
     0
 74
     1
 95
       17
 96
       13
 40
0.0
 40
0.0
 40
0.0
 40
0.0
 40
1.0
 40
1.0
 40
1.0
 40
2.0
 40
2.0
 40
2.0
 40
3.0
 40
3.0
 40
3.0
 40
4.0
 40
4.0
 40
4.0
 40
4.0
 10
93.45613875701791
 20
-137.3263291757379
 10
93.18948836645957
 20
-137.3263291757379
 10
93.13987899147197
 20
-137.6098605341739
 10
93.13987899147197
 20
-137.9547145922474
 10
93.13987899147197
 20
-138.2740749437301
 10
93.17811955135825
 20
-138.5827554992085
 10
93.45613875701791
 20
-138.5827554992085
 10
93.72072209028511
 20
-138.5827554992085
 10
93.77274303211237
 20
-138.3016357076121
 10
93.77274303211237
 20
-137.9547145922474
 10
93.77274303211237
 20
-137.6350097312163
 10
93.73209090538643
 20
-137.3263291757379
 10
93.45613875701791
 20
-137.3263291757379
 97
        0
 97
        0
 75
     2
 76
     1
 98
        0
  0
ENDBLK
  5
69
330
66
100
AcDbEntity
  8
0
100
AcDbBlockEnd
  0
BLOCK
  5
79
330
77
100
AcDbEntity
  8
0
100
AcDbBlockBegin
  2
block 4
 70
     0
 10
0.0
 20
0.0
 30
0.0
  3
block 4
  1

  0
SPLINE
  5
7B
330
77
100
AcDbEntity
  8
_U+30EC_U+30A4_U+30E4_U+30FC 1
370
     0
100
AcDbSpline
210
0.0
220
0.0
230
1.0
 70
    11
 71
     3
 72
    26
 73
    22
 74
     0
 42
0.0000000001
 43
0.0000000001
 12
1.0
 22
0.0
 32
0.0
 13
1.0
 23
0.0
 33
0.0
 40
0.0
 40
0.0
 40
0.0
 40
0.0
 40
1.0
 40
1.0
 40
1.0
 40
2.0
 40
2.0
 40
2.0
 40
3.0
 40
3.0
 40
3.0
 40
4.0
 40
4.0
 40
4.0
 40
5.0
 40
5.0
 40
5.0
 40
6.0
 40
6.0
 40
6.0
 40
7.0
 40
7.0
 40
7.0
 40
7.0
 10
81.1475016073173
 20
-138.7267604904919
 30
0.0
 10
81.1475016073173
 20
-138.7267604904919
 30
0.0
 10
81.1475016073173
 20
-137.6226073874693
 30
0.0
 10
81.1475016073173
 20
-137.6226073874693
 30
0.0
 10
81.1475016073173
 20
-137.6226073874693
 30
0.0
 10
80.79472382962771
 20
-137.6226073874693
 30
0.0
 10
80.79472382962771
 20
-137.6226073874693
 30
0.0
 10
80.79472382962771
 20
-137.6226073874693
 30
0.0
 10
80.79472382962771
 20
-137.4744682816036
 30
0.0
 10
80.79472382962771
 20
-137.4744682816036
 30
0.0
 10
81.14974091938271
 20
-137.459654371017
 30
0.0
 10
81.19952254914456
 20
-137.2967013545647
 30
0.0
 10
81.23121742760887
 20
-137.1823241844544
 30
0.0
 10
81.23121742760887
 20
-137.1823241844544
 30
0.0
 10
81.38710799831642
 20
-137.1823241844544
 30
0.0
 10
81.38710799831642
 20
-137.1823241844544
 30
0.0
 10
81.38710799831642
 20
-137.1823241844544
 30
0.0
 10
81.38710799831642
 20
-138.7267604904919
 30
0.0
 10
81.38710799831642
 20
-138.7267604904919
 30
0.0
 10
81.38710799831642
 20
-138.7267604904919
 30
0.0
 10
81.1475016073173
 20
-138.7267604904919
 30
0.0
 10
81.1475016073173
 20
-138.7267604904919
 30
0.0
  0
HATCH
  5
7C
330
77
100
AcDbEntity
  8
_U+30EC_U+30A4_U+30E4_U+30FC 1
 62
     7
420
 16777215
100
AcDbHatch
 10
0.0
 20
0.0
 30
0.0
210
0.0
220
0.0
230
1.0
  2
SOLID
 70
     1
 71
     0
 91
        1
 92
        1
 93
        1
 72
     4
 94
        3
 73
     0
 74
     1
 95
       26
 96
       22
 40
0.0
 40
0.0
 40
0.0
 40
0.0
 40
1.0
 40
1.0
 40
1.0
 40
2.0
 40
2.0
 40
2.0
 40
3.0
 40
3.0
 40
3.0
 40
4.0
 40
4.0
 40
4.0
 40
5.0
 40
5.0
 40
5.0
 40
6.0
 40
6.0
 40
6.0
 40
7.0
 40
7.0
 40
7.0
 40
7.0
 10
81.1475016073173
 20
-138.7267604904919
 10
81.1475016073173
 20
-138.7267604904919
 10
81.1475016073173
 20
-137.6226073874693
 10
81.1475016073173
 20
-137.6226073874693
 10
81.1475016073173
 20
-137.6226073874693
 10
80.79472382962771
 20
-137.6226073874693
 10
80.79472382962771
 20
-137.6226073874693
 10
80.79472382962771
 20
-137.6226073874693
 10
80.79472382962771
 20
-137.4744682816036
 10
80.79472382962771
 20
-137.4744682816036
 10
81.14974091938271
 20
-137.459654371017
 10
81.19952254914456
 20
-137.2967013545647
 10
81.23121742760887
 20
-137.1823241844544
 10
81.23121742760887
 20
-137.1823241844544
 10
81.38710799831642
 20
-137.1823241844544
 10
81.38710799831642
 20
-137.1823241844544
 10
81.38710799831642
 20
-137.1823241844544
 10
81.38710799831642
 20
-138.7267604904919
 10
81.38710799831642
 20
-138.7267604904919
 10
81.38710799831642
 20
-138.7267604904919
 10
81.1475016073173
 20
-138.7267604904919
 10
81.1475016073173
 20
-138.7267604904919
 97
        0
 97
        0
 75
     2
 76
     1
 98
        0
  0
SPLINE
  5
7D
330
77
100
AcDbEntity
  8
_U+30EC_U+30A4_U+30E4_U+30FC 1
370
     0
100
AcDbSpline
210
0.0
220
0.0
230
1.0
 70
    11
 71
     3
 72
    44
 73
    40
 74
     0
 42
0.0000000001
 43
0.0000000001
 12
1.0
 22
0.0
 32
0.0
 13
1.0
 23
0.0
 33
0.0
 40
0.0
 40
0.0
 40
0.0
 40
0.0
 40
1.0
 40
1.0
 40
1.0
 40
2.0
 40
2.0
 40
2.0
 40
3.0
 40
3.0
 40
3.0
 40
4.0
 40
4.0
 40
4.0
 40
5.0
 40
5.0
 40
5.0
 40
6.0
 40
6.0
 40
6.0
 40
7.0
 40
7.0
 40
7.0
 40
8.0
 40
8.0
 40
8.0
 40
9.0
 40
9.0
 40
9.0
 40
10.0
 40
10.0
 40
10.0
 40
11.0
 40
11.0
 40
11.0
 40
12.0
 40
12.0
 40
12.0
 40
13.0
 40
13.0
 40
13.0
 40
13.0
 10
82.55671791555874
 20
-138.1448838630332
 30
0.0
 10
82.32382946075585
 20
-138.3037027649032
 30
0.0
 10
82.2244384560064
 20
-138.3777723178361
 30
0.0
 10
82.17241751417912
 20
-138.521432799571
 30
0.0
 10
82.17241751417912
 20
-138.521432799571
 30
0.0
 10
83.00440807386695
 20
-138.521432799571
 30
0.0
 10
83.00440807386695
 20
-138.521432799571
 30
0.0
 10
83.00440807386695
 20
-138.521432799571
 30
0.0
 10
83.00440807386695
 20
-138.7267604904919
 30
0.0
 10
83.00440807386695
 20
-138.7267604904919
 30
0.0
 10
83.00440807386695
 20
-138.7267604904919
 30
0.0
 10
81.90559486884652
 20
-138.7267604904919
 30
0.0
 10
81.90559486884652
 20
-138.7267604904919
 30
0.0
 10
81.93952905937623
 20
-138.369159579123
 30
0.0
 10
82.00963675250107
 20
-138.2909559116078
 30
0.0
 10
82.42115340821417
 20
-137.9926106425852
 30
0.0
 10
82.694693989743
 20
-137.7938286330863
 30
0.0
 10
82.76480168286783
 20
-137.7259602520269
 30
0.0
 10
82.76480168286783
 20
-137.5885009421654
 30
0.0
 10
82.76480168286783
 20
-137.4699896574728
 30
0.0
 10
82.68780379877249
 20
-137.3390760290333
 30
0.0
 10
82.47765297417226
 20
-137.3390760290333
 30
0.0
 10
82.1996337685126
 20
-137.3390760290333
 30
0.0
 10
82.19050426547669
 20
-137.5695529169965
 30
0.0
 10
82.18602564134586
 20
-137.685997144398
 30
0.0
 10
82.18602564134586
 20
-137.685997144398
 30
0.0
 10
81.94641925034674
 20
-137.685997144398
 30
0.0
 10
81.94641925034674
 20
-137.685997144398
 30
0.0
 10
81.95537649860839
 20
-137.5588731209922
 30
0.0
 10
81.96674531370971
 20
-137.4469075177216
 30
0.0
 10
82.05252819129242
 20
-137.328396233029
 30
0.0
 10
82.1701782021137
 20
-137.1675102738679
 30
0.0
 10
82.36913246638689
 20
-137.1337483381124
 30
0.0
 10
82.4935004134044
 20
-137.1337483381124
 30
0.0
 10
82.78960637036162
 20
-137.1337483381124
 30
0.0
 10
83.0111260100632
 20
-137.3177164370248
 30
0.0
 10
83.0111260100632
 20
-137.5905679994565
 30
0.0
 10
83.0111260100632
 20
-137.8193223396771
 30
0.0
 10
82.88693031781993
 20
-137.9185410896523
 30
0.0
 10
82.55671791555874
 20
-138.1448838630332
 30
0.0
  0
HATCH
  5
7E
330
77
100
AcDbEntity
  8
_U+30EC_U+30A4_U+30E4_U+30FC 1
 62
     7
420
 16777215
100
AcDbHatch
 10
0.0
 20
0.0
 30
0.0
210
0.0
220
0.0
230
1.0
  2
SOLID
 70
     1
 71
     0
 91
        1
 92
        1
 93
        1
 72
     4
 94
        3
 73
     0
 74
     1
 95
       44
 96
       40
 40
0.0
 40
0.0
 40
0.0
 40
0.0
 40
1.0
 40
1.0
 40
1.0
 40
2.0
 40
2.0
 40
2.0
 40
3.0
 40
3.0
 40
3.0
 40
4.0
 40
4.0
 40
4.0
 40
5.0
 40
5.0
 40
5.0
 40
6.0
 40
6.0
 40
6.0
 40
7.0
 40
7.0
 40
7.0
 40
8.0
 40
8.0
 40
8.0
 40
9.0
 40
9.0
 40
9.0
 40
10.0
 40
10.0
 40
10.0
 40
11.0
 40
11.0
 40
11.0
 40
12.0
 40
12.0
 40
12.0
 40
13.0
 40
13.0
 40
13.0
 40
13.0
 10
82.55671791555874
 20
-138.1448838630332
 10
82.32382946075585
 20
-138.3037027649032
 10
82.2244384560064
 20
-138.3777723178361
 10
82.17241751417912
 20
-138.521432799571
 10
82.17241751417912
 20
-138.521432799571
 10
83.00440807386695
 20
-138.521432799571
 10
83.00440807386695
 20
-138.521432799571
 10
83.00440807386695
 20
-138.521432799571
 10
83.00440807386695
 20
-138.7267604904919
 10
83.00440807386695
 20
-138.7267604904919
 10
83.00440807386695
 20
-138.7267604904919
 10
81.90559486884652
 20
-138.7267604904919
 10
81.90559486884652
 20
-138.7267604904919
 10
81.93952905937623
 20
-138.369159579123
 10
82.00963675250107
 20
-138.2909559116078
 10
82.42115340821417
 20
-137.9926106425852
 10
82.694693989743
 20
-137.7938286330863
 10
82.76480168286783
 20
-137.7259602520269
 10
82.76480168286783
 20
-137.5885009421654
 10
82.76480168286783
 20
-137.4699896574728
 10
82.68780379877249
 20
-137.3390760290333
 10
82.47765297417226
 20
-137.3390760290333
 10
82.1996337685126
 20
-137.3390760290333
 10
82.19050426547669
 20
-137.5695529169965
 10
82.18602564134586
 20
-137.685997144398
 10
82.18602564134586
 20
-137.685997144398
 10
81.94641925034674
 20
-137.685997144398
 10
81.94641925034674
 20
-137.685997144398
 10
81.95537649860839
 20
-137.5588731209922
 10
81.96674531370971
 20
-137.4469075177216
 10
82.05252819129242
 20
-137.328396233029
 10
82.1701782021137
 20
-137.1675102738679
 10
82.36913246638689
 20
-137.1337483381124
 10
82.4935004134044
 20
-137.1337483381124
 10
82.78960637036162
 20
-137.1337483381124
 10
83.0111260100632
 20
-137.3177164370248
 10
83.0111260100632
 20
-137.5905679994565
 10
83.0111260100632
 20
-137.8193223396771
 10
82.88693031781993
 20
-137.9185410896523
 10
82.55671791555874
 20
-138.1448838630332
 97
        0
 97
        0
 75
     2
 76
     1
 98
        0
  0
ENDBLK
  5
7A
330
77
100
AcDbEntity
  8
0
100
AcDbBlockEnd
  0
BLOCK
  5
95
330
93
100
AcDbEntity
  8
0
100
AcDbBlockBegin
  2
block 5
 70
     0
 10
0.0
 20
0.0
 30
0.0
  3
block 5
  1

  0
SPLINE
  5
97
330
93
100
AcDbEntity
  8
_U+30EC_U+30A4_U+30E4_U+30FC 1
370
     0
100
AcDbSpline
210
0.0
220
0.0
230
1.0
 70
    11
 71
     3
 72
    26
 73
    22
 74
     0
 42
0.0000000001
 43
0.0000000001
 12
1.0
 22
0.0
 32
0.0
 13
1.0
 23
0.0
 33
0.0
 40
0.0
 40
0.0
 40
0.0
 40
0.0
 40
1.0
 40
1.0
 40
1.0
 40
2.0
 40
2.0
 40
2.0
 40
3.0
 40
3.0
 40
3.0
 40
4.0
 40
4.0
 40
4.0
 40
5.0
 40
5.0
 40
5.0
 40
6.0
 40
6.0
 40
6.0
 40
7.0
 40
7.0
 40
7.0
 40
7.0
 10
111.4502169860263
 20
-122.269883867002
 30
0.0
 10
111.4502169860263
 20
-122.269883867002
 30
0.0
 10
110.3460638830038
 20
-122.269883867002
 30
0.0
 10
110.3460638830038
 20
-122.269883867002
 30
0.0
 10
110.3460638830038
 20
-122.269883867002
 30
0.0
 10
110.3460638830038
 20
-122.6226616446916
 30
0.0
 10
110.3460638830038
 20
-122.6226616446916
 30
0.0
 10
110.3460638830038
 20
-122.6226616446916
 30
0.0
 10
110.197924777138
 20
-122.6226616446916
 30
0.0
 10
110.197924777138
 20
-122.6226616446916
 30
0.0
 10
110.1831108665514
 20
-122.2676445549366
 30
0.0
 10
110.0201578500991
 20
-122.2178629251747
 30
0.0
 10
109.9057806799888
 20
-122.1861680467104
 30
0.0
 10
109.9057806799888
 20
-122.1861680467104
 30
0.0
 10
109.9057806799888
 20
-122.0302774760029
 30
0.0
 10
109.9057806799888
 20
-122.0302774760029
 30
0.0
 10
109.9057806799888
 20
-122.0302774760029
 30
0.0
 10
111.4502169860263
 20
-122.0302774760029
 30
0.0
 10
111.4502169860263
 20
-122.0302774760029
 30
0.0
 10
111.4502169860263
 20
-122.0302774760029
 30
0.0
 10
111.4502169860263
 20
-122.269883867002
 30
0.0
 10
111.4502169860263
 20
-122.269883867002
 30
0.0
  0
HATCH
  5
98
330
93
100
AcDbEntity
  8
_U+30EC_U+30A4_U+30E4_U+30FC 1
 62
     7
420
 16777215
100
AcDbHatch
 10
0.0
 20
0.0
 30
0.0
210
0.0
220
0.0
230
1.0
  2
SOLID
 70
     1
 71
     0
 91
        1
 92
        1
 93
        1
 72
     4
 94
        3
 73
     0
 74
     1
 95
       26
 96
       22
 40
0.0
 40
0.0
 40
0.0
 40
0.0
 40
1.0
 40
1.0
 40
1.0
 40
2.0
 40
2.0
 40
2.0
 40
3.0
 40
3.0
 40
3.0
 40
4.0
 40
4.0
 40
4.0
 40
5.0
 40
5.0
 40
5.0
 40
6.0
 40
6.0
 40
6.0
 40
7.0
 40
7.0
 40
7.0
 40
7.0
 10
111.4502169860263
 20
-122.269883867002
 10
111.4502169860263
 20
-122.269883867002
 10
110.3460638830038
 20
-122.269883867002
 10
110.3460638830038
 20
-122.269883867002
 10
110.3460638830038
 20
-122.269883867002
 10
110.3460638830038
 20
-122.6226616446916
 10
110.3460638830038
 20
-122.6226616446916
 10
110.3460638830038
 20
-122.6226616446916
 10
110.197924777138
 20
-122.6226616446916
 10
110.197924777138
 20
-122.6226616446916
 10
110.1831108665514
 20
-122.2676445549366
 10
110.0201578500991
 20
-122.2178629251747
 10
109.9057806799888
 20
-122.1861680467104
 10
109.9057806799888
 20
-122.1861680467104
 10
109.9057806799888
 20
-122.0302774760029
 10
109.9057806799888
 20
-122.0302774760029
 10
109.9057806799888
 20
-122.0302774760029
 10
111.4502169860263
 20
-122.0302774760029
 10
111.4502169860263
 20
-122.0302774760029
 10
111.4502169860263
 20
-122.0302774760029
 10
111.4502169860263
 20
-122.269883867002
 10
111.4502169860263
 20
-122.269883867002
 97
        0
 97
        0
 75
     2
 76
     1
 98
        0
  0
ENDBLK
  5
96
330
93
100
AcDbEntity
  8
0
100
AcDbBlockEnd
  0
BLOCK
  5
A3
330
A1
100
AcDbEntity
  8
0
100
AcDbBlockBegin
  2
block 6
 70
     0
 10
0.0
 20
0.0
 30
0.0
  3
block 6
  1

  0
SPLINE
  5
A5
330
A1
100
AcDbEntity
  8
_U+30EC_U+30A4_U+30E4_U+30FC 1
370
     0
100
AcDbSpline
210
0.0
220
0.0
230
1.0
 70
    11
 71
     3
 72
    62
 73
    58
 74
     0
 42
0.0000000001
 43
0.0000000001
 12
1.0
 22
0.0
 32
0.0
 13
1.0
 23
0.0
 33
0.0
 40
0.0
 40
0.0
 40
0.0
 40
0.0
 40
1.0
 40
1.0
 40
1.0
 40
2.0
 40
2.0
 40
2.0
 40
3.0
 40
3.0
 40
3.0
 40
4.0
 40
4.0
 40
4.0
 40
5.0
 40
5.0
 40
5.0
 40
6.0
 40
6.0
 40
6.0
 40
7.0
 40
7.0
 40
7.0
 40
8.0
 40
8.0
 40
8.0
 40
9.0
 40
9.0
 40
9.0
 40
10.0
 40
10.0
 40
10.0
 40
11.0
 40
11.0
 40
11.0
 40
12.0
 40
12.0
 40
12.0
 40
13.0
 40
13.0
 40
13.0
 40
14.0
 40
14.0
 40
14.0
 40
15.0
 40
15.0
 40
15.0
 40
16.0
 40
16.0
 40
16.0
 40
17.0
 40
17.0
 40
17.0
 40
18.0
 40
18.0
 40
18.0
 40
19.0
 40
19.0
 40
19.0
 40
19.0
 10
111.5015489087566
 20
-134.1275580176834
 30
0.0
 10
111.5015489087566
 20
-134.2295328440468
 30
0.0
 10
111.4805338262965
 20
-134.4624212988497
 30
0.0
 10
111.294498670093
 20
-134.5957464941289
 30
0.0
 10
111.1821885572739
 20
-134.6746391807411
 30
0.0
 10
111.0829698072987
 20
-134.6794623144204
 30
0.0
 10
110.9982204583616
 20
-134.6839409385512
 30
0.0
 10
110.9982204583616
 20
-134.6839409385512
 30
0.0
 10
110.9982204583616
 20
-134.4486409169087
 30
0.0
 10
110.9982204583616
 20
-134.4486409169087
 30
0.0
 10
111.0722900112944
 20
-134.4465738596175
 30
0.0
 10
111.3069010138399
 20
-134.4352050445162
 30
0.0
 10
111.3069010138399
 20
-134.1320366418142
 30
0.0
 10
111.3069010138399
 20
-133.9852755741426
 30
0.0
 10
111.2373100850379
 20
-133.8223225576903
 30
0.0
 10
111.0089002543658
 20
-133.8223225576903
 30
0.0
 10
110.8924560269644
 20
-133.8223225576903
 30
0.0
 10
110.8438801806224
 20
-133.8633191939647
 30
0.0
 10
110.8121853021581
 20
-133.8970811297202
 30
0.0
 10
110.7381157492252
 20
-133.9763183258809
 30
0.0
 10
110.7253688959298
 20
-134.1006862728985
 30
0.0
 10
110.7253688959298
 20
-134.1592528961477
 30
0.0
 10
110.7253688959298
 20
-134.1795789595107
 30
0.0
 10
110.7274359532209
 20
-134.2181640289455
 30
0.0
 10
110.7315700678032
 20
-134.2474473405701
 30
0.0
 10
110.7315700678032
 20
-134.2474473405701
 30
0.0
 10
110.5369221728866
 20
-134.2474473405701
 30
0.0
 10
110.5369221728866
 20
-134.2474473405701
 30
0.0
 10
110.5434678543086
 20
-134.2067952138441
 30
0.0
 10
110.5455349115997
 20
-134.1616644629874
 30
0.0
 10
110.5455349115997
 20
-134.1547742720169
 30
0.0
 10
110.5455349115997
 20
-134.0848388336663
 30
0.0
 10
110.5241753195912
 20
-133.8722764422264
 30
0.0
 10
110.2874972597545
 20
-133.8722764422264
 30
0.0
 10
110.1097303327156
 20
-133.8722764422264
 30
0.0
 10
110.0546088049516
 20
-134.012491828476
 30
0.0
 10
110.0546088049516
 20
-134.1299695845231
 30
0.0
 10
110.0546088049516
 20
-134.4124674143136
 30
0.0
 10
110.2874972597545
 20
-134.4214246625752
 30
0.0
 10
110.3591552458477
 20
-134.4262477962546
 30
0.0
 10
110.3591552458477
 20
-134.4262477962546
 30
0.0
 10
110.3591552458477
 20
-134.6432888118253
 30
0.0
 10
110.3591552458477
 20
-134.6432888118253
 30
0.0
 10
110.2344427892817
 20
-134.6339870540151
 30
0.0
 10
109.8578938527439
 20
-134.6047037423905
 30
0.0
 10
109.8578938527439
 20
-134.1165337121306
 30
0.0
 10
109.8578938527439
 20
-133.8767550663572
 30
0.0
 10
109.9850178761496
 20
-133.6190619240605
 30
0.0
 10
110.2809515783325
 20
-133.6190619240605
 30
0.0
 10
110.4673312440846
 20
-133.6190619240605
 30
0.0
 10
110.549669026182
 20
-133.7206922408754
 30
0.0
 10
110.6109917258195
 20
-133.8271456913696
 30
0.0
 10
110.6385524897015
 20
-133.7613443676013
 30
0.0
 10
110.7188232145078
 20
-133.5670409822332
 30
0.0
 10
110.9961534010704
 20
-133.5670409822332
 30
0.0
 10
111.3344617777219
 20
-133.5670409822332
 30
0.0
 10
111.5015489087566
 20
-133.8316243155004
 30
0.0
 10
111.5015489087566
 20
-134.1275580176834
 30
0.0
  0
HATCH
  5
A6
330
A1
100
AcDbEntity
  8
_U+30EC_U+30A4_U+30E4_U+30FC 1
 62
     7
420
 16777215
100
AcDbHatch
 10
0.0
 20
0.0
 30
0.0
210
0.0
220
0.0
230
1.0
  2
SOLID
 70
     1
 71
     0
 91
        1
 92
        1
 93
        1
 72
     4
 94
        3
 73
     0
 74
     1
 95
       62
 96
       58
 40
0.0
 40
0.0
 40
0.0
 40
0.0
 40
1.0
 40
1.0
 40
1.0
 40
2.0
 40
2.0
 40
2.0
 40
3.0
 40
3.0
 40
3.0
 40
4.0
 40
4.0
 40
4.0
 40
5.0
 40
5.0
 40
5.0
 40
6.0
 40
6.0
 40
6.0
 40
7.0
 40
7.0
 40
7.0
 40
8.0
 40
8.0
 40
8.0
 40
9.0
 40
9.0
 40
9.0
 40
10.0
 40
10.0
 40
10.0
 40
11.0
 40
11.0
 40
11.0
 40
12.0
 40
12.0
 40
12.0
 40
13.0
 40
13.0
 40
13.0
 40
14.0
 40
14.0
 40
14.0
 40
15.0
 40
15.0
 40
15.0
 40
16.0
 40
16.0
 40
16.0
 40
17.0
 40
17.0
 40
17.0
 40
18.0
 40
18.0
 40
18.0
 40
19.0
 40
19.0
 40
19.0
 40
19.0
 10
111.5015489087566
 20
-134.1275580176834
 10
111.5015489087566
 20
-134.2295328440468
 10
111.4805338262965
 20
-134.4624212988497
 10
111.294498670093
 20
-134.5957464941289
 10
111.1821885572739
 20
-134.6746391807411
 10
111.0829698072987
 20
-134.6794623144204
 10
110.9982204583616
 20
-134.6839409385512
 10
110.9982204583616
 20
-134.6839409385512
 10
110.9982204583616
 20
-134.4486409169087
 10
110.9982204583616
 20
-134.4486409169087
 10
111.0722900112944
 20
-134.4465738596175
 10
111.3069010138399
 20
-134.4352050445162
 10
111.3069010138399
 20
-134.1320366418142
 10
111.3069010138399
 20
-133.9852755741426
 10
111.2373100850379
 20
-133.8223225576903
 10
111.0089002543658
 20
-133.8223225576903
 10
110.8924560269644
 20
-133.8223225576903
 10
110.8438801806224
 20
-133.8633191939647
 10
110.8121853021581
 20
-133.8970811297202
 10
110.7381157492252
 20
-133.9763183258809
 10
110.7253688959298
 20
-134.1006862728985
 10
110.7253688959298
 20
-134.1592528961477
 10
110.7253688959298
 20
-134.1795789595107
 10
110.7274359532209
 20
-134.2181640289455
 10
110.7315700678032
 20
-134.2474473405701
 10
110.7315700678032
 20
-134.2474473405701
 10
110.5369221728866
 20
-134.2474473405701
 10
110.5369221728866
 20
-134.2474473405701
 10
110.5434678543086
 20
-134.2067952138441
 10
110.5455349115997
 20
-134.1616644629874
 10
110.5455349115997
 20
-134.1547742720169
 10
110.5455349115997
 20
-134.0848388336663
 10
110.5241753195912
 20
-133.8722764422264
 10
110.2874972597545
 20
-133.8722764422264
 10
110.1097303327156
 20
-133.8722764422264
 10
110.0546088049516
 20
-134.012491828476
 10
110.0546088049516
 20
-134.1299695845231
 10
110.0546088049516
 20
-134.4124674143136
 10
110.2874972597545
 20
-134.4214246625752
 10
110.3591552458477
 20
-134.4262477962546
 10
110.3591552458477
 20
-134.4262477962546
 10
110.3591552458477
 20
-134.6432888118253
 10
110.3591552458477
 20
-134.6432888118253
 10
110.2344427892817
 20
-134.6339870540151
 10
109.8578938527439
 20
-134.6047037423905
 10
109.8578938527439
 20
-134.1165337121306
 10
109.8578938527439
 20
-133.8767550663572
 10
109.9850178761496
 20
-133.6190619240605
 10
110.2809515783325
 20
-133.6190619240605
 10
110.4673312440846
 20
-133.6190619240605
 10
110.549669026182
 20
-133.7206922408754
 10
110.6109917258195
 20
-133.8271456913696
 10
110.6385524897015
 20
-133.7613443676013
 10
110.7188232145078
 20
-133.5670409822332
 10
110.9961534010704
 20
-133.5670409822332
 10
111.3344617777219
 20
-133.5670409822332
 10
111.5015489087566
 20
-133.8316243155004
 10
111.5015489087566
 20
-134.1275580176834
 97
        0
 97
        0
 75
     2
 76
     1
 98
        0
  0
ENDBLK
  5
A4
330
A1
100
AcDbEntity
  8
0
100
AcDbBlockEnd
  0
BLOCK
  5
B1
330
AF
100
AcDbEntity
  8
0
100
AcDbBlockBegin
  2
block 7
 70
     0
 10
0.0
 20
0.0
 30
0.0
  3
block 7
  1

  0
SPLINE
  5
B3
330
AF
100
AcDbEntity
  8
_U+30EC_U+30A4_U+30E4_U+30FC 1
370
     0
100
AcDbSpline
210
0.0
220
0.0
230
1.0
 70
    11
 71
     3
 72
    32
 73
    28
 74
     0
 42
0.0000000001
 43
0.0000000001
 12
1.0
 22
0.0
 32
0.0
 13
1.0
 23
0.0
 33
0.0
 40
0.0
 40
0.0
 40
0.0
 40
0.0
 40
1.0
 40
1.0
 40
1.0
 40
2.0
 40
2.0
 40
2.0
 40
3.0
 40
3.0
 40
3.0
 40
4.0
 40
4.0
 40
4.0
 40
5.0
 40
5.0
 40
5.0
 40
6.0
 40
6.0
 40
6.0
 40
7.0
 40
7.0
 40
7.0
 40
8.0
 40
8.0
 40
8.0
 40
9.0
 40
9.0
 40
9.0
 40
9.0
 10
111.501204399208
 20
-130.2466579535495
 30
0.0
 10
111.501204399208
 20
-130.7985622502865
 30
0.0
 10
110.9472330451799
 20
-130.8075194985481
 30
0.0
 10
110.7332926155458
 20
-130.8075194985481
 30
0.0
 10
110.5028157275826
 20
-130.8075194985481
 30
0.0
 10
109.8554822859042
 20
-130.7871934351851
 30
0.0
 10
109.8554822859042
 20
-130.2060058268235
 30
0.0
 10
109.8554822859042
 20
-130.0206596897171
 30
0.0
 10
109.9254177242548
 20
-129.7584879232896
 30
0.0
 10
110.2575249290328
 20
-129.7178357965636
 30
0.0
 10
110.2575249290328
 20
-129.7178357965636
 30
0.0
 10
110.2575249290328
 20
-129.9462456272357
 30
0.0
 10
110.2575249290328
 20
-129.9462456272357
 30
0.0
 10
110.2003363439777
 20
-129.9572699327885
 30
0.0
 10
110.052197238112
 20
-129.9913763780924
 30
0.0
 10
110.052197238112
 20
-130.2084173936632
 30
0.0
 10
110.052197238112
 20
-130.5205430446268
 30
0.0
 10
110.3801703283077
 20
-130.5632622286439
 30
0.0
 10
110.5851535096801
 20
-130.5770426105849
 30
0.0
 10
110.5069498421649
 20
-130.4774793510612
 30
0.0
 10
110.4476941998186
 20
-130.405132345871
 30
0.0
 10
110.4476941998186
 20
-130.2108289605029
 30
0.0
 10
110.4476941998186
 20
-130.0185926324259
 30
0.0
 10
110.5558701980555
 20
-129.695098166361
 30
0.0
 10
110.9620469557664
 20
-129.695098166361
 30
0.0
 10
111.2814073072491
 20
-129.695098166361
 30
0.0
 10
111.501204399208
 20
-129.9076605578009
 30
0.0
 10
111.501204399208
 20
-130.2466579535495
 30
0.0
  0
SPLINE
  5
B4
330
AF
100
AcDbEntity
  8
_U+30EC_U+30A4_U+30E4_U+30FC 1
370
     0
100
AcDbSpline
210
0.0
220
0.0
230
1.0
 70
    11
 71
     3
 72
    17
 73
    13
 74
     0
 42
0.0000000001
 43
0.0000000001
 12
1.0
 22
0.0
 32
0.0
 13
1.0
 23
0.0
 33
0.0
 40
0.0
 40
0.0
 40
0.0
 40
0.0
 40
1.0
 40
1.0
 40
1.0
 40
2.0
 40
2.0
 40
2.0
 40
3.0
 40
3.0
 40
3.0
 40
4.0
 40
4.0
 40
4.0
 40
4.0
 10
110.6423420947353
 20
-130.2287434570262
 30
0.0
 10
110.6423420947353
 20
-130.5091742295255
 30
0.0
 10
110.8538709575296
 20
-130.5498263562514
 30
0.0
 10
110.970315184931
 20
-130.5498263562514
 30
0.0
 10
111.1460150546788
 20
-130.5498263562514
 30
0.0
 10
111.3089680711311
 20
-130.4481960394366
 30
0.0
 10
111.3089680711311
 20
-130.2514810872288
 30
0.0
 10
111.3089680711311
 20
-130.1226345160805
 30
0.0
 10
111.2497124287848
 20
-129.9348768121343
 30
0.0
 10
110.9641140130576
 20
-129.9348768121343
 30
0.0
 10
110.7398382969678
 20
-129.9348768121343
 30
0.0
 10
110.6423420947353
 20
-130.0840494466457
 30
0.0
 10
110.6423420947353
 20
-130.2287434570262
 30
0.0
  0
HATCH
  5
B5
330
AF
100
AcDbEntity
  8
_U+30EC_U+30A4_U+30E4_U+30FC 1
 62
     7
420
 16777215
100
AcDbHatch
 10
0.0
 20
0.0
 30
0.0
210
0.0
220
0.0
230
1.0
  2
SOLID
 70
     1
 71
     0
 91
        2
 92
        1
 93
        1
 72
     4
 94
        3
 73
     0
 74
     1
 95
       32
 96
       28
 40
0.0
 40
0.0
 40
0.0
 40
0.0
 40
1.0
 40
1.0
 40
1.0
 40
2.0
 40
2.0
 40
2.0
 40
3.0
 40
3.0
 40
3.0
 40
4.0
 40
4.0
 40
4.0
 40
5.0
 40
5.0
 40
5.0
 40
6.0
 40
6.0
 40
6.0
 40
7.0
 40
7.0
 40
7.0
 40
8.0
 40
8.0
 40
8.0
 40
9.0
 40
9.0
 40
9.0
 40
9.0
 10
111.501204399208
 20
-130.2466579535495
 10
111.501204399208
 20
-130.7985622502865
 10
110.9472330451799
 20
-130.8075194985481
 10
110.7332926155458
 20
-130.8075194985481
 10
110.5028157275826
 20
-130.8075194985481
 10
109.8554822859042
 20
-130.7871934351851
 10
109.8554822859042
 20
-130.2060058268235
 10
109.8554822859042
 20
-130.0206596897171
 10
109.9254177242548
 20
-129.7584879232896
 10
110.2575249290328
 20
-129.7178357965636
 10
110.2575249290328
 20
-129.7178357965636
 10
110.2575249290328
 20
-129.9462456272357
 10
110.2575249290328
 20
-129.9462456272357
 10
110.2003363439777
 20
-129.9572699327885
 10
110.052197238112
 20
-129.9913763780924
 10
110.052197238112
 20
-130.2084173936632
 10
110.052197238112
 20
-130.5205430446268
 10
110.3801703283077
 20
-130.5632622286439
 10
110.5851535096801
 20
-130.5770426105849
 10
110.5069498421649
 20
-130.4774793510612
 10
110.4476941998186
 20
-130.405132345871
 10
110.4476941998186
 20
-130.2108289605029
 10
110.4476941998186
 20
-130.0185926324259
 10
110.5558701980555
 20
-129.695098166361
 10
110.9620469557664
 20
-129.695098166361
 10
111.2814073072491
 20
-129.695098166361
 10
111.501204399208
 20
-129.9076605578009
 10
111.501204399208
 20
-130.2466579535495
 97
        0
 97
        0
 92
        1
 93
        1
 72
     4
 94
        3
 73
     0
 74
     1
 95
       17
 96
       13
 40
0.0
 40
0.0
 40
0.0
 40
0.0
 40
1.0
 40
1.0
 40
1.0
 40
2.0
 40
2.0
 40
2.0
 40
3.0
 40
3.0
 40
3.0
 40
4.0
 40
4.0
 40
4.0
 40
4.0
 10
110.6423420947353
 20
-130.2287434570262
 10
110.6423420947353
 20
-130.5091742295255
 10
110.8538709575296
 20
-130.5498263562514
 10
110.970315184931
 20
-130.5498263562514
 10
111.1460150546788
 20
-130.5498263562514
 10
111.3089680711311
 20
-130.4481960394366
 10
111.3089680711311
 20
-130.2514810872288
 10
111.3089680711311
 20
-130.1226345160805
 10
111.2497124287848
 20
-129.9348768121343
 10
110.9641140130576
 20
-129.9348768121343
 10
110.7398382969678
 20
-129.9348768121343
 10
110.6423420947353
 20
-130.0840494466457
 10
110.6423420947353
 20
-130.2287434570262
 97
        0
 97
        0
 75
     2
 76
     1
 98
        0
  0
POLYLINE
  5
B6
330
AF
100
AcDbEntity
  8
_U+30EC_U+30A4_U+30E4_U+30FC 1
370
     0
100
AcDb2dPolyline
 66
     1
 10
0.0
 20
0.0
 30
0.0
  0
VERTEX
  5
B7
330
B6
100
AcDbEntity
  8
_U+30EC_U+30A4_U+30E4_U+30FC 1
370
     0
100
AcDbVertex
100
AcDb2dVertex
 10
111.4505614955749
 20
-129.4639322593007
 30
0.0
  0
VERTEX
  5
B8
330
B6
100
AcDbEntity
  8
_U+30EC_U+30A4_U+30E4_U+30FC 1
370
     0
100
AcDbVertex
100
AcDb2dVertex
 10
111.1987250156031
 20
-129.4639322593007
 30
0.0
  0
VERTEX
  5
B9
330
B6
100
AcDbEntity
  8
_U+30EC_U+30A4_U+30E4_U+30FC 1
370
     0
100
AcDbVertex
100
AcDb2dVertex
 10
111.1987250156031
 20
-129.1948703019027
 30
0.0
  0
VERTEX
  5
BA
330
B6
100
AcDbEntity
  8
_U+30EC_U+30A4_U+30E4_U+30FC 1
370
     0
100
AcDbVertex
100
AcDb2dVertex
 10
111.4505614955749
 20
-129.1948703019027
 30
0.0
  0
VERTEX
  5
BB
330
B6
100
AcDbEntity
  8
_U+30EC_U+30A4_U+30E4_U+30FC 1
370
     0
100
AcDbVertex
100
AcDb2dVertex
 10
111.4505614955749
 20
-129.4639322593007
 30
0.0
  0
SEQEND
  5
BC
330
B6
100
AcDbEntity
  8
_U+30EC_U+30A4_U+30E4_U+30FC 1
370
     0
  0
HATCH
  5
BD
330
AF
100
AcDbEntity
  8
_U+30EC_U+30A4_U+30E4_U+30FC 1
 62
     7
420
 16777215
100
AcDbHatch
 10
0.0
 20
0.0
 30
0.0
210
0.0
220
0.0
230
1.0
  2
SOLID
 70
     1
 71
     0
 91
        1
 92
        1
 93
        4
 72
     1
 10
111.4505614955749
 20
-129.4639322593007
 11
111.1987250156031
 21
-129.4639322593007
 72
     1
 10
111.1987250156031
 20
-129.4639322593007
 11
111.1987250156031
 21
-129.1948703019027
 72
     1
 10
111.1987250156031
 20
-129.1948703019027
 11
111.4505614955749
 21
-129.1948703019027
 72
     1
 10
111.4505614955749
 20
-129.1948703019027
 11
111.4505614955749
 21
-129.4639322593007
 97
        0
 75
     2
 76
     1
 98
        0
  0
SPLINE
  5
BE
330
AF
100
AcDbEntity
  8
_U+30EC_U+30A4_U+30E4_U+30FC 1
370
     0
100
AcDbSpline
210
0.0
220
0.0
230
1.0
 70
    11
 71
     3
 72
    62
 73
    58
 74
     0
 42
0.0000000001
 43
0.0000000001
 12
1.0
 22
0.0
 32
0.0
 13
1.0
 23
0.0
 33
0.0
 40
0.0
 40
0.0
 40
0.0
 40
0.0
 40
1.0
 40
1.0
 40
1.0
 40
2.0
 40
2.0
 40
2.0
 40
3.0
 40
3.0
 40
3.0
 40
4.0
 40
4.0
 40
4.0
 40
5.0
 40
5.0
 40
5.0
 40
6.0
 40
6.0
 40
6.0
 40
7.0
 40
7.0
 40
7.0
 40
8.0
 40
8.0
 40
8.0
 40
9.0
 40
9.0
 40
9.0
 40
10.0
 40
10.0
 40
10.0
 40
11.0
 40
11.0
 40
11.0
 40
12.0
 40
12.0
 40
12.0
 40
13.0
 40
13.0
 40
13.0
 40
14.0
 40
14.0
 40
14.0
 40
15.0
 40
15.0
 40
15.0
 40
16.0
 40
16.0
 40
16.0
 40
17.0
 40
17.0
 40
17.0
 40
18.0
 40
18.0
 40
18.0
 40
19.0
 40
19.0
 40
19.0
 40
19.0
 10
111.501204399208
 20
-128.4166232317847
 30
0.0
 10
111.501204399208
 20
-128.5182535485996
 30
0.0
 10
111.480189316748
 20
-128.7511420034025
 30
0.0
 10
111.2941541605445
 20
-128.8844671986817
 30
0.0
 10
111.1818440477254
 20
-128.9637043948424
 30
0.0
 10
111.0826252977502
 20
-128.9681830189732
 30
0.0
 10
110.997875948813
 20
-128.9726616431041
 30
0.0
 10
110.997875948813
 20
-128.9726616431041
 30
0.0
 10
110.997875948813
 20
-128.73770613101
 30
0.0
 10
110.997875948813
 20
-128.73770613101
 30
0.0
 10
111.0719455017459
 20
-128.7352945641703
 30
0.0
 10
111.3065565042914
 20
-128.723925749069
 30
0.0
 10
111.3065565042914
 20
-128.4211018559156
 30
0.0
 10
111.3065565042914
 20
-128.2739962786954
 30
0.0
 10
111.2369655754894
 20
-128.1113877717916
 30
0.0
 10
111.0085557448173
 20
-128.1113877717916
 30
0.0
 10
110.8921115174159
 20
-128.1113877717916
 30
0.0
 10
110.8435356710738
 20
-128.1520398985176
 30
0.0
 10
110.8118407926095
 20
-128.185801834273
 30
0.0
 10
110.7377712396767
 20
-128.2650390304337
 30
0.0
 10
110.7250243863812
 20
-128.3894069774513
 30
0.0
 10
110.7250243863812
 20
-128.448318110249
 30
0.0
 10
110.7250243863812
 20
-128.468644173612
 30
0.0
 10
110.7270914436724
 20
-128.5068847334983
 30
0.0
 10
110.7312255582547
 20
-128.5365125546714
 30
0.0
 10
110.7312255582547
 20
-128.5365125546714
 30
0.0
 10
110.5365776633381
 20
-128.5365125546714
 30
0.0
 10
110.5365776633381
 20
-128.5365125546714
 30
0.0
 10
110.5431233447601
 20
-128.4958604279455
 30
0.0
 10
110.5451904020512
 20
-128.4503851675402
 30
0.0
 10
110.5451904020512
 20
-128.4438394861182
 30
0.0
 10
110.5451904020512
 20
-128.3735595382191
 30
0.0
 10
110.5238308100427
 20
-128.1609971467792
 30
0.0
 10
110.287152750206
 20
-128.1609971467792
 30
0.0
 10
110.1093858231671
 20
-128.1609971467792
 30
0.0
 10
110.0542642954031
 20
-128.3012125330289
 30
0.0
 10
110.0542642954031
 20
-128.4186902890759
 30
0.0
 10
110.0542642954031
 20
-128.7015326284149
 30
0.0
 10
110.287152750206
 20
-128.7104898766765
 30
0.0
 10
110.3588107362992
 20
-128.7149685008074
 30
0.0
 10
110.3588107362992
 20
-128.7149685008074
 30
0.0
 10
110.3588107362992
 20
-128.9320095163781
 30
0.0
 10
110.3588107362992
 20
-128.9320095163781
 30
0.0
 10
110.2340982797331
 20
-128.9230522681165
 30
0.0
 10
109.8575493431953
 20
-128.8937689564918
 30
0.0
 10
109.8575493431953
 20
-128.4052544166834
 30
0.0
 10
109.8575493431953
 20
-128.16547577091
 30
0.0
 10
109.9846733666011
 20
-127.9077826286133
 30
0.0
 10
110.280607068784
 20
-127.9077826286133
 30
0.0
 10
110.466986734536
 20
-127.9077826286133
 30
0.0
 10
110.5493245166335
 20
-128.0097574549767
 30
0.0
 10
110.6106472162709
 20
-128.1158663959224
 30
0.0
 10
110.638207980153
 20
-128.0504095817027
 30
0.0
 10
110.7184787049593
 20
-127.8557616867861
 30
0.0
 10
110.9958088915219
 20
-127.8557616867861
 30
0.0
 10
111.3341172681734
 20
-127.8557616867861
 30
0.0
 10
111.501204399208
 20
-128.1203450200533
 30
0.0
 10
111.501204399208
 20
-128.4166232317847
 30
0.0
  0
HATCH
  5
BF
330
AF
100
AcDbEntity
  8
_U+30EC_U+30A4_U+30E4_U+30FC 1
 62
     7
420
 16777215
100
AcDbHatch
 10
0.0
 20
0.0
 30
0.0
210
0.0
220
0.0
230
1.0
  2
SOLID
 70
     1
 71
     0
 91
        1
 92
        1
 93
        1
 72
     4
 94
        3
 73
     0
 74
     1
 95
       62
 96
       58
 40
0.0
 40
0.0
 40
0.0
 40
0.0
 40
1.0
 40
1.0
 40
1.0
 40
2.0
 40
2.0
 40
2.0
 40
3.0
 40
3.0
 40
3.0
 40
4.0
 40
4.0
 40
4.0
 40
5.0
 40
5.0
 40
5.0
 40
6.0
 40
6.0
 40
6.0
 40
7.0
 40
7.0
 40
7.0
 40
8.0
 40
8.0
 40
8.0
 40
9.0
 40
9.0
 40
9.0
 40
10.0
 40
10.0
 40
10.0
 40
11.0
 40
11.0
 40
11.0
 40
12.0
 40
12.0
 40
12.0
 40
13.0
 40
13.0
 40
13.0
 40
14.0
 40
14.0
 40
14.0
 40
15.0
 40
15.0
 40
15.0
 40
16.0
 40
16.0
 40
16.0
 40
17.0
 40
17.0
 40
17.0
 40
18.0
 40
18.0
 40
18.0
 40
19.0
 40
19.0
 40
19.0
 40
19.0
 10
111.501204399208
 20
-128.4166232317847
 10
111.501204399208
 20
-128.5182535485996
 10
111.480189316748
 20
-128.7511420034025
 10
111.2941541605445
 20
-128.8844671986817
 10
111.1818440477254
 20
-128.9637043948424
 10
111.0826252977502
 20
-128.9681830189732
 10
110.997875948813
 20
-128.9726616431041
 10
110.997875948813
 20
-128.9726616431041
 10
110.997875948813
 20
-128.73770613101
 10
110.997875948813
 20
-128.73770613101
 10
111.0719455017459
 20
-128.7352945641703
 10
111.3065565042914
 20
-128.723925749069
 10
111.3065565042914
 20
-128.4211018559156
 10
111.3065565042914
 20
-128.2739962786954
 10
111.2369655754894
 20
-128.1113877717916
 10
111.0085557448173
 20
-128.1113877717916
 10
110.8921115174159
 20
-128.1113877717916
 10
110.8435356710738
 20
-128.1520398985176
 10
110.8118407926095
 20
-128.185801834273
 10
110.7377712396767
 20
-128.2650390304337
 10
110.7250243863812
 20
-128.3894069774513
 10
110.7250243863812
 20
-128.448318110249
 10
110.7250243863812
 20
-128.468644173612
 10
110.7270914436724
 20
-128.5068847334983
 10
110.7312255582547
 20
-128.5365125546714
 10
110.7312255582547
 20
-128.5365125546714
 10
110.5365776633381
 20
-128.5365125546714
 10
110.5365776633381
 20
-128.5365125546714
 10
110.5431233447601
 20
-128.4958604279455
 10
110.5451904020512
 20
-128.4503851675402
 10
110.5451904020512
 20
-128.4438394861182
 10
110.5451904020512
 20
-128.3735595382191
 10
110.5238308100427
 20
-128.1609971467792
 10
110.287152750206
 20
-128.1609971467792
 10
110.1093858231671
 20
-128.1609971467792
 10
110.0542642954031
 20
-128.3012125330289
 10
110.0542642954031
 20
-128.4186902890759
 10
110.0542642954031
 20
-128.7015326284149
 10
110.287152750206
 20
-128.7104898766765
 10
110.3588107362992
 20
-128.7149685008074
 10
110.3588107362992
 20
-128.7149685008074
 10
110.3588107362992
 20
-128.9320095163781
 10
110.3588107362992
 20
-128.9320095163781
 10
110.2340982797331
 20
-128.9230522681165
 10
109.8575493431953
 20
-128.8937689564918
 10
109.8575493431953
 20
-128.4052544166834
 10
109.8575493431953
 20
-128.16547577091
 10
109.9846733666011
 20
-127.9077826286133
 10
110.280607068784
 20
-127.9077826286133
 10
110.466986734536
 20
-127.9077826286133
 10
110.5493245166335
 20
-128.0097574549767
 10
110.6106472162709
 20
-128.1158663959224
 10
110.638207980153
 20
-128.0504095817027
 10
110.7184787049593
 20
-127.8557616867861
 10
110.9958088915219
 20
-127.8557616867861
 10
111.3341172681734
 20
-127.8557616867861
 10
111.501204399208
 20
-128.1203450200533
 10
111.501204399208
 20
-128.4166232317847
 97
        0
 97
        0
 75
     2
 76
     1
 98
        0
  0
ENDBLK
  5
B2
330
AF
100
AcDbEntity
  8
0
100
AcDbBlockEnd
  0
BLOCK
  5
D0
330
CE
100
AcDbEntity
  8
0
100
AcDbBlockBegin
  2
block 8
 70
     0
 10
0.0
 20
0.0
 30
0.0
  3
block 8
  1

  0
SPLINE
  5
D2
330
CE
100
AcDbEntity
  8
_U+30EC_U+30A4_U+30E4_U+30FC 1
370
     0
100
AcDbSpline
210
0.0
220
0.0
230
1.0
 70
    11
 71
     3
 72
    44
 73
    40
 74
     0
 42
0.0000000001
 43
0.0000000001
 12
1.0
 22
0.0
 32
0.0
 13
1.0
 23
0.0
 33
0.0
 40
0.0
 40
0.0
 40
0.0
 40
0.0
 40
1.0
 40
1.0
 40
1.0
 40
2.0
 40
2.0
 40
2.0
 40
3.0
 40
3.0
 40
3.0
 40
4.0
 40
4.0
 40
4.0
 40
5.0
 40
5.0
 40
5.0
 40
6.0
 40
6.0
 40
6.0
 40
7.0
 40
7.0
 40
7.0
 40
8.0
 40
8.0
 40
8.0
 40
9.0
 40
9.0
 40
9.0
 40
10.0
 40
10.0
 40
10.0
 40
11.0
 40
11.0
 40
11.0
 40
12.0
 40
12.0
 40
12.0
 40
13.0
 40
13.0
 40
13.0
 40
13.0
 10
70.46856687691411
 20
-126.2053886945771
 30
0.0
 10
70.62721352400986
 20
-126.43827714938
 30
0.0
 10
70.70128307694274
 20
-126.5376681541295
 30
0.0
 10
70.84511581345191
 20
-126.5896890959568
 30
0.0
 10
70.84511581345191
 20
-126.5896890959568
 30
0.0
 10
70.84511581345191
 20
-125.7576985362689
 30
0.0
 10
70.84511581345191
 20
-125.7576985362689
 30
0.0
 10
70.84511581345191
 20
-125.7576985362689
 30
0.0
 10
71.05027124959855
 20
-125.7576985362689
 30
0.0
 10
71.05027124959855
 20
-125.7576985362689
 30
0.0
 10
71.05027124959855
 20
-125.7576985362689
 30
0.0
 10
71.05027124959855
 20
-126.8565117412894
 30
0.0
 10
71.05027124959855
 20
-126.8565117412894
 30
0.0
 10
70.69267033822962
 20
-126.8225775507596
 30
0.0
 10
70.61446667071444
 20
-126.7524698576348
 30
0.0
 10
70.3161214016918
 20
-126.3409532019217
 30
0.0
 10
70.11733939219289
 20
-126.0674126203929
 30
0.0
 10
70.04964326590773
 20
-125.997304927268
 30
0.0
 10
69.91218395604626
 20
-125.997304927268
 30
0.0
 10
69.79367267135366
 20
-125.997304927268
 30
0.0
 10
69.66258678813992
 20
-126.0741305565891
 30
0.0
 10
69.66258678813992
 20
-126.2844536359636
 30
0.0
 10
69.66258678813992
 20
-126.5624728416233
 30
0.0
 10
69.89306367610313
 20
-126.5716023446592
 30
0.0
 10
70.00950790350457
 20
-126.57608096879
 30
0.0
 10
70.00950790350457
 20
-126.57608096879
 30
0.0
 10
70.00950790350457
 20
-126.8156873597891
 30
0.0
 10
70.00950790350457
 20
-126.8156873597891
 30
0.0
 10
69.88255613487311
 20
-126.8067301115275
 30
0.0
 10
69.77041827682824
 20
-126.7953612964262
 30
0.0
 10
69.65190699213564
 20
-126.7095784188434
 30
0.0
 10
69.49119328774873
 20
-126.5919284080222
 30
0.0
 10
69.45725909721902
 20
-126.392974143749
 30
0.0
 10
69.45725909721902
 20
-126.2686061967315
 30
0.0
 10
69.45725909721902
 20
-125.9725002397742
 30
0.0
 10
69.64139945090562
 20
-125.7509806000727
 30
0.0
 10
69.9142510133374
 20
-125.7509806000727
 30
0.0
 10
70.14266084400948
 20
-125.7509806000727
 30
0.0
 10
70.2422241035332
 20
-125.8751762923159
 30
0.0
 10
70.46856687691411
 20
-126.2053886945771
 30
0.0
  0
HATCH
  5
D3
330
CE
100
AcDbEntity
  8
_U+30EC_U+30A4_U+30E4_U+30FC 1
 62
     7
420
 16777215
100
AcDbHatch
 10
0.0
 20
0.0
 30
0.0
210
0.0
220
0.0
230
1.0
  2
SOLID
 70
     1
 71
     0
 91
        1
 92
        1
 93
        1
 72
     4
 94
        3
 73
     0
 74
     1
 95
       44
 96
       40
 40
0.0
 40
0.0
 40
0.0
 40
0.0
 40
1.0
 40
1.0
 40
1.0
 40
2.0
 40
2.0
 40
2.0
 40
3.0
 40
3.0
 40
3.0
 40
4.0
 40
4.0
 40
4.0
 40
5.0
 40
5.0
 40
5.0
 40
6.0
 40
6.0
 40
6.0
 40
7.0
 40
7.0
 40
7.0
 40
8.0
 40
8.0
 40
8.0
 40
9.0
 40
9.0
 40
9.0
 40
10.0
 40
10.0
 40
10.0
 40
11.0
 40
11.0
 40
11.0
 40
12.0
 40
12.0
 40
12.0
 40
13.0
 40
13.0
 40
13.0
 40
13.0
 10
70.46856687691411
 20
-126.2053886945771
 10
70.62721352400986
 20
-126.43827714938
 10
70.70128307694274
 20
-126.5376681541295
 10
70.84511581345191
 20
-126.5896890959568
 10
70.84511581345191
 20
-126.5896890959568
 10
70.84511581345191
 20
-125.7576985362689
 10
70.84511581345191
 20
-125.7576985362689
 10
70.84511581345191
 20
-125.7576985362689
 10
71.05027124959855
 20
-125.7576985362689
 10
71.05027124959855
 20
-125.7576985362689
 10
71.05027124959855
 20
-125.7576985362689
 10
71.05027124959855
 20
-126.8565117412894
 10
71.05027124959855
 20
-126.8565117412894
 10
70.69267033822962
 20
-126.8225775507596
 10
70.61446667071444
 20
-126.7524698576348
 10
70.3161214016918
 20
-126.3409532019217
 10
70.11733939219289
 20
-126.0674126203929
 10
70.04964326590773
 20
-125.997304927268
 10
69.91218395604626
 20
-125.997304927268
 10
69.79367267135366
 20
-125.997304927268
 10
69.66258678813992
 20
-126.0741305565891
 10
69.66258678813992
 20
-126.2844536359636
 10
69.66258678813992
 20
-126.5624728416233
 10
69.89306367610313
 20
-126.5716023446592
 10
70.00950790350457
 20
-126.57608096879
 10
70.00950790350457
 20
-126.57608096879
 10
70.00950790350457
 20
-126.8156873597891
 10
70.00950790350457
 20
-126.8156873597891
 10
69.88255613487311
 20
-126.8067301115275
 10
69.77041827682824
 20
-126.7953612964262
 10
69.65190699213564
 20
-126.7095784188434
 10
69.49119328774873
 20
-126.5919284080222
 10
69.45725909721902
 20
-126.392974143749
 10
69.45725909721902
 20
-126.2686061967315
 10
69.45725909721902
 20
-125.9725002397742
 10
69.64139945090562
 20
-125.7509806000727
 10
69.9142510133374
 20
-125.7509806000727
 10
70.14266084400948
 20
-125.7509806000727
 10
70.2422241035332
 20
-125.8751762923159
 10
70.46856687691411
 20
-126.2053886945771
 97
        0
 97
        0
 75
     2
 76
     1
 98
        0
  0
ENDBLK
  5
D1
330
CE
100
AcDbEntity
  8
0
100
AcDbBlockEnd
  0
ENDSEC
  0
SECTION
  2
ENTITIES
  0
SPLINE
  5
41
330
1F
100
AcDbEntity
  8
_U+30EC_U+30A4_U+30E4_U+30FC 1
 62
     7
420
 16777215
370
     9
100
AcDbSpline
210
0.0
220
0.0
230
1.0
 70
    11
 71
     3
 72
    17
 73
    13
 74
     0
 42
0.0000000001
 43
0.0000000001
 12
1.0
 22
0.0
 32
0.0
 13
1.0
 23
0.0
 33
0.0
 40
0.0
 40
0.0
 40
0.0
 40
0.0
 40
1.0
 40
1.0
 40
1.0
 40
2.0
 40
2.0
 40
2.0
 40
3.0
 40
3.0
 40
3.0
 40
4.0
 40
4.0
 40
4.0
 40
4.0
 10
108.1863230732703
 20
-119.5689124701076
 30
0.0
 10
108.1863230732703
 20
-119.5138085812327
 30
0.0
 10
108.1415583062978
 20
-119.469005803466
 30
0.0
 10
108.0864164091524
 20
-119.469005803466
 30
0.0
 10
108.0313125216694
 20
-119.469005803466
 30
0.0
 10
107.9865097450346
 20
-119.5138085812327
 30
0.0
 10
107.9865097450346
 20
-119.5689124701076
 30
0.0
 10
107.9865097450346
 20
-119.6240516367607
 30
0.0
 10
108.0313125216694
 20
-119.6688544145271
 30
0.0
 10
108.0864164091524
 20
-119.6688544145271
 30
0.0
 10
108.1415583062978
 20
-119.6688544145271
 30
0.0
 10
108.1863230732703
 20
-119.6240516367607
 30
0.0
 10
108.1863230732703
 20
-119.5689124701076
 30
0.0
  0
SPLINE
  5
42
330
1F
100
AcDbEntity
  8
_U+30EC_U+30A4_U+30E4_U+30FC 1
 62
     7
420
 16777215
370
     9
100
AcDbSpline
210
0.0
220
0.0
230
1.0
 70
    11
 71
     3
 72
    17
 73
    13
 74
     0
 42
0.0000000001
 43
0.0000000001
 12
1.0
 22
0.0
 32
0.0
 13
1.0
 23
0.0
 33
0.0
 40
0.0
 40
0.0
 40
0.0
 40
0.0
 40
1.0
 40
1.0
 40
1.0
 40
2.0
 40
2.0
 40
2.0
 40
3.0
 40
3.0
 40
3.0
 40
4.0
 40
4.0
 40
4.0
 40
4.0
 10
76.18691000075444
 20
-119.5689124701076
 30
0.0
 10
76.18691000075444
 20
-119.5138085812327
 30
0.0
 10
76.14210722411967
 20
-119.469005803466
 30
0.0
 10
76.0870033366366
 20
-119.469005803466
 30
0.0
 10
76.03168778249227
 20
-119.469005803466
 30
0.0
 10
75.9869222032254
 20
-119.5138085812327
 30
0.0
 10
75.9869222032254
 20
-119.5689124701076
 30
0.0
 10
75.9869222032254
 20
-119.6240516367607
 30
0.0
 10
76.03168778249227
 20
-119.6688544145271
 30
0.0
 10
76.0870033366366
 20
-119.6688544145271
 30
0.0
 10
76.14210722411967
 20
-119.6688544145271
 30
0.0
 10
76.18691000075444
 20
-119.6240516367607
 30
0.0
 10
76.18691000075444
 20
-119.5689124701076
 30
0.0
  0
POLYLINE
  5
43
330
1F
100
AcDbEntity
  8
_U+30EC_U+30A4_U+30E4_U+30FC 1
 62
     7
420
 16777215
370
     9
100
AcDb2dPolyline
 66
     1
 10
0.0
 20
0.0
 30
0.0
  0
VERTEX
  5
44
330
43
100
AcDbEntity
  8
_U+30EC_U+30A4_U+30E4_U+30FC 1
 62
     7
420
 16777215
370
     9
100
AcDbVertex
100
AcDb2dVertex
 10
76.0870033366366
 20
-119.5689124701076
 30
0.0
  0
VERTEX
  5
45
330
43
100
AcDbEntity
  8
_U+30EC_U+30A4_U+30E4_U+30FC 1
 62
     7
420
 16777215
370
     9
100
AcDbVertex
100
AcDb2dVertex
 10
108.0864164091524
 20
-119.5689124701076
 30
0.0
  0
SEQEND
  5
46
330
43
100
AcDbEntity
  8
_U+30EC_U+30A4_U+30E4_U+30FC 1
 62
     7
420
 16777215
370
     9
  0
POLYLINE
  5
47
330
1F
100
AcDbEntity
  8
_U+30EC_U+30A4_U+30E4_U+30FC 1
 62
     7
420
 16777215
370
     9
100
AcDb2dPolyline
 66
     1
 10
0.0
 20
0.0
 30
0.0
  0
VERTEX
  5
48
330
47
100
AcDbEntity
  8
_U+30EC_U+30A4_U+30E4_U+30FC 1
 62
     7
420
 16777215
370
     9
100
AcDbVertex
100
AcDb2dVertex
 10
76.0870033366366
 20
-122.729131080429
 30
0.0
  0
VERTEX
  5
49
330
47
100
AcDbEntity
  8
_U+30EC_U+30A4_U+30E4_U+30FC 1
 62
     7
420
 16777215
370
     9
100
AcDbVertex
100
AcDb2dVertex
 10
76.0870033366366
 20
-118.5691755259133
 30
0.0
  0
SEQEND
  5
4A
330
47
100
AcDbEntity
  8
_U+30EC_U+30A4_U+30E4_U+30FC 1
 62
     7
420
 16777215
370
     9
  0
POLYLINE
  5
4B
330
1F
100
AcDbEntity
  8
_U+30EC_U+30A4_U+30E4_U+30FC 1
 62
     7
420
 16777215
370
     9
100
AcDb2dPolyline
 66
     1
 10
0.0
 20
0.0
 30
0.0
  0
VERTEX
  5
4C
330
4B
100
AcDbEntity
  8
_U+30EC_U+30A4_U+30E4_U+30FC 1
 62
     7
420
 16777215
370
     9
100
AcDbVertex
100
AcDb2dVertex
 10
108.0864164091524
 20
-122.729131080429
 30
0.0
  0
VERTEX
  5
4D
330
4B
100
AcDbEntity
  8
_U+30EC_U+30A4_U+30E4_U+30FC 1
 62
     7
420
 16777215
370
     9
100
AcDbVertex
100
AcDb2dVertex
 10
108.0864164091524
 20
-118.5691755259133
 30
0.0
  0
SEQEND
  5
4E
330
4B
100
AcDbEntity
  8
_U+30EC_U+30A4_U+30E4_U+30FC 1
 62
     7
420
 16777215
370
     9
  0
INSERT
  5
50
330
1F
100
AcDbEntity
  8
_U+30EC_U+30A4_U+30E4_U+30FC 1
100
AcDbBlockReference
  2
block 2
 10
0.0
 20
0.0
 30
0.0
  0
SPLINE
  5
57
330
1F
100
AcDbEntity
  8
_U+30EC_U+30A4_U+30E4_U+30FC 1
 62
     7
420
 16777215
370
     9
100
AcDbSpline
210
0.0
220
0.0
230
1.0
 70
    11
 71
     3
 72
    17
 73
    13
 74
     0
 42
0.0000000001
 43
0.0000000001
 12
1.0
 22
0.0
 32
0.0
 13
1.0
 23
0.0
 33
0.0
 40
0.0
 40
0.0
 40
0.0
 40
0.0
 40
1.0
 40
1.0
 40
1.0
 40
2.0
 40
2.0
 40
2.0
 40
3.0
 40
3.0
 40
3.0
 40
4.0
 40
4.0
 40
4.0
 40
4.0
 10
98.18659027282916
 20
-139.3234449651692
 30
0.0
 10
98.18659027282916
 20
-139.2683410762943
 30
0.0
 10
98.14182277397128
 20
-139.2235382985275
 30
0.0
 10
98.08668608658918
 20
-139.2235382985275
 30
0.0
 10
98.03157972122827
 20
-139.2235382985275
 30
0.0
 10
97.9867769445935
 20
-139.2683410762943
 30
0.0
 10
97.9867769445935
 20
-139.3234449651692
 30
0.0
 10
97.9867769445935
 20
-139.3785841318223
 30
0.0
 10
98.03157972122827
 20
-139.4233516318108
 30
0.0
 10
98.08668608658918
 20
-139.4233516318108
 30
0.0
 10
98.14182277397128
 20
-139.4233516318108
 30
0.0
 10
98.18659027282916
 20
-139.3785841318223
 30
0.0
 10
98.18659027282916
 20
-139.3234449651692
 30
0.0
  0
SPLINE
  5
58
330
1F
100
AcDbEntity
  8
_U+30EC_U+30A4_U+30E4_U+30FC 1
 62
     7
420
 16777215
370
     9
100
AcDbSpline
210
0.0
220
0.0
230
1.0
 70
    11
 71
     3
 72
    17
 73
    13
 74
     0
 42
0.0000000001
 43
0.0000000001
 12
1.0
 22
0.0
 32
0.0
 13
1.0
 23
0.0
 33
0.0
 40
0.0
 40
0.0
 40
0.0
 40
0.0
 40
1.0
 40
1.0
 40
1.0
 40
2.0
 40
2.0
 40
2.0
 40
3.0
 40
3.0
 40
3.0
 40
4.0
 40
4.0
 40
4.0
 40
4.0
 10
88.18636358351176
 20
-139.3234449651692
 30
0.0
 10
88.18636358351176
 20
-139.2683410762943
 30
0.0
 10
88.14191358464578
 20
-139.2235382985275
 30
0.0
 10
88.08642164161705
 20
-139.2235382985275
 30
0.0
 10
88.0309649763652
 20
-139.2235382985275
 30
0.0
 10
87.98619747750732
 20
-139.2683410762943
 30
0.0
 10
87.98619747750732
 20
-139.3234449651692
 30
0.0
 10
87.98619747750732
 20
-139.3785841318223
 30
0.0
 10
88.0309649763652
 20
-139.4233516318108
 30
0.0
 10
88.08642164161705
 20
-139.4233516318108
 30
0.0
 10
88.14191358464578
 20
-139.4233516318108
 30
0.0
 10
88.18636358351176
 20
-139.3785841318223
 30
0.0
 10
88.18636358351176
 20
-139.3234449651692
 30
0.0
  0
SPLINE
  5
59
330
1F
100
AcDbEntity
  8
_U+30EC_U+30A4_U+30E4_U+30FC 1
 62
     7
420
 16777215
370
     9
100
AcDbSpline
210
0.0
220
0.0
230
1.0
 70
    11
 71
     3
 72
    17
 73
    13
 74
     0
 42
0.0000000001
 43
0.0000000001
 12
1.0
 22
0.0
 32
0.0
 13
1.0
 23
0.0
 33
0.0
 40
0.0
 40
0.0
 40
0.0
 40
0.0
 40
1.0
 40
1.0
 40
1.0
 40
2.0
 40
2.0
 40
2.0
 40
3.0
 40
3.0
 40
3.0
 40
4.0
 40
4.0
 40
4.0
 40
4.0
 10
76.18638083410127
 20
-139.3234449651692
 30
0.0
 10
76.18638083410127
 20
-139.2683410762943
 30
0.0
 10
76.14161333524339
 20
-139.2235382985275
 30
0.0
 10
76.08647416998343
 20
-139.2235382985275
 30
0.0
 10
76.03119389361598
 20
-139.2235382985275
 30
0.0
 10
75.98639111698121
 20
-139.2683410762943
 30
0.0
 10
75.98639111698121
 20
-139.3234449651692
 30
0.0
 10
75.98639111698121
 20
-139.3785841318223
 30
0.0
 10
76.03119389361598
 20
-139.4233516318108
 30
0.0
 10
76.08647416998343
 20
-139.4233516318108
 30
0.0
 10
76.14161333524339
 20
-139.4233516318108
 30
0.0
 10
76.18638083410127
 20
-139.3785841318223
 30
0.0
 10
76.18638083410127
 20
-139.3234449651692
 30
0.0
  0
POLYLINE
  5
5A
330
1F
100
AcDbEntity
  8
_U+30EC_U+30A4_U+30E4_U+30FC 1
 62
     7
420
 16777215
370
     9
100
AcDb2dPolyline
 66
     1
 10
0.0
 20
0.0
 30
0.0
  0
VERTEX
  5
5B
330
5A
100
AcDbEntity
  8
_U+30EC_U+30A4_U+30E4_U+30FC 1
 62
     7
420
 16777215
370
     9
100
AcDbVertex
100
AcDb2dVertex
 10
88.08642164161705
 20
-139.3234449651692
 30
0.0
  0
VERTEX
  5
5C
330
5A
100
AcDbEntity
  8
_U+30EC_U+30A4_U+30E4_U+30FC 1
 62
     7
420
 16777215
370
     9
100
AcDbVertex
100
AcDb2dVertex
 10
98.08668608658918
 20
-139.3234449651692
 30
0.0
  0
SEQEND
  5
5D
330
5A
100
AcDbEntity
  8
_U+30EC_U+30A4_U+30E4_U+30FC 1
 62
     7
420
 16777215
370
     9
  0
POLYLINE
  5
5E
330
1F
100
AcDbEntity
  8
_U+30EC_U+30A4_U+30E4_U+30FC 1
 62
     7
420
 16777215
370
     9
100
AcDb2dPolyline
 66
     1
 10
0.0
 20
0.0
 30
0.0
  0
VERTEX
  5
5F
330
5E
100
AcDbEntity
  8
_U+30EC_U+30A4_U+30E4_U+30FC 1
 62
     7
420
 16777215
370
     9
100
AcDbVertex
100
AcDb2dVertex
 10
88.08642164161705
 20
-137.8634035766455
 30
0.0
  0
VERTEX
  5
60
330
5E
100
AcDbEntity
  8
_U+30EC_U+30A4_U+30E4_U+30FC 1
 62
     7
420
 16777215
370
     9
100
AcDbVertex
100
AcDb2dVertex
 10
88.08642164161705
 20
-140.3232171871417
 30
0.0
  0
SEQEND
  5
61
330
5E
100
AcDbEntity
  8
_U+30EC_U+30A4_U+30E4_U+30FC 1
 62
     7
420
 16777215
370
     9
  0
POLYLINE
  5
62
330
1F
100
AcDbEntity
  8
_U+30EC_U+30A4_U+30E4_U+30FC 1
 62
     7
420
 16777215
370
     9
100
AcDb2dPolyline
 66
     1
 10
0.0
 20
0.0
 30
0.0
  0
VERTEX
  5
63
330
62
100
AcDbEntity
  8
_U+30EC_U+30A4_U+30E4_U+30FC 1
 62
     7
420
 16777215
370
     9
100
AcDbVertex
100
AcDb2dVertex
 10
98.08668608658918
 20
-137.8634035766455
 30
0.0
  0
VERTEX
  5
64
330
62
100
AcDbEntity
  8
_U+30EC_U+30A4_U+30E4_U+30FC 1
 62
     7
420
 16777215
370
     9
100
AcDbVertex
100
AcDb2dVertex
 10
98.08668608658918
 20
-140.3232171871417
 30
0.0
  0
SEQEND
  5
65
330
62
100
AcDbEntity
  8
_U+30EC_U+30A4_U+30E4_U+30FC 1
 62
     7
420
 16777215
370
     9
  0
INSERT
  5
67
330
1F
100
AcDbEntity
  8
_U+30EC_U+30A4_U+30E4_U+30FC 1
100
AcDbBlockReference
  2
block 3
 10
0.0
 20
0.0
 30
0.0
  0
POLYLINE
  5
6F
330
1F
100
AcDbEntity
  8
_U+30EC_U+30A4_U+30E4_U+30FC 1
 62
     7
420
 16777215
370
     9
100
AcDb2dPolyline
 66
     1
 10
0.0
 20
0.0
 30
0.0
  0
VERTEX
  5
70
330
6F
100
AcDbEntity
  8
_U+30EC_U+30A4_U+30E4_U+30FC 1
 62
     7
420
 16777215
370
     9
100
AcDbVertex
100
AcDb2dVertex
 10
88.08642164161705
 20
-139.3234449651692
 30
0.0
  0
VERTEX
  5
71
330
6F
100
AcDbEntity
  8
_U+30EC_U+30A4_U+30E4_U+30FC 1
 62
     7
420
 16777215
370
     9
100
AcDbVertex
100
AcDb2dVertex
 10
76.08647416998343
 20
-139.3234449651692
 30
0.0
  0
SEQEND
  5
72
330
6F
100
AcDbEntity
  8
_U+30EC_U+30A4_U+30E4_U+30FC 1
 62
     7
420
 16777215
370
     9
  0
POLYLINE
  5
73
330
1F
100
AcDbEntity
  8
_U+30EC_U+30A4_U+30E4_U+30FC 1
 62
     7
420
 16777215
370
     9
100
AcDb2dPolyline
 66
     1
 10
0.0
 20
0.0
 30
0.0
  0
VERTEX
  5
74
330
73
100
AcDbEntity
  8
_U+30EC_U+30A4_U+30E4_U+30FC 1
 62
     7
420
 16777215
370
     9
100
AcDbVertex
100
AcDb2dVertex
 10
76.08647416998343
 20
-129.2293085788035
 30
0.0
  0
VERTEX
  5
75
330
73
100
AcDbEntity
  8
_U+30EC_U+30A4_U+30E4_U+30FC 1
 62
     7
420
 16777215
370
     9
100
AcDbVertex
100
AcDb2dVertex
 10
76.08647416998343
 20
-140.3232171871417
 30
0.0
  0
SEQEND
  5
76
330
73
100
AcDbEntity
  8
_U+30EC_U+30A4_U+30E4_U+30FC 1
 62
     7
420
 16777215
370
     9
  0
INSERT
  5
78
330
1F
100
AcDbEntity
  8
_U+30EC_U+30A4_U+30E4_U+30FC 1
100
AcDbBlockReference
  2
block 4
 10
0.0
 20
0.0
 30
0.0
  0
SPLINE
  5
7F
330
1F
100
AcDbEntity
  8
_U+30EC_U+30A4_U+30E4_U+30FC 1
 62
     7
420
 16777215
370
     9
100
AcDbSpline
210
0.0
220
0.0
230
1.0
 70
    11
 71
     3
 72
    17
 73
    13
 74
     0
 42
0.0000000001
 43
0.0000000001
 12
1.0
 22
0.0
 32
0.0
 13
1.0
 23
0.0
 33
0.0
 40
0.0
 40
0.0
 40
0.0
 40
0.0
 40
1.0
 40
1.0
 40
1.0
 40
2.0
 40
2.0
 40
2.0
 40
3.0
 40
3.0
 40
3.0
 40
4.0
 40
4.0
 40
4.0
 40
4.0
 10
112.1468179722296
 20
-125.1286196909402
 30
0.0
 10
112.1468179722296
 20
-125.0735158020649
 30
0.0
 10
112.1020151955949
 20
-125.0287130242982
 30
0.0
 10
112.0462057525743
 20
-125.0287130242982
 30
0.0
 10
111.9911018650912
 20
-125.0287130242982
 30
0.0
 10
111.9462990884564
 20
-125.0735158020649
 30
0.0
 10
111.9462990884564
 20
-125.1286196909402
 30
0.0
 10
111.9462990884564
 20
-125.1837588575929
 30
0.0
 10
111.9911018650912
 20
-125.2285263575818
 30
0.0
 10
112.0462057525743
 20
-125.2285263575818
 30
0.0
 10
112.1020151955949
 20
-125.2285263575818
 30
0.0
 10
112.1468179722296
 20
-125.1837588575929
 30
0.0
 10
112.1468179722296
 20
-125.1286196909402
 30
0.0
  0
SPLINE
  5
80
330
1F
100
AcDbEntity
  8
_U+30EC_U+30A4_U+30E4_U+30FC 1
 62
     7
420
 16777215
370
     9
100
AcDbSpline
210
0.0
220
0.0
230
1.0
 70
    11
 71
     3
 72
    17
 73
    13
 74
     0
 42
0.0000000001
 43
0.0000000001
 12
1.0
 22
0.0
 32
0.0
 13
1.0
 23
0.0
 33
0.0
 40
0.0
 40
0.0
 40
0.0
 40
0.0
 40
1.0
 40
1.0
 40
1.0
 40
2.0
 40
2.0
 40
2.0
 40
3.0
 40
3.0
 40
3.0
 40
4.0
 40
4.0
 40
4.0
 40
4.0
 10
112.1468179722296
 20
-126.1290974684676
 30
0.0
 10
112.1468179722296
 20
-126.0732527462593
 30
0.0
 10
112.1020151955949
 20
-126.0291555240481
 30
0.0
 10
112.0462057525743
 20
-126.0291555240481
 30
0.0
 10
111.9911018650912
 20
-126.0291555240481
 30
0.0
 10
111.9462990884564
 20
-126.0732527462593
 30
0.0
 10
111.9462990884564
 20
-126.1290974684676
 30
0.0
 10
111.9462990884564
 20
-126.1842013573428
 30
0.0
 10
111.9911018650912
 20
-126.2290041351096
 30
0.0
 10
112.0462057525743
 20
-126.2290041351096
 30
0.0
 10
112.1020151955949
 20
-126.2290041351096
 30
0.0
 10
112.1468179722296
 20
-126.1842013573428
 30
0.0
 10
112.1468179722296
 20
-126.1290974684676
 30
0.0
  0
SPLINE
  5
81
330
1F
100
AcDbEntity
  8
_U+30EC_U+30A4_U+30E4_U+30FC 1
 62
     7
420
 16777215
370
     9
100
AcDbSpline
210
0.0
220
0.0
230
1.0
 70
    11
 71
     3
 72
    17
 73
    13
 74
     0
 42
0.0000000001
 43
0.0000000001
 12
1.0
 22
0.0
 32
0.0
 13
1.0
 23
0.0
 33
0.0
 40
0.0
 40
0.0
 40
0.0
 40
0.0
 40
1.0
 40
1.0
 40
1.0
 40
2.0
 40
2.0
 40
2.0
 40
3.0
 40
3.0
 40
3.0
 40
4.0
 40
4.0
 40
4.0
 40
4.0
 10
112.1468179722296
 20
-132.5290508002009
 30
0.0
 10
112.1468179722296
 20
-132.4739116335485
 30
0.0
 10
112.1020151955949
 20
-132.4291088557818
 30
0.0
 10
112.0462057525743
 20
-132.4291088557818
 30
0.0
 10
111.9911018650912
 20
-132.4291088557818
 30
0.0
 10
111.9462990884564
 20
-132.4739116335485
 30
0.0
 10
111.9462990884564
 20
-132.5290508002009
 30
0.0
 10
111.9462990884564
 20
-132.5841546890765
 30
0.0
 10
111.9911018650912
 20
-132.6289574668426
 30
0.0
 10
112.0462057525743
 20
-132.6289574668426
 30
0.0
 10
112.1020151955949
 20
-132.6289574668426
 30
0.0
 10
112.1468179722296
 20
-132.5841546890765
 30
0.0
 10
112.1468179722296
 20
-132.5290508002009
 30
0.0
  0
SPLINE
  5
82
330
1F
100
AcDbEntity
  8
_U+30EC_U+30A4_U+30E4_U+30FC 1
 62
     7
420
 16777215
370
     9
100
AcDbSpline
210
0.0
220
0.0
230
1.0
 70
    11
 71
     3
 72
    17
 73
    13
 74
     0
 42
0.0000000001
 43
0.0000000001
 12
1.0
 22
0.0
 32
0.0
 13
1.0
 23
0.0
 33
0.0
 40
0.0
 40
0.0
 40
0.0
 40
0.0
 40
1.0
 40
1.0
 40
1.0
 40
2.0
 40
2.0
 40
2.0
 40
3.0
 40
3.0
 40
3.0
 40
4.0
 40
4.0
 40
4.0
 40
4.0
 10
112.1468179722296
 20
-135.5290377438953
 30
0.0
 10
112.1468179722296
 20
-135.4738985772428
 30
0.0
 10
112.1020151955949
 20
-135.4291310772536
 30
0.0
 10
112.0462057525743
 20
-135.4291310772536
 30
0.0
 10
111.9911018650912
 20
-135.4291310772536
 30
0.0
 10
111.9462990884564
 20
-135.4738985772428
 30
0.0
 10
111.9462990884564
 20
-135.5290377438953
 30
0.0
 10
111.9462990884564
 20
-135.5841416327708
 30
0.0
 10
111.9911018650912
 20
-135.6289444105369
 30
0.0
 10
112.0462057525743
 20
-135.6289444105369
 30
0.0
 10
112.1020151955949
 20
-135.6289444105369
 30
0.0
 10
112.1468179722296
 20
-135.5841416327708
 30
0.0
 10
112.1468179722296
 20
-135.5290377438953
 30
0.0
  0
POLYLINE
  5
83
330
1F
100
AcDbEntity
  8
_U+30EC_U+30A4_U+30E4_U+30FC 1
 62
     7
420
 16777215
370
     9
100
AcDb2dPolyline
 66
     1
 10
0.0
 20
0.0
 30
0.0
  0
VERTEX
  5
84
330
83
100
AcDbEntity
  8
_U+30EC_U+30A4_U+30E4_U+30FC 1
 62
     7
420
 16777215
370
     9
100
AcDbVertex
100
AcDb2dVertex
 10
112.0462057525743
 20
-125.1286196909402
 30
0.0
  0
VERTEX
  5
85
330
83
100
AcDbEntity
  8
_U+30EC_U+30A4_U+30E4_U+30FC 1
 62
     7
420
 16777215
370
     9
100
AcDbVertex
100
AcDb2dVertex
 10
112.0462057525743
 20
-121.3583071918828
 30
0.0
  0
SEQEND
  5
86
330
83
100
AcDbEntity
  8
_U+30EC_U+30A4_U+30E4_U+30FC 1
 62
     7
420
 16777215
370
     9
  0
POLYLINE
  5
87
330
1F
100
AcDbEntity
  8
_U+30EC_U+30A4_U+30E4_U+30FC 1
 62
     7
420
 16777215
370
     9
100
AcDb2dPolyline
 66
     1
 10
0.0
 20
0.0
 30
0.0
  0
VERTEX
  5
88
330
87
100
AcDbEntity
  8
_U+30EC_U+30A4_U+30E4_U+30FC 1
 62
     7
420
 16777215
370
     9
100
AcDbVertex
100
AcDb2dVertex
 10
112.0462057525743
 20
-125.1286196909402
 30
0.0
  0
VERTEX
  5
89
330
87
100
AcDbEntity
  8
_U+30EC_U+30A4_U+30E4_U+30FC 1
 62
     7
420
 16777215
370
     9
100
AcDbVertex
100
AcDb2dVertex
 10
112.0462057525743
 20
-126.1290974684676
 30
0.0
  0
SEQEND
  5
8A
330
87
100
AcDbEntity
  8
_U+30EC_U+30A4_U+30E4_U+30FC 1
 62
     7
420
 16777215
370
     9
  0
POLYLINE
  5
8B
330
1F
100
AcDbEntity
  8
_U+30EC_U+30A4_U+30E4_U+30FC 1
 62
     7
420
 16777215
370
     9
100
AcDb2dPolyline
 66
     1
 10
0.0
 20
0.0
 30
0.0
  0
VERTEX
  5
8C
330
8B
100
AcDbEntity
  8
_U+30EC_U+30A4_U+30E4_U+30FC 1
 62
     7
420
 16777215
370
     9
100
AcDbVertex
100
AcDb2dVertex
 10
110.3360802406476
 20
-125.1286196909402
 30
0.0
  0
VERTEX
  5
8D
330
8B
100
AcDbEntity
  8
_U+30EC_U+30A4_U+30E4_U+30FC 1
 62
     7
420
 16777215
370
     9
100
AcDbVertex
100
AcDb2dVertex
 10
113.0466835048277
 20
-125.1286196909402
 30
0.0
  0
SEQEND
  5
8E
330
8B
100
AcDbEntity
  8
_U+30EC_U+30A4_U+30E4_U+30FC 1
 62
     7
420
 16777215
370
     9
  0
POLYLINE
  5
8F
330
1F
100
AcDbEntity
  8
_U+30EC_U+30A4_U+30E4_U+30FC 1
 62
     7
420
 16777215
370
     9
100
AcDb2dPolyline
 66
     1
 10
0.0
 20
0.0
 30
0.0
  0
VERTEX
  5
90
330
8F
100
AcDbEntity
  8
_U+30EC_U+30A4_U+30E4_U+30FC 1
 62
     7
420
 16777215
370
     9
100
AcDbVertex
100
AcDb2dVertex
 10
110.3360802406476
 20
-126.1290974684676
 30
0.0
  0
VERTEX
  5
91
330
8F
100
AcDbEntity
  8
_U+30EC_U+30A4_U+30E4_U+30FC 1
 62
     7
420
 16777215
370
     9
100
AcDbVertex
100
AcDb2dVertex
 10
113.0466835048277
 20
-126.1290974684676
 30
0.0
  0
SEQEND
  5
92
330
8F
100
AcDbEntity
  8
_U+30EC_U+30A4_U+30E4_U+30FC 1
 62
     7
420
 16777215
370
     9
  0
INSERT
  5
94
330
1F
100
AcDbEntity
  8
_U+30EC_U+30A4_U+30E4_U+30FC 1
100
AcDbBlockReference
  2
block 5
 10
0.0
 20
0.0
 30
0.0
  0
POLYLINE
  5
99
330
1F
100
AcDbEntity
  8
_U+30EC_U+30A4_U+30E4_U+30FC 1
 62
     7
420
 16777215
370
     9
100
AcDb2dPolyline
 66
     1
 10
0.0
 20
0.0
 30
0.0
  0
VERTEX
  5
9A
330
99
100
AcDbEntity
  8
_U+30EC_U+30A4_U+30E4_U+30FC 1
 62
     7
420
 16777215
370
     9
100
AcDbVertex
100
AcDb2dVertex
 10
112.0462057525743
 20
-132.5290508002009
 30
0.0
  0
VERTEX
  5
9B
330
99
100
AcDbEntity
  8
_U+30EC_U+30A4_U+30E4_U+30FC 1
 62
     7
420
 16777215
370
     9
100
AcDbVertex
100
AcDb2dVertex
 10
112.0462057525743
 20
-135.5290377438953
 30
0.0
  0
SEQEND
  5
9C
330
99
100
AcDbEntity
  8
_U+30EC_U+30A4_U+30E4_U+30FC 1
 62
     7
420
 16777215
370
     9
  0
POLYLINE
  5
9D
330
1F
100
AcDbEntity
  8
_U+30EC_U+30A4_U+30E4_U+30FC 1
 62
     7
420
 16777215
370
     9
100
AcDb2dPolyline
 66
     1
 10
0.0
 20
0.0
 30
0.0
  0
VERTEX
  5
9E
330
9D
100
AcDbEntity
  8
_U+30EC_U+30A4_U+30E4_U+30FC 1
 62
     7
420
 16777215
370
     9
100
AcDbVertex
100
AcDb2dVertex
 10
100.586469419298
 20
-135.5290377438953
 30
0.0
  0
VERTEX
  5
9F
330
9D
100
AcDbEntity
  8
_U+30EC_U+30A4_U+30E4_U+30FC 1
 62
     7
420
 16777215
370
     9
100
AcDbVertex
100
AcDb2dVertex
 10
113.0466835048277
 20
-135.5290377438953
 30
0.0
  0
SEQEND
  5
A0
330
9D
100
AcDbEntity
  8
_U+30EC_U+30A4_U+30E4_U+30FC 1
 62
     7
420
 16777215
370
     9
  0
INSERT
  5
A2
330
1F
100
AcDbEntity
  8
_U+30EC_U+30A4_U+30E4_U+30FC 1
100
AcDbBlockReference
  2
block 6
 10
0.0
 20
0.0
 30
0.0
  0
POLYLINE
  5
A7
330
1F
100
AcDbEntity
  8
_U+30EC_U+30A4_U+30E4_U+30FC 1
 62
     7
420
 16777215
370
     9
100
AcDb2dPolyline
 66
     1
 10
0.0
 20
0.0
 30
0.0
  0
VERTEX
  5
A8
330
A7
100
AcDbEntity
  8
_U+30EC_U+30A4_U+30E4_U+30FC 1
 62
     7
420
 16777215
370
     9
100
AcDbVertex
100
AcDb2dVertex
 10
112.0462057525743
 20
-126.1290974684676
 30
0.0
  0
VERTEX
  5
A9
330
A7
100
AcDbEntity
  8
_U+30EC_U+30A4_U+30E4_U+30FC 1
 62
     7
420
 16777215
370
     9
100
AcDbVertex
100
AcDb2dVertex
 10
112.0462057525743
 20
-132.5290508002009
 30
0.0
  0
SEQEND
  5
AA
330
A7
100
AcDbEntity
  8
_U+30EC_U+30A4_U+30E4_U+30FC 1
 62
     7
420
 16777215
370
     9
  0
POLYLINE
  5
AB
330
1F
100
AcDbEntity
  8
_U+30EC_U+30A4_U+30E4_U+30FC 1
 62
     7
420
 16777215
370
     9
100
AcDb2dPolyline
 66
     1
 10
0.0
 20
0.0
 30
0.0
  0
VERTEX
  5
AC
330
AB
100
AcDbEntity
  8
_U+30EC_U+30A4_U+30E4_U+30FC 1
 62
     7
420
 16777215
370
     9
100
AcDbVertex
100
AcDb2dVertex
 10
100.586469419298
 20
-132.5290508002009
 30
0.0
  0
VERTEX
  5
AD
330
AB
100
AcDbEntity
  8
_U+30EC_U+30A4_U+30E4_U+30FC 1
 62
     7
420
 16777215
370
     9
100
AcDbVertex
100
AcDb2dVertex
 10
113.0466835048277
 20
-132.5290508002009
 30
0.0
  0
SEQEND
  5
AE
330
AB
100
AcDbEntity
  8
_U+30EC_U+30A4_U+30E4_U+30FC 1
 62
     7
420
 16777215
370
     9
  0
INSERT
  5
B0
330
1F
100
AcDbEntity
  8
_U+30EC_U+30A4_U+30E4_U+30FC 1
100
AcDbBlockReference
  2
block 7
 10
0.0
 20
0.0
 30
0.0
  0
SPLINE
  5
C0
330
1F
100
AcDbEntity
  8
_U+30EC_U+30A4_U+30E4_U+30FC 1
 62
     7
420
 16777215
370
     9
100
AcDbSpline
210
0.0
220
0.0
230
1.0
 70
    11
 71
     3
 72
    17
 73
    13
 74
     0
 42
0.0000000001
 43
0.0000000001
 12
1.0
 22
0.0
 32
0.0
 13
1.0
 23
0.0
 33
0.0
 40
0.0
 40
0.0
 40
0.0
 40
0.0
 40
1.0
 40
1.0
 40
1.0
 40
2.0
 40
2.0
 40
2.0
 40
3.0
 40
3.0
 40
3.0
 40
4.0
 40
4.0
 40
4.0
 40
4.0
 10
72.68703887071726
 20
-127.2290938570817
 30
0.0
 10
72.68703887071726
 20
-127.1736371904287
 30
0.0
 10
72.64223609295054
 20
-127.1291871904401
 30
0.0
 10
72.58713037037025
 20
-127.1291871904401
 30
0.0
 10
72.5319912051103
 20
-127.1291871904401
 30
0.0
 10
72.48722370625241
 20
-127.1736371904287
 30
0.0
 10
72.48722370625241
 20
-127.2290938570817
 30
0.0
 10
72.48722370625241
 20
-127.2842330237345
 30
0.0
 10
72.5319912051103
 20
-127.3290005237233
 30
0.0
 10
72.58713037037025
 20
-127.3290005237233
 30
0.0
 10
72.64223609295054
 20
-127.3290005237233
 30
0.0
 10
72.68703887071726
 20
-127.2842330237345
 30
0.0
 10
72.68703887071726
 20
-127.2290938570817
 30
0.0
  0
SPLINE
  5
C1
330
1F
100
AcDbEntity
  8
_U+30EC_U+30A4_U+30E4_U+30FC 1
 62
     7
420
 16777215
370
     9
100
AcDbSpline
210
0.0
220
0.0
230
1.0
 70
    11
 71
     3
 72
    17
 73
    13
 74
     0
 42
0.0000000001
 43
0.0000000001
 12
1.0
 22
0.0
 32
0.0
 13
1.0
 23
0.0
 33
0.0
 40
0.0
 40
0.0
 40
0.0
 40
0.0
 40
1.0
 40
1.0
 40
1.0
 40
2.0
 40
2.0
 40
2.0
 40
3.0
 40
3.0
 40
3.0
 40
4.0
 40
4.0
 40
4.0
 40
4.0
 10
72.68703887071726
 20
-125.229231913137
 30
0.0
 10
72.68703887071726
 20
-125.1734224687066
 30
0.0
 10
72.64223609295054
 20
-125.1286196909402
 30
0.0
 10
72.58713037037025
 20
-125.1286196909402
 30
0.0
 10
72.5319912051103
 20
-125.1286196909402
 30
0.0
 10
72.48722370625241
 20
-125.1734224687066
 30
0.0
 10
72.48722370625241
 20
-125.229231913137
 30
0.0
 10
72.48722370625241
 20
-125.2843358020123
 30
0.0
 10
72.5319912051103
 20
-125.329138579779
 30
0.0
 10
72.58713037037025
 20
-125.329138579779
 30
0.0
 10
72.64223609295054
 20
-125.329138579779
 30
0.0
 10
72.68703887071726
 20
-125.2843358020123
 30
0.0
 10
72.68703887071726
 20
-125.229231913137
 30
0.0
  0
POLYLINE
  5
C2
330
1F
100
AcDbEntity
  8
_U+30EC_U+30A4_U+30E4_U+30FC 1
 62
     7
420
 16777215
370
     9
100
AcDb2dPolyline
 66
     1
 10
0.0
 20
0.0
 30
0.0
  0
VERTEX
  5
C3
330
C2
100
AcDbEntity
  8
_U+30EC_U+30A4_U+30E4_U+30FC 1
 62
     7
420
 16777215
370
     9
100
AcDbVertex
100
AcDb2dVertex
 10
72.58713037037025
 20
-125.229231913137
 30
0.0
  0
VERTEX
  5
C4
330
C2
100
AcDbEntity
  8
_U+30EC_U+30A4_U+30E4_U+30FC 1
 62
     7
420
 16777215
370
     9
100
AcDbVertex
100
AcDb2dVertex
 10
72.58713037037025
 20
-127.2290938570817
 30
0.0
  0
SEQEND
  5
C5
330
C2
100
AcDbEntity
  8
_U+30EC_U+30A4_U+30E4_U+30FC 1
 62
     7
420
 16777215
370
     9
  0
POLYLINE
  5
C6
330
1F
100
AcDbEntity
  8
_U+30EC_U+30A4_U+30E4_U+30FC 1
 62
     7
420
 16777215
370
     9
100
AcDb2dPolyline
 66
     1
 10
0.0
 20
0.0
 30
0.0
  0
VERTEX
  5
C7
330
C6
100
AcDbEntity
  8
_U+30EC_U+30A4_U+30E4_U+30FC 1
 62
     7
420
 16777215
370
     9
100
AcDbVertex
100
AcDb2dVertex
 10
71.12708901873012
 20
-125.229231913137
 30
0.0
  0
VERTEX
  5
C8
330
C6
100
AcDbEntity
  8
_U+30EC_U+30A4_U+30E4_U+30FC 1
 62
     7
420
 16777215
370
     9
100
AcDbVertex
100
AcDb2dVertex
 10
73.58690256708616
 20
-125.229231913137
 30
0.0
  0
SEQEND
  5
C9
330
C6
100
AcDbEntity
  8
_U+30EC_U+30A4_U+30E4_U+30FC 1
 62
     7
420
 16777215
370
     9
  0
POLYLINE
  5
CA
330
1F
100
AcDbEntity
  8
_U+30EC_U+30A4_U+30E4_U+30FC 1
 62
     7
420
 16777215
370
     9
100
AcDb2dPolyline
 66
     1
 10
0.0
 20
0.0
 30
0.0
  0
VERTEX
  5
CB
330
CA
100
AcDbEntity
  8
_U+30EC_U+30A4_U+30E4_U+30FC 1
 62
     7
420
 16777215
370
     9
100
AcDbVertex
100
AcDb2dVertex
 10
71.12708901873012
 20
-127.2290938570817
 30
0.0
  0
VERTEX
  5
CC
330
CA
100
AcDbEntity
  8
_U+30EC_U+30A4_U+30E4_U+30FC 1
 62
     7
420
 16777215
370
     9
100
AcDbVertex
100
AcDb2dVertex
 10
73.58690256708616
 20
-127.2290938570817
 30
0.0
  0
SEQEND
  5
CD
330
CA
100
AcDbEntity
  8
_U+30EC_U+30A4_U+30E4_U+30FC 1
 62
     7
420
 16777215
370
     9
  0
INSERT
  5
CF
330
1F
100
AcDbEntity
  8
_U+30EC_U+30A4_U+30E4_U+30FC 1
100
AcDbBlockReference
  2
block 8
 10
0.0
 20
0.0
 30
0.0
  0
POLYLINE
  5
D4
330
1F
100
AcDbEntity
  8
_U+30EC_U+30A4_U+30E4_U+30FC 1
 62
     7
420
 16777215
370
    25
100
AcDb2dPolyline
 66
     1
 10
0.0
 20
0.0
 30
0.0
  0
VERTEX
  5
D5
330
D4
100
AcDbEntity
  8
_U+30EC_U+30A4_U+30E4_U+30FC 1
 62
     7
420
 16777215
370
    25
100
AcDbVertex
100
AcDb2dVertex
 10
88.0871271971546
 20
-127.2290938570817
 30
0.0
  0
VERTEX
  5
D6
330
D4
100
AcDbEntity
  8
_U+30EC_U+30A4_U+30E4_U+30FC 1
 62
     7
420
 16777215
370
    25
100
AcDbVertex
100
AcDb2dVertex
 10
76.08682694775221
 20
-127.2290938570817
 30
0.0
  0
VERTEX
  5
D7
330
D4
100
AcDbEntity
  8
_U+30EC_U+30A4_U+30E4_U+30FC 1
 62
     7
420
 16777215
370
    25
100
AcDbVertex
100
AcDb2dVertex
 10
76.08682694775221
 20
-125.229231913137
 30
0.0
  0
VERTEX
  5
D8
330
D4
100
AcDbEntity
  8
_U+30EC_U+30A4_U+30E4_U+30FC 1
 62
     7
420
 16777215
370
    25
100
AcDbVertex
100
AcDb2dVertex
 10
88.0871271971546
 20
-125.229231913137
 30
0.0
  0
SEQEND
  5
D9
330
D4
100
AcDbEntity
  8
_U+30EC_U+30A4_U+30E4_U+30FC 1
 62
     7
420
 16777215
370
    25
  0
POLYLINE
  5
DA
330
1F
100
AcDbEntity
  8
_U+30EC_U+30A4_U+30E4_U+30FC 1
 62
     7
420
 16777215
370
    25
100
AcDb2dPolyline
 66
     1
 10
0.0
 20
0.0
 30
0.0
  0
VERTEX
  5
DB
330
DA
100
AcDbEntity
  8
_U+30EC_U+30A4_U+30E4_U+30FC 1
 62
     7
420
 16777215
370
    25
100
AcDbVertex
100
AcDb2dVertex
 10
89.08654661610174
 20
-132.5290508002009
 30
0.0
  0
VERTEX
  5
DC
330
DA
100
AcDbEntity
  8
_U+30EC_U+30A4_U+30E4_U+30FC 1
 62
     7
420
 16777215
370
    25
100
AcDbVertex
100
AcDb2dVertex
 10
89.08654661610174
 20
-126.2290041351096
 30
0.0
  0
VERTEX
  5
DD
330
DA
100
AcDbEntity
  8
_U+30EC_U+30A4_U+30E4_U+30FC 1
 62
     7
420
 16777215
370
    25
100
AcDbVertex
100
AcDb2dVertex
 10
108.0864164091524
 20
-126.2290041351096
 30
0.0
  0
VERTEX
  5
DE
330
DA
100
AcDbEntity
  8
_U+30EC_U+30A4_U+30E4_U+30FC 1
 62
     7
420
 16777215
370
    25
100
AcDbVertex
100
AcDb2dVertex
 10
108.0864164091524
 20
-125.229231913137
 30
0.0
  0
VERTEX
  5
DF
330
DA
100
AcDbEntity
  8
_U+30EC_U+30A4_U+30E4_U+30FC 1
 62
     7
420
 16777215
370
    25
100
AcDbVertex
100
AcDb2dVertex
 10
88.08677441938583
 20
-125.229231913137
 30
0.0
  0
SEQEND
  5
E0
330
DA
100
AcDbEntity
  8
_U+30EC_U+30A4_U+30E4_U+30FC 1
 62
     7
420
 16777215
370
    25
  0
POLYLINE
  5
E1
330
1F
100
AcDbEntity
  8
_U+30EC_U+30A4_U+30E4_U+30FC 1
 62
     7
420
 16777215
370
    25
100
AcDb2dPolyline
 66
     1
 10
0.0
 20
0.0
 30
0.0
  0
VERTEX
  5
E2
330
E1
100
AcDbEntity
  8
_U+30EC_U+30A4_U+30E4_U+30FC 1
 62
     7
420
 16777215
370
    25
100
AcDbVertex
100
AcDb2dVertex
 10
89.08654661610174
 20
-132.5290508002009
 30
0.0
  0
VERTEX
  5
E3
330
E1
100
AcDbEntity
  8
_U+30EC_U+30A4_U+30E4_U+30FC 1
 62
     7
420
 16777215
370
    25
100
AcDbVertex
100
AcDb2dVertex
 10
88.59389246200372
 20
-133.0147905223021
 30
0.0
  0
VERTEX
  5
E4
330
E1
100
AcDbEntity
  8
_U+30EC_U+30A4_U+30E4_U+30FC 1
 62
     7
420
 16777215
370
    25
100
AcDbVertex
100
AcDb2dVertex
 10
88.0871271971546
 20
-132.5290508002009
 30
0.0
  0
SEQEND
  5
E5
330
E1
100
AcDbEntity
  8
_U+30EC_U+30A4_U+30E4_U+30FC 1
 62
     7
420
 16777215
370
    25
  0
POLYLINE
  5
E6
330
1F
100
AcDbEntity
  8
_U+30EC_U+30A4_U+30E4_U+30FC 1
 62
     7
420
 16777215
370
    25
100
AcDb2dPolyline
 66
     1
 10
0.0
 20
0.0
 30
0.0
  0
VERTEX
  5
E7
330
E6
100
AcDbEntity
  8
_U+30EC_U+30A4_U+30E4_U+30FC 1
 62
     7
420
 16777215
370
    25
100
AcDbVertex
100
AcDb2dVertex
 10
89.08654661610174
 20
-132.5290508002009
 30
0.0
  0
VERTEX
  5
E8
330
E6
100
AcDbEntity
  8
_U+30EC_U+30A4_U+30E4_U+30FC 1
 62
     7
420
 16777215
370
    25
100
AcDbVertex
100
AcDb2dVertex
 10
98.08668608658918
 20
-132.5290508002009
 30
0.0
  0
VERTEX
  5
E9
330
E6
100
AcDbEntity
  8
_U+30EC_U+30A4_U+30E4_U+30FC 1
 62
     7
420
 16777215
370
    25
100
AcDbVertex
100
AcDb2dVertex
 10
98.08668608658918
 20
-135.5290377438953
 30
0.0
  0
VERTEX
  5
EA
330
E6
100
AcDbEntity
  8
_U+30EC_U+30A4_U+30E4_U+30FC 1
 62
     7
420
 16777215
370
    25
100
AcDbVertex
100
AcDb2dVertex
 10
88.08642164161705
 20
-135.5290377438953
 30
0.0
  0
VERTEX
  5
EB
330
E6
100
AcDbEntity
  8
_U+30EC_U+30A4_U+30E4_U+30FC 1
 62
     7
420
 16777215
370
    25
100
AcDbVertex
100
AcDb2dVertex
 10
88.0871271971546
 20
-135.5290377438953
 30
0.0
  0
VERTEX
  5
EC
330
E6
100
AcDbEntity
  8
_U+30EC_U+30A4_U+30E4_U+30FC 1
 62
     7
420
 16777215
370
    25
100
AcDbVertex
100
AcDb2dVertex
 10
88.0871271971546
 20
-132.5290508002009
 30
0.0
  0
VERTEX
  5
ED
330
E6
100
AcDbEntity
  8
_U+30EC_U+30A4_U+30E4_U+30FC 1
 62
     7
420
 16777215
370
    25
100
AcDbVertex
100
AcDb2dVertex
 10
88.0871271971546
 20
-125.2864171909007
 30
0.0
  0
SEQEND
  5
EE
330
E6
100
AcDbEntity
  8
_U+30EC_U+30A4_U+30E4_U+30FC 1
 62
     7
420
 16777215
370
    25
  0
ENDSEC
  0
SECTION
  2
OBJECTS
  0
DICTIONARY
  5
C
330
0
100
AcDbDictionary
281
     1
  3
ACAD_GROUP
350
D
  3
ACAD_LAYOUT
350
1A
  3
ACAD_MATERIAL
350
3B
  3
ACAD_MLEADERSTYLE
350
F0
  3
ACAD_MLINESTYLE
350
17
  3
ACAD_PLOTSETTINGS
350
19
  3
ACAD_PLOTSTYLENAME
350
E
  3
ACAD_TABLESTYLE
350
EF
  3
ACAD_VISUALSTYLE
350
2A
  0
SUN
  5
3F
330
29
100
AcDbSun
 90
        1
290
     0
 63
     7
421
 16777215
 40
1.0
291
     1
 91
  2455826
 92
 54000000
292
     0
 70
     2
 71
   256
280
     1
  0
DICTIONARY
  5
D
102
{ACAD_REACTORS
330
C
102
}
330
C
100
AcDbDictionary
281
     1
  0
DICTIONARY
  5
1A
102
{ACAD_REACTORS
330
C
102
}
330
C
100
AcDbDictionary
281
     1
  3
Layout1
350
1E
  3
Layout2
350
26
  3
Model
350
22
  0
DICTIONARY
  5
3B
102
{ACAD_REACTORS
330
C
102
}
330
C
100
AcDbDictionary
281
     1
  3
ByBlock
350
3D
  3
ByLayer
350
3C
  3
Global
350
3E
  0
DICTIONARY
  5
F0
102
{ACAD_REACTORS
330
C
102
}
330
C
100
AcDbDictionary
281
     1
  0
DICTIONARY
  5
17
102
{ACAD_REACTORS
330
C
102
}
330
C
100
AcDbDictionary
281
     1
  3
Standard
350
18
  0
DICTIONARY
  5
19
102
{ACAD_REACTORS
330
C
102
}
330
C
100
AcDbDictionary
281
     1
  0
ACDBDICTIONARYWDFLT
  5
E
102
{ACAD_REACTORS
330
C
102
}
330
C
100
AcDbDictionary
281
     1
  3
Normal
350
F
100
AcDbDictionaryWithDefault
340
F
  0
DICTIONARY
  5
EF
102
{ACAD_REACTORS
330
C
102
}
330
C
100
AcDbDictionary
281
     1
  0
DICTIONARY
  5
2A
102
{ACAD_REACTORS
330
C
102
}
330
C
100
AcDbDictionary
281
     1
  3
2dWireframe
350
2F
  3
3D Hidden
350
31
  3
3dWireframe
350
30
  3
Basic
350
32
  3
Brighten
350
36
  3
ColorChange
350
3A
  3
Conceptual
350
34
  3
Dim
350
35
  3
Facepattern
350
39
  3
Flat
350
2B
  3
FlatWithEdges
350
2C
  3
Gouraud
350
2D
  3
GouraudWithEdges
350
2E
  3
Linepattern
350
38
  3
Realistic
350
33
  3
Thicken
350
37
  0
LAYOUT
  5
1E
102
{ACAD_REACTORS
330
1A
102
}
330
1A
100
AcDbPlotSettings
  1

  2
none_device
  4

  6

 40
0.0
 41
0.0
 42
0.0
 43
0.0
 44
0.0
 45
0.0
 46
0.0
 47
0.0
 48
0.0
 49
0.0
140
0.0
141
0.0
142
1.0
143
1.0
 70
   688
 72
     0
 73
     0
 74
     5
  7

 75
    16
 76
     0
 77
     2
 78
   300
147
1.0
148
0.0
149
0.0
100
AcDbLayout
  1
Layout1
 70
     1
 71
     1
 10
0.0
 20
0.0
 11
12.0
 21
9.0
 12
0.0
 22
0.0
 32
0.0
 14
1.000000000000000E+20
 24
1.000000000000000E+20
 34
1.000000000000000E+20
 15
-1.000000000000000E+20
 25
-1.000000000000000E+20
 35
-1.000000000000000E+20
146
0.0
 13
0.0
 23
0.0
 33
0.0
 16
1.0
 26
0.0
 36
0.0
 17
0.0
 27
1.0
 37
0.0
 76
     0
330
1B
  0
LAYOUT
  5
26
102
{ACAD_REACTORS
330
1A
102
}
330
1A
100
AcDbPlotSettings
  1

  2
none_device
  4

  6

 40
0.0
 41
0.0
 42
0.0
 43
0.0
 44
0.0
 45
0.0
 46
0.0
 47
0.0
 48
0.0
 49
0.0
140
0.0
141
0.0
142
1.0
143
1.0
 70
   688
 72
     0
 73
     0
 74
     5
  7

 75
    16
 76
     0
 77
     2
 78
   300
147
1.0
148
0.0
149
0.0
100
AcDbLayout
  1
Layout2
 70
     1
 71
     2
 10
0.0
 20
0.0
 11
0.0
 21
0.0
 12
0.0
 22
0.0
 32
0.0
 14
0.0
 24
0.0
 34
0.0
 15
0.0
 25
0.0
 35
0.0
146
0.0
 13
0.0
 23
0.0
 33
0.0
 16
1.0
 26
0.0
 36
0.0
 17
0.0
 27
1.0
 37
0.0
 76
     0
330
23
  0
LAYOUT
  5
22
102
{ACAD_REACTORS
330
1A
102
}
330
1A
100
AcDbPlotSettings
  1

  2
none_device
  4

  6

 40
0.0
 41
0.0
 42
0.0
 43
0.0
 44
0.0
 45
0.0
 46
0.0
 47
0.0
 48
0.0
 49
0.0
140
0.0
141
0.0
142
1.0
143
1.0
 70
  1712
 72
     0
 73
     0
 74
     0
  7

 75
     0
 76
     0
 77
     2
 78
   300
147
1.0
148
0.0
149
0.0
100
AcDbLayout
  1
Model
 70
     1
 71
     0
 10
0.0
 20
0.0
 11
12.0
 21
9.0
 12
0.0
 22
0.0
 32
0.0
 14
1.000000000000000E+20
 24
1.000000000000000E+20
 34
1.000000000000000E+20
 15
-1.000000000000000E+20
 25
-1.000000000000000E+20
 35
-1.000000000000000E+20
146
0.0
 13
0.0
 23
0.0
 33
0.0
 16
1.0
 26
0.0
 36
0.0
 17
0.0
 27
1.0
 37
0.0
 76
     0
330
1F
331
29
  0
MATERIAL
  5
3D
102
{ACAD_REACTORS
330
3B
102
}
330
3B
100
AcDbMaterial
  1
ByBlock
 72
     1
 94
      127
  0
MATERIAL
  5
3C
102
{ACAD_REACTORS
330
3B
102
}
330
3B
100
AcDbMaterial
  1
ByLayer
 72
     1
 94
      127
  0
MATERIAL
  5
3E
102
{ACAD_REACTORS
330
3B
102
}
330
3B
100
AcDbMaterial
  1
Global
 72
     1
 94
      127
  0
MLINESTYLE
  5
18
102
{ACAD_REACTORS
330
17
102
}
330
17
100
AcDbMlineStyle
  2
Standard
 70
     0
  3

 62
   256
 51
90.0
 52
90.0
 71
     2
 49
0.5
 62
   256
  6
BYLAYER
 49
-0.5
 62
   256
  6
BYLAYER
  0
ACDBPLACEHOLDER
  5
F
102
{ACAD_REACTORS
330
E
102
}
330
E
  0
VISUALSTYLE
  5
2F
102
{ACAD_REACTORS
330
2A
102
}
330
2A
100
AcDbVisualStyle
  2
2dWireframe
 70
     4
177
     2
291
     0
 71
     0
176
     1
 72
     2
176
     1
 73
     0
176
     1
 90
        0
176
     1
 40
-0.6
176
     1
 41
-30.0
176
     1
 62
     5
 63
     7
421
 16777215
176
     1
 74
     1
176
     1
 91
        4
176
     1
 64
     7
176
     1
 65
   257
176
     1
 75
     1
176
     1
175
     1
176
     1
 42
1.0
176
     1
 92
        0
176
     1
 66
   257
176
     1
 43
1.0
176
     1
 76
     1
176
     1
 77
     6
176
     1
 78
     2
176
     1
 67
     7
176
     1
 79
     5
176
     1
170
     0
176
     1
171
     0
176
     1
290
     0
176
     1
 93
        1
176
     1
 44
0.0
176
     1
173
     0
176
     1
  0
VISUALSTYLE
  5
31
102
{ACAD_REACTORS
330
2A
102
}
330
2A
100
AcDbVisualStyle
  2
3D Hidden
 70
     6
177
     2
291
     0
 71
     1
176
     1
 72
     2
176
     1
 73
     2
176
     1
 90
        0
176
     1
 40
-0.6
176
     1
 41
-30.0
176
     1
 62
     5
 63
     7
421
 16777215
176
     1
 74
     2
176
     1
 91
        2
176
     1
 64
     7
176
     1
 65
   257
176
     1
 75
     2
176
     1
175
     1
176
     1
 42
40.0
176
     1
 92
        0
176
     1
 66
   257
176
     1
 43
1.0
176
     1
 76
     1
176
     1
 77
     6
176
     1
 78
     2
176
     1
 67
     7
176
     1
 79
     3
176
     1
170
     0
176
     1
171
     0
176
     1
290
     0
176
     1
 93
        1
176
     1
 44
0.0
176
     1
173
     0
176
     1
  0
VISUALSTYLE
  5
30
102
{ACAD_REACTORS
330
2A
102
}
330
2A
100
AcDbVisualStyle
  2
3dWireframe
 70
     5
177
     2
291
     0
 71
     0
176
     1
 72
     2
176
     1
 73
     0
176
     1
 90
        0
176
     1
 40
-0.6
176
     1
 41
-30.0
176
     1
 62
     5
 63
     7
421
 16777215
176
     1
 74
     1
176
     1
 91
        4
176
     1
 64
     7
176
     1
 65
   257
176
     1
 75
     1
176
     1
175
     1
176
     1
 42
1.0
176
     1
 92
        0
176
     1
 66
   257
176
     1
 43
1.0
176
     1
 76
     1
176
     1
 77
     6
176
     1
 78
     2
176
     1
 67
     7
176
     1
 79
     5
176
     1
170
     0
176
     1
171
     0
176
     1
290
     0
176
     1
 93
        1
176
     1
 44
0.0
176
     1
173
     0
176
     1
  0
VISUALSTYLE
  5
32
102
{ACAD_REACTORS
330
2A
102
}
330
2A
100
AcDbVisualStyle
  2
Basic
 70
     7
177
     2
291
     1
 71
     1
176
     1
 72
     0
176
     1
 73
     1
176
     1
 90
        0
176
     1
 40
-0.6
176
     1
 41
-30.0
176
     1
 62
     5
 63
     7
421
 16777215
176
     1
 74
     0
176
     1
 91
        4
176
     1
 64
     7
176
     1
 65
   257
176
     1
 75
     1
176
     1
175
     1
176
     1
 42
1.0
176
     1
 92
        8
176
     1
 66
     7
176
     1
 43
1.0
176
     1
 76
     1
176
     1
 77
     6
176
     1
 78
     2
176
     1
 67
     7
176
     1
 79
     5
176
     1
170
     0
176
     1
171
     0
176
     1
290
     0
176
     1
 93
        1
176
     1
 44
0.0
176
     1
173
     0
176
     1
  0
VISUALSTYLE
  5
36
102
{ACAD_REACTORS
330
2A
102
}
330
2A
100
AcDbVisualStyle
  2
Brighten
 70
    12
177
     2
291
     1
 71
     2
176
     1
 72
     2
176
     1
 73
     0
176
     1
 90
        0
176
     1
 40
-0.6
176
     1
 41
-30.0
176
     1
 62
     5
 63
     7
421
 16777215
176
     1
 74
     1
176
     1
 91
        4
176
     1
 64
     7
176
     1
 65
   257
176
     1
 75
     1
176
     1
175
     1
176
     1
 42
1.0
176
     1
 92
        8
176
     1
 66
     7
176
     1
 43
1.0
176
     1
 76
     1
176
     1
 77
     6
176
     1
 78
     2
176
     1
 67
     7
176
     1
 79
     5
176
     1
170
     0
176
     1
171
     0
176
     1
290
     0
176
     1
 93
        1
176
     1
 44
50.0
176
     1
173
     0
176
     1
  0
VISUALSTYLE
  5
3A
102
{ACAD_REACTORS
330
2A
102
}
330
2A
100
AcDbVisualStyle
  2
ColorChange
 70
    16
177
     2
291
     1
 71
     2
176
     1
 72
     2
176
     1
 73
     3
176
     1
 90
        0
176
     1
 40
-0.6
176
     1
 41
-30.0
176
     1
 62
     5
 63
     8
421
  8421504
176
     1
 74
     1
176
     1
 91
        4
176
     1
 64
     7
176
     1
 65
   257
176
     1
 75
     1
176
     1
175
     1
176
     1
 42
1.0
176
     1
 92
        8
176
     1
 66
     8
424
  8421504
176
     1
 43
1.0
176
     1
 76
     1
176
     1
 77
     6
176
     1
 78
     2
176
     1
 67
     7
176
     1
 79
     5
176
     1
170
     0
176
     1
171
     0
176
     1
290
     0
176
     1
 93
        1
176
     1
 44
0.0
176
     1
173
     0
176
     1
  0
VISUALSTYLE
  5
34
102
{ACAD_REACTORS
330
2A
102
}
330
2A
100
AcDbVisualStyle
  2
Conceptual
 70
     9
177
     2
291
     0
 71
     3
176
     1
 72
     2
176
     1
 73
     0
176
     1
 90
        0
176
     1
 40
-0.6
176
     1
 41
-30.0
176
     1
 62
     5
 63
     7
421
 16777215
176
     1
 74
     2
176
     1
 91
        2
176
     1
 64
     7
176
     1
 65
   257
176
     1
 75
     1
176
     1
175
     1
176
     1
 42
40.0
176
     1
 92
        8
176
     1
 66
     7
176
     1
 43
1.0
176
     1
 76
     1
176
     1
 77
     6
176
     1
 78
     2
176
     1
 67
     7
176
     1
 79
     3
176
     1
170
     0
176
     1
171
     0
176
     1
290
     0
176
     1
 93
        1
176
     1
 44
0.0
176
     1
173
     0
176
     1
  0
VISUALSTYLE
  5
35
102
{ACAD_REACTORS
330
2A
102
}
330
2A
100
AcDbVisualStyle
  2
Dim
 70
    11
177
     2
291
     1
 71
     2
176
     1
 72
     2
176
     1
 73
     0
176
     1
 90
        0
176
     1
 40
-0.6
176
     1
 41
-30.0
176
     1
 62
     5
 63
     7
421
 16777215
176
     1
 74
     1
176
     1
 91
        4
176
     1
 64
     7
176
     1
 65
   257
176
     1
 75
     1
176
     1
175
     1
176
     1
 42
1.0
176
     1
 92
        8
176
     1
 66
     7
176
     1
 43
1.0
176
     1
 76
     1
176
     1
 77
     6
176
     1
 78
     2
176
     1
 67
     7
176
     1
 79
     5
176
     1
170
     0
176
     1
171
     0
176
     1
290
     0
176
     1
 93
        1
176
     1
 44
-50.0
176
     1
173
     0
176
     1
  0
VISUALSTYLE
  5
39
102
{ACAD_REACTORS
330
2A
102
}
330
2A
100
AcDbVisualStyle
  2
Facepattern
 70
    15
177
     2
291
     1
 71
     2
176
     1
 72
     2
176
     1
 73
     0
176
     1
 90
        0
176
     1
 40
-0.6
176
     1
 41
-30.0
176
     1
 62
     5
 63
     7
421
 16777215
176
     1
 74
     1
176
     1
 91
        4
176
     1
 64
     7
176
     1
 65
   257
176
     1
 75
     1
176
     1
175
     1
176
     1
 42
1.0
176
     1
 92
        8
176
     1
 66
     7
176
     1
 43
1.0
176
     1
 76
     1
176
     1
 77
     6
176
     1
 78
     2
176
     1
 67
     7
176
     1
 79
     5
176
     1
170
     0
176
     1
171
     0
176
     1
290
     0
176
     1
 93
        1
176
     1
 44
0.0
176
     1
173
     0
176
     1
  0
VISUALSTYLE
  5
2B
102
{ACAD_REACTORS
330
2A
102
}
330
2A
100
AcDbVisualStyle
  2
Flat
 70
     0
177
     2
291
     1
 71
     2
176
     1
 72
     1
176
     1
 73
     1
176
     1
 90
        2
176
     1
 40
-0.6
176
     1
 41
30.0
176
     1
 62
     5
 63
     7
421
 16777215
176
     1
 74
     0
176
     1
 91
        4
176
     1
 64
     7
176
     1
 65
   257
176
     1
 75
     1
176
     1
175
     1
176
     1
 42
1.0
176
     1
 92
        8
176
     1
 66
     7
176
     1
 43
1.0
176
     1
 76
     1
176
     1
 77
     6
176
     1
 78
     2
176
     1
 67
     7
176
     1
 79
     5
176
     1
170
     0
176
     1
171
     0
176
     1
290
     0
176
     1
 93
       13
176
     1
 44
0.0
176
     1
173
     0
176
     1
  0
VISUALSTYLE
  5
2C
102
{ACAD_REACTORS
330
2A
102
}
330
2A
100
AcDbVisualStyle
  2
FlatWithEdges
 70
     1
177
     2
291
     1
 71
     2
176
     1
 72
     1
176
     1
 73
     1
176
     1
 90
        2
176
     1
 40
-0.6
176
     1
 41
30.0
176
     1
 62
     5
 63
     7
421
 16777215
176
     1
 74
     1
176
     1
 91
        4
176
     1
 64
     7
176
     1
 65
   257
176
     1
 75
     1
176
     1
175
     1
176
     1
 42
1.0
176
     1
 92
        0
176
     1
 66
   257
176
     1
 43
1.0
176
     1
 76
     1
176
     1
 77
     6
176
     1
 78
     2
176
     1
 67
     7
176
     1
 79
     5
176
     1
170
     0
176
     1
171
     0
176
     1
290
     0
176
     1
 93
       13
176
     1
 44
0.0
176
     1
173
     0
176
     1
  0
VISUALSTYLE
  5
2D
102
{ACAD_REACTORS
330
2A
102
}
330
2A
100
AcDbVisualStyle
  2
Gouraud
 70
     2
177
     2
291
     1
 71
     2
176
     1
 72
     2
176
     1
 73
     1
176
     1
 90
        2
176
     1
 40
-0.6
176
     1
 41
30.0
176
     1
 62
     5
 63
     7
421
 16777215
176
     1
 74
     0
176
     1
 91
        4
176
     1
 64
     7
176
     1
 65
   257
176
     1
 75
     1
176
     1
175
     1
176
     1
 42
1.0
176
     1
 92
        0
176
     1
 66
     7
176
     1
 43
1.0
176
     1
 76
     1
176
     1
 77
     6
176
     1
 78
     2
176
     1
 67
     7
176
     1
 79
     5
176
     1
170
     0
176
     1
171
     0
176
     1
290
     0
176
     1
 93
       13
176
     1
 44
0.0
176
     1
173
     0
176
     1
  0
VISUALSTYLE
  5
2E
102
{ACAD_REACTORS
330
2A
102
}
330
2A
100
AcDbVisualStyle
  2
GouraudWithEdges
 70
     3
177
     2
291
     1
 71
     2
176
     1
 72
     2
176
     1
 73
     1
176
     1
 90
        2
176
     1
 40
-0.6
176
     1
 41
30.0
176
     1
 62
     5
 63
     7
421
 16777215
176
     1
 74
     1
176
     1
 91
        4
176
     1
 64
     7
176
     1
 65
   257
176
     1
 75
     1
176
     1
175
     1
176
     1
 42
1.0
176
     1
 92
        0
176
     1
 66
   257
176
     1
 43
1.0
176
     1
 76
     1
176
     1
 77
     6
176
     1
 78
     2
176
     1
 67
     7
176
     1
 79
     5
176
     1
170
     0
176
     1
171
     0
176
     1
290
     0
176
     1
 93
       13
176
     1
 44
0.0
176
     1
173
     0
176
     1
  0
VISUALSTYLE
  5
38
102
{ACAD_REACTORS
330
2A
102
}
330
2A
100
AcDbVisualStyle
  2
Linepattern
 70
    14
177
     2
291
     1
 71
     2
176
     1
 72
     2
176
     1
 73
     0
176
     1
 90
        0
176
     1
 40
-0.6
176
     1
 41
-30.0
176
     1
 62
     5
 63
     7
421
 16777215
176
     1
 74
     1
176
     1
 91
        4
176
     1
 64
     7
176
     1
 65
   257
176
     1
 75
     7
176
     1
175
     7
176
     1
 42
1.0
176
     1
 92
        8
176
     1
 66
     7
176
     1
 43
1.0
176
     1
 76
     1
176
     1
 77
     6
176
     1
 78
     2
176
     1
 67
     7
176
     1
 79
     5
176
     1
170
     0
176
     1
171
     0
176
     1
290
     0
176
     1
 93
        1
176
     1
 44
0.0
176
     1
173
     0
176
     1
  0
VISUALSTYLE
  5
33
102
{ACAD_REACTORS
330
2A
102
}
330
2A
100
AcDbVisualStyle
  2
Realistic
 70
     8
177
     2
291
     0
 71
     2
176
     1
 72
     2
176
     1
 73
     0
176
     1
 90
        0
176
     1
 40
-0.6
176
     1
 41
-30.0
176
     1
 62
     5
 63
     7
421
 16777215
176
     1
 74
     1
176
     1
 91
        0
176
     1
 64
     7
176
     1
 65
   257
176
     1
 75
     1
176
     1
175
     1
176
     1
 42
1.0
176
     1
 92
        8
176
     1
 66
     8
424
  7895160
176
     1
 43
1.0
176
     1
 76
     1
176
     1
 77
     6
176
     1
 78
     2
176
     1
 67
     7
176
     1
 79
     5
176
     1
170
     0
176
     1
171
     0
176
     1
290
     0
176
     1
 93
       13
176
     1
 44
0.0
176
     1
173
     0
176
     1
  0
VISUALSTYLE
  5
37
102
{ACAD_REACTORS
330
2A
102
}
330
2A
100
AcDbVisualStyle
  2
Thicken
 70
    13
177
     2
291
     1
 71
     2
176
     1
 72
     2
176
     1
 73
     0
176
     1
 90
        0
176
     1
 40
-0.6
176
     1
 41
-30.0
176
     1
 62
     5
 63
     7
421
 16777215
176
     1
 74
     1
176
     1
 91
        4
176
     1
 64
     7
176
     1
 65
   257
176
     1
 75
     1
176
     1
175
     1
176
     1
 42
1.0
176
     1
 92
       12
176
     1
 66
     7
176
     1
 43
1.0
176
     1
 76
     1
176
     1
 77
     6
176
     1
 78
     2
176
     1
 67
     7
176
     1
 79
     5
176
     1
170
     0
176
     1
171
     0
176
     1
290
     0
176
     1
 93
        1
176
     1
 44
0.0
176
     1
173
     0
176
     1
  0
ENDSEC
  0
EOF
