  0
SECTION
  2
HEADER
  9
$ACADVER
  1
AC1024
  9
$ACADMAINTVER
 70
     6
  9
$DWGCODEPAGE
  3
UNDEFINED
  9
$INSBASE
 10
0.0
 20
0.0
 30
0.0
  9
$EXTMIN
 10
1.000000000000000E+20
 20
1.000000000000000E+20
 30
1.000000000000000E+20
  9
$EXTMAX
 10
-1.000000000000000E+20
 20
-1.000000000000000E+20
 30
-1.000000000000000E+20
  9
$LIMMIN
 10
0.0
 20
0.0
  9
$LIMMAX
 10
12.0
 20
9.0
  9
$ORTHOMODE
 70
     0
  9
$REGENMODE
 70
     1
  9
$FILLMODE
 70
     1
  9
$QTEXTMODE
 70
     0
  9
$MIRRTEXT
 70
     1
  9
$LTSCALE
 40
1.0
  9
$ATTMODE
 70
     1
  9
$TEXTSIZE
 40
0.2
  9
$TRACEWID
 40
0.05
  9
$TEXTSTYLE
  7
Standard
  9
$CLAYER
  8
0
  9
$CELTYPE
  6
ByLayer
  9
$CECOLOR
 62
   256
  9
$CELTSCALE
 40
1.0
  9
$DISPSILH
 70
     0
  9
$DIMSCALE
 40
1.0
  9
$DIMASZ
 40
0.18
  9
$DIMEXO
 40
0.0625
  9
$DIMDLI
 40
0.38
  9
$DIMRND
 40
0.0
  9
$DIMDLE
 40
0.0
  9
$DIMEXE
 40
0.18
  9
$DIMTP
 40
0.0
  9
$DIMTM
 40
0.0
  9
$DIMTXT
 40
0.18
  9
$DIMCEN
 40
0.09
  9
$DIMTSZ
 40
0.0
  9
$DIMTOL
 70
     0
  9
$DIMLIM
 70
     0
  9
$DIMTIH
 70
     1
  9
$DIMTOH
 70
     1
  9
$DIMSE1
 70
     0
  9
$DIMSE2
 70
     0
  9
$DIMTAD
 70
     0
  9
$DIMZIN
 70
     0
  9
$DIMBLK
  1

  9
$DIMASO
 70
     1
  9
$DIMSHO
 70
     1
  9
$DIMPOST
  1

  9
$DIMAPOST
  1

  9
$DIMALT
 70
     0
  9
$DIMALTD
 70
     2
  9
$DIMALTF
 40
25.4
  9
$DIMLFAC
 40
1.0
  9
$DIMTOFL
 70
     0
  9
$DIMTVP
 40
0.0
  9
$DIMTIX
 70
     0
  9
$DIMSOXD
 70
     0
  9
$DIMSAH
 70
     0
  9
$DIMBLK1
  1

  9
$DIMBLK2
  1

  9
$DIMSTYLE
  2
Standard
  9
$DIMCLRD
 70
     0
  9
$DIMCLRE
 70
     0
  9
$DIMCLRT
 70
     0
  9
$DIMTFAC
 40
1.0
  9
$DIMGAP
 40
0.09
  9
$DIMJUST
 70
     0
  9
$DIMSD1
 70
     0
  9
$DIMSD2
 70
     0
  9
$DIMTOLJ
 70
     1
  9
$DIMTZIN
 70
     0
  9
$DIMALTZ
 70
     0
  9
$DIMALTTZ
 70
     0
  9
$DIMUPT
 70
     0
  9
$DIMDEC
 70
     4
  9
$DIMTDEC
 70
     4
  9
$DIMALTU
 70
     2
  9
$DIMALTTD
 70
     2
  9
$DIMTXSTY
  7
Standard
  9
$DIMAUNIT
 70
     0
  9
$DIMADEC
 70
     0
  9
$DIMALTRND
 40
0.0
  9
$DIMAZIN
 70
     0
  9
$DIMDSEP
 70
    46
  9
$DIMATFIT
 70
     3
  9
$DIMFRAC
 70
     0
  9
$DIMLDRBLK
  1

  9
$DIMLUNIT
 70
     2
  9
$DIMLWD
 70
    -2
  9
$DIMLWE
 70
    -2
  9
$DIMTMOVE
 70
     0
  9
$DIMFXL
 40
1.0
  9
$DIMFXLON
 70
     0
  9
$DIMJOGANG
 40
0.7853981633974483
  9
$DIMTFILL
 70
     0
  9
$DIMTFILLCLR
 70
     0
  9
$DIMARCSYM
 70
     0
  9
$DIMLTYPE
  6

  9
$DIMLTEX1
  6

  9
$DIMLTEX2
  6

  9
$DIMTXTDIRECTION
 70
     0
  9
$LUNITS
 70
     2
  9
$LUPREC
 70
     4
  9
$SKETCHINC
 40
0.1
  9
$FILLETRAD
 40
0.5
  9
$AUNITS
 70
     0
  9
$AUPREC
 70
     0
  9
$MENU
  1
.
  9
$ELEVATION
 40
0.0
  9
$PELEVATION
 40
0.0
  9
$THICKNESS
 40
0.0
  9
$LIMCHECK
 70
     0
  9
$CHAMFERA
 40
0.5
  9
$CHAMFERB
 40
0.5
  9
$CHAMFERC
 40
1.0
  9
$CHAMFERD
 40
0.0
  9
$SKPOLY
 70
     0
  9
$TDCREATE
 40
2457917.592106482
  9
$TDUCREATE
 40
2457917.217106482
  9
$TDUPDATE
 40
2457917.592106482
  9
$TDUUPDATE
 40
2457917.217106482
  9
$TDINDWG
 40
0.0000000116
  9
$TDUSRTIMER
 40
0.0000000116
  9
$USRTIMER
 70
     1
  9
$ANGBASE
 50
0.0
  9
$ANGDIR
 70
     0
  9
$PDMODE
 70
     0
  9
$PDSIZE
 40
0.0
  9
$PLINEWID
 40
0.0
  9
$SPLFRAME
 70
     0
  9
$SPLINETYPE
 70
     6
  9
$SPLINESEGS
 70
     8
  9
$HANDSEED
  5
BE
  9
$SURFTAB1
 70
     6
  9
$SURFTAB2
 70
     6
  9
$SURFTYPE
 70
     6
  9
$SURFU
 70
     6
  9
$SURFV
 70
     6
  9
$UCSBASE
  2

  9
$UCSNAME
  2

  9
$UCSORG
 10
0.0
 20
0.0
 30
0.0
  9
$UCSXDIR
 10
1.0
 20
0.0
 30
0.0
  9
$UCSYDIR
 10
0.0
 20
1.0
 30
0.0
  9
$UCSORTHOREF
  2

  9
$UCSORTHOVIEW
 70
     0
  9
$UCSORGTOP
 10
0.0
 20
0.0
 30
0.0
  9
$UCSORGBOTTOM
 10
0.0
 20
0.0
 30
0.0
  9
$UCSORGLEFT
 10
0.0
 20
0.0
 30
0.0
  9
$UCSORGRIGHT
 10
0.0
 20
0.0
 30
0.0
  9
$UCSORGFRONT
 10
0.0
 20
0.0
 30
0.0
  9
$UCSORGBACK
 10
0.0
 20
0.0
 30
0.0
  9
$PUCSBASE
  2

  9
$PUCSNAME
  2

  9
$PUCSORG
 10
0.0
 20
0.0
 30
0.0
  9
$PUCSXDIR
 10
1.0
 20
0.0
 30
0.0
  9
$PUCSYDIR
 10
0.0
 20
1.0
 30
0.0
  9
$PUCSORTHOREF
  2

  9
$PUCSORTHOVIEW
 70
     0
  9
$PUCSORGTOP
 10
0.0
 20
0.0
 30
0.0
  9
$PUCSORGBOTTOM
 10
0.0
 20
0.0
 30
0.0
  9
$PUCSORGLEFT
 10
0.0
 20
0.0
 30
0.0
  9
$PUCSORGRIGHT
 10
0.0
 20
0.0
 30
0.0
  9
$PUCSORGFRONT
 10
0.0
 20
0.0
 30
0.0
  9
$PUCSORGBACK
 10
0.0
 20
0.0
 30
0.0
  9
$USERI1
 70
     0
  9
$USERI2
 70
     0
  9
$USERI3
 70
     0
  9
$USERI4
 70
     0
  9
$USERI5
 70
     0
  9
$USERR1
 40
0.0
  9
$USERR2
 40
0.0
  9
$USERR3
 40
0.0
  9
$USERR4
 40
0.0
  9
$USERR5
 40
0.0
  9
$WORLDVIEW
 70
     1
  9
$SHADEDGE
 70
     3
  9
$SHADEDIF
 70
    70
  9
$TILEMODE
 70
     1
  9
$MAXACTVP
 70
    64
  9
$PINSBASE
 10
0.0
 20
0.0
 30
0.0
  9
$PLIMCHECK
 70
     0
  9
$PEXTMIN
 10
1.000000000000000E+20
 20
1.000000000000000E+20
 30
1.000000000000000E+20
  9
$PEXTMAX
 10
-1.000000000000000E+20
 20
-1.000000000000000E+20
 30
-1.000000000000000E+20
  9
$PLIMMIN
 10
0.0
 20
0.0
  9
$PLIMMAX
 10
12.0
 20
9.0
  9
$UNITMODE
 70
     0
  9
$VISRETAIN
 70
     1
  9
$PLINEGEN
 70
     0
  9
$PSLTSCALE
 70
     1
  9
$TREEDEPTH
 70
  3020
  9
$CMLSTYLE
  2
Standard
  9
$CMLJUST
 70
     0
  9
$CMLSCALE
 40
1.0
  9
$PROXYGRAPHICS
 70
     1
  9
$MEASUREMENT
 70
     0
  9
$CELWEIGHT
370
    -1
  9
$ENDCAPS
280
     0
  9
$JOINSTYLE
280
     0
  9
$LWDISPLAY
290
     1
  9
$INSUNITS
 70
     1
  9
$HYPERLINKBASE
  1

  9
$STYLESHEET
  1

  9
$XEDIT
290
     1
  9
$CEPSNTYPE
380
     0
  9
$PSTYLEMODE
290
     1
  9
$FINGERPRINTGUID
  2
{DAD3952C-7281-A7C4-5707-8C9B57311238}
  9
$VERSIONGUID
  2
{FAEB1C32-E019-11D5-929B-00C0DF256EC4}
  9
$EXTNAMES
290
     1
  9
$PSVPSCALE
 40
0.0
  9
$OLESTARTUP
290
     0
  9
$SORTENTS
280
   127
  9
$INDEXCTL
280
     0
  9
$HIDETEXT
280
     1
  9
$XCLIPFRAME
280
     2
  9
$HALOGAP
280
     0
  9
$OBSCOLOR
 70
   257
  9
$OBSLTYPE
280
     0
  9
$INTERSECTIONDISPLAY
280
     0
  9
$INTERSECTIONCOLOR
 70
   257
  9
$DIMASSOC
280
     2
  9
$PROJECTNAME
  1

  9
$CAMERADISPLAY
290
     0
  9
$LENSLENGTH
 40
50.0
  9
$CAMERAHEIGHT
 40
0.0
  9
$STEPSPERSEC
 40
2.0
  9
$STEPSIZE
 40
6.0
  9
$3DDWFPREC
 40
2.0
  9
$PSOLWIDTH
 40
0.25
  9
$PSOLHEIGHT
 40
4.0
  9
$LOFTANG1
 40
1.570796326794897
  9
$LOFTANG2
 40
1.570796326794897
  9
$LOFTMAG1
 40
0.0
  9
$LOFTMAG2
 40
0.0
  9
$LOFTPARAM
 70
     7
  9
$LOFTNORMALS
280
     1
  9
$LATITUDE
 40
37.795
  9
$LONGITUDE
 40
-122.394
  9
$NORTHDIRECTION
 40
0.0
  9
$TIMEZONE
 70
 -8000
  9
$LIGHTGLYPHDISPLAY
280
     1
  9
$TILEMODELIGHTSYNCH
280
     1
  9
$CMATERIAL
347
3C
  9
$SOLIDHIST
280
     1
  9
$SHOWHIST
280
     1
  9
$DWFFRAME
280
     2
  9
$DGNFRAME
280
     2
  9
$REALWORLDSCALE
290
     1
  9
$INTERFERECOLOR
 62
   256
  9
$CSHADOW
280
     0
  9
$SHADOWPLANELOCATION
 40
0.0
  0
ENDSEC
  0
SECTION
  2
CLASSES
  0
CLASS
  1
ACDBDICTIONARYWDFLT
  2
AcDbDictionaryWithDefault
  3
ObjectDBX Classes
 90
        0
 91
        4
280
     0
281
     0
  0
CLASS
  1
VISUALSTYLE
  2
AcDbVisualStyle
  3
ObjectDBX Classes
 90
     4095
 91
        4
280
     0
281
     0
  0
CLASS
  1
MATERIAL
  2
AcDbMaterial
  3
ObjectDBX Classes
 90
     1153
 91
        4
280
     0
281
     0
  0
CLASS
  1
SUN
  2
AcDbSun
  3
SCENEOE
 90
     1024
 91
        4
280
     0
281
     0
  0
ENDSEC
  0
SECTION
  2
TABLES
  0
TABLE
  2
VPORT
  5
8
330
0
100
AcDbSymbolTable
 70
     1
  0
VPORT
  5
29
330
8
100
AcDbSymbolTableRecord
100
AcDbViewportTableRecord
  2
*Active
 70
     0
 10
0.0
 20
0.0
 11
1.0
 21
1.0
 12
0.0
 22
0.0
 13
0.0
 23
0.0
 14
0.5
 24
0.5
 15
0.5
 25
0.5
 16
0.0
 26
0.0
 36
1.0
 17
91.00082462281999
 27
-128.4993055234307
 37
0.0
 40
256.9986110468615
 41
0.7081814508812795
 42
50.0
 43
0.0
 44
0.0
 50
0.0
 51
0.0
 71
     0
 72
   100
 73
     1
 74
     3
 75
     0
 76
     0
 77
     0
 78
     0
281
     0
 65
     1
110
0.0
120
0.0
130
0.0
111
1.0
121
0.0
131
0.0
112
0.0
122
1.0
132
0.0
 79
     0
146
0.0
 60
     3
 61
     5
292
     1
282
     1
141
0.0
142
0.0
 63
   250
361
3F
  0
ENDTAB
  0
TABLE
  2
LTYPE
  5
5
330
0
100
AcDbSymbolTable
 70
     1
  0
LTYPE
  5
14
330
5
100
AcDbSymbolTableRecord
100
AcDbLinetypeTableRecord
  2
ByBlock
 70
     0
  3

 72
    65
 73
     0
 40
0.0
  0
LTYPE
  5
15
330
5
100
AcDbSymbolTableRecord
100
AcDbLinetypeTableRecord
  2
ByLayer
 70
     0
  3

 72
    65
 73
     0
 40
0.0
  0
LTYPE
  5
16
330
5
100
AcDbSymbolTableRecord
100
AcDbLinetypeTableRecord
  2
Continuous
 70
     0
  3
Solid line
 72
    65
 73
     0
 40
0.0
  0
ENDTAB
  0
TABLE
  2
LAYER
  5
2
330
0
100
AcDbSymbolTable
 70
     2
  0
LAYER
  5
10
330
2
100
AcDbSymbolTableRecord
100
AcDbLayerTableRecord
  2
0
 70
     0
 62
     7
  6
Continuous
370
    -3
390
F
347
3E
  0
LAYER
  5
40
330
2
100
AcDbSymbolTableRecord
100
AcDbLayerTableRecord
  2
_U+30EC_U+30A4_U+30E4_U+30FC 1
 70
     0
 62
     7
  6
Continuous
370
    -3
390
F
347
3E
  0
ENDTAB
  0
TABLE
  2
STYLE
  5
3
330
0
100
AcDbSymbolTable
 70
     1
  0
STYLE
  5
11
330
3
100
AcDbSymbolTableRecord
100
AcDbTextStyleTableRecord
  2
Standard
 70
     0
 40
0.0
 41
1.0
 50
0.0
 71
     0
 42
0.2
  3
txt
  4

  0
ENDTAB
  0
TABLE
  2
VIEW
  5
6
330
0
100
AcDbSymbolTable
 70
     0
  0
ENDTAB
  0
TABLE
  2
UCS
  5
7
330
0
100
AcDbSymbolTable
 70
     0
  0
ENDTAB
  0
TABLE
  2
APPID
  5
9
330
0
100
AcDbSymbolTable
 70
     1
  0
APPID
  5
12
330
9
100
AcDbSymbolTableRecord
100
AcDbRegAppTableRecord
  2
ACAD
 70
     0
  0
ENDTAB
  0
TABLE
  2
DIMSTYLE
  5
A
330
0
100
AcDbSymbolTable
 70
     1
100
AcDbDimStyleTable
  0
DIMSTYLE
105
27
330
A
100
AcDbSymbolTableRecord
100
AcDbDimStyleTableRecord
  2
Standard
 70
     0
178
     0
340
11
  0
ENDTAB
  0
TABLE
  2
BLOCK_RECORD
  5
1
330
0
100
AcDbSymbolTable
 70
     6
  0
BLOCK_RECORD
  5
1F
330
1
100
AcDbSymbolTableRecord
100
AcDbBlockTableRecord
  2
*Model_Space
340
22
 70
     0
280
     1
281
     0
  0
BLOCK_RECORD
  5
1B
330
1
100
AcDbSymbolTableRecord
100
AcDbBlockTableRecord
  2
*Paper_Space
340
1E
 70
     0
280
     1
281
     0
  0
BLOCK_RECORD
  5
23
330
1
100
AcDbSymbolTableRecord
100
AcDbBlockTableRecord
  2
*Paper_Space0
340
26
 70
     0
280
     1
281
     0
  0
BLOCK_RECORD
  5
63
330
1
100
AcDbSymbolTableRecord
100
AcDbBlockTableRecord
  2
block 2
340
0
102
{BLKREFS
331
64
102
}
 70
     0
280
     1
281
     0
  0
BLOCK_RECORD
  5
78
330
1
100
AcDbSymbolTableRecord
100
AcDbBlockTableRecord
  2
block 3
340
0
102
{BLKREFS
331
79
102
}
 70
     0
280
     1
281
     0
  0
BLOCK_RECORD
  5
8A
330
1
100
AcDbSymbolTableRecord
100
AcDbBlockTableRecord
  2
block 4
340
0
102
{BLKREFS
331
8B
102
}
 70
     0
280
     1
281
     0
  0
BLOCK_RECORD
  5
90
330
1
100
AcDbSymbolTableRecord
100
AcDbBlockTableRecord
  2
block 5
340
0
102
{BLKREFS
331
91
102
}
 70
     0
280
     1
281
     0
  0
BLOCK_RECORD
  5
B4
330
1
100
AcDbSymbolTableRecord
100
AcDbBlockTableRecord
  2
block 6
340
0
102
{BLKREFS
331
B5
102
}
 70
     0
280
     1
281
     0
  0
ENDTAB
  0
ENDSEC
  0
SECTION
  2
BLOCKS
  0
BLOCK
  5
20
330
1F
100
AcDbEntity
  8
0
100
AcDbBlockBegin
  2
*Model_Space
 70
     0
 10
0.0
 20
0.0
 30
0.0
  3
*Model_Space
  1

  0
ENDBLK
  5
21
330
1F
100
AcDbEntity
  8
0
100
AcDbBlockEnd
  0
BLOCK
  5
1C
330
1B
100
AcDbEntity
 67
     1
  8
0
100
AcDbBlockBegin
  2
*Paper_Space
 70
     0
 10
0.0
 20
0.0
 30
0.0
  3
*Paper_Space
  1

  0
ENDBLK
  5
1D
330
1B
100
AcDbEntity
 67
     1
  8
0
100
AcDbBlockEnd
  0
BLOCK
  5
24
330
23
100
AcDbEntity
  8
0
100
AcDbBlockBegin
  2
*Paper_Space0
 70
     0
 10
0.0
 20
0.0
 30
0.0
  3
*Paper_Space0
  1

  0
ENDBLK
  5
25
330
23
100
AcDbEntity
  8
0
100
AcDbBlockEnd
  0
BLOCK
  5
65
330
63
100
AcDbEntity
  8
0
100
AcDbBlockBegin
  2
block 2
 70
     0
 10
0.0
 20
0.0
 30
0.0
  3
block 2
  1

  0
SPLINE
  5
67
330
63
100
AcDbEntity
  8
_U+30EC_U+30A4_U+30E4_U+30FC 1
370
     0
100
AcDbSpline
210
0.0
220
0.0
230
1.0
 70
    11
 71
     3
 72
    26
 73
    22
 74
     0
 42
0.0000000001
 43
0.0000000001
 12
1.0
 22
0.0
 32
0.0
 13
1.0
 23
0.0
 33
0.0
 40
0.0
 40
0.0
 40
0.0
 40
0.0
 40
1.0
 40
1.0
 40
1.0
 40
2.0
 40
2.0
 40
2.0
 40
3.0
 40
3.0
 40
3.0
 40
4.0
 40
4.0
 40
4.0
 40
5.0
 40
5.0
 40
5.0
 40
6.0
 40
6.0
 40
6.0
 40
7.0
 40
7.0
 40
7.0
 40
7.0
 10
81.85874157024712
 20
-141.7653347084823
 30
0.0
 10
81.85874157024712
 20
-141.7653347084823
 30
0.0
 10
81.85874157024712
 20
-140.6611816054597
 30
0.0
 10
81.85874157024712
 20
-140.6611816054597
 30
0.0
 10
81.85874157024712
 20
-140.6611816054597
 30
0.0
 10
81.5287014227602
 20
-140.6611816054597
 30
0.0
 10
81.5287014227602
 20
-140.6611816054597
 30
0.0
 10
81.5287014227602
 20
-140.6611816054597
 30
0.0
 10
81.5287014227602
 20
-140.513042499594
 30
0.0
 10
81.5287014227602
 20
-140.513042499594
 30
0.0
 10
81.86080862753828
 20
-140.4982285890074
 30
0.0
 10
81.90731741658915
 20
-140.3352755725551
 30
0.0
 10
81.9369452377623
 20
-140.2208984024448
 30
0.0
 10
81.9369452377623
 20
-140.2208984024448
 30
0.0
 10
82.08301728633688
 20
-140.2208984024448
 30
0.0
 10
82.08301728633688
 20
-140.2208984024448
 30
0.0
 10
82.08301728633688
 20
-140.2208984024448
 30
0.0
 10
82.08301728633688
 20
-141.7653347084823
 30
0.0
 10
82.08301728633688
 20
-141.7653347084823
 30
0.0
 10
82.08301728633688
 20
-141.7653347084823
 30
0.0
 10
81.85874157024712
 20
-141.7653347084823
 30
0.0
 10
81.85874157024712
 20
-141.7653347084823
 30
0.0
  0
HATCH
  5
68
330
63
100
AcDbEntity
  8
_U+30EC_U+30A4_U+30E4_U+30FC 1
 62
   179
420
  2234388
100
AcDbHatch
 10
0.0
 20
0.0
 30
0.0
210
0.0
220
0.0
230
1.0
  2
SOLID
 70
     1
 71
     0
 91
        1
 92
        1
 93
        1
 72
     4
 94
        3
 73
     0
 74
     1
 95
       26
 96
       22
 40
0.0
 40
0.0
 40
0.0
 40
0.0
 40
1.0
 40
1.0
 40
1.0
 40
2.0
 40
2.0
 40
2.0
 40
3.0
 40
3.0
 40
3.0
 40
4.0
 40
4.0
 40
4.0
 40
5.0
 40
5.0
 40
5.0
 40
6.0
 40
6.0
 40
6.0
 40
7.0
 40
7.0
 40
7.0
 40
7.0
 10
81.85874157024712
 20
-141.7653347084823
 10
81.85874157024712
 20
-141.7653347084823
 10
81.85874157024712
 20
-140.6611816054597
 10
81.85874157024712
 20
-140.6611816054597
 10
81.85874157024712
 20
-140.6611816054597
 10
81.5287014227602
 20
-140.6611816054597
 10
81.5287014227602
 20
-140.6611816054597
 10
81.5287014227602
 20
-140.6611816054597
 10
81.5287014227602
 20
-140.513042499594
 10
81.5287014227602
 20
-140.513042499594
 10
81.86080862753828
 20
-140.4982285890074
 10
81.90731741658915
 20
-140.3352755725551
 10
81.9369452377623
 20
-140.2208984024448
 10
81.9369452377623
 20
-140.2208984024448
 10
82.08301728633688
 20
-140.2208984024448
 10
82.08301728633688
 20
-140.2208984024448
 10
82.08301728633688
 20
-140.2208984024448
 10
82.08301728633688
 20
-141.7653347084823
 10
82.08301728633688
 20
-141.7653347084823
 10
82.08301728633688
 20
-141.7653347084823
 10
81.85874157024712
 20
-141.7653347084823
 10
81.85874157024712
 20
-141.7653347084823
 97
        0
 97
        0
 75
     2
 76
     1
 98
        0
  0
SPLINE
  5
69
330
63
100
AcDbEntity
  8
_U+30EC_U+30A4_U+30E4_U+30FC 1
370
     0
100
AcDbSpline
210
0.0
220
0.0
230
1.0
 70
    11
 71
     3
 72
    29
 73
    25
 74
     0
 42
0.0000000001
 43
0.0000000001
 12
1.0
 22
0.0
 32
0.0
 13
1.0
 23
0.0
 33
0.0
 40
0.0
 40
0.0
 40
0.0
 40
0.0
 40
1.0
 40
1.0
 40
1.0
 40
2.0
 40
2.0
 40
2.0
 40
3.0
 40
3.0
 40
3.0
 40
4.0
 40
4.0
 40
4.0
 40
5.0
 40
5.0
 40
5.0
 40
6.0
 40
6.0
 40
6.0
 40
7.0
 40
7.0
 40
7.0
 40
8.0
 40
8.0
 40
8.0
 40
8.0
 10
83.48207056289685
 20
-141.5875677814434
 30
0.0
 10
83.37389456466
 20
-141.7970295869466
 30
0.0
 10
83.20060626175193
 20
-141.8159776121155
 30
0.0
 10
83.08416203435048
 20
-141.8159776121155
 30
0.0
 10
82.92327607518932
 20
-141.8159776121155
 30
0.0
 10
82.78168265074555
 20
-141.7694688230646
 30
0.0
 10
82.68659801535266
 20
-141.5875677814434
 30
0.0
 10
82.58290064124664
 20
-141.3929198865268
 30
0.0
 10
82.56395261607777
 20
-141.1562418266901
 30
0.0
 10
82.56395261607777
 20
-140.9932888102378
 30
0.0
 10
82.56395261607777
 20
-140.8492838189543
 30
0.0
 10
82.5808335839555
 20
-140.5974473389826
 30
0.0
 10
82.68659801535266
 20
-140.3986653294837
 30
0.0
 10
82.79442950404098
 20
-140.1957492054024
 30
0.0
 10
82.95531546320214
 20
-140.1723225561028
 30
0.0
 10
83.08416203435048
 20
-140.1723225561028
 30
0.0
 10
83.2429809362205
 20
-140.1723225561028
 30
0.0
 10
83.38664141795543
 20
-140.2167642878625
 30
0.0
 10
83.48207056289685
 20
-140.3986653294837
 30
0.0
 10
83.58128931287204
 20
-140.5912461671091
 30
0.0
 10
83.60471596217174
 20
-140.8196559977812
 30
0.0
 10
83.60471596217174
 20
-140.9932888102378
 30
0.0
 10
83.60471596217174
 20
-141.1645100558547
 30
0.0
 10
83.58335637016319
 20
-141.3949869438179
 30
0.0
 10
83.48207056289685
 20
-141.5875677814434
 30
0.0
  0
SPLINE
  5
6A
330
63
100
AcDbEntity
  8
_U+30EC_U+30A4_U+30E4_U+30FC 1
370
     0
100
AcDbSpline
210
0.0
220
0.0
230
1.0
 70
    11
 71
     3
 72
    17
 73
    13
 74
     0
 42
0.0000000001
 43
0.0000000001
 12
1.0
 22
0.0
 32
0.0
 13
1.0
 23
0.0
 33
0.0
 40
0.0
 40
0.0
 40
0.0
 40
0.0
 40
1.0
 40
1.0
 40
1.0
 40
2.0
 40
2.0
 40
2.0
 40
3.0
 40
3.0
 40
3.0
 40
4.0
 40
4.0
 40
4.0
 40
4.0
 10
83.08416203435048
 20
-140.3649033937282
 30
0.0
 10
82.8347371212184
 20
-140.3649033937282
 30
0.0
 10
82.78788382261901
 20
-140.6484347521643
 30
0.0
 10
82.78788382261901
 20
-140.9932888102378
 30
0.0
 10
82.78788382261901
 20
-141.3126491617205
 30
0.0
 10
82.82405732521413
 20
-141.6213297171988
 30
0.0
 10
83.08416203435048
 20
-141.6213297171988
 30
0.0
 10
83.33186439973996
 20
-141.6213297171988
 30
0.0
 10
83.38044024608197
 20
-141.3402099256025
 30
0.0
 10
83.38044024608197
 20
-140.9932888102378
 30
0.0
 10
83.38044024608197
 20
-140.6735839492066
 30
0.0
 10
83.3421996861957
 20
-140.3649033937282
 30
0.0
 10
83.08416203435048
 20
-140.3649033937282
 30
0.0
  0
HATCH
  5
6B
330
63
100
AcDbEntity
  8
_U+30EC_U+30A4_U+30E4_U+30FC 1
 62
   179
420
  2234388
100
AcDbHatch
 10
0.0
 20
0.0
 30
0.0
210
0.0
220
0.0
230
1.0
  2
SOLID
 70
     1
 71
     0
 91
        2
 92
        1
 93
        1
 72
     4
 94
        3
 73
     0
 74
     1
 95
       29
 96
       25
 40
0.0
 40
0.0
 40
0.0
 40
0.0
 40
1.0
 40
1.0
 40
1.0
 40
2.0
 40
2.0
 40
2.0
 40
3.0
 40
3.0
 40
3.0
 40
4.0
 40
4.0
 40
4.0
 40
5.0
 40
5.0
 40
5.0
 40
6.0
 40
6.0
 40
6.0
 40
7.0
 40
7.0
 40
7.0
 40
8.0
 40
8.0
 40
8.0
 40
8.0
 10
83.48207056289685
 20
-141.5875677814434
 10
83.37389456466
 20
-141.7970295869466
 10
83.20060626175193
 20
-141.8159776121155
 10
83.08416203435048
 20
-141.8159776121155
 10
82.92327607518932
 20
-141.8159776121155
 10
82.78168265074555
 20
-141.7694688230646
 10
82.68659801535266
 20
-141.5875677814434
 10
82.58290064124664
 20
-141.3929198865268
 10
82.56395261607777
 20
-141.1562418266901
 10
82.56395261607777
 20
-140.9932888102378
 10
82.56395261607777
 20
-140.8492838189543
 10
82.5808335839555
 20
-140.5974473389826
 10
82.68659801535266
 20
-140.3986653294837
 10
82.79442950404098
 20
-140.1957492054024
 10
82.95531546320214
 20
-140.1723225561028
 10
83.08416203435048
 20
-140.1723225561028
 10
83.2429809362205
 20
-140.1723225561028
 10
83.38664141795543
 20
-140.2167642878625
 10
83.48207056289685
 20
-140.3986653294837
 10
83.58128931287204
 20
-140.5912461671091
 10
83.60471596217174
 20
-140.8196559977812
 10
83.60471596217174
 20
-140.9932888102378
 10
83.60471596217174
 20
-141.1645100558547
 10
83.58335637016319
 20
-141.3949869438179
 10
83.48207056289685
 20
-141.5875677814434
 97
        0
 97
        0
 92
        1
 93
        1
 72
     4
 94
        3
 73
     0
 74
     1
 95
       17
 96
       13
 40
0.0
 40
0.0
 40
0.0
 40
0.0
 40
1.0
 40
1.0
 40
1.0
 40
2.0
 40
2.0
 40
2.0
 40
3.0
 40
3.0
 40
3.0
 40
4.0
 40
4.0
 40
4.0
 40
4.0
 10
83.08416203435048
 20
-140.3649033937282
 10
82.8347371212184
 20
-140.3649033937282
 10
82.78788382261901
 20
-140.6484347521643
 10
82.78788382261901
 20
-140.9932888102378
 10
82.78788382261901
 20
-141.3126491617205
 10
82.82405732521413
 20
-141.6213297171988
 10
83.08416203435048
 20
-141.6213297171988
 10
83.33186439973996
 20
-141.6213297171988
 10
83.38044024608197
 20
-141.3402099256025
 10
83.38044024608197
 20
-140.9932888102378
 10
83.38044024608197
 20
-140.6735839492066
 10
83.3421996861957
 20
-140.3649033937282
 10
83.08416203435048
 20
-140.3649033937282
 97
        0
 97
        0
 75
     2
 76
     1
 98
        0
  0
ENDBLK
  5
66
330
63
100
AcDbEntity
  8
0
100
AcDbBlockEnd
  0
BLOCK
  5
7A
330
78
100
AcDbEntity
  8
0
100
AcDbBlockBegin
  2
block 3
 70
     0
 10
0.0
 20
0.0
 30
0.0
  3
block 3
  1

  0
SPLINE
  5
7C
330
78
100
AcDbEntity
  8
_U+30EC_U+30A4_U+30E4_U+30FC 1
370
     0
100
AcDbSpline
210
0.0
220
0.0
230
1.0
 70
    11
 71
     3
 72
    26
 73
    22
 74
     0
 42
0.0000000001
 43
0.0000000001
 12
1.0
 22
0.0
 32
0.0
 13
1.0
 23
0.0
 33
0.0
 40
0.0
 40
0.0
 40
0.0
 40
0.0
 40
1.0
 40
1.0
 40
1.0
 40
2.0
 40
2.0
 40
2.0
 40
3.0
 40
3.0
 40
3.0
 40
4.0
 40
4.0
 40
4.0
 40
5.0
 40
5.0
 40
5.0
 40
6.0
 40
6.0
 40
6.0
 40
7.0
 40
7.0
 40
7.0
 40
7.0
 10
103.0297146009787
 20
-129.2847872940677
 30
0.0
 10
103.0297146009787
 20
-129.2847872940677
 30
0.0
 10
101.9252169884076
 20
-129.2847872940677
 30
0.0
 10
101.9252169884076
 20
-129.2847872940677
 30
0.0
 10
101.9252169884076
 20
-129.2847872940677
 30
0.0
 10
101.9252169884076
 20
-129.6148274415546
 30
0.0
 10
101.9252169884076
 20
-129.6148274415546
 30
0.0
 10
101.9252169884076
 20
-129.6148274415546
 30
0.0
 10
101.7770778825418
 20
-129.6148274415546
 30
0.0
 10
101.7770778825418
 20
-129.6148274415546
 30
0.0
 10
101.7626084815038
 20
-129.2827202367766
 30
0.0
 10
101.5996554650515
 20
-129.2362114477257
 30
0.0
 10
101.4856228044897
 20
-129.2065836265525
 30
0.0
 10
101.4856228044897
 20
-129.2065836265525
 30
0.0
 10
101.4856228044897
 20
-129.0605115779779
 30
0.0
 10
101.4856228044897
 20
-129.0605115779779
 30
0.0
 10
101.4856228044897
 20
-129.0605115779779
 30
0.0
 10
103.0297146009787
 20
-129.0605115779779
 30
0.0
 10
103.0297146009787
 20
-129.0605115779779
 30
0.0
 10
103.0297146009787
 20
-129.0605115779779
 30
0.0
 10
103.0297146009787
 20
-129.2847872940677
 30
0.0
 10
103.0297146009787
 20
-129.2847872940677
 30
0.0
  0
HATCH
  5
7D
330
78
100
AcDbEntity
  8
_U+30EC_U+30A4_U+30E4_U+30FC 1
 62
   179
420
  2234388
100
AcDbHatch
 10
0.0
 20
0.0
 30
0.0
210
0.0
220
0.0
230
1.0
  2
SOLID
 70
     1
 71
     0
 91
        1
 92
        1
 93
        1
 72
     4
 94
        3
 73
     0
 74
     1
 95
       26
 96
       22
 40
0.0
 40
0.0
 40
0.0
 40
0.0
 40
1.0
 40
1.0
 40
1.0
 40
2.0
 40
2.0
 40
2.0
 40
3.0
 40
3.0
 40
3.0
 40
4.0
 40
4.0
 40
4.0
 40
5.0
 40
5.0
 40
5.0
 40
6.0
 40
6.0
 40
6.0
 40
7.0
 40
7.0
 40
7.0
 40
7.0
 10
103.0297146009787
 20
-129.2847872940677
 10
103.0297146009787
 20
-129.2847872940677
 10
101.9252169884076
 20
-129.2847872940677
 10
101.9252169884076
 20
-129.2847872940677
 10
101.9252169884076
 20
-129.2847872940677
 10
101.9252169884076
 20
-129.6148274415546
 10
101.9252169884076
 20
-129.6148274415546
 10
101.9252169884076
 20
-129.6148274415546
 10
101.7770778825418
 20
-129.6148274415546
 10
101.7770778825418
 20
-129.6148274415546
 10
101.7626084815038
 20
-129.2827202367766
 10
101.5996554650515
 20
-129.2362114477257
 10
101.4856228044897
 20
-129.2065836265525
 10
101.4856228044897
 20
-129.2065836265525
 10
101.4856228044897
 20
-129.0605115779779
 10
101.4856228044897
 20
-129.0605115779779
 10
101.4856228044897
 20
-129.0605115779779
 10
103.0297146009787
 20
-129.0605115779779
 10
103.0297146009787
 20
-129.0605115779779
 10
103.0297146009787
 20
-129.0605115779779
 10
103.0297146009787
 20
-129.2847872940677
 10
103.0297146009787
 20
-129.2847872940677
 97
        0
 97
        0
 75
     2
 76
     1
 98
        0
  0
SPLINE
  5
7E
330
78
100
AcDbEntity
  8
_U+30EC_U+30A4_U+30E4_U+30FC 1
370
     0
100
AcDbSpline
210
0.0
220
0.0
230
1.0
 70
    11
 71
     3
 72
    53
 73
    49
 74
     0
 42
0.0000000001
 43
0.0000000001
 12
1.0
 22
0.0
 32
0.0
 13
1.0
 23
0.0
 33
0.0
 40
0.0
 40
0.0
 40
0.0
 40
0.0
 40
1.0
 40
1.0
 40
1.0
 40
2.0
 40
2.0
 40
2.0
 40
3.0
 40
3.0
 40
3.0
 40
4.0
 40
4.0
 40
4.0
 40
5.0
 40
5.0
 40
5.0
 40
6.0
 40
6.0
 40
6.0
 40
7.0
 40
7.0
 40
7.0
 40
8.0
 40
8.0
 40
8.0
 40
9.0
 40
9.0
 40
9.0
 40
10.0
 40
10.0
 40
10.0
 40
11.0
 40
11.0
 40
11.0
 40
12.0
 40
12.0
 40
12.0
 40
13.0
 40
13.0
 40
13.0
 40
14.0
 40
14.0
 40
14.0
 40
15.0
 40
15.0
 40
15.0
 40
16.0
 40
16.0
 40
16.0
 40
16.0
 10
103.0807020141604
 20
-128.0783148551332
 30
0.0
 10
103.0807020141604
 20
-128.1566907774226
 30
0.0
 10
103.0634765367341
 20
-128.2581488394632
 30
0.0
 10
103.0000867798055
 20
-128.3597791562781
 30
0.0
 10
102.8898437242775
 20
-128.5332397139605
 30
0.0
 10
102.7589300958381
 20
-128.5544270511947
 30
0.0
 10
102.6510986071497
 20
-128.5733750763636
 30
0.0
 10
102.6510986071497
 20
-128.5733750763636
 30
0.0
 10
102.6510986071497
 20
-128.3513386723393
 30
0.0
 10
102.6510986071497
 20
-128.3513386723393
 30
0.0
 10
102.8498806166486
 20
-128.2962171445753
 30
0.0
 10
102.8795084378218
 20
-128.1692653759438
 30
0.0
 10
102.8795084378218
 20
-128.0762477978421
 30
0.0
 10
102.8795084378218
 20
-127.9367214306894
 30
0.0
 10
102.7802896878466
 20
-127.7842759554671
 30
0.0
 10
102.5474012330437
 20
-127.7842759554671
 30
0.0
 10
102.2914306384896
 20
-127.7842759554671
 30
0.0
 10
102.2214952001391
 20
-127.9641099397972
 30
0.0
 10
102.2214952001391
 20
-128.0846882817809
 30
0.0
 10
102.2214952001391
 20
-128.1163831602452
 30
0.0
 10
102.2214952001391
 20
-128.2581488394632
 30
0.0
 10
102.3506862808359
 20
-128.3470323029827
 30
0.0
 10
102.3506862808359
 20
-128.3470323029827
 30
0.0
 10
102.3317382556671
 20
-128.5225599179562
 30
0.0
 10
102.3317382556671
 20
-128.5225599179562
 30
0.0
 10
102.3317382556671
 20
-128.5225599179562
 30
0.0
 10
101.4856228044897
 20
-128.4019815759724
 30
0.0
 10
101.4856228044897
 20
-128.4019815759724
 30
0.0
 10
101.4856228044897
 20
-128.4019815759724
 30
0.0
 10
101.4856228044897
 20
-127.6235622510802
 30
0.0
 10
101.4856228044897
 20
-127.6235622510802
 30
0.0
 10
101.4856228044897
 20
-127.6235622510802
 30
0.0
 10
101.6799261898578
 20
-127.6235622510802
 30
0.0
 10
101.6799261898578
 20
-127.6235622510802
 30
0.0
 10
101.6799261898578
 20
-127.6235622510802
 30
0.0
 10
101.6799261898578
 20
-128.2392008142944
 30
0.0
 10
101.6799261898578
 20
-128.2392008142944
 30
0.0
 10
101.6799261898578
 20
-128.2392008142944
 30
0.0
 10
102.1029839154465
 20
-128.3046576285141
 30
0.0
 10
102.1029839154465
 20
-128.3046576285141
 30
0.0
 10
102.069221979691
 20
-128.2433349288767
 30
0.0
 10
102.0292588720621
 20
-128.1608248920049
 30
0.0
 10
102.0292588720621
 20
-128.0424858620866
 30
0.0
 10
102.0292588720621
 20
-127.7885823248237
 30
0.0
 10
102.2152940282656
 20
-127.5515597554385
 30
0.0
 10
102.5281086983263
 20
-127.5515597554385
 30
0.0
 10
102.8457465020663
 20
-127.5515597554385
 30
0.0
 10
103.0807020141604
 20
-127.7758354715283
 30
0.0
 10
103.0807020141604
 20
-128.0783148551332
 30
0.0
  0
HATCH
  5
7F
330
78
100
AcDbEntity
  8
_U+30EC_U+30A4_U+30E4_U+30FC 1
 62
   179
420
  2234388
100
AcDbHatch
 10
0.0
 20
0.0
 30
0.0
210
0.0
220
0.0
230
1.0
  2
SOLID
 70
     1
 71
     0
 91
        1
 92
        1
 93
        1
 72
     4
 94
        3
 73
     0
 74
     1
 95
       53
 96
       49
 40
0.0
 40
0.0
 40
0.0
 40
0.0
 40
1.0
 40
1.0
 40
1.0
 40
2.0
 40
2.0
 40
2.0
 40
3.0
 40
3.0
 40
3.0
 40
4.0
 40
4.0
 40
4.0
 40
5.0
 40
5.0
 40
5.0
 40
6.0
 40
6.0
 40
6.0
 40
7.0
 40
7.0
 40
7.0
 40
8.0
 40
8.0
 40
8.0
 40
9.0
 40
9.0
 40
9.0
 40
10.0
 40
10.0
 40
10.0
 40
11.0
 40
11.0
 40
11.0
 40
12.0
 40
12.0
 40
12.0
 40
13.0
 40
13.0
 40
13.0
 40
14.0
 40
14.0
 40
14.0
 40
15.0
 40
15.0
 40
15.0
 40
16.0
 40
16.0
 40
16.0
 40
16.0
 10
103.0807020141604
 20
-128.0783148551332
 10
103.0807020141604
 20
-128.1566907774226
 10
103.0634765367341
 20
-128.2581488394632
 10
103.0000867798055
 20
-128.3597791562781
 10
102.8898437242775
 20
-128.5332397139605
 10
102.7589300958381
 20
-128.5544270511947
 10
102.6510986071497
 20
-128.5733750763636
 10
102.6510986071497
 20
-128.5733750763636
 10
102.6510986071497
 20
-128.3513386723393
 10
102.6510986071497
 20
-128.3513386723393
 10
102.8498806166486
 20
-128.2962171445753
 10
102.8795084378218
 20
-128.1692653759438
 10
102.8795084378218
 20
-128.0762477978421
 10
102.8795084378218
 20
-127.9367214306894
 10
102.7802896878466
 20
-127.7842759554671
 10
102.5474012330437
 20
-127.7842759554671
 10
102.2914306384896
 20
-127.7842759554671
 10
102.2214952001391
 20
-127.9641099397972
 10
102.2214952001391
 20
-128.0846882817809
 10
102.2214952001391
 20
-128.1163831602452
 10
102.2214952001391
 20
-128.2581488394632
 10
102.3506862808359
 20
-128.3470323029827
 10
102.3506862808359
 20
-128.3470323029827
 10
102.3317382556671
 20
-128.5225599179562
 10
102.3317382556671
 20
-128.5225599179562
 10
102.3317382556671
 20
-128.5225599179562
 10
101.4856228044897
 20
-128.4019815759724
 10
101.4856228044897
 20
-128.4019815759724
 10
101.4856228044897
 20
-128.4019815759724
 10
101.4856228044897
 20
-127.6235622510802
 10
101.4856228044897
 20
-127.6235622510802
 10
101.4856228044897
 20
-127.6235622510802
 10
101.6799261898578
 20
-127.6235622510802
 10
101.6799261898578
 20
-127.6235622510802
 10
101.6799261898578
 20
-127.6235622510802
 10
101.6799261898578
 20
-128.2392008142944
 10
101.6799261898578
 20
-128.2392008142944
 10
101.6799261898578
 20
-128.2392008142944
 10
102.1029839154465
 20
-128.3046576285141
 10
102.1029839154465
 20
-128.3046576285141
 10
102.069221979691
 20
-128.2433349288767
 10
102.0292588720621
 20
-128.1608248920049
 10
102.0292588720621
 20
-128.0424858620866
 10
102.0292588720621
 20
-127.7885823248237
 10
102.2152940282656
 20
-127.5515597554385
 10
102.5281086983263
 20
-127.5515597554385
 10
102.8457465020663
 20
-127.5515597554385
 10
103.0807020141604
 20
-127.7758354715283
 10
103.0807020141604
 20
-128.0783148551332
 97
        0
 97
        0
 75
     2
 76
     1
 98
        0
  0
POLYLINE
  5
80
330
78
100
AcDbEntity
  8
_U+30EC_U+30A4_U+30E4_U+30FC 1
370
     0
100
AcDb2dPolyline
 66
     1
 10
0.0
 20
0.0
 30
0.0
  0
VERTEX
  5
81
330
80
100
AcDbEntity
  8
_U+30EC_U+30A4_U+30E4_U+30FC 1
370
     0
100
AcDbVertex
100
AcDb2dVertex
 10
103.0297146009787
 20
-127.3224609056694
 30
0.0
  0
VERTEX
  5
82
330
80
100
AcDbEntity
  8
_U+30EC_U+30A4_U+30E4_U+30FC 1
370
     0
100
AcDbVertex
100
AcDb2dVertex
 10
102.7782226305554
 20
-127.3224609056694
 30
0.0
  0
VERTEX
  5
83
330
80
100
AcDbEntity
  8
_U+30EC_U+30A4_U+30E4_U+30FC 1
370
     0
100
AcDbVertex
100
AcDb2dVertex
 10
102.7782226305554
 20
-127.0707966804719
 30
0.0
  0
VERTEX
  5
84
330
80
100
AcDbEntity
  8
_U+30EC_U+30A4_U+30E4_U+30FC 1
370
     0
100
AcDbVertex
100
AcDb2dVertex
 10
103.0297146009787
 20
-127.0707966804719
 30
0.0
  0
VERTEX
  5
85
330
80
100
AcDbEntity
  8
_U+30EC_U+30A4_U+30E4_U+30FC 1
370
     0
100
AcDbVertex
100
AcDb2dVertex
 10
103.0297146009787
 20
-127.3224609056694
 30
0.0
  0
SEQEND
  5
86
330
80
100
AcDbEntity
  8
_U+30EC_U+30A4_U+30E4_U+30FC 1
370
     0
  0
HATCH
  5
87
330
78
100
AcDbEntity
  8
_U+30EC_U+30A4_U+30E4_U+30FC 1
 62
   179
420
  2234388
100
AcDbHatch
 10
0.0
 20
0.0
 30
0.0
210
0.0
220
0.0
230
1.0
  2
SOLID
 70
     1
 71
     0
 91
        1
 92
        1
 93
        4
 72
     1
 10
103.0297146009787
 20
-127.3224609056694
 11
102.7782226305554
 21
-127.3224609056694
 72
     1
 10
102.7782226305554
 20
-127.3224609056694
 11
102.7782226305554
 21
-127.0707966804719
 72
     1
 10
102.7782226305554
 20
-127.0707966804719
 11
103.0297146009787
 21
-127.0707966804719
 72
     1
 10
103.0297146009787
 20
-127.0707966804719
 11
103.0297146009787
 21
-127.3224609056694
 97
        0
 75
     2
 76
     1
 98
        0
  0
SPLINE
  5
88
330
78
100
AcDbEntity
  8
_U+30EC_U+30A4_U+30E4_U+30FC 1
370
     0
100
AcDbSpline
210
0.0
220
0.0
230
1.0
 70
    11
 71
     3
 72
    62
 73
    58
 74
     0
 42
0.0000000001
 43
0.0000000001
 12
1.0
 22
0.0
 32
0.0
 13
1.0
 23
0.0
 33
0.0
 40
0.0
 40
0.0
 40
0.0
 40
0.0
 40
1.0
 40
1.0
 40
1.0
 40
2.0
 40
2.0
 40
2.0
 40
3.0
 40
3.0
 40
3.0
 40
4.0
 40
4.0
 40
4.0
 40
5.0
 40
5.0
 40
5.0
 40
6.0
 40
6.0
 40
6.0
 40
7.0
 40
7.0
 40
7.0
 40
8.0
 40
8.0
 40
8.0
 40
9.0
 40
9.0
 40
9.0
 40
10.0
 40
10.0
 40
10.0
 40
11.0
 40
11.0
 40
11.0
 40
12.0
 40
12.0
 40
12.0
 40
13.0
 40
13.0
 40
13.0
 40
14.0
 40
14.0
 40
14.0
 40
15.0
 40
15.0
 40
15.0
 40
16.0
 40
16.0
 40
16.0
 40
17.0
 40
17.0
 40
17.0
 40
18.0
 40
18.0
 40
18.0
 40
19.0
 40
19.0
 40
19.0
 40
19.0
 10
103.0807020141604
 20
-126.3426757496643
 30
0.0
 10
103.0807020141604
 20
-126.4379326398315
 30
0.0
 10
103.0593424221518
 20
-126.6558349292736
 30
0.0
 10
102.8733072659483
 20
-126.7805473858396
 30
0.0
 10
102.7609971531292
 20
-126.8546169387725
 30
0.0
 10
102.661778403154
 20
-126.858923308129
 30
0.0
 10
102.5770290542169
 20
-126.8630574227113
 30
0.0
 10
102.5770290542169
 20
-126.8630574227113
 30
0.0
 10
102.5770290542169
 20
-126.6430880759781
 30
0.0
 10
102.5770290542169
 20
-126.6430880759781
 30
0.0
 10
102.6510986071497
 20
-126.641021018687
 30
0.0
 10
102.8857096096952
 20
-126.6303412226827
 30
0.0
 10
102.8857096096952
 20
-126.3468098642466
 30
0.0
 10
102.8857096096952
 20
-126.2093505543852
 30
0.0
 10
102.8161186808932
 20
-126.0570773339371
 30
0.0
 10
102.5873643406726
 20
-126.0570773339371
 30
0.0
 10
102.4712646228197
 20
-126.0570773339371
 30
0.0
 10
102.4226887764777
 20
-126.0951456390491
 30
0.0
 10
102.3909938980134
 20
-126.1268405175134
 30
0.0
 10
102.316579835532
 20
-126.2009100704463
 30
0.0
 10
102.3041774917851
 20
-126.3173542978478
 30
0.0
 10
102.3041774917851
 20
-126.3723035708375
 30
0.0
 10
102.3041774917851
 20
-126.3912515960064
 30
0.0
 10
102.3062445490762
 20
-126.4272528438272
 30
0.0
 10
102.3103786636585
 20
-126.4548136077092
 30
0.0
 10
102.3103786636585
 20
-126.4548136077092
 30
0.0
 10
102.1160752782904
 20
-126.4548136077092
 30
0.0
 10
102.1160752782904
 20
-126.4548136077092
 30
0.0
 10
102.1222764501639
 20
-126.4167453025972
 30
0.0
 10
102.124343507455
 20
-126.3743706281286
 30
0.0
 10
102.124343507455
 20
-126.3679972014809
 30
0.0
 10
102.124343507455
 20
-126.3025403872612
 30
0.0
 10
102.1029839154465
 20
-126.103586122988
 30
0.0
 10
101.8659613460613
 20
-126.103586122988
 30
0.0
 10
101.6885389285709
 20
-126.103586122988
 30
0.0
 10
101.6334174008069
 20
-126.234844260976
 30
0.0
 10
101.6334174008069
 20
-126.3447428069555
 30
0.0
 10
101.6334174008069
 20
-126.6091538854484
 30
0.0
 10
101.8659613460613
 20
-126.6175943693873
 30
0.0
 10
101.9383083512515
 20
-126.6219007387438
 30
0.0
 10
101.9383083512515
 20
-126.6219007387438
 30
0.0
 10
101.9383083512515
 20
-126.8249891175993
 30
0.0
 10
101.9383083512515
 20
-126.8249891175993
 30
0.0
 10
101.813251385137
 20
-126.8165486336604
 30
0.0
 10
101.4367024485992
 20
-126.7889878697785
 30
0.0
 10
101.4367024485992
 20
-126.3321682084343
 30
0.0
 10
101.4367024485992
 20
-126.1078924923446
 30
0.0
 10
101.5634819624564
 20
-125.8667358083771
 30
0.0
 10
101.8597601741878
 20
-125.8667358083771
 30
0.0
 10
102.0457953303913
 20
-125.8667358083771
 30
0.0
 10
102.1284776220373
 20
-125.96182044377
 30
0.0
 10
102.1898003216748
 20
-126.0613837032937
 30
0.0
 10
102.2173610855568
 20
-125.999888748882
 30
0.0
 10
102.2979763199116
 20
-125.8179877072608
 30
0.0
 10
102.5749619969257
 20
-125.8179877072608
 30
0.0
 10
102.9132703735772
 20
-125.8179877072608
 30
0.0
 10
103.0807020141604
 20
-126.065517817876
 30
0.0
 10
103.0807020141604
 20
-126.3426757496643
 30
0.0
  0
HATCH
  5
89
330
78
100
AcDbEntity
  8
_U+30EC_U+30A4_U+30E4_U+30FC 1
 62
   179
420
  2234388
100
AcDbHatch
 10
0.0
 20
0.0
 30
0.0
210
0.0
220
0.0
230
1.0
  2
SOLID
 70
     1
 71
     0
 91
        1
 92
        1
 93
        1
 72
     4
 94
        3
 73
     0
 74
     1
 95
       62
 96
       58
 40
0.0
 40
0.0
 40
0.0
 40
0.0
 40
1.0
 40
1.0
 40
1.0
 40
2.0
 40
2.0
 40
2.0
 40
3.0
 40
3.0
 40
3.0
 40
4.0
 40
4.0
 40
4.0
 40
5.0
 40
5.0
 40
5.0
 40
6.0
 40
6.0
 40
6.0
 40
7.0
 40
7.0
 40
7.0
 40
8.0
 40
8.0
 40
8.0
 40
9.0
 40
9.0
 40
9.0
 40
10.0
 40
10.0
 40
10.0
 40
11.0
 40
11.0
 40
11.0
 40
12.0
 40
12.0
 40
12.0
 40
13.0
 40
13.0
 40
13.0
 40
14.0
 40
14.0
 40
14.0
 40
15.0
 40
15.0
 40
15.0
 40
16.0
 40
16.0
 40
16.0
 40
17.0
 40
17.0
 40
17.0
 40
18.0
 40
18.0
 40
18.0
 40
19.0
 40
19.0
 40
19.0
 40
19.0
 10
103.0807020141604
 20
-126.3426757496643
 10
103.0807020141604
 20
-126.4379326398315
 10
103.0593424221518
 20
-126.6558349292736
 10
102.8733072659483
 20
-126.7805473858396
 10
102.7609971531292
 20
-126.8546169387725
 10
102.661778403154
 20
-126.858923308129
 10
102.5770290542169
 20
-126.8630574227113
 10
102.5770290542169
 20
-126.8630574227113
 10
102.5770290542169
 20
-126.6430880759781
 10
102.5770290542169
 20
-126.6430880759781
 10
102.6510986071497
 20
-126.641021018687
 10
102.8857096096952
 20
-126.6303412226827
 10
102.8857096096952
 20
-126.3468098642466
 10
102.8857096096952
 20
-126.2093505543852
 10
102.8161186808932
 20
-126.0570773339371
 10
102.5873643406726
 20
-126.0570773339371
 10
102.4712646228197
 20
-126.0570773339371
 10
102.4226887764777
 20
-126.0951456390491
 10
102.3909938980134
 20
-126.1268405175134
 10
102.316579835532
 20
-126.2009100704463
 10
102.3041774917851
 20
-126.3173542978478
 10
102.3041774917851
 20
-126.3723035708375
 10
102.3041774917851
 20
-126.3912515960064
 10
102.3062445490762
 20
-126.4272528438272
 10
102.3103786636585
 20
-126.4548136077092
 10
102.3103786636585
 20
-126.4548136077092
 10
102.1160752782904
 20
-126.4548136077092
 10
102.1160752782904
 20
-126.4548136077092
 10
102.1222764501639
 20
-126.4167453025972
 10
102.124343507455
 20
-126.3743706281286
 10
102.124343507455
 20
-126.3679972014809
 10
102.124343507455
 20
-126.3025403872612
 10
102.1029839154465
 20
-126.103586122988
 10
101.8659613460613
 20
-126.103586122988
 10
101.6885389285709
 20
-126.103586122988
 10
101.6334174008069
 20
-126.234844260976
 10
101.6334174008069
 20
-126.3447428069555
 10
101.6334174008069
 20
-126.6091538854484
 10
101.8659613460613
 20
-126.6175943693873
 10
101.9383083512515
 20
-126.6219007387438
 10
101.9383083512515
 20
-126.6219007387438
 10
101.9383083512515
 20
-126.8249891175993
 10
101.9383083512515
 20
-126.8249891175993
 10
101.813251385137
 20
-126.8165486336604
 10
101.4367024485992
 20
-126.7889878697785
 10
101.4367024485992
 20
-126.3321682084343
 10
101.4367024485992
 20
-126.1078924923446
 10
101.5634819624564
 20
-125.8667358083771
 10
101.8597601741878
 20
-125.8667358083771
 10
102.0457953303913
 20
-125.8667358083771
 10
102.1284776220373
 20
-125.96182044377
 10
102.1898003216748
 20
-126.0613837032937
 10
102.2173610855568
 20
-125.999888748882
 10
102.2979763199116
 20
-125.8179877072608
 10
102.5749619969257
 20
-125.8179877072608
 10
102.9132703735772
 20
-125.8179877072608
 10
103.0807020141604
 20
-126.065517817876
 10
103.0807020141604
 20
-126.3426757496643
 97
        0
 97
        0
 75
     2
 76
     1
 98
        0
  0
ENDBLK
  5
7B
330
78
100
AcDbEntity
  8
0
100
AcDbBlockEnd
  0
BLOCK
  5
8C
330
8A
100
AcDbEntity
  8
0
100
AcDbBlockBegin
  2
block 4
 70
     0
 10
0.0
 20
0.0
 30
0.0
  3
block 4
  1

  0
SPLINE
  5
8E
330
8A
100
AcDbEntity
  8
_U+30EC_U+30A4_U+30E4_U+30FC 1
370
     0
100
AcDbSpline
210
0.0
220
0.0
230
1.0
 70
    11
 71
     3
 72
    62
 73
    58
 74
     0
 42
0.0000000001
 43
0.0000000001
 12
1.0
 22
0.0
 32
0.0
 13
1.0
 23
0.0
 33
0.0
 40
0.0
 40
0.0
 40
0.0
 40
0.0
 40
1.0
 40
1.0
 40
1.0
 40
2.0
 40
2.0
 40
2.0
 40
3.0
 40
3.0
 40
3.0
 40
4.0
 40
4.0
 40
4.0
 40
5.0
 40
5.0
 40
5.0
 40
6.0
 40
6.0
 40
6.0
 40
7.0
 40
7.0
 40
7.0
 40
8.0
 40
8.0
 40
8.0
 40
9.0
 40
9.0
 40
9.0
 40
10.0
 40
10.0
 40
10.0
 40
11.0
 40
11.0
 40
11.0
 40
12.0
 40
12.0
 40
12.0
 40
13.0
 40
13.0
 40
13.0
 40
14.0
 40
14.0
 40
14.0
 40
15.0
 40
15.0
 40
15.0
 40
16.0
 40
16.0
 40
16.0
 40
17.0
 40
17.0
 40
17.0
 40
18.0
 40
18.0
 40
18.0
 40
19.0
 40
19.0
 40
19.0
 40
19.0
 10
103.0807020141604
 20
-136.8674424571026
 30
0.0
 10
103.0807020141604
 20
-136.9625270924955
 30
0.0
 10
103.0593424221518
 20
-137.1806016367118
 30
0.0
 10
102.8733072659483
 20
-137.3053140932778
 30
0.0
 10
102.7609971531292
 20
-137.3793836462107
 30
0.0
 10
102.661778403154
 20
-137.383517760793
 30
0.0
 10
102.5770290542169
 20
-137.3876518753753
 30
0.0
 10
102.5770290542169
 20
-137.3876518753753
 30
0.0
 10
102.5770290542169
 20
-137.1678547834164
 30
0.0
 10
102.5770290542169
 20
-137.1678547834164
 30
0.0
 10
102.6510986071497
 20
-137.1657877261252
 30
0.0
 10
102.8857096096952
 20
-137.1551079301209
 30
0.0
 10
102.8857096096952
 20
-136.8715765716849
 30
0.0
 10
102.8857096096952
 20
-136.7341172618234
 30
0.0
 10
102.8161186808932
 20
-136.5818440413754
 30
0.0
 10
102.5873643406726
 20
-136.5818440413754
 30
0.0
 10
102.4712646228197
 20
-136.5818440413754
 30
0.0
 10
102.4226887764777
 20
-136.6200846012617
 30
0.0
 10
102.3909938980134
 20
-136.6517794797259
 30
0.0
 10
102.316579835532
 20
-136.7255045231103
 30
0.0
 10
102.3041774917851
 20
-136.8419487505117
 30
0.0
 10
102.3041774917851
 20
-136.8970702782757
 30
0.0
 10
102.3041774917851
 20
-136.9160183034446
 30
0.0
 10
102.3062445490762
 20
-136.9521918060397
 30
0.0
 10
102.3103786636585
 20
-136.9797525699217
 30
0.0
 10
102.3103786636585
 20
-136.9797525699217
 30
0.0
 10
102.1160752782904
 20
-136.9797525699217
 30
0.0
 10
102.1160752782904
 20
-136.9797525699217
 30
0.0
 10
102.1222764501639
 20
-136.9415120100355
 30
0.0
 10
102.124343507455
 20
-136.8991373355669
 30
0.0
 10
102.124343507455
 20
-136.8929361636934
 30
0.0
 10
102.124343507455
 20
-136.8274793494737
 30
0.0
 10
102.1029839154465
 20
-136.6283528304263
 30
0.0
 10
101.8659613460613
 20
-136.6283528304263
 30
0.0
 10
101.6885389285709
 20
-136.6283528304263
 30
0.0
 10
101.6334174008069
 20
-136.7596109684143
 30
0.0
 10
101.6334174008069
 20
-136.8695095143937
 30
0.0
 10
101.6334174008069
 20
-137.1340928476609
 30
0.0
 10
101.8659613460613
 20
-137.1423610768255
 30
0.0
 10
101.9383083512515
 20
-137.1464951914078
 30
0.0
 10
101.9383083512515
 20
-137.1464951914078
 30
0.0
 10
101.9383083512515
 20
-137.3497558250376
 30
0.0
 10
101.9383083512515
 20
-137.3497558250376
 30
0.0
 10
101.813251385137
 20
-137.341487595873
 30
0.0
 10
101.4367024485992
 20
-137.313926831991
 30
0.0
 10
101.4367024485992
 20
-136.8571071706468
 30
0.0
 10
101.4367024485992
 20
-136.6324869450085
 30
0.0
 10
101.5634819624564
 20
-136.3913302610411
 30
0.0
 10
101.8597601741878
 20
-136.3913302610411
 30
0.0
 10
102.0457953303913
 20
-136.3913302610411
 30
0.0
 10
102.1284776220373
 20
-136.486414896434
 30
0.0
 10
102.1898003216748
 20
-136.5863226655062
 30
0.0
 10
102.2173610855568
 20
-136.5246554563202
 30
0.0
 10
102.2979763199116
 20
-136.342754414699
 30
0.0
 10
102.5749619969257
 20
-136.342754414699
 30
0.0
 10
102.9132703735772
 20
-136.342754414699
 30
0.0
 10
103.0807020141604
 20
-136.5904567800885
 30
0.0
 10
103.0807020141604
 20
-136.8674424571026
 30
0.0
  0
HATCH
  5
8F
330
8A
100
AcDbEntity
  8
_U+30EC_U+30A4_U+30E4_U+30FC 1
 62
   179
420
  2234388
100
AcDbHatch
 10
0.0
 20
0.0
 30
0.0
210
0.0
220
0.0
230
1.0
  2
SOLID
 70
     1
 71
     0
 91
        1
 92
        1
 93
        1
 72
     4
 94
        3
 73
     0
 74
     1
 95
       62
 96
       58
 40
0.0
 40
0.0
 40
0.0
 40
0.0
 40
1.0
 40
1.0
 40
1.0
 40
2.0
 40
2.0
 40
2.0
 40
3.0
 40
3.0
 40
3.0
 40
4.0
 40
4.0
 40
4.0
 40
5.0
 40
5.0
 40
5.0
 40
6.0
 40
6.0
 40
6.0
 40
7.0
 40
7.0
 40
7.0
 40
8.0
 40
8.0
 40
8.0
 40
9.0
 40
9.0
 40
9.0
 40
10.0
 40
10.0
 40
10.0
 40
11.0
 40
11.0
 40
11.0
 40
12.0
 40
12.0
 40
12.0
 40
13.0
 40
13.0
 40
13.0
 40
14.0
 40
14.0
 40
14.0
 40
15.0
 40
15.0
 40
15.0
 40
16.0
 40
16.0
 40
16.0
 40
17.0
 40
17.0
 40
17.0
 40
18.0
 40
18.0
 40
18.0
 40
19.0
 40
19.0
 40
19.0
 40
19.0
 10
103.0807020141604
 20
-136.8674424571026
 10
103.0807020141604
 20
-136.9625270924955
 10
103.0593424221518
 20
-137.1806016367118
 10
102.8733072659483
 20
-137.3053140932778
 10
102.7609971531292
 20
-137.3793836462107
 10
102.661778403154
 20
-137.383517760793
 10
102.5770290542169
 20
-137.3876518753753
 10
102.5770290542169
 20
-137.3876518753753
 10
102.5770290542169
 20
-137.1678547834164
 10
102.5770290542169
 20
-137.1678547834164
 10
102.6510986071497
 20
-137.1657877261252
 10
102.8857096096952
 20
-137.1551079301209
 10
102.8857096096952
 20
-136.8715765716849
 10
102.8857096096952
 20
-136.7341172618234
 10
102.8161186808932
 20
-136.5818440413754
 10
102.5873643406726
 20
-136.5818440413754
 10
102.4712646228197
 20
-136.5818440413754
 10
102.4226887764777
 20
-136.6200846012617
 10
102.3909938980134
 20
-136.6517794797259
 10
102.316579835532
 20
-136.7255045231103
 10
102.3041774917851
 20
-136.8419487505117
 10
102.3041774917851
 20
-136.8970702782757
 10
102.3041774917851
 20
-136.9160183034446
 10
102.3062445490762
 20
-136.9521918060397
 10
102.3103786636585
 20
-136.9797525699217
 10
102.3103786636585
 20
-136.9797525699217
 10
102.1160752782904
 20
-136.9797525699217
 10
102.1160752782904
 20
-136.9797525699217
 10
102.1222764501639
 20
-136.9415120100355
 10
102.124343507455
 20
-136.8991373355669
 10
102.124343507455
 20
-136.8929361636934
 10
102.124343507455
 20
-136.8274793494737
 10
102.1029839154465
 20
-136.6283528304263
 10
101.8659613460613
 20
-136.6283528304263
 10
101.6885389285709
 20
-136.6283528304263
 10
101.6334174008069
 20
-136.7596109684143
 10
101.6334174008069
 20
-136.8695095143937
 10
101.6334174008069
 20
-137.1340928476609
 10
101.8659613460613
 20
-137.1423610768255
 10
101.9383083512515
 20
-137.1464951914078
 10
101.9383083512515
 20
-137.1464951914078
 10
101.9383083512515
 20
-137.3497558250376
 10
101.9383083512515
 20
-137.3497558250376
 10
101.813251385137
 20
-137.341487595873
 10
101.4367024485992
 20
-137.313926831991
 10
101.4367024485992
 20
-136.8571071706468
 10
101.4367024485992
 20
-136.6324869450085
 10
101.5634819624564
 20
-136.3913302610411
 10
101.8597601741878
 20
-136.3913302610411
 10
102.0457953303913
 20
-136.3913302610411
 10
102.1284776220373
 20
-136.486414896434
 10
102.1898003216748
 20
-136.5863226655062
 10
102.2173610855568
 20
-136.5246554563202
 10
102.2979763199116
 20
-136.342754414699
 10
102.5749619969257
 20
-136.342754414699
 10
102.9132703735772
 20
-136.342754414699
 10
103.0807020141604
 20
-136.5904567800885
 10
103.0807020141604
 20
-136.8674424571026
 97
        0
 97
        0
 75
     2
 76
     1
 98
        0
  0
ENDBLK
  5
8D
330
8A
100
AcDbEntity
  8
0
100
AcDbBlockEnd
  0
BLOCK
  5
92
330
90
100
AcDbEntity
  8
0
100
AcDbBlockBegin
  2
block 5
 70
     0
 10
0.0
 20
0.0
 30
0.0
  3
block 5
  1

  0
SPLINE
  5
94
330
90
100
AcDbEntity
  8
_U+30EC_U+30A4_U+30E4_U+30FC 1
370
     0
100
AcDbSpline
210
0.0
220
0.0
230
1.0
 70
    11
 71
     3
 72
    26
 73
    22
 74
     0
 42
0.0000000001
 43
0.0000000001
 12
1.0
 22
0.0
 32
0.0
 13
1.0
 23
0.0
 33
0.0
 40
0.0
 40
0.0
 40
0.0
 40
0.0
 40
1.0
 40
1.0
 40
1.0
 40
2.0
 40
2.0
 40
2.0
 40
3.0
 40
3.0
 40
3.0
 40
4.0
 40
4.0
 40
4.0
 40
5.0
 40
5.0
 40
5.0
 40
6.0
 40
6.0
 40
6.0
 40
7.0
 40
7.0
 40
7.0
 40
7.0
 10
103.0297146009787
 20
-116.2445841180743
 30
0.0
 10
103.0297146009787
 20
-116.2445841180743
 30
0.0
 10
101.9252169884076
 20
-116.2445841180743
 30
0.0
 10
101.9252169884076
 20
-116.2445841180743
 30
0.0
 10
101.9252169884076
 20
-116.2445841180743
 30
0.0
 10
101.9252169884076
 20
-116.5746242655612
 30
0.0
 10
101.9252169884076
 20
-116.5746242655612
 30
0.0
 10
101.9252169884076
 20
-116.5746242655612
 30
0.0
 10
101.7770778825418
 20
-116.5746242655612
 30
0.0
 10
101.7770778825418
 20
-116.5746242655612
 30
0.0
 10
101.7626084815038
 20
-116.2425170607831
 30
0.0
 10
101.5996554650515
 20
-116.1960082717323
 30
0.0
 10
101.4856228044897
 20
-116.1663804505591
 30
0.0
 10
101.4856228044897
 20
-116.1663804505591
 30
0.0
 10
101.4856228044897
 20
-116.0203084019845
 30
0.0
 10
101.4856228044897
 20
-116.0203084019845
 30
0.0
 10
101.4856228044897
 20
-116.0203084019845
 30
0.0
 10
103.0297146009787
 20
-116.0203084019845
 30
0.0
 10
103.0297146009787
 20
-116.0203084019845
 30
0.0
 10
103.0297146009787
 20
-116.0203084019845
 30
0.0
 10
103.0297146009787
 20
-116.2445841180743
 30
0.0
 10
103.0297146009787
 20
-116.2445841180743
 30
0.0
  0
HATCH
  5
95
330
90
100
AcDbEntity
  8
_U+30EC_U+30A4_U+30E4_U+30FC 1
 62
   179
420
  2234388
100
AcDbHatch
 10
0.0
 20
0.0
 30
0.0
210
0.0
220
0.0
230
1.0
  2
SOLID
 70
     1
 71
     0
 91
        1
 92
        1
 93
        1
 72
     4
 94
        3
 73
     0
 74
     1
 95
       26
 96
       22
 40
0.0
 40
0.0
 40
0.0
 40
0.0
 40
1.0
 40
1.0
 40
1.0
 40
2.0
 40
2.0
 40
2.0
 40
3.0
 40
3.0
 40
3.0
 40
4.0
 40
4.0
 40
4.0
 40
5.0
 40
5.0
 40
5.0
 40
6.0
 40
6.0
 40
6.0
 40
7.0
 40
7.0
 40
7.0
 40
7.0
 10
103.0297146009787
 20
-116.2445841180743
 10
103.0297146009787
 20
-116.2445841180743
 10
101.9252169884076
 20
-116.2445841180743
 10
101.9252169884076
 20
-116.2445841180743
 10
101.9252169884076
 20
-116.2445841180743
 10
101.9252169884076
 20
-116.5746242655612
 10
101.9252169884076
 20
-116.5746242655612
 10
101.9252169884076
 20
-116.5746242655612
 10
101.7770778825418
 20
-116.5746242655612
 10
101.7770778825418
 20
-116.5746242655612
 10
101.7626084815038
 20
-116.2425170607831
 10
101.5996554650515
 20
-116.1960082717323
 10
101.4856228044897
 20
-116.1663804505591
 10
101.4856228044897
 20
-116.1663804505591
 10
101.4856228044897
 20
-116.0203084019845
 10
101.4856228044897
 20
-116.0203084019845
 10
101.4856228044897
 20
-116.0203084019845
 10
103.0297146009787
 20
-116.0203084019845
 10
103.0297146009787
 20
-116.0203084019845
 10
103.0297146009787
 20
-116.0203084019845
 10
103.0297146009787
 20
-116.2445841180743
 10
103.0297146009787
 20
-116.2445841180743
 97
        0
 97
        0
 75
     2
 76
     1
 98
        0
  0
ENDBLK
  5
93
330
90
100
AcDbEntity
  8
0
100
AcDbBlockEnd
  0
BLOCK
  5
B6
330
B4
100
AcDbEntity
  8
0
100
AcDbBlockBegin
  2
block 6
 70
     0
 10
0.0
 20
0.0
 30
0.0
  3
block 6
  1

  0
SPLINE
  5
B8
330
B4
100
AcDbEntity
  8
_U+30EC_U+30A4_U+30E4_U+30FC 1
370
     0
100
AcDbSpline
210
0.0
220
0.0
230
1.0
 70
    11
 71
     3
 72
    44
 73
    40
 74
     0
 42
0.0000000001
 43
0.0000000001
 12
1.0
 22
0.0
 32
0.0
 13
1.0
 23
0.0
 33
0.0
 40
0.0
 40
0.0
 40
0.0
 40
0.0
 40
1.0
 40
1.0
 40
1.0
 40
2.0
 40
2.0
 40
2.0
 40
3.0
 40
3.0
 40
3.0
 40
4.0
 40
4.0
 40
4.0
 40
5.0
 40
5.0
 40
5.0
 40
6.0
 40
6.0
 40
6.0
 40
7.0
 40
7.0
 40
7.0
 40
8.0
 40
8.0
 40
8.0
 40
9.0
 40
9.0
 40
9.0
 40
10.0
 40
10.0
 40
10.0
 40
11.0
 40
11.0
 40
11.0
 40
12.0
 40
12.0
 40
12.0
 40
13.0
 40
13.0
 40
13.0
 40
13.0
 10
88.5463609262141
 20
-114.9235622542552
 30
0.0
 10
88.32845863677206
 20
-115.0823811561252
 30
0.0
 10
88.23526880389605
 20
-115.1564507090581
 30
0.0
 10
88.18669295755403
 20
-115.300111190793
 30
0.0
 10
88.18669295755403
 20
-115.300111190793
 30
0.0
 10
88.96511228244623
 20
-115.300111190793
 30
0.0
 10
88.96511228244623
 20
-115.300111190793
 30
0.0
 10
88.96511228244623
 20
-115.300111190793
 30
0.0
 10
88.96511228244623
 20
-115.5054388817139
 30
0.0
 10
88.96511228244623
 20
-115.5054388817139
 30
0.0
 10
88.96511228244623
 20
-115.5054388817139
 30
0.0
 10
87.93709578964767
 20
-115.5054388817139
 30
0.0
 10
87.93709578964767
 20
-115.5054388817139
 30
0.0
 10
87.96879066811198
 20
-115.147837970345
 30
0.0
 10
88.03441973710598
 20
-115.0696343028298
 30
0.0
 10
88.41940915758265
 20
-114.7712890338072
 30
0.0
 10
88.67537975213672
 20
-114.5725070243083
 30
0.0
 10
88.74083656635646
 20
-114.5046386432488
 30
0.0
 10
88.74083656635646
 20
-114.3671793333874
 30
0.0
 10
88.74083656635646
 20
-114.2486680486948
 30
0.0
 10
88.66900632548901
 20
-114.1177544202553
 30
0.0
 10
88.47229137328124
 20
-114.1177544202553
 30
0.0
 10
88.21201440937061
 20
-114.1177544202553
 30
0.0
 10
88.20357392543175
 20
-114.3482313082185
 30
0.0
 10
88.19926755607518
 20
-114.4646755356199
 30
0.0
 10
88.19926755607518
 20
-114.4646755356199
 30
0.0
 10
87.97516409475969
 20
-114.4646755356199
 30
0.0
 10
87.97516409475969
 20
-114.4646755356199
 30
0.0
 10
87.98360457869855
 20
-114.3375515122142
 30
0.0
 10
87.99411211992856
 20
-114.2255859089436
 30
0.0
 10
88.07455509950914
 20
-114.107074624251
 30
0.0
 10
88.18445364548862
 20
-113.9461886650898
 30
0.0
 10
88.37066105646636
 20
-113.9124267293344
 30
0.0
 10
88.4871052838678
 20
-113.9124267293344
 30
0.0
 10
88.76426321565616
 20
-113.9124267293344
 30
0.0
 10
88.97148570909394
 20
-114.0963948282467
 30
0.0
 10
88.97148570909394
 20
-114.3692463906785
 30
0.0
 10
88.97148570909394
 20
-114.5980007308991
 30
0.0
 10
88.85521373646675
 20
-114.6972194808743
 30
0.0
 10
88.5463609262141
 20
-114.9235622542552
 30
0.0
  0
HATCH
  5
B9
330
B4
100
AcDbEntity
  8
_U+30EC_U+30A4_U+30E4_U+30FC 1
 62
   179
420
  2234388
100
AcDbHatch
 10
0.0
 20
0.0
 30
0.0
210
0.0
220
0.0
230
1.0
  2
SOLID
 70
     1
 71
     0
 91
        1
 92
        1
 93
        1
 72
     4
 94
        3
 73
     0
 74
     1
 95
       44
 96
       40
 40
0.0
 40
0.0
 40
0.0
 40
0.0
 40
1.0
 40
1.0
 40
1.0
 40
2.0
 40
2.0
 40
2.0
 40
3.0
 40
3.0
 40
3.0
 40
4.0
 40
4.0
 40
4.0
 40
5.0
 40
5.0
 40
5.0
 40
6.0
 40
6.0
 40
6.0
 40
7.0
 40
7.0
 40
7.0
 40
8.0
 40
8.0
 40
8.0
 40
9.0
 40
9.0
 40
9.0
 40
10.0
 40
10.0
 40
10.0
 40
11.0
 40
11.0
 40
11.0
 40
12.0
 40
12.0
 40
12.0
 40
13.0
 40
13.0
 40
13.0
 40
13.0
 10
88.5463609262141
 20
-114.9235622542552
 10
88.32845863677206
 20
-115.0823811561252
 10
88.23526880389605
 20
-115.1564507090581
 10
88.18669295755403
 20
-115.300111190793
 10
88.18669295755403
 20
-115.300111190793
 10
88.96511228244623
 20
-115.300111190793
 10
88.96511228244623
 20
-115.300111190793
 10
88.96511228244623
 20
-115.300111190793
 10
88.96511228244623
 20
-115.5054388817139
 10
88.96511228244623
 20
-115.5054388817139
 10
88.96511228244623
 20
-115.5054388817139
 10
87.93709578964767
 20
-115.5054388817139
 10
87.93709578964767
 20
-115.5054388817139
 10
87.96879066811198
 20
-115.147837970345
 10
88.03441973710598
 20
-115.0696343028298
 10
88.41940915758265
 20
-114.7712890338072
 10
88.67537975213672
 20
-114.5725070243083
 10
88.74083656635646
 20
-114.5046386432488
 10
88.74083656635646
 20
-114.3671793333874
 10
88.74083656635646
 20
-114.2486680486948
 10
88.66900632548901
 20
-114.1177544202553
 10
88.47229137328124
 20
-114.1177544202553
 10
88.21201440937061
 20
-114.1177544202553
 10
88.20357392543175
 20
-114.3482313082185
 10
88.19926755607518
 20
-114.4646755356199
 10
88.19926755607518
 20
-114.4646755356199
 10
87.97516409475969
 20
-114.4646755356199
 10
87.97516409475969
 20
-114.4646755356199
 10
87.98360457869855
 20
-114.3375515122142
 10
87.99411211992856
 20
-114.2255859089436
 10
88.07455509950914
 20
-114.107074624251
 10
88.18445364548862
 20
-113.9461886650898
 10
88.37066105646636
 20
-113.9124267293344
 10
88.4871052838678
 20
-113.9124267293344
 10
88.76426321565616
 20
-113.9124267293344
 10
88.97148570909394
 20
-114.0963948282467
 10
88.97148570909394
 20
-114.3692463906785
 10
88.97148570909394
 20
-114.5980007308991
 10
88.85521373646675
 20
-114.6972194808743
 10
88.5463609262141
 20
-114.9235622542552
 97
        0
 97
        0
 75
     2
 76
     1
 98
        0
  0
SPLINE
  5
BA
330
B4
100
AcDbEntity
  8
_U+30EC_U+30A4_U+30E4_U+30FC 1
370
     0
100
AcDbSpline
210
0.0
220
0.0
230
1.0
 70
    11
 71
     3
 72
    26
 73
    22
 74
     0
 42
0.0000000001
 43
0.0000000001
 12
1.0
 22
0.0
 32
0.0
 13
1.0
 23
0.0
 33
0.0
 40
0.0
 40
0.0
 40
0.0
 40
0.0
 40
1.0
 40
1.0
 40
1.0
 40
2.0
 40
2.0
 40
2.0
 40
3.0
 40
3.0
 40
3.0
 40
4.0
 40
4.0
 40
4.0
 40
5.0
 40
5.0
 40
5.0
 40
6.0
 40
6.0
 40
6.0
 40
7.0
 40
7.0
 40
7.0
 40
7.0
 10
89.58143986475743
 20
-115.5054388817139
 30
0.0
 10
89.58143986475743
 20
-115.5054388817139
 30
0.0
 10
89.58143986475743
 20
-114.4012857786913
 30
0.0
 10
89.58143986475743
 20
-114.4012857786913
 30
0.0
 10
89.58143986475743
 20
-114.4012857786913
 30
0.0
 10
89.25139971727049
 20
-114.4012857786913
 30
0.0
 10
89.25139971727049
 20
-114.4012857786913
 30
0.0
 10
89.25139971727049
 20
-114.4012857786913
 30
0.0
 10
89.25139971727049
 20
-114.2531466728256
 30
0.0
 10
89.25139971727049
 20
-114.2531466728256
 30
0.0
 10
89.58350692204857
 20
-114.238332762239
 30
0.0
 10
89.63001571109945
 20
-114.0753797457867
 30
0.0
 10
89.6596435322726
 20
-113.9610025756764
 30
0.0
 10
89.6596435322726
 20
-113.9610025756764
 30
0.0
 10
89.80571558084719
 20
-113.9610025756764
 30
0.0
 10
89.80571558084719
 20
-113.9610025756764
 30
0.0
 10
89.80571558084719
 20
-113.9610025756764
 30
0.0
 10
89.80571558084719
 20
-115.5054388817139
 30
0.0
 10
89.80571558084719
 20
-115.5054388817139
 30
0.0
 10
89.80571558084719
 20
-115.5054388817139
 30
0.0
 10
89.58143986475743
 20
-115.5054388817139
 30
0.0
 10
89.58143986475743
 20
-115.5054388817139
 30
0.0
  0
HATCH
  5
BB
330
B4
100
AcDbEntity
  8
_U+30EC_U+30A4_U+30E4_U+30FC 1
 62
   179
420
  2234388
100
AcDbHatch
 10
0.0
 20
0.0
 30
0.0
210
0.0
220
0.0
230
1.0
  2
SOLID
 70
     1
 71
     0
 91
        1
 92
        1
 93
        1
 72
     4
 94
        3
 73
     0
 74
     1
 95
       26
 96
       22
 40
0.0
 40
0.0
 40
0.0
 40
0.0
 40
1.0
 40
1.0
 40
1.0
 40
2.0
 40
2.0
 40
2.0
 40
3.0
 40
3.0
 40
3.0
 40
4.0
 40
4.0
 40
4.0
 40
5.0
 40
5.0
 40
5.0
 40
6.0
 40
6.0
 40
6.0
 40
7.0
 40
7.0
 40
7.0
 40
7.0
 10
89.58143986475743
 20
-115.5054388817139
 10
89.58143986475743
 20
-115.5054388817139
 10
89.58143986475743
 20
-114.4012857786913
 10
89.58143986475743
 20
-114.4012857786913
 10
89.58143986475743
 20
-114.4012857786913
 10
89.25139971727049
 20
-114.4012857786913
 10
89.25139971727049
 20
-114.4012857786913
 10
89.25139971727049
 20
-114.4012857786913
 10
89.25139971727049
 20
-114.2531466728256
 10
89.25139971727049
 20
-114.2531466728256
 10
89.58350692204857
 20
-114.238332762239
 10
89.63001571109945
 20
-114.0753797457867
 10
89.6596435322726
 20
-113.9610025756764
 10
89.6596435322726
 20
-113.9610025756764
 10
89.80571558084719
 20
-113.9610025756764
 10
89.80571558084719
 20
-113.9610025756764
 10
89.80571558084719
 20
-113.9610025756764
 10
89.80571558084719
 20
-115.5054388817139
 10
89.80571558084719
 20
-115.5054388817139
 10
89.80571558084719
 20
-115.5054388817139
 10
89.58143986475743
 20
-115.5054388817139
 10
89.58143986475743
 20
-115.5054388817139
 97
        0
 97
        0
 75
     2
 76
     1
 98
        0
  0
ENDBLK
  5
B7
330
B4
100
AcDbEntity
  8
0
100
AcDbBlockEnd
  0
ENDSEC
  0
SECTION
  2
ENTITIES
  0
POLYLINE
  5
41
330
1F
100
AcDbEntity
  8
_U+30EC_U+30A4_U+30E4_U+30FC 1
 62
   179
420
  2234388
370
    25
100
AcDb2dPolyline
 66
     1
 10
0.0
 20
0.0
 30
0.0
  0
VERTEX
  5
42
330
41
100
AcDbEntity
  8
_U+30EC_U+30A4_U+30E4_U+30FC 1
 62
   179
420
  2234388
370
    25
100
AcDbVertex
100
AcDb2dVertex
 10
79.52623380445009
 20
-135.3626324661591
 30
0.0
  0
VERTEX
  5
43
330
41
100
AcDbEntity
  8
_U+30EC_U+30A4_U+30E4_U+30FC 1
 62
   179
420
  2234388
370
    25
100
AcDbVertex
100
AcDb2dVertex
 10
87.52091887826646
 20
-135.3633027439371
 30
0.0
  0
VERTEX
  5
44
330
41
100
AcDbEntity
  8
_U+30EC_U+30A4_U+30E4_U+30FC 1
 62
   179
420
  2234388
370
    25
100
AcDbVertex
100
AcDb2dVertex
 10
87.52091887826646
 20
-138.3626194098541
 30
0.0
  0
VERTEX
  5
45
330
41
100
AcDbEntity
  8
_U+30EC_U+30A4_U+30E4_U+30FC 1
 62
   179
420
  2234388
370
    25
100
AcDbVertex
100
AcDb2dVertex
 10
77.52083330005655
 20
-138.3626194098541
 30
0.0
  0
SEQEND
  5
46
330
41
100
AcDbEntity
  8
_U+30EC_U+30A4_U+30E4_U+30FC 1
 62
   179
420
  2234388
370
    25
  0
POLYLINE
  5
47
330
1F
100
AcDbEntity
  8
_U+30EC_U+30A4_U+30E4_U+30FC 1
 62
   179
420
  2234388
370
    25
100
AcDb2dPolyline
 66
     1
 10
0.0
 20
0.0
 30
0.0
  0
VERTEX
  5
48
330
47
100
AcDbEntity
  8
_U+30EC_U+30A4_U+30E4_U+30FC 1
 62
   179
420
  2234388
370
    25
100
AcDbVertex
100
AcDb2dVertex
 10
78.52406271890648
 20
-135.3612566328262
 30
0.0
  0
VERTEX
  5
49
330
47
100
AcDbEntity
  8
_U+30EC_U+30A4_U+30E4_U+30FC 1
 62
   179
420
  2234388
370
    25
100
AcDbVertex
100
AcDb2dVertex
 10
79.02394881726444
 20
-136.3616991325761
 30
0.0
  0
VERTEX
  5
4A
330
47
100
AcDbEntity
  8
_U+30EC_U+30A4_U+30E4_U+30FC 1
 62
   179
420
  2234388
370
    25
100
AcDbVertex
100
AcDb2dVertex
 10
79.52418769339117
 20
-135.3612566328262
 30
0.0
  0
VERTEX
  5
4B
330
47
100
AcDbEntity
  8
_U+30EC_U+30A4_U+30E4_U+30FC 1
 62
   179
420
  2234388
370
    25
100
AcDbVertex
100
AcDb2dVertex
 10
79.52418769339117
 20
-120.0612491366515
 30
0.0
  0
VERTEX
  5
4C
330
47
100
AcDbEntity
  8
_U+30EC_U+30A4_U+30E4_U+30FC 1
 62
   179
420
  2234388
370
    25
100
AcDbVertex
100
AcDb2dVertex
 10
99.52432357203408
 20
-120.0612491366515
 30
0.0
  0
VERTEX
  5
4D
330
47
100
AcDbEntity
  8
_U+30EC_U+30A4_U+30E4_U+30FC 1
 62
   179
420
  2234388
370
    25
100
AcDbVertex
100
AcDb2dVertex
 10
99.52432357203408
 20
-119.0611241369015
 30
0.0
  0
VERTEX
  5
4E
330
47
100
AcDbEntity
  8
_U+30EC_U+30A4_U+30E4_U+30FC 1
 62
   179
420
  2234388
370
    25
100
AcDbVertex
100
AcDb2dVertex
 10
78.52406271890648
 20
-119.0611241369015
 30
0.0
  0
VERTEX
  5
4F
330
47
100
AcDbEntity
  8
_U+30EC_U+30A4_U+30E4_U+30FC 1
 62
   179
420
  2234388
370
    25
100
AcDbVertex
100
AcDb2dVertex
 10
78.52406271890648
 20
-135.3612566328262
 30
0.0
  0
SEQEND
  5
50
330
47
100
AcDbEntity
  8
_U+30EC_U+30A4_U+30E4_U+30FC 1
 62
   179
420
  2234388
370
    25
  0
POLYLINE
  5
51
330
1F
100
AcDbEntity
  8
_U+30EC_U+30A4_U+30E4_U+30FC 1
 62
   179
420
  2234388
370
    25
100
AcDb2dPolyline
 66
     1
 10
0.0
 20
0.0
 30
0.0
  0
VERTEX
  5
52
330
51
100
AcDbEntity
  8
_U+30EC_U+30A4_U+30E4_U+30FC 1
 62
   179
420
  2234388
370
    25
100
AcDbVertex
100
AcDb2dVertex
 10
78.52406271890648
 20
-135.3612566328262
 30
0.0
  0
VERTEX
  5
53
330
51
100
AcDbEntity
  8
_U+30EC_U+30A4_U+30E4_U+30FC 1
 62
   179
420
  2234388
370
    25
100
AcDbVertex
100
AcDb2dVertex
 10
77.52083330005655
 20
-138.3626194098541
 30
0.0
  0
SEQEND
  5
54
330
51
100
AcDbEntity
  8
_U+30EC_U+30A4_U+30E4_U+30FC 1
 62
   179
420
  2234388
370
    25
  0
SPLINE
  5
55
330
1F
100
AcDbEntity
  8
_U+30EC_U+30A4_U+30E4_U+30FC 1
 62
   179
420
  2234388
370
     9
100
AcDbSpline
210
0.0
220
0.0
230
1.0
 70
    11
 71
     3
 72
    17
 73
    13
 74
     0
 42
0.0000000001
 43
0.0000000001
 12
1.0
 22
0.0
 32
0.0
 13
1.0
 23
0.0
 33
0.0
 40
0.0
 40
0.0
 40
0.0
 40
0.0
 40
1.0
 40
1.0
 40
1.0
 40
2.0
 40
2.0
 40
2.0
 40
3.0
 40
3.0
 40
3.0
 40
4.0
 40
4.0
 40
4.0
 40
4.0
 10
87.6208277558725
 20
-142.3623785755203
 30
0.0
 10
87.6208277558725
 20
-142.3072394088679
 30
0.0
 10
87.5760580435264
 20
-142.2624719088787
 30
0.0
 10
87.52091887826646
 20
-142.2624719088787
 30
0.0
 10
87.46648526854406
 20
-142.2624719088787
 30
0.0
 10
87.42101221414862
 20
-142.3072394088679
 30
0.0
 10
87.42101221414862
 20
-142.3623785755203
 30
0.0
 10
87.42101221414862
 20
-142.4174824643958
 30
0.0
 10
87.46648526854406
 20
-142.4622852421619
 30
0.0
 10
87.52091887826646
 20
-142.4622852421619
 30
0.0
 10
87.5760580435264
 20
-142.4622852421619
 30
0.0
 10
87.6208277558725
 20
-142.4174824643958
 30
0.0
 10
87.6208277558725
 20
-142.3623785755203
 30
0.0
  0
SPLINE
  5
56
330
1F
100
AcDbEntity
  8
_U+30EC_U+30A4_U+30E4_U+30FC 1
 62
   179
420
  2234388
370
     9
100
AcDbSpline
210
0.0
220
0.0
230
1.0
 70
    11
 71
     3
 72
    17
 73
    13
 74
     0
 42
0.0000000001
 43
0.0000000001
 12
1.0
 22
0.0
 32
0.0
 13
1.0
 23
0.0
 33
0.0
 40
0.0
 40
0.0
 40
0.0
 40
0.0
 40
1.0
 40
1.0
 40
1.0
 40
2.0
 40
2.0
 40
2.0
 40
3.0
 40
3.0
 40
3.0
 40
4.0
 40
4.0
 40
4.0
 40
4.0
 10
77.62144551971194
 20
-142.3623785755203
 30
0.0
 10
77.62144551971194
 20
-142.3072394088679
 30
0.0
 10
77.57664274307719
 20
-142.2624719088787
 30
0.0
 10
77.52083330005655
 20
-142.2624719088787
 30
0.0
 10
77.46572941257348
 20
-142.2624719088787
 30
0.0
 10
77.42092663593871
 20
-142.3072394088679
 30
0.0
 10
77.42092663593871
 20
-142.3623785755203
 30
0.0
 10
77.42092663593871
 20
-142.4174824643958
 30
0.0
 10
77.46572941257348
 20
-142.4622852421619
 30
0.0
 10
77.52083330005655
 20
-142.4622852421619
 30
0.0
 10
77.57664274307719
 20
-142.4622852421619
 30
0.0
 10
77.62144551971194
 20
-142.4174824643958
 30
0.0
 10
77.62144551971194
 20
-142.3623785755203
 30
0.0
  0
POLYLINE
  5
57
330
1F
100
AcDbEntity
  8
_U+30EC_U+30A4_U+30E4_U+30FC 1
 62
   179
420
  2234388
370
     9
100
AcDb2dPolyline
 66
     1
 10
0.0
 20
0.0
 30
0.0
  0
VERTEX
  5
58
330
57
100
AcDbEntity
  8
_U+30EC_U+30A4_U+30E4_U+30FC 1
 62
   179
420
  2234388
370
     9
100
AcDbVertex
100
AcDb2dVertex
 10
77.52083330005655
 20
-142.3623785755203
 30
0.0
  0
VERTEX
  5
59
330
57
100
AcDbEntity
  8
_U+30EC_U+30A4_U+30E4_U+30FC 1
 62
   179
420
  2234388
370
     9
100
AcDbVertex
100
AcDb2dVertex
 10
87.52091887826646
 20
-142.3623785755203
 30
0.0
  0
SEQEND
  5
5A
330
57
100
AcDbEntity
  8
_U+30EC_U+30A4_U+30E4_U+30FC 1
 62
   179
420
  2234388
370
     9
  0
POLYLINE
  5
5B
330
1F
100
AcDbEntity
  8
_U+30EC_U+30A4_U+30E4_U+30FC 1
 62
   179
420
  2234388
370
     9
100
AcDb2dPolyline
 66
     1
 10
0.0
 20
0.0
 30
0.0
  0
VERTEX
  5
5C
330
5B
100
AcDbEntity
  8
_U+30EC_U+30A4_U+30E4_U+30FC 1
 62
   179
420
  2234388
370
     9
100
AcDbVertex
100
AcDb2dVertex
 10
77.52083330005655
 20
-139.9011891316912
 30
0.0
  0
VERTEX
  5
5D
330
5B
100
AcDbEntity
  8
_U+30EC_U+30A4_U+30E4_U+30FC 1
 62
   179
420
  2234388
370
     9
100
AcDbVertex
100
AcDb2dVertex
 10
77.52083330005655
 20
-143.3621507974928
 30
0.0
  0
SEQEND
  5
5E
330
5B
100
AcDbEntity
  8
_U+30EC_U+30A4_U+30E4_U+30FC 1
 62
   179
420
  2234388
370
     9
  0
POLYLINE
  5
5F
330
1F
100
AcDbEntity
  8
_U+30EC_U+30A4_U+30E4_U+30FC 1
 62
   179
420
  2234388
370
     9
100
AcDb2dPolyline
 66
     1
 10
0.0
 20
0.0
 30
0.0
  0
VERTEX
  5
60
330
5F
100
AcDbEntity
  8
_U+30EC_U+30A4_U+30E4_U+30FC 1
 62
   179
420
  2234388
370
     9
100
AcDbVertex
100
AcDb2dVertex
 10
87.52091887826646
 20
-139.9011891316912
 30
0.0
  0
VERTEX
  5
61
330
5F
100
AcDbEntity
  8
_U+30EC_U+30A4_U+30E4_U+30FC 1
 62
   179
420
  2234388
370
     9
100
AcDbVertex
100
AcDb2dVertex
 10
87.52091887826646
 20
-143.3621507974928
 30
0.0
  0
SEQEND
  5
62
330
5F
100
AcDbEntity
  8
_U+30EC_U+30A4_U+30E4_U+30FC 1
 62
   179
420
  2234388
370
     9
  0
INSERT
  5
64
330
1F
100
AcDbEntity
  8
_U+30EC_U+30A4_U+30E4_U+30FC 1
100
AcDbBlockReference
  2
block 2
 10
0.0
 20
0.0
 30
0.0
  0
POLYLINE
  5
6C
330
1F
100
AcDbEntity
  8
_U+30EC_U+30A4_U+30E4_U+30FC 1
 62
   179
420
  2234388
370
     9
100
AcDb2dPolyline
 66
     1
 10
0.0
 20
0.0
 30
0.0
  0
VERTEX
  5
6D
330
6C
100
AcDbEntity
  8
_U+30EC_U+30A4_U+30E4_U+30FC 1
 62
   179
420
  2234388
370
     9
100
AcDbVertex
100
AcDb2dVertex
 10
104.7729159381313
 20
-135.3612566328262
 30
0.0
  0
VERTEX
  5
6E
330
6C
100
AcDbEntity
  8
_U+30EC_U+30A4_U+30E4_U+30FC 1
 62
   179
420
  2234388
370
     9
100
AcDbVertex
100
AcDb2dVertex
 10
88.67090384892789
 20
-135.3612566328262
 30
0.0
  0
SEQEND
  5
6F
330
6C
100
AcDbEntity
  8
_U+30EC_U+30A4_U+30E4_U+30FC 1
 62
   179
420
  2234388
370
     9
  0
POLYLINE
  5
70
330
1F
100
AcDbEntity
  8
_U+30EC_U+30A4_U+30E4_U+30FC 1
 62
   179
420
  2234388
370
     9
100
AcDb2dPolyline
 66
     1
 10
0.0
 20
0.0
 30
0.0
  0
VERTEX
  5
71
330
70
100
AcDbEntity
  8
_U+30EC_U+30A4_U+30E4_U+30FC 1
 62
   179
420
  2234388
370
     9
100
AcDbVertex
100
AcDb2dVertex
 10
104.7729159381313
 20
-120.0612491366515
 30
0.0
  0
VERTEX
  5
72
330
70
100
AcDbEntity
  8
_U+30EC_U+30A4_U+30E4_U+30FC 1
 62
   179
420
  2234388
370
     9
100
AcDbVertex
100
AcDb2dVertex
 10
100.7066935418693
 20
-120.0612491366515
 30
0.0
  0
SEQEND
  5
73
330
70
100
AcDbEntity
  8
_U+30EC_U+30A4_U+30E4_U+30FC 1
 62
   179
420
  2234388
370
     9
  0
POLYLINE
  5
74
330
1F
100
AcDbEntity
  8
_U+30EC_U+30A4_U+30E4_U+30FC 1
 62
   179
420
  2234388
370
     9
100
AcDb2dPolyline
 66
     1
 10
0.0
 20
0.0
 30
0.0
  0
VERTEX
  5
75
330
74
100
AcDbEntity
  8
_U+30EC_U+30A4_U+30E4_U+30FC 1
 62
   179
420
  2234388
370
     9
100
AcDbVertex
100
AcDb2dVertex
 10
104.7729159381313
 20
-119.1200380257755
 30
0.0
  0
VERTEX
  5
76
330
74
100
AcDbEntity
  8
_U+30EC_U+30A4_U+30E4_U+30FC 1
 62
   179
420
  2234388
370
     9
100
AcDbVertex
100
AcDb2dVertex
 10
100.7066935418693
 20
-119.1200380257755
 30
0.0
  0
SEQEND
  5
77
330
74
100
AcDbEntity
  8
_U+30EC_U+30A4_U+30E4_U+30FC 1
 62
   179
420
  2234388
370
     9
  0
INSERT
  5
79
330
1F
100
AcDbEntity
  8
_U+30EC_U+30A4_U+30E4_U+30FC 1
100
AcDbBlockReference
  2
block 3
 10
0.0
 20
0.0
 30
0.0
  0
INSERT
  5
8B
330
1F
100
AcDbEntity
  8
_U+30EC_U+30A4_U+30E4_U+30FC 1
100
AcDbBlockReference
  2
block 4
 10
0.0
 20
0.0
 30
0.0
  0
INSERT
  5
91
330
1F
100
AcDbEntity
  8
_U+30EC_U+30A4_U+30E4_U+30FC 1
100
AcDbBlockReference
  2
block 5
 10
0.0
 20
0.0
 30
0.0
  0
SPLINE
  5
96
330
1F
100
AcDbEntity
  8
_U+30EC_U+30A4_U+30E4_U+30FC 1
 62
   179
420
  2234388
370
     9
100
AcDbSpline
210
0.0
220
0.0
230
1.0
 70
    11
 71
     3
 72
    17
 73
    13
 74
     0
 42
0.0000000001
 43
0.0000000001
 12
1.0
 22
0.0
 32
0.0
 13
1.0
 23
0.0
 33
0.0
 40
0.0
 40
0.0
 40
0.0
 40
0.0
 40
1.0
 40
1.0
 40
1.0
 40
2.0
 40
2.0
 40
2.0
 40
3.0
 40
3.0
 40
3.0
 40
4.0
 40
4.0
 40
4.0
 40
4.0
 10
103.8727329055414
 20
-135.3522960772734
 30
0.0
 10
103.8727329055414
 20
-135.4073999661483
 30
0.0
 10
103.8279301289066
 20
-135.452202743915
 30
0.0
 10
103.7728262414235
 20
-135.452202743915
 30
0.0
 10
103.7176870761636
 20
-135.452202743915
 30
0.0
 10
103.6729221963041
 20
-135.4073999661483
 30
0.0
 10
103.6729221963041
 20
-135.3522960772734
 30
0.0
 10
103.6729221963041
 20
-135.2971569106203
 30
0.0
 10
103.7176870761636
 20
-135.2523894106311
 30
0.0
 10
103.7728262414235
 20
-135.2523894106311
 30
0.0
 10
103.8279301289066
 20
-135.2523894106311
 30
0.0
 10
103.8727329055414
 20
-135.2971569106203
 30
0.0
 10
103.8727329055414
 20
-135.3522960772734
 30
0.0
  0
HATCH
  5
97
330
1F
100
AcDbEntity
  8
_U+30EC_U+30A4_U+30E4_U+30FC 1
 62
   179
420
  2234388
100
AcDbHatch
 10
0.0
 20
0.0
 30
0.0
210
0.0
220
0.0
230
1.0
  2
SOLID
 70
     1
 71
     0
 91
        1
 92
        1
 93
        1
 72
     4
 94
        3
 73
     0
 74
     1
 95
       17
 96
       13
 40
0.0
 40
0.0
 40
0.0
 40
0.0
 40
1.0
 40
1.0
 40
1.0
 40
2.0
 40
2.0
 40
2.0
 40
3.0
 40
3.0
 40
3.0
 40
4.0
 40
4.0
 40
4.0
 40
4.0
 10
103.8727329055414
 20
-135.3522960772734
 10
103.8727329055414
 20
-135.4073999661483
 10
103.8279301289066
 20
-135.452202743915
 10
103.7728262414235
 20
-135.452202743915
 10
103.7176870761636
 20
-135.452202743915
 10
103.6729221963041
 20
-135.4073999661483
 10
103.6729221963041
 20
-135.3522960772734
 10
103.6729221963041
 20
-135.2971569106203
 10
103.7176870761636
 20
-135.2523894106311
 10
103.7728262414235
 20
-135.2523894106311
 10
103.8279301289066
 20
-135.2523894106311
 10
103.8727329055414
 20
-135.2971569106203
 10
103.8727329055414
 20
-135.3522960772734
 97
        0
 97
        0
 75
     2
 76
     1
 98
        0
  0
POLYLINE
  5
98
330
1F
100
AcDbEntity
  8
_U+30EC_U+30A4_U+30E4_U+30FC 1
 62
   179
420
  2234388
370
     9
100
AcDb2dPolyline
 66
     1
 10
0.0
 20
0.0
 30
0.0
  0
VERTEX
  5
99
330
98
100
AcDbEntity
  8
_U+30EC_U+30A4_U+30E4_U+30FC 1
 62
   179
420
  2234388
370
     9
100
AcDbVertex
100
AcDb2dVertex
 10
103.7728262414235
 20
-138.3529532987451
 30
0.0
  0
VERTEX
  5
9A
330
98
100
AcDbEntity
  8
_U+30EC_U+30A4_U+30E4_U+30FC 1
 62
   179
420
  2234388
370
     9
100
AcDbVertex
100
AcDb2dVertex
 10
103.7728262414235
 20
-115.349725526718
 30
0.0
  0
SEQEND
  5
9B
330
98
100
AcDbEntity
  8
_U+30EC_U+30A4_U+30E4_U+30FC 1
 62
   179
420
  2234388
370
     9
  0
POLYLINE
  5
9C
330
1F
100
AcDbEntity
  8
_U+30EC_U+30A4_U+30E4_U+30FC 1
 62
   179
420
  2234388
370
     9
100
AcDb2dPolyline
 66
     1
 10
0.0
 20
0.0
 30
0.0
  0
VERTEX
  5
9D
330
9C
100
AcDbEntity
  8
_U+30EC_U+30A4_U+30E4_U+30FC 1
 62
   179
420
  2234388
370
     9
100
AcDbVertex
100
AcDb2dVertex
 10
104.7729159381313
 20
-138.3619138542985
 30
0.0
  0
VERTEX
  5
9E
330
9C
100
AcDbEntity
  8
_U+30EC_U+30A4_U+30E4_U+30FC 1
 62
   179
420
  2234388
370
     9
100
AcDbVertex
100
AcDb2dVertex
 10
88.67090384892789
 20
-138.3619138542985
 30
0.0
  0
SEQEND
  5
9F
330
9C
100
AcDbEntity
  8
_U+30EC_U+30A4_U+30E4_U+30FC 1
 62
   179
420
  2234388
370
     9
  0
SPLINE
  5
A0
330
1F
100
AcDbEntity
  8
_U+30EC_U+30A4_U+30E4_U+30FC 1
 62
   179
420
  2234388
370
     9
100
AcDbSpline
210
0.0
220
0.0
230
1.0
 70
    11
 71
     3
 72
    17
 73
    13
 74
     0
 42
0.0000000001
 43
0.0000000001
 12
1.0
 22
0.0
 32
0.0
 13
1.0
 23
0.0
 33
0.0
 40
0.0
 40
0.0
 40
0.0
 40
0.0
 40
1.0
 40
1.0
 40
1.0
 40
2.0
 40
2.0
 40
2.0
 40
3.0
 40
3.0
 40
3.0
 40
4.0
 40
4.0
 40
4.0
 40
4.0
 10
103.8727329055414
 20
-138.3529532987451
 30
0.0
 10
103.8727329055414
 20
-138.4080924653981
 30
0.0
 10
103.8279301289066
 20
-138.4528599653867
 30
0.0
 10
103.7728262414235
 20
-138.4528599653867
 30
0.0
 10
103.7176870761636
 20
-138.4528599653867
 30
0.0
 10
103.6729221963041
 20
-138.4080924653981
 30
0.0
 10
103.6729221963041
 20
-138.3529532987451
 30
0.0
 10
103.6729221963041
 20
-138.2978494098701
 30
0.0
 10
103.7176870761636
 20
-138.2530466321034
 30
0.0
 10
103.7728262414235
 20
-138.2530466321034
 30
0.0
 10
103.8279301289066
 20
-138.2530466321034
 30
0.0
 10
103.8727329055414
 20
-138.2978494098701
 30
0.0
 10
103.8727329055414
 20
-138.3529532987451
 30
0.0
  0
HATCH
  5
A1
330
1F
100
AcDbEntity
  8
_U+30EC_U+30A4_U+30E4_U+30FC 1
 62
   179
420
  2234388
100
AcDbHatch
 10
0.0
 20
0.0
 30
0.0
210
0.0
220
0.0
230
1.0
  2
SOLID
 70
     1
 71
     0
 91
        1
 92
        1
 93
        1
 72
     4
 94
        3
 73
     0
 74
     1
 95
       17
 96
       13
 40
0.0
 40
0.0
 40
0.0
 40
0.0
 40
1.0
 40
1.0
 40
1.0
 40
2.0
 40
2.0
 40
2.0
 40
3.0
 40
3.0
 40
3.0
 40
4.0
 40
4.0
 40
4.0
 40
4.0
 10
103.8727329055414
 20
-138.3529532987451
 10
103.8727329055414
 20
-138.4080924653981
 10
103.8279301289066
 20
-138.4528599653867
 10
103.7728262414235
 20
-138.4528599653867
 10
103.7176870761636
 20
-138.4528599653867
 10
103.6729221963041
 20
-138.4080924653981
 10
103.6729221963041
 20
-138.3529532987451
 10
103.6729221963041
 20
-138.2978494098701
 10
103.7176870761636
 20
-138.2530466321034
 10
103.7728262414235
 20
-138.2530466321034
 10
103.8279301289066
 20
-138.2530466321034
 10
103.8727329055414
 20
-138.2978494098701
 10
103.8727329055414
 20
-138.3529532987451
 97
        0
 97
        0
 75
     2
 76
     1
 98
        0
  0
SPLINE
  5
A2
330
1F
100
AcDbEntity
  8
_U+30EC_U+30A4_U+30E4_U+30FC 1
 62
   179
420
  2234388
370
     9
100
AcDbSpline
210
0.0
220
0.0
230
1.0
 70
    11
 71
     3
 72
    17
 73
    13
 74
     0
 42
0.0000000001
 43
0.0000000001
 12
1.0
 22
0.0
 32
0.0
 13
1.0
 23
0.0
 33
0.0
 40
0.0
 40
0.0
 40
0.0
 40
0.0
 40
1.0
 40
1.0
 40
1.0
 40
2.0
 40
2.0
 40
2.0
 40
3.0
 40
3.0
 40
3.0
 40
4.0
 40
4.0
 40
4.0
 40
4.0
 10
103.8727329055414
 20
-120.0612491366515
 30
0.0
 10
103.8727329055414
 20
-120.1163530255264
 30
0.0
 10
103.8279301289066
 20
-120.1611558032931
 30
0.0
 10
103.7728262414235
 20
-120.1611558032931
 30
0.0
 10
103.7176870761636
 20
-120.1611558032931
 30
0.0
 10
103.6729221963041
 20
-120.1163530255264
 30
0.0
 10
103.6729221963041
 20
-120.0612491366515
 30
0.0
 10
103.6729221963041
 20
-120.0061099699984
 30
0.0
 10
103.7176870761636
 20
-119.9613424700095
 30
0.0
 10
103.7728262414235
 20
-119.9613424700095
 30
0.0
 10
103.8279301289066
 20
-119.9613424700095
 30
0.0
 10
103.8727329055414
 20
-120.0061099699984
 30
0.0
 10
103.8727329055414
 20
-120.0612491366515
 30
0.0
  0
HATCH
  5
A3
330
1F
100
AcDbEntity
  8
_U+30EC_U+30A4_U+30E4_U+30FC 1
 62
   179
420
  2234388
100
AcDbHatch
 10
0.0
 20
0.0
 30
0.0
210
0.0
220
0.0
230
1.0
  2
SOLID
 70
     1
 71
     0
 91
        1
 92
        1
 93
        1
 72
     4
 94
        3
 73
     0
 74
     1
 95
       17
 96
       13
 40
0.0
 40
0.0
 40
0.0
 40
0.0
 40
1.0
 40
1.0
 40
1.0
 40
2.0
 40
2.0
 40
2.0
 40
3.0
 40
3.0
 40
3.0
 40
4.0
 40
4.0
 40
4.0
 40
4.0
 10
103.8727329055414
 20
-120.0612491366515
 10
103.8727329055414
 20
-120.1163530255264
 10
103.8279301289066
 20
-120.1611558032931
 10
103.7728262414235
 20
-120.1611558032931
 10
103.7176870761636
 20
-120.1611558032931
 10
103.6729221963041
 20
-120.1163530255264
 10
103.6729221963041
 20
-120.0612491366515
 10
103.6729221963041
 20
-120.0061099699984
 10
103.7176870761636
 20
-119.9613424700095
 10
103.7728262414235
 20
-119.9613424700095
 10
103.8279301289066
 20
-119.9613424700095
 10
103.8727329055414
 20
-120.0061099699984
 10
103.8727329055414
 20
-120.0612491366515
 97
        0
 97
        0
 75
     2
 76
     1
 98
        0
  0
SPLINE
  5
A4
330
1F
100
AcDbEntity
  8
_U+30EC_U+30A4_U+30E4_U+30FC 1
 62
   179
420
  2234388
370
     9
100
AcDbSpline
210
0.0
220
0.0
230
1.0
 70
    11
 71
     3
 72
    17
 73
    13
 74
     0
 42
0.0000000001
 43
0.0000000001
 12
1.0
 22
0.0
 32
0.0
 13
1.0
 23
0.0
 33
0.0
 40
0.0
 40
0.0
 40
0.0
 40
0.0
 40
1.0
 40
1.0
 40
1.0
 40
2.0
 40
2.0
 40
2.0
 40
3.0
 40
3.0
 40
3.0
 40
4.0
 40
4.0
 40
4.0
 40
4.0
 10
103.8727329055414
 20
-119.1200380257755
 30
0.0
 10
103.8727329055414
 20
-119.1751419146507
 30
0.0
 10
103.8279301289066
 20
-119.2199446924171
 30
0.0
 10
103.7728262414235
 20
-119.2199446924171
 30
0.0
 10
103.7176870761636
 20
-119.2199446924171
 30
0.0
 10
103.6729221963041
 20
-119.1751419146507
 30
0.0
 10
103.6729221963041
 20
-119.1200380257755
 30
0.0
 10
103.6729221963041
 20
-119.0648988591227
 30
0.0
 10
103.7176870761636
 20
-119.0201313591338
 30
0.0
 10
103.7728262414235
 20
-119.0201313591338
 30
0.0
 10
103.8279301289066
 20
-119.0201313591338
 30
0.0
 10
103.8727329055414
 20
-119.0648988591227
 30
0.0
 10
103.8727329055414
 20
-119.1200380257755
 30
0.0
  0
HATCH
  5
A5
330
1F
100
AcDbEntity
  8
_U+30EC_U+30A4_U+30E4_U+30FC 1
 62
   179
420
  2234388
100
AcDbHatch
 10
0.0
 20
0.0
 30
0.0
210
0.0
220
0.0
230
1.0
  2
SOLID
 70
     1
 71
     0
 91
        1
 92
        1
 93
        1
 72
     4
 94
        3
 73
     0
 74
     1
 95
       17
 96
       13
 40
0.0
 40
0.0
 40
0.0
 40
0.0
 40
1.0
 40
1.0
 40
1.0
 40
2.0
 40
2.0
 40
2.0
 40
3.0
 40
3.0
 40
3.0
 40
4.0
 40
4.0
 40
4.0
 40
4.0
 10
103.8727329055414
 20
-119.1200380257755
 10
103.8727329055414
 20
-119.1751419146507
 10
103.8279301289066
 20
-119.2199446924171
 10
103.7728262414235
 20
-119.2199446924171
 10
103.7176870761636
 20
-119.2199446924171
 10
103.6729221963041
 20
-119.1751419146507
 10
103.6729221963041
 20
-119.1200380257755
 10
103.6729221963041
 20
-119.0648988591227
 10
103.7176870761636
 20
-119.0201313591338
 10
103.7728262414235
 20
-119.0201313591338
 10
103.8279301289066
 20
-119.0201313591338
 10
103.8727329055414
 20
-119.0648988591227
 10
103.8727329055414
 20
-119.1200380257755
 97
        0
 97
        0
 75
     2
 76
     1
 98
        0
  0
SPLINE
  5
A6
330
1F
100
AcDbEntity
  8
_U+30EC_U+30A4_U+30E4_U+30FC 1
 62
   179
420
  2234388
370
     9
100
AcDbSpline
210
0.0
220
0.0
230
1.0
 70
    11
 71
     3
 72
    17
 73
    13
 74
     0
 42
0.0000000001
 43
0.0000000001
 12
1.0
 22
0.0
 32
0.0
 13
1.0
 23
0.0
 33
0.0
 40
0.0
 40
0.0
 40
0.0
 40
0.0
 40
1.0
 40
1.0
 40
1.0
 40
2.0
 40
2.0
 40
2.0
 40
3.0
 40
3.0
 40
3.0
 40
4.0
 40
4.0
 40
4.0
 40
4.0
 10
78.62396938302432
 20
-116.1011069154191
 30
0.0
 10
78.62396938302432
 20
-116.0459677487663
 30
0.0
 10
78.57916660638955
 20
-116.0012002487774
 30
0.0
 10
78.52406271890648
 20
-116.0012002487774
 30
0.0
 10
78.46927633141532
 20
-116.0012002487774
 30
0.0
 10
78.42450883255742
 20
-116.0459677487663
 30
0.0
 10
78.42450883255742
 20
-116.1011069154191
 30
0.0
 10
78.42450883255742
 20
-116.1562108042943
 30
0.0
 10
78.46927633141532
 20
-116.201013582061
 30
0.0
 10
78.52406271890648
 20
-116.201013582061
 30
0.0
 10
78.57916660638955
 20
-116.201013582061
 30
0.0
 10
78.62396938302432
 20
-116.1562108042943
 30
0.0
 10
78.62396938302432
 20
-116.1011069154191
 30
0.0
  0
POLYLINE
  5
A7
330
1F
100
AcDbEntity
  8
_U+30EC_U+30A4_U+30E4_U+30FC 1
 62
   179
420
  2234388
370
     9
100
AcDb2dPolyline
 66
     1
 10
0.0
 20
0.0
 30
0.0
  0
VERTEX
  5
A8
330
A7
100
AcDbEntity
  8
_U+30EC_U+30A4_U+30E4_U+30FC 1
 62
   179
420
  2234388
370
     9
100
AcDbVertex
100
AcDb2dVertex
 10
78.52406271890648
 20
-117.5611130261652
 30
0.0
  0
VERTEX
  5
A9
330
A7
100
AcDbEntity
  8
_U+30EC_U+30A4_U+30E4_U+30FC 1
 62
   179
420
  2234388
370
     9
100
AcDbVertex
100
AcDb2dVertex
 10
78.52406271890648
 20
-115.1013346934468
 30
0.0
  0
SEQEND
  5
AA
330
A7
100
AcDbEntity
  8
_U+30EC_U+30A4_U+30E4_U+30FC 1
 62
   179
420
  2234388
370
     9
  0
SPLINE
  5
AB
330
1F
100
AcDbEntity
  8
_U+30EC_U+30A4_U+30E4_U+30FC 1
 62
   179
420
  2234388
370
     9
100
AcDbSpline
210
0.0
220
0.0
230
1.0
 70
    11
 71
     3
 72
    17
 73
    13
 74
     0
 42
0.0000000001
 43
0.0000000001
 12
1.0
 22
0.0
 32
0.0
 13
1.0
 23
0.0
 33
0.0
 40
0.0
 40
0.0
 40
0.0
 40
0.0
 40
1.0
 40
1.0
 40
1.0
 40
2.0
 40
2.0
 40
2.0
 40
3.0
 40
3.0
 40
3.0
 40
4.0
 40
4.0
 40
4.0
 40
4.0
 10
99.62423023615192
 20
-116.1011069154191
 30
0.0
 10
99.62423023615192
 20
-116.0459677487663
 30
0.0
 10
99.57946273729404
 20
-116.0012002487774
 30
0.0
 10
99.52432357203408
 20
-116.0012002487774
 30
0.0
 10
99.46922219735461
 20
-116.0012002487774
 30
0.0
 10
99.42441941958853
 20
-116.0459677487663
 30
0.0
 10
99.42441941958853
 20
-116.1011069154191
 30
0.0
 10
99.42441941958853
 20
-116.1562108042943
 30
0.0
 10
99.46922219735461
 20
-116.201013582061
 30
0.0
 10
99.52432357203408
 20
-116.201013582061
 30
0.0
 10
99.57946273729404
 20
-116.201013582061
 30
0.0
 10
99.62423023615192
 20
-116.1562108042943
 30
0.0
 10
99.62423023615192
 20
-116.1011069154191
 30
0.0
  0
POLYLINE
  5
AC
330
1F
100
AcDbEntity
  8
_U+30EC_U+30A4_U+30E4_U+30FC 1
 62
   179
420
  2234388
370
     9
100
AcDb2dPolyline
 66
     1
 10
0.0
 20
0.0
 30
0.0
  0
VERTEX
  5
AD
330
AC
100
AcDbEntity
  8
_U+30EC_U+30A4_U+30E4_U+30FC 1
 62
   179
420
  2234388
370
     9
100
AcDbVertex
100
AcDb2dVertex
 10
99.52432357203408
 20
-117.5611130261652
 30
0.0
  0
VERTEX
  5
AE
330
AC
100
AcDbEntity
  8
_U+30EC_U+30A4_U+30E4_U+30FC 1
 62
   179
420
  2234388
370
     9
100
AcDbVertex
100
AcDb2dVertex
 10
99.52432357203408
 20
-115.1013346934468
 30
0.0
  0
SEQEND
  5
AF
330
AC
100
AcDbEntity
  8
_U+30EC_U+30A4_U+30E4_U+30FC 1
 62
   179
420
  2234388
370
     9
  0
POLYLINE
  5
B0
330
1F
100
AcDbEntity
  8
_U+30EC_U+30A4_U+30E4_U+30FC 1
 62
   179
420
  2234388
370
     9
100
AcDb2dPolyline
 66
     1
 10
0.0
 20
0.0
 30
0.0
  0
VERTEX
  5
B1
330
B0
100
AcDbEntity
  8
_U+30EC_U+30A4_U+30E4_U+30FC 1
 62
   179
420
  2234388
370
     9
100
AcDbVertex
100
AcDb2dVertex
 10
78.52473299666717
 20
-116.1011069154191
 30
0.0
  0
VERTEX
  5
B2
330
B0
100
AcDbEntity
  8
_U+30EC_U+30A4_U+30E4_U+30FC 1
 62
   179
420
  2234388
370
     9
100
AcDbVertex
100
AcDb2dVertex
 10
99.52432357203408
 20
-116.1011069154191
 30
0.0
  0
SEQEND
  5
B3
330
B0
100
AcDbEntity
  8
_U+30EC_U+30A4_U+30E4_U+30FC 1
 62
   179
420
  2234388
370
     9
  0
INSERT
  5
B5
330
1F
100
AcDbEntity
  8
_U+30EC_U+30A4_U+30E4_U+30FC 1
100
AcDbBlockReference
  2
block 6
 10
0.0
 20
0.0
 30
0.0
  0
ENDSEC
  0
SECTION
  2
OBJECTS
  0
DICTIONARY
  5
C
330
0
100
AcDbDictionary
281
     1
  3
ACAD_GROUP
350
D
  3
ACAD_LAYOUT
350
1A
  3
ACAD_MATERIAL
350
3B
  3
ACAD_MLEADERSTYLE
350
BD
  3
ACAD_MLINESTYLE
350
17
  3
ACAD_PLOTSETTINGS
350
19
  3
ACAD_PLOTSTYLENAME
350
E
  3
ACAD_TABLESTYLE
350
BC
  3
ACAD_VISUALSTYLE
350
2A
  0
SUN
  5
3F
330
29
100
AcDbSun
 90
        1
290
     0
 63
     7
421
 16777215
 40
1.0
291
     1
 91
  2455826
 92
 54000000
292
     0
 70
     2
 71
   256
280
     1
  0
DICTIONARY
  5
D
102
{ACAD_REACTORS
330
C
102
}
330
C
100
AcDbDictionary
281
     1
  0
DICTIONARY
  5
1A
102
{ACAD_REACTORS
330
C
102
}
330
C
100
AcDbDictionary
281
     1
  3
Layout1
350
1E
  3
Layout2
350
26
  3
Model
350
22
  0
DICTIONARY
  5
3B
102
{ACAD_REACTORS
330
C
102
}
330
C
100
AcDbDictionary
281
     1
  3
ByBlock
350
3D
  3
ByLayer
350
3C
  3
Global
350
3E
  0
DICTIONARY
  5
BD
102
{ACAD_REACTORS
330
C
102
}
330
C
100
AcDbDictionary
281
     1
  0
DICTIONARY
  5
17
102
{ACAD_REACTORS
330
C
102
}
330
C
100
AcDbDictionary
281
     1
  3
Standard
350
18
  0
DICTIONARY
  5
19
102
{ACAD_REACTORS
330
C
102
}
330
C
100
AcDbDictionary
281
     1
  0
ACDBDICTIONARYWDFLT
  5
E
102
{ACAD_REACTORS
330
C
102
}
330
C
100
AcDbDictionary
281
     1
  3
Normal
350
F
100
AcDbDictionaryWithDefault
340
F
  0
DICTIONARY
  5
BC
102
{ACAD_REACTORS
330
C
102
}
330
C
100
AcDbDictionary
281
     1
  0
DICTIONARY
  5
2A
102
{ACAD_REACTORS
330
C
102
}
330
C
100
AcDbDictionary
281
     1
  3
2dWireframe
350
2F
  3
3D Hidden
350
31
  3
3dWireframe
350
30
  3
Basic
350
32
  3
Brighten
350
36
  3
ColorChange
350
3A
  3
Conceptual
350
34
  3
Dim
350
35
  3
Facepattern
350
39
  3
Flat
350
2B
  3
FlatWithEdges
350
2C
  3
Gouraud
350
2D
  3
GouraudWithEdges
350
2E
  3
Linepattern
350
38
  3
Realistic
350
33
  3
Thicken
350
37
  0
LAYOUT
  5
1E
102
{ACAD_REACTORS
330
1A
102
}
330
1A
100
AcDbPlotSettings
  1

  2
none_device
  4

  6

 40
0.0
 41
0.0
 42
0.0
 43
0.0
 44
0.0
 45
0.0
 46
0.0
 47
0.0
 48
0.0
 49
0.0
140
0.0
141
0.0
142
1.0
143
1.0
 70
   688
 72
     0
 73
     0
 74
     5
  7

 75
    16
 76
     0
 77
     2
 78
   300
147
1.0
148
0.0
149
0.0
100
AcDbLayout
  1
Layout1
 70
     1
 71
     1
 10
0.0
 20
0.0
 11
12.0
 21
9.0
 12
0.0
 22
0.0
 32
0.0
 14
1.000000000000000E+20
 24
1.000000000000000E+20
 34
1.000000000000000E+20
 15
-1.000000000000000E+20
 25
-1.000000000000000E+20
 35
-1.000000000000000E+20
146
0.0
 13
0.0
 23
0.0
 33
0.0
 16
1.0
 26
0.0
 36
0.0
 17
0.0
 27
1.0
 37
0.0
 76
     0
330
1B
  0
LAYOUT
  5
26
102
{ACAD_REACTORS
330
1A
102
}
330
1A
100
AcDbPlotSettings
  1

  2
none_device
  4

  6

 40
0.0
 41
0.0
 42
0.0
 43
0.0
 44
0.0
 45
0.0
 46
0.0
 47
0.0
 48
0.0
 49
0.0
140
0.0
141
0.0
142
1.0
143
1.0
 70
   688
 72
     0
 73
     0
 74
     5
  7

 75
    16
 76
     0
 77
     2
 78
   300
147
1.0
148
0.0
149
0.0
100
AcDbLayout
  1
Layout2
 70
     1
 71
     2
 10
0.0
 20
0.0
 11
0.0
 21
0.0
 12
0.0
 22
0.0
 32
0.0
 14
0.0
 24
0.0
 34
0.0
 15
0.0
 25
0.0
 35
0.0
146
0.0
 13
0.0
 23
0.0
 33
0.0
 16
1.0
 26
0.0
 36
0.0
 17
0.0
 27
1.0
 37
0.0
 76
     0
330
23
  0
LAYOUT
  5
22
102
{ACAD_REACTORS
330
1A
102
}
330
1A
100
AcDbPlotSettings
  1

  2
none_device
  4

  6

 40
0.0
 41
0.0
 42
0.0
 43
0.0
 44
0.0
 45
0.0
 46
0.0
 47
0.0
 48
0.0
 49
0.0
140
0.0
141
0.0
142
1.0
143
1.0
 70
  1712
 72
     0
 73
     0
 74
     0
  7

 75
     0
 76
     0
 77
     2
 78
   300
147
1.0
148
0.0
149
0.0
100
AcDbLayout
  1
Model
 70
     1
 71
     0
 10
0.0
 20
0.0
 11
12.0
 21
9.0
 12
0.0
 22
0.0
 32
0.0
 14
1.000000000000000E+20
 24
1.000000000000000E+20
 34
1.000000000000000E+20
 15
-1.000000000000000E+20
 25
-1.000000000000000E+20
 35
-1.000000000000000E+20
146
0.0
 13
0.0
 23
0.0
 33
0.0
 16
1.0
 26
0.0
 36
0.0
 17
0.0
 27
1.0
 37
0.0
 76
     0
330
1F
331
29
  0
MATERIAL
  5
3D
102
{ACAD_REACTORS
330
3B
102
}
330
3B
100
AcDbMaterial
  1
ByBlock
 72
     1
 94
      127
  0
MATERIAL
  5
3C
102
{ACAD_REACTORS
330
3B
102
}
330
3B
100
AcDbMaterial
  1
ByLayer
 72
     1
 94
      127
  0
MATERIAL
  5
3E
102
{ACAD_REACTORS
330
3B
102
}
330
3B
100
AcDbMaterial
  1
Global
 72
     1
 94
      127
  0
MLINESTYLE
  5
18
102
{ACAD_REACTORS
330
17
102
}
330
17
100
AcDbMlineStyle
  2
Standard
 70
     0
  3

 62
   256
 51
90.0
 52
90.0
 71
     2
 49
0.5
 62
   256
  6
BYLAYER
 49
-0.5
 62
   256
  6
BYLAYER
  0
ACDBPLACEHOLDER
  5
F
102
{ACAD_REACTORS
330
E
102
}
330
E
  0
VISUALSTYLE
  5
2F
102
{ACAD_REACTORS
330
2A
102
}
330
2A
100
AcDbVisualStyle
  2
2dWireframe
 70
     4
177
     2
291
     0
 71
     0
176
     1
 72
     2
176
     1
 73
     0
176
     1
 90
        0
176
     1
 40
-0.6
176
     1
 41
-30.0
176
     1
 62
     5
 63
     7
421
 16777215
176
     1
 74
     1
176
     1
 91
        4
176
     1
 64
     7
176
     1
 65
   257
176
     1
 75
     1
176
     1
175
     1
176
     1
 42
1.0
176
     1
 92
        0
176
     1
 66
   257
176
     1
 43
1.0
176
     1
 76
     1
176
     1
 77
     6
176
     1
 78
     2
176
     1
 67
     7
176
     1
 79
     5
176
     1
170
     0
176
     1
171
     0
176
     1
290
     0
176
     1
 93
        1
176
     1
 44
0.0
176
     1
173
     0
176
     1
  0
VISUALSTYLE
  5
31
102
{ACAD_REACTORS
330
2A
102
}
330
2A
100
AcDbVisualStyle
  2
3D Hidden
 70
     6
177
     2
291
     0
 71
     1
176
     1
 72
     2
176
     1
 73
     2
176
     1
 90
        0
176
     1
 40
-0.6
176
     1
 41
-30.0
176
     1
 62
     5
 63
     7
421
 16777215
176
     1
 74
     2
176
     1
 91
        2
176
     1
 64
     7
176
     1
 65
   257
176
     1
 75
     2
176
     1
175
     1
176
     1
 42
40.0
176
     1
 92
        0
176
     1
 66
   257
176
     1
 43
1.0
176
     1
 76
     1
176
     1
 77
     6
176
     1
 78
     2
176
     1
 67
     7
176
     1
 79
     3
176
     1
170
     0
176
     1
171
     0
176
     1
290
     0
176
     1
 93
        1
176
     1
 44
0.0
176
     1
173
     0
176
     1
  0
VISUALSTYLE
  5
30
102
{ACAD_REACTORS
330
2A
102
}
330
2A
100
AcDbVisualStyle
  2
3dWireframe
 70
     5
177
     2
291
     0
 71
     0
176
     1
 72
     2
176
     1
 73
     0
176
     1
 90
        0
176
     1
 40
-0.6
176
     1
 41
-30.0
176
     1
 62
     5
 63
     7
421
 16777215
176
     1
 74
     1
176
     1
 91
        4
176
     1
 64
     7
176
     1
 65
   257
176
     1
 75
     1
176
     1
175
     1
176
     1
 42
1.0
176
     1
 92
        0
176
     1
 66
   257
176
     1
 43
1.0
176
     1
 76
     1
176
     1
 77
     6
176
     1
 78
     2
176
     1
 67
     7
176
     1
 79
     5
176
     1
170
     0
176
     1
171
     0
176
     1
290
     0
176
     1
 93
        1
176
     1
 44
0.0
176
     1
173
     0
176
     1
  0
VISUALSTYLE
  5
32
102
{ACAD_REACTORS
330
2A
102
}
330
2A
100
AcDbVisualStyle
  2
Basic
 70
     7
177
     2
291
     1
 71
     1
176
     1
 72
     0
176
     1
 73
     1
176
     1
 90
        0
176
     1
 40
-0.6
176
     1
 41
-30.0
176
     1
 62
     5
 63
     7
421
 16777215
176
     1
 74
     0
176
     1
 91
        4
176
     1
 64
     7
176
     1
 65
   257
176
     1
 75
     1
176
     1
175
     1
176
     1
 42
1.0
176
     1
 92
        8
176
     1
 66
     7
176
     1
 43
1.0
176
     1
 76
     1
176
     1
 77
     6
176
     1
 78
     2
176
     1
 67
     7
176
     1
 79
     5
176
     1
170
     0
176
     1
171
     0
176
     1
290
     0
176
     1
 93
        1
176
     1
 44
0.0
176
     1
173
     0
176
     1
  0
VISUALSTYLE
  5
36
102
{ACAD_REACTORS
330
2A
102
}
330
2A
100
AcDbVisualStyle
  2
Brighten
 70
    12
177
     2
291
     1
 71
     2
176
     1
 72
     2
176
     1
 73
     0
176
     1
 90
        0
176
     1
 40
-0.6
176
     1
 41
-30.0
176
     1
 62
     5
 63
     7
421
 16777215
176
     1
 74
     1
176
     1
 91
        4
176
     1
 64
     7
176
     1
 65
   257
176
     1
 75
     1
176
     1
175
     1
176
     1
 42
1.0
176
     1
 92
        8
176
     1
 66
     7
176
     1
 43
1.0
176
     1
 76
     1
176
     1
 77
     6
176
     1
 78
     2
176
     1
 67
     7
176
     1
 79
     5
176
     1
170
     0
176
     1
171
     0
176
     1
290
     0
176
     1
 93
        1
176
     1
 44
50.0
176
     1
173
     0
176
     1
  0
VISUALSTYLE
  5
3A
102
{ACAD_REACTORS
330
2A
102
}
330
2A
100
AcDbVisualStyle
  2
ColorChange
 70
    16
177
     2
291
     1
 71
     2
176
     1
 72
     2
176
     1
 73
     3
176
     1
 90
        0
176
     1
 40
-0.6
176
     1
 41
-30.0
176
     1
 62
     5
 63
     8
421
  8421504
176
     1
 74
     1
176
     1
 91
        4
176
     1
 64
     7
176
     1
 65
   257
176
     1
 75
     1
176
     1
175
     1
176
     1
 42
1.0
176
     1
 92
        8
176
     1
 66
     8
424
  8421504
176
     1
 43
1.0
176
     1
 76
     1
176
     1
 77
     6
176
     1
 78
     2
176
     1
 67
     7
176
     1
 79
     5
176
     1
170
     0
176
     1
171
     0
176
     1
290
     0
176
     1
 93
        1
176
     1
 44
0.0
176
     1
173
     0
176
     1
  0
VISUALSTYLE
  5
34
102
{ACAD_REACTORS
330
2A
102
}
330
2A
100
AcDbVisualStyle
  2
Conceptual
 70
     9
177
     2
291
     0
 71
     3
176
     1
 72
     2
176
     1
 73
     0
176
     1
 90
        0
176
     1
 40
-0.6
176
     1
 41
-30.0
176
     1
 62
     5
 63
     7
421
 16777215
176
     1
 74
     2
176
     1
 91
        2
176
     1
 64
     7
176
     1
 65
   257
176
     1
 75
     1
176
     1
175
     1
176
     1
 42
40.0
176
     1
 92
        8
176
     1
 66
     7
176
     1
 43
1.0
176
     1
 76
     1
176
     1
 77
     6
176
     1
 78
     2
176
     1
 67
     7
176
     1
 79
     3
176
     1
170
     0
176
     1
171
     0
176
     1
290
     0
176
     1
 93
        1
176
     1
 44
0.0
176
     1
173
     0
176
     1
  0
VISUALSTYLE
  5
35
102
{ACAD_REACTORS
330
2A
102
}
330
2A
100
AcDbVisualStyle
  2
Dim
 70
    11
177
     2
291
     1
 71
     2
176
     1
 72
     2
176
     1
 73
     0
176
     1
 90
        0
176
     1
 40
-0.6
176
     1
 41
-30.0
176
     1
 62
     5
 63
     7
421
 16777215
176
     1
 74
     1
176
     1
 91
        4
176
     1
 64
     7
176
     1
 65
   257
176
     1
 75
     1
176
     1
175
     1
176
     1
 42
1.0
176
     1
 92
        8
176
     1
 66
     7
176
     1
 43
1.0
176
     1
 76
     1
176
     1
 77
     6
176
     1
 78
     2
176
     1
 67
     7
176
     1
 79
     5
176
     1
170
     0
176
     1
171
     0
176
     1
290
     0
176
     1
 93
        1
176
     1
 44
-50.0
176
     1
173
     0
176
     1
  0
VISUALSTYLE
  5
39
102
{ACAD_REACTORS
330
2A
102
}
330
2A
100
AcDbVisualStyle
  2
Facepattern
 70
    15
177
     2
291
     1
 71
     2
176
     1
 72
     2
176
     1
 73
     0
176
     1
 90
        0
176
     1
 40
-0.6
176
     1
 41
-30.0
176
     1
 62
     5
 63
     7
421
 16777215
176
     1
 74
     1
176
     1
 91
        4
176
     1
 64
     7
176
     1
 65
   257
176
     1
 75
     1
176
     1
175
     1
176
     1
 42
1.0
176
     1
 92
        8
176
     1
 66
     7
176
     1
 43
1.0
176
     1
 76
     1
176
     1
 77
     6
176
     1
 78
     2
176
     1
 67
     7
176
     1
 79
     5
176
     1
170
     0
176
     1
171
     0
176
     1
290
     0
176
     1
 93
        1
176
     1
 44
0.0
176
     1
173
     0
176
     1
  0
VISUALSTYLE
  5
2B
102
{ACAD_REACTORS
330
2A
102
}
330
2A
100
AcDbVisualStyle
  2
Flat
 70
     0
177
     2
291
     1
 71
     2
176
     1
 72
     1
176
     1
 73
     1
176
     1
 90
        2
176
     1
 40
-0.6
176
     1
 41
30.0
176
     1
 62
     5
 63
     7
421
 16777215
176
     1
 74
     0
176
     1
 91
        4
176
     1
 64
     7
176
     1
 65
   257
176
     1
 75
     1
176
     1
175
     1
176
     1
 42
1.0
176
     1
 92
        8
176
     1
 66
     7
176
     1
 43
1.0
176
     1
 76
     1
176
     1
 77
     6
176
     1
 78
     2
176
     1
 67
     7
176
     1
 79
     5
176
     1
170
     0
176
     1
171
     0
176
     1
290
     0
176
     1
 93
       13
176
     1
 44
0.0
176
     1
173
     0
176
     1
  0
VISUALSTYLE
  5
2C
102
{ACAD_REACTORS
330
2A
102
}
330
2A
100
AcDbVisualStyle
  2
FlatWithEdges
 70
     1
177
     2
291
     1
 71
     2
176
     1
 72
     1
176
     1
 73
     1
176
     1
 90
        2
176
     1
 40
-0.6
176
     1
 41
30.0
176
     1
 62
     5
 63
     7
421
 16777215
176
     1
 74
     1
176
     1
 91
        4
176
     1
 64
     7
176
     1
 65
   257
176
     1
 75
     1
176
     1
175
     1
176
     1
 42
1.0
176
     1
 92
        0
176
     1
 66
   257
176
     1
 43
1.0
176
     1
 76
     1
176
     1
 77
     6
176
     1
 78
     2
176
     1
 67
     7
176
     1
 79
     5
176
     1
170
     0
176
     1
171
     0
176
     1
290
     0
176
     1
 93
       13
176
     1
 44
0.0
176
     1
173
     0
176
     1
  0
VISUALSTYLE
  5
2D
102
{ACAD_REACTORS
330
2A
102
}
330
2A
100
AcDbVisualStyle
  2
Gouraud
 70
     2
177
     2
291
     1
 71
     2
176
     1
 72
     2
176
     1
 73
     1
176
     1
 90
        2
176
     1
 40
-0.6
176
     1
 41
30.0
176
     1
 62
     5
 63
     7
421
 16777215
176
     1
 74
     0
176
     1
 91
        4
176
     1
 64
     7
176
     1
 65
   257
176
     1
 75
     1
176
     1
175
     1
176
     1
 42
1.0
176
     1
 92
        0
176
     1
 66
     7
176
     1
 43
1.0
176
     1
 76
     1
176
     1
 77
     6
176
     1
 78
     2
176
     1
 67
     7
176
     1
 79
     5
176
     1
170
     0
176
     1
171
     0
176
     1
290
     0
176
     1
 93
       13
176
     1
 44
0.0
176
     1
173
     0
176
     1
  0
VISUALSTYLE
  5
2E
102
{ACAD_REACTORS
330
2A
102
}
330
2A
100
AcDbVisualStyle
  2
GouraudWithEdges
 70
     3
177
     2
291
     1
 71
     2
176
     1
 72
     2
176
     1
 73
     1
176
     1
 90
        2
176
     1
 40
-0.6
176
     1
 41
30.0
176
     1
 62
     5
 63
     7
421
 16777215
176
     1
 74
     1
176
     1
 91
        4
176
     1
 64
     7
176
     1
 65
   257
176
     1
 75
     1
176
     1
175
     1
176
     1
 42
1.0
176
     1
 92
        0
176
     1
 66
   257
176
     1
 43
1.0
176
     1
 76
     1
176
     1
 77
     6
176
     1
 78
     2
176
     1
 67
     7
176
     1
 79
     5
176
     1
170
     0
176
     1
171
     0
176
     1
290
     0
176
     1
 93
       13
176
     1
 44
0.0
176
     1
173
     0
176
     1
  0
VISUALSTYLE
  5
38
102
{ACAD_REACTORS
330
2A
102
}
330
2A
100
AcDbVisualStyle
  2
Linepattern
 70
    14
177
     2
291
     1
 71
     2
176
     1
 72
     2
176
     1
 73
     0
176
     1
 90
        0
176
     1
 40
-0.6
176
     1
 41
-30.0
176
     1
 62
     5
 63
     7
421
 16777215
176
     1
 74
     1
176
     1
 91
        4
176
     1
 64
     7
176
     1
 65
   257
176
     1
 75
     7
176
     1
175
     7
176
     1
 42
1.0
176
     1
 92
        8
176
     1
 66
     7
176
     1
 43
1.0
176
     1
 76
     1
176
     1
 77
     6
176
     1
 78
     2
176
     1
 67
     7
176
     1
 79
     5
176
     1
170
     0
176
     1
171
     0
176
     1
290
     0
176
     1
 93
        1
176
     1
 44
0.0
176
     1
173
     0
176
     1
  0
VISUALSTYLE
  5
33
102
{ACAD_REACTORS
330
2A
102
}
330
2A
100
AcDbVisualStyle
  2
Realistic
 70
     8
177
     2
291
     0
 71
     2
176
     1
 72
     2
176
     1
 73
     0
176
     1
 90
        0
176
     1
 40
-0.6
176
     1
 41
-30.0
176
     1
 62
     5
 63
     7
421
 16777215
176
     1
 74
     1
176
     1
 91
        0
176
     1
 64
     7
176
     1
 65
   257
176
     1
 75
     1
176
     1
175
     1
176
     1
 42
1.0
176
     1
 92
        8
176
     1
 66
     8
424
  7895160
176
     1
 43
1.0
176
     1
 76
     1
176
     1
 77
     6
176
     1
 78
     2
176
     1
 67
     7
176
     1
 79
     5
176
     1
170
     0
176
     1
171
     0
176
     1
290
     0
176
     1
 93
       13
176
     1
 44
0.0
176
     1
173
     0
176
     1
  0
VISUALSTYLE
  5
37
102
{ACAD_REACTORS
330
2A
102
}
330
2A
100
AcDbVisualStyle
  2
Thicken
 70
    13
177
     2
291
     1
 71
     2
176
     1
 72
     2
176
     1
 73
     0
176
     1
 90
        0
176
     1
 40
-0.6
176
     1
 41
-30.0
176
     1
 62
     5
 63
     7
421
 16777215
176
     1
 74
     1
176
     1
 91
        4
176
     1
 64
     7
176
     1
 65
   257
176
     1
 75
     1
176
     1
175
     1
176
     1
 42
1.0
176
     1
 92
       12
176
     1
 66
     7
176
     1
 43
1.0
176
     1
 76
     1
176
     1
 77
     6
176
     1
 78
     2
176
     1
 67
     7
176
     1
 79
     5
176
     1
170
     0
176
     1
171
     0
176
     1
290
     0
176
     1
 93
        1
176
     1
 44
0.0
176
     1
173
     0
176
     1
  0
ENDSEC
  0
EOF
