  0
SECTION
  2
HEADER
  9
$ACADVER
  1
AC1024
  9
$ACADMAINTVER
 70
     6
  9
$DWGCODEPAGE
  3
UNDEFINED
  9
$INSBASE
 10
0.0
 20
0.0
 30
0.0
  9
$EXTMIN
 10
1.000000000000000E+20
 20
1.000000000000000E+20
 30
1.000000000000000E+20
  9
$EXTMAX
 10
-1.000000000000000E+20
 20
-1.000000000000000E+20
 30
-1.000000000000000E+20
  9
$LIMMIN
 10
0.0
 20
0.0
  9
$LIMMAX
 10
12.0
 20
9.0
  9
$ORTHOMODE
 70
     0
  9
$REGENMODE
 70
     1
  9
$FILLMODE
 70
     1
  9
$QTEXTMODE
 70
     0
  9
$MIRRTEXT
 70
     1
  9
$LTSCALE
 40
1.0
  9
$ATTMODE
 70
     1
  9
$TEXTSIZE
 40
0.2
  9
$TRACEWID
 40
0.05
  9
$TEXTSTYLE
  7
Standard
  9
$CLAYER
  8
0
  9
$CELTYPE
  6
ByLayer
  9
$CECOLOR
 62
   256
  9
$CELTSCALE
 40
1.0
  9
$DISPSILH
 70
     0
  9
$DIMSCALE
 40
1.0
  9
$DIMASZ
 40
0.18
  9
$DIMEXO
 40
0.0625
  9
$DIMDLI
 40
0.38
  9
$DIMRND
 40
0.0
  9
$DIMDLE
 40
0.0
  9
$DIMEXE
 40
0.18
  9
$DIMTP
 40
0.0
  9
$DIMTM
 40
0.0
  9
$DIMTXT
 40
0.18
  9
$DIMCEN
 40
0.09
  9
$DIMTSZ
 40
0.0
  9
$DIMTOL
 70
     0
  9
$DIMLIM
 70
     0
  9
$DIMTIH
 70
     1
  9
$DIMTOH
 70
     1
  9
$DIMSE1
 70
     0
  9
$DIMSE2
 70
     0
  9
$DIMTAD
 70
     0
  9
$DIMZIN
 70
     0
  9
$DIMBLK
  1

  9
$DIMASO
 70
     1
  9
$DIMSHO
 70
     1
  9
$DIMPOST
  1

  9
$DIMAPOST
  1

  9
$DIMALT
 70
     0
  9
$DIMALTD
 70
     2
  9
$DIMALTF
 40
25.4
  9
$DIMLFAC
 40
1.0
  9
$DIMTOFL
 70
     0
  9
$DIMTVP
 40
0.0
  9
$DIMTIX
 70
     0
  9
$DIMSOXD
 70
     0
  9
$DIMSAH
 70
     0
  9
$DIMBLK1
  1

  9
$DIMBLK2
  1

  9
$DIMSTYLE
  2
Standard
  9
$DIMCLRD
 70
     0
  9
$DIMCLRE
 70
     0
  9
$DIMCLRT
 70
     0
  9
$DIMTFAC
 40
1.0
  9
$DIMGAP
 40
0.09
  9
$DIMJUST
 70
     0
  9
$DIMSD1
 70
     0
  9
$DIMSD2
 70
     0
  9
$DIMTOLJ
 70
     1
  9
$DIMTZIN
 70
     0
  9
$DIMALTZ
 70
     0
  9
$DIMALTTZ
 70
     0
  9
$DIMUPT
 70
     0
  9
$DIMDEC
 70
     4
  9
$DIMTDEC
 70
     4
  9
$DIMALTU
 70
     2
  9
$DIMALTTD
 70
     2
  9
$DIMTXSTY
  7
Standard
  9
$DIMAUNIT
 70
     0
  9
$DIMADEC
 70
     0
  9
$DIMALTRND
 40
0.0
  9
$DIMAZIN
 70
     0
  9
$DIMDSEP
 70
    46
  9
$DIMATFIT
 70
     3
  9
$DIMFRAC
 70
     0
  9
$DIMLDRBLK
  1

  9
$DIMLUNIT
 70
     2
  9
$DIMLWD
 70
    -2
  9
$DIMLWE
 70
    -2
  9
$DIMTMOVE
 70
     0
  9
$DIMFXL
 40
1.0
  9
$DIMFXLON
 70
     0
  9
$DIMJOGANG
 40
0.7853981633974483
  9
$DIMTFILL
 70
     0
  9
$DIMTFILLCLR
 70
     0
  9
$DIMARCSYM
 70
     0
  9
$DIMLTYPE
  6

  9
$DIMLTEX1
  6

  9
$DIMLTEX2
  6

  9
$DIMTXTDIRECTION
 70
     0
  9
$LUNITS
 70
     2
  9
$LUPREC
 70
     4
  9
$SKETCHINC
 40
0.1
  9
$FILLETRAD
 40
0.5
  9
$AUNITS
 70
     0
  9
$AUPREC
 70
     0
  9
$MENU
  1
.
  9
$ELEVATION
 40
0.0
  9
$PELEVATION
 40
0.0
  9
$THICKNESS
 40
0.0
  9
$LIMCHECK
 70
     0
  9
$CHAMFERA
 40
0.5
  9
$CHAMFERB
 40
0.5
  9
$CHAMFERC
 40
1.0
  9
$CHAMFERD
 40
0.0
  9
$SKPOLY
 70
     0
  9
$TDCREATE
 40
2457917.592083334
  9
$TDUCREATE
 40
2457917.217083334
  9
$TDUPDATE
 40
2457917.592083334
  9
$TDUUPDATE
 40
2457917.217083334
  9
$TDINDWG
 40
0.0000000116
  9
$TDUSRTIMER
 40
0.0000000116
  9
$USRTIMER
 70
     1
  9
$ANGBASE
 50
0.0
  9
$ANGDIR
 70
     0
  9
$PDMODE
 70
     0
  9
$PDSIZE
 40
0.0
  9
$PLINEWID
 40
0.0
  9
$SPLFRAME
 70
     0
  9
$SPLINETYPE
 70
     6
  9
$SPLINESEGS
 70
     8
  9
$HANDSEED
  5
BE
  9
$SURFTAB1
 70
     6
  9
$SURFTAB2
 70
     6
  9
$SURFTYPE
 70
     6
  9
$SURFU
 70
     6
  9
$SURFV
 70
     6
  9
$UCSBASE
  2

  9
$UCSNAME
  2

  9
$UCSORG
 10
0.0
 20
0.0
 30
0.0
  9
$UCSXDIR
 10
1.0
 20
0.0
 30
0.0
  9
$UCSYDIR
 10
0.0
 20
1.0
 30
0.0
  9
$UCSORTHOREF
  2

  9
$UCSORTHOVIEW
 70
     0
  9
$UCSORGTOP
 10
0.0
 20
0.0
 30
0.0
  9
$UCSORGBOTTOM
 10
0.0
 20
0.0
 30
0.0
  9
$UCSORGLEFT
 10
0.0
 20
0.0
 30
0.0
  9
$UCSORGRIGHT
 10
0.0
 20
0.0
 30
0.0
  9
$UCSORGFRONT
 10
0.0
 20
0.0
 30
0.0
  9
$UCSORGBACK
 10
0.0
 20
0.0
 30
0.0
  9
$PUCSBASE
  2

  9
$PUCSNAME
  2

  9
$PUCSORG
 10
0.0
 20
0.0
 30
0.0
  9
$PUCSXDIR
 10
1.0
 20
0.0
 30
0.0
  9
$PUCSYDIR
 10
0.0
 20
1.0
 30
0.0
  9
$PUCSORTHOREF
  2

  9
$PUCSORTHOVIEW
 70
     0
  9
$PUCSORGTOP
 10
0.0
 20
0.0
 30
0.0
  9
$PUCSORGBOTTOM
 10
0.0
 20
0.0
 30
0.0
  9
$PUCSORGLEFT
 10
0.0
 20
0.0
 30
0.0
  9
$PUCSORGRIGHT
 10
0.0
 20
0.0
 30
0.0
  9
$PUCSORGFRONT
 10
0.0
 20
0.0
 30
0.0
  9
$PUCSORGBACK
 10
0.0
 20
0.0
 30
0.0
  9
$USERI1
 70
     0
  9
$USERI2
 70
     0
  9
$USERI3
 70
     0
  9
$USERI4
 70
     0
  9
$USERI5
 70
     0
  9
$USERR1
 40
0.0
  9
$USERR2
 40
0.0
  9
$USERR3
 40
0.0
  9
$USERR4
 40
0.0
  9
$USERR5
 40
0.0
  9
$WORLDVIEW
 70
     1
  9
$SHADEDGE
 70
     3
  9
$SHADEDIF
 70
    70
  9
$TILEMODE
 70
     1
  9
$MAXACTVP
 70
    64
  9
$PINSBASE
 10
0.0
 20
0.0
 30
0.0
  9
$PLIMCHECK
 70
     0
  9
$PEXTMIN
 10
1.000000000000000E+20
 20
1.000000000000000E+20
 30
1.000000000000000E+20
  9
$PEXTMAX
 10
-1.000000000000000E+20
 20
-1.000000000000000E+20
 30
-1.000000000000000E+20
  9
$PLIMMIN
 10
0.0
 20
0.0
  9
$PLIMMAX
 10
12.0
 20
9.0
  9
$UNITMODE
 70
     0
  9
$VISRETAIN
 70
     1
  9
$PLINEGEN
 70
     0
  9
$PSLTSCALE
 70
     1
  9
$TREEDEPTH
 70
  3020
  9
$CMLSTYLE
  2
Standard
  9
$CMLJUST
 70
     0
  9
$CMLSCALE
 40
1.0
  9
$PROXYGRAPHICS
 70
     1
  9
$MEASUREMENT
 70
     0
  9
$CELWEIGHT
370
    -1
  9
$ENDCAPS
280
     0
  9
$JOINSTYLE
280
     0
  9
$LWDISPLAY
290
     1
  9
$INSUNITS
 70
     1
  9
$HYPERLINKBASE
  1

  9
$STYLESHEET
  1

  9
$XEDIT
290
     1
  9
$CEPSNTYPE
380
     0
  9
$PSTYLEMODE
290
     1
  9
$FINGERPRINTGUID
  2
{6DF7204C-016B-077E-A73A-58F263D146DC}
  9
$VERSIONGUID
  2
{FAEB1C32-E019-11D5-929B-00C0DF256EC4}
  9
$EXTNAMES
290
     1
  9
$PSVPSCALE
 40
0.0
  9
$OLESTARTUP
290
     0
  9
$SORTENTS
280
   127
  9
$INDEXCTL
280
     0
  9
$HIDETEXT
280
     1
  9
$XCLIPFRAME
280
     2
  9
$HALOGAP
280
     0
  9
$OBSCOLOR
 70
   257
  9
$OBSLTYPE
280
     0
  9
$INTERSECTIONDISPLAY
280
     0
  9
$INTERSECTIONCOLOR
 70
   257
  9
$DIMASSOC
280
     2
  9
$PROJECTNAME
  1

  9
$CAMERADISPLAY
290
     0
  9
$LENSLENGTH
 40
50.0
  9
$CAMERAHEIGHT
 40
0.0
  9
$STEPSPERSEC
 40
2.0
  9
$STEPSIZE
 40
6.0
  9
$3DDWFPREC
 40
2.0
  9
$PSOLWIDTH
 40
0.25
  9
$PSOLHEIGHT
 40
4.0
  9
$LOFTANG1
 40
1.570796326794897
  9
$LOFTANG2
 40
1.570796326794897
  9
$LOFTMAG1
 40
0.0
  9
$LOFTMAG2
 40
0.0
  9
$LOFTPARAM
 70
     7
  9
$LOFTNORMALS
280
     1
  9
$LATITUDE
 40
37.795
  9
$LONGITUDE
 40
-122.394
  9
$NORTHDIRECTION
 40
0.0
  9
$TIMEZONE
 70
 -8000
  9
$LIGHTGLYPHDISPLAY
280
     1
  9
$TILEMODELIGHTSYNCH
280
     1
  9
$CMATERIAL
347
3C
  9
$SOLIDHIST
280
     1
  9
$SHOWHIST
280
     1
  9
$DWFFRAME
280
     2
  9
$DGNFRAME
280
     2
  9
$REALWORLDSCALE
290
     1
  9
$INTERFERECOLOR
 62
   256
  9
$CSHADOW
280
     0
  9
$SHADOWPLANELOCATION
 40
0.0
  0
ENDSEC
  0
SECTION
  2
CLASSES
  0
CLASS
  1
ACDBDICTIONARYWDFLT
  2
AcDbDictionaryWithDefault
  3
ObjectDBX Classes
 90
        0
 91
        4
280
     0
281
     0
  0
CLASS
  1
VISUALSTYLE
  2
AcDbVisualStyle
  3
ObjectDBX Classes
 90
     4095
 91
        4
280
     0
281
     0
  0
CLASS
  1
MATERIAL
  2
AcDbMaterial
  3
ObjectDBX Classes
 90
     1153
 91
        4
280
     0
281
     0
  0
CLASS
  1
SUN
  2
AcDbSun
  3
SCENEOE
 90
     1024
 91
        4
280
     0
281
     0
  0
ENDSEC
  0
SECTION
  2
TABLES
  0
TABLE
  2
VPORT
  5
8
330
0
100
AcDbSymbolTable
 70
     1
  0
VPORT
  5
29
330
8
100
AcDbSymbolTableRecord
100
AcDbViewportTableRecord
  2
*Active
 70
     0
 10
0.0
 20
0.0
 11
1.0
 21
1.0
 12
0.0
 22
0.0
 13
0.0
 23
0.0
 14
0.5
 24
0.5
 15
0.5
 25
0.5
 16
0.0
 26
0.0
 36
1.0
 17
91.00082462281999
 27
-128.4993055234307
 37
0.0
 40
256.9986110468615
 41
0.7081814508812795
 42
50.0
 43
0.0
 44
0.0
 50
0.0
 51
0.0
 71
     0
 72
   100
 73
     1
 74
     3
 75
     0
 76
     0
 77
     0
 78
     0
281
     0
 65
     1
110
0.0
120
0.0
130
0.0
111
1.0
121
0.0
131
0.0
112
0.0
122
1.0
132
0.0
 79
     0
146
0.0
 60
     3
 61
     5
292
     1
282
     1
141
0.0
142
0.0
 63
   250
361
3F
  0
ENDTAB
  0
TABLE
  2
LTYPE
  5
5
330
0
100
AcDbSymbolTable
 70
     1
  0
LTYPE
  5
14
330
5
100
AcDbSymbolTableRecord
100
AcDbLinetypeTableRecord
  2
ByBlock
 70
     0
  3

 72
    65
 73
     0
 40
0.0
  0
LTYPE
  5
15
330
5
100
AcDbSymbolTableRecord
100
AcDbLinetypeTableRecord
  2
ByLayer
 70
     0
  3

 72
    65
 73
     0
 40
0.0
  0
LTYPE
  5
16
330
5
100
AcDbSymbolTableRecord
100
AcDbLinetypeTableRecord
  2
Continuous
 70
     0
  3
Solid line
 72
    65
 73
     0
 40
0.0
  0
ENDTAB
  0
TABLE
  2
LAYER
  5
2
330
0
100
AcDbSymbolTable
 70
     2
  0
LAYER
  5
10
330
2
100
AcDbSymbolTableRecord
100
AcDbLayerTableRecord
  2
0
 70
     0
 62
     7
  6
Continuous
370
    -3
390
F
347
3E
  0
LAYER
  5
40
330
2
100
AcDbSymbolTableRecord
100
AcDbLayerTableRecord
  2
_U+30EC_U+30A4_U+30E4_U+30FC 1
 70
     0
 62
     7
  6
Continuous
370
    -3
390
F
347
3E
  0
ENDTAB
  0
TABLE
  2
STYLE
  5
3
330
0
100
AcDbSymbolTable
 70
     1
  0
STYLE
  5
11
330
3
100
AcDbSymbolTableRecord
100
AcDbTextStyleTableRecord
  2
Standard
 70
     0
 40
0.0
 41
1.0
 50
0.0
 71
     0
 42
0.2
  3
txt
  4

  0
ENDTAB
  0
TABLE
  2
VIEW
  5
6
330
0
100
AcDbSymbolTable
 70
     0
  0
ENDTAB
  0
TABLE
  2
UCS
  5
7
330
0
100
AcDbSymbolTable
 70
     0
  0
ENDTAB
  0
TABLE
  2
APPID
  5
9
330
0
100
AcDbSymbolTable
 70
     1
  0
APPID
  5
12
330
9
100
AcDbSymbolTableRecord
100
AcDbRegAppTableRecord
  2
ACAD
 70
     0
  0
ENDTAB
  0
TABLE
  2
DIMSTYLE
  5
A
330
0
100
AcDbSymbolTable
 70
     1
100
AcDbDimStyleTable
  0
DIMSTYLE
105
27
330
A
100
AcDbSymbolTableRecord
100
AcDbDimStyleTableRecord
  2
Standard
 70
     0
178
     0
340
11
  0
ENDTAB
  0
TABLE
  2
BLOCK_RECORD
  5
1
330
0
100
AcDbSymbolTable
 70
     6
  0
BLOCK_RECORD
  5
1F
330
1
100
AcDbSymbolTableRecord
100
AcDbBlockTableRecord
  2
*Model_Space
340
22
 70
     0
280
     1
281
     0
  0
BLOCK_RECORD
  5
1B
330
1
100
AcDbSymbolTableRecord
100
AcDbBlockTableRecord
  2
*Paper_Space
340
1E
 70
     0
280
     1
281
     0
  0
BLOCK_RECORD
  5
23
330
1
100
AcDbSymbolTableRecord
100
AcDbBlockTableRecord
  2
*Paper_Space0
340
26
 70
     0
280
     1
281
     0
  0
BLOCK_RECORD
  5
63
330
1
100
AcDbSymbolTableRecord
100
AcDbBlockTableRecord
  2
block 2
340
0
102
{BLKREFS
331
64
102
}
 70
     0
280
     1
281
     0
  0
BLOCK_RECORD
  5
78
330
1
100
AcDbSymbolTableRecord
100
AcDbBlockTableRecord
  2
block 3
340
0
102
{BLKREFS
331
79
102
}
 70
     0
280
     1
281
     0
  0
BLOCK_RECORD
  5
8A
330
1
100
AcDbSymbolTableRecord
100
AcDbBlockTableRecord
  2
block 4
340
0
102
{BLKREFS
331
8B
102
}
 70
     0
280
     1
281
     0
  0
BLOCK_RECORD
  5
90
330
1
100
AcDbSymbolTableRecord
100
AcDbBlockTableRecord
  2
block 5
340
0
102
{BLKREFS
331
91
102
}
 70
     0
280
     1
281
     0
  0
BLOCK_RECORD
  5
B4
330
1
100
AcDbSymbolTableRecord
100
AcDbBlockTableRecord
  2
block 6
340
0
102
{BLKREFS
331
B5
102
}
 70
     0
280
     1
281
     0
  0
ENDTAB
  0
ENDSEC
  0
SECTION
  2
BLOCKS
  0
BLOCK
  5
20
330
1F
100
AcDbEntity
  8
0
100
AcDbBlockBegin
  2
*Model_Space
 70
     0
 10
0.0
 20
0.0
 30
0.0
  3
*Model_Space
  1

  0
ENDBLK
  5
21
330
1F
100
AcDbEntity
  8
0
100
AcDbBlockEnd
  0
BLOCK
  5
1C
330
1B
100
AcDbEntity
 67
     1
  8
0
100
AcDbBlockBegin
  2
*Paper_Space
 70
     0
 10
0.0
 20
0.0
 30
0.0
  3
*Paper_Space
  1

  0
ENDBLK
  5
1D
330
1B
100
AcDbEntity
 67
     1
  8
0
100
AcDbBlockEnd
  0
BLOCK
  5
24
330
23
100
AcDbEntity
  8
0
100
AcDbBlockBegin
  2
*Paper_Space0
 70
     0
 10
0.0
 20
0.0
 30
0.0
  3
*Paper_Space0
  1

  0
ENDBLK
  5
25
330
23
100
AcDbEntity
  8
0
100
AcDbBlockEnd
  0
BLOCK
  5
65
330
63
100
AcDbEntity
  8
0
100
AcDbBlockBegin
  2
block 2
 70
     0
 10
0.0
 20
0.0
 30
0.0
  3
block 2
  1

  0
SPLINE
  5
67
330
63
100
AcDbEntity
  8
_U+30EC_U+30A4_U+30E4_U+30FC 1
370
     0
100
AcDbSpline
210
0.0
220
0.0
230
1.0
 70
    11
 71
     3
 72
    26
 73
    22
 74
     0
 42
0.0000000001
 43
0.0000000001
 12
1.0
 22
0.0
 32
0.0
 13
1.0
 23
0.0
 33
0.0
 40
0.0
 40
0.0
 40
0.0
 40
0.0
 40
1.0
 40
1.0
 40
1.0
 40
2.0
 40
2.0
 40
2.0
 40
3.0
 40
3.0
 40
3.0
 40
4.0
 40
4.0
 40
4.0
 40
5.0
 40
5.0
 40
5.0
 40
6.0
 40
6.0
 40
6.0
 40
7.0
 40
7.0
 40
7.0
 40
7.0
 10
81.85891382502139
 20
-138.411189744043
 30
0.0
 10
81.85891382502139
 20
-138.411189744043
 30
0.0
 10
81.85891382502139
 20
-137.3070366410205
 30
0.0
 10
81.85891382502139
 20
-137.3070366410205
 30
0.0
 10
81.85891382502139
 20
-137.3070366410205
 30
0.0
 10
81.52887367753445
 20
-137.3070366410205
 30
0.0
 10
81.52887367753445
 20
-137.3070366410205
 30
0.0
 10
81.52887367753445
 20
-137.3070366410205
 30
0.0
 10
81.52887367753445
 20
-137.1588975351547
 30
0.0
 10
81.52887367753445
 20
-137.1588975351547
 30
0.0
 10
81.86098088231253
 20
-137.1440836245681
 30
0.0
 10
81.90748967136341
 20
-136.9811306081158
 30
0.0
 10
81.93711749253656
 20
-136.8667534380055
 30
0.0
 10
81.93711749253656
 20
-136.8667534380055
 30
0.0
 10
82.08318954111115
 20
-136.8667534380055
 30
0.0
 10
82.08318954111115
 20
-136.8667534380055
 30
0.0
 10
82.08318954111115
 20
-136.8667534380055
 30
0.0
 10
82.08318954111115
 20
-138.411189744043
 30
0.0
 10
82.08318954111115
 20
-138.411189744043
 30
0.0
 10
82.08318954111115
 20
-138.411189744043
 30
0.0
 10
81.85891382502139
 20
-138.411189744043
 30
0.0
 10
81.85891382502139
 20
-138.411189744043
 30
0.0
  0
HATCH
  5
68
330
63
100
AcDbEntity
  8
_U+30EC_U+30A4_U+30E4_U+30FC 1
 62
   179
420
  2234388
100
AcDbHatch
 10
0.0
 20
0.0
 30
0.0
210
0.0
220
0.0
230
1.0
  2
SOLID
 70
     1
 71
     0
 91
        1
 92
        1
 93
        1
 72
     4
 94
        3
 73
     0
 74
     1
 95
       26
 96
       22
 40
0.0
 40
0.0
 40
0.0
 40
0.0
 40
1.0
 40
1.0
 40
1.0
 40
2.0
 40
2.0
 40
2.0
 40
3.0
 40
3.0
 40
3.0
 40
4.0
 40
4.0
 40
4.0
 40
5.0
 40
5.0
 40
5.0
 40
6.0
 40
6.0
 40
6.0
 40
7.0
 40
7.0
 40
7.0
 40
7.0
 10
81.85891382502139
 20
-138.411189744043
 10
81.85891382502139
 20
-138.411189744043
 10
81.85891382502139
 20
-137.3070366410205
 10
81.85891382502139
 20
-137.3070366410205
 10
81.85891382502139
 20
-137.3070366410205
 10
81.52887367753445
 20
-137.3070366410205
 10
81.52887367753445
 20
-137.3070366410205
 10
81.52887367753445
 20
-137.3070366410205
 10
81.52887367753445
 20
-137.1588975351547
 10
81.52887367753445
 20
-137.1588975351547
 10
81.86098088231253
 20
-137.1440836245681
 10
81.90748967136341
 20
-136.9811306081158
 10
81.93711749253656
 20
-136.8667534380055
 10
81.93711749253656
 20
-136.8667534380055
 10
82.08318954111115
 20
-136.8667534380055
 10
82.08318954111115
 20
-136.8667534380055
 10
82.08318954111115
 20
-136.8667534380055
 10
82.08318954111115
 20
-138.411189744043
 10
82.08318954111115
 20
-138.411189744043
 10
82.08318954111115
 20
-138.411189744043
 10
81.85891382502139
 20
-138.411189744043
 10
81.85891382502139
 20
-138.411189744043
 97
        0
 97
        0
 75
     2
 76
     1
 98
        0
  0
SPLINE
  5
69
330
63
100
AcDbEntity
  8
_U+30EC_U+30A4_U+30E4_U+30FC 1
370
     0
100
AcDbSpline
210
0.0
220
0.0
230
1.0
 70
    11
 71
     3
 72
    29
 73
    25
 74
     0
 42
0.0000000001
 43
0.0000000001
 12
1.0
 22
0.0
 32
0.0
 13
1.0
 23
0.0
 33
0.0
 40
0.0
 40
0.0
 40
0.0
 40
0.0
 40
1.0
 40
1.0
 40
1.0
 40
2.0
 40
2.0
 40
2.0
 40
3.0
 40
3.0
 40
3.0
 40
4.0
 40
4.0
 40
4.0
 40
5.0
 40
5.0
 40
5.0
 40
6.0
 40
6.0
 40
6.0
 40
7.0
 40
7.0
 40
7.0
 40
8.0
 40
8.0
 40
8.0
 40
8.0
 10
83.4822428176711
 20
-138.2334228170041
 30
0.0
 10
83.37406681943426
 20
-138.4428846225073
 30
0.0
 10
83.2007785165262
 20
-138.4618326476762
 30
0.0
 10
83.08433428912475
 20
-138.4618326476762
 30
0.0
 10
82.92344832996359
 20
-138.4618326476762
 30
0.0
 10
82.78185490551982
 20
-138.4153238586253
 30
0.0
 10
82.68677027012693
 20
-138.2334228170041
 30
0.0
 10
82.58307289602091
 20
-138.0387749220875
 30
0.0
 10
82.56412487085203
 20
-137.8020968622509
 30
0.0
 10
82.56412487085203
 20
-137.6391438457985
 30
0.0
 10
82.56412487085203
 20
-137.4951388545151
 30
0.0
 10
82.58100583872975
 20
-137.2433023745433
 30
0.0
 10
82.68677027012693
 20
-137.0445203650444
 30
0.0
 10
82.79460175881525
 20
-136.8416042409632
 30
0.0
 10
82.95548771797641
 20
-136.8181775916635
 30
0.0
 10
83.08433428912475
 20
-136.8181775916635
 30
0.0
 10
83.24315319099478
 20
-136.8181775916635
 30
0.0
 10
83.38681367272969
 20
-136.8626193234232
 30
0.0
 10
83.4822428176711
 20
-137.0445203650444
 30
0.0
 10
83.5814615676463
 20
-137.2371012026699
 30
0.0
 10
83.60488821694601
 20
-137.465511033342
 30
0.0
 10
83.60488821694601
 20
-137.6391438457985
 30
0.0
 10
83.60488821694601
 20
-137.8103650914155
 30
0.0
 10
83.58352862493746
 20
-138.0408419793787
 30
0.0
 10
83.4822428176711
 20
-138.2334228170041
 30
0.0
  0
SPLINE
  5
6A
330
63
100
AcDbEntity
  8
_U+30EC_U+30A4_U+30E4_U+30FC 1
370
     0
100
AcDbSpline
210
0.0
220
0.0
230
1.0
 70
    11
 71
     3
 72
    17
 73
    13
 74
     0
 42
0.0000000001
 43
0.0000000001
 12
1.0
 22
0.0
 32
0.0
 13
1.0
 23
0.0
 33
0.0
 40
0.0
 40
0.0
 40
0.0
 40
0.0
 40
1.0
 40
1.0
 40
1.0
 40
2.0
 40
2.0
 40
2.0
 40
3.0
 40
3.0
 40
3.0
 40
4.0
 40
4.0
 40
4.0
 40
4.0
 10
83.08433428912475
 20
-137.010758429289
 30
0.0
 10
82.83490937599267
 20
-137.010758429289
 30
0.0
 10
82.78805607739326
 20
-137.294289787725
 30
0.0
 10
82.78805607739326
 20
-137.6391438457985
 30
0.0
 10
82.78805607739326
 20
-137.9585041972812
 30
0.0
 10
82.8242295799884
 20
-138.2671847527596
 30
0.0
 10
83.08433428912475
 20
-138.2671847527596
 30
0.0
 10
83.33203665451421
 20
-138.2671847527596
 30
0.0
 10
83.38061250085624
 20
-137.9860649611632
 30
0.0
 10
83.38061250085624
 20
-137.6391438457985
 30
0.0
 10
83.38061250085624
 20
-137.3194389847674
 30
0.0
 10
83.34237194096997
 20
-137.010758429289
 30
0.0
 10
83.08433428912475
 20
-137.010758429289
 30
0.0
  0
HATCH
  5
6B
330
63
100
AcDbEntity
  8
_U+30EC_U+30A4_U+30E4_U+30FC 1
 62
   179
420
  2234388
100
AcDbHatch
 10
0.0
 20
0.0
 30
0.0
210
0.0
220
0.0
230
1.0
  2
SOLID
 70
     1
 71
     0
 91
        2
 92
        1
 93
        1
 72
     4
 94
        3
 73
     0
 74
     1
 95
       29
 96
       25
 40
0.0
 40
0.0
 40
0.0
 40
0.0
 40
1.0
 40
1.0
 40
1.0
 40
2.0
 40
2.0
 40
2.0
 40
3.0
 40
3.0
 40
3.0
 40
4.0
 40
4.0
 40
4.0
 40
5.0
 40
5.0
 40
5.0
 40
6.0
 40
6.0
 40
6.0
 40
7.0
 40
7.0
 40
7.0
 40
8.0
 40
8.0
 40
8.0
 40
8.0
 10
83.4822428176711
 20
-138.2334228170041
 10
83.37406681943426
 20
-138.4428846225073
 10
83.2007785165262
 20
-138.4618326476762
 10
83.08433428912475
 20
-138.4618326476762
 10
82.92344832996359
 20
-138.4618326476762
 10
82.78185490551982
 20
-138.4153238586253
 10
82.68677027012693
 20
-138.2334228170041
 10
82.58307289602091
 20
-138.0387749220875
 10
82.56412487085203
 20
-137.8020968622509
 10
82.56412487085203
 20
-137.6391438457985
 10
82.56412487085203
 20
-137.4951388545151
 10
82.58100583872975
 20
-137.2433023745433
 10
82.68677027012693
 20
-137.0445203650444
 10
82.79460175881525
 20
-136.8416042409632
 10
82.95548771797641
 20
-136.8181775916635
 10
83.08433428912475
 20
-136.8181775916635
 10
83.24315319099478
 20
-136.8181775916635
 10
83.38681367272969
 20
-136.8626193234232
 10
83.4822428176711
 20
-137.0445203650444
 10
83.5814615676463
 20
-137.2371012026699
 10
83.60488821694601
 20
-137.465511033342
 10
83.60488821694601
 20
-137.6391438457985
 10
83.60488821694601
 20
-137.8103650914155
 10
83.58352862493746
 20
-138.0408419793787
 10
83.4822428176711
 20
-138.2334228170041
 97
        0
 97
        0
 92
        1
 93
        1
 72
     4
 94
        3
 73
     0
 74
     1
 95
       17
 96
       13
 40
0.0
 40
0.0
 40
0.0
 40
0.0
 40
1.0
 40
1.0
 40
1.0
 40
2.0
 40
2.0
 40
2.0
 40
3.0
 40
3.0
 40
3.0
 40
4.0
 40
4.0
 40
4.0
 40
4.0
 10
83.08433428912475
 20
-137.010758429289
 10
82.83490937599267
 20
-137.010758429289
 10
82.78805607739326
 20
-137.294289787725
 10
82.78805607739326
 20
-137.6391438457985
 10
82.78805607739326
 20
-137.9585041972812
 10
82.8242295799884
 20
-138.2671847527596
 10
83.08433428912475
 20
-138.2671847527596
 10
83.33203665451421
 20
-138.2671847527596
 10
83.38061250085624
 20
-137.9860649611632
 10
83.38061250085624
 20
-137.6391438457985
 10
83.38061250085624
 20
-137.3194389847674
 10
83.34237194096997
 20
-137.010758429289
 10
83.08433428912475
 20
-137.010758429289
 97
        0
 97
        0
 75
     2
 76
     1
 98
        0
  0
ENDBLK
  5
66
330
63
100
AcDbEntity
  8
0
100
AcDbBlockEnd
  0
BLOCK
  5
7A
330
78
100
AcDbEntity
  8
0
100
AcDbBlockBegin
  2
block 3
 70
     0
 10
0.0
 20
0.0
 30
0.0
  3
block 3
  1

  0
SPLINE
  5
7C
330
78
100
AcDbEntity
  8
_U+30EC_U+30A4_U+30E4_U+30FC 1
370
     0
100
AcDbSpline
210
0.0
220
0.0
230
1.0
 70
    11
 71
     3
 72
    29
 73
    25
 74
     0
 42
0.0000000001
 43
0.0000000001
 12
1.0
 22
0.0
 32
0.0
 13
1.0
 23
0.0
 33
0.0
 40
0.0
 40
0.0
 40
0.0
 40
0.0
 40
1.0
 40
1.0
 40
1.0
 40
2.0
 40
2.0
 40
2.0
 40
3.0
 40
3.0
 40
3.0
 40
4.0
 40
4.0
 40
4.0
 40
5.0
 40
5.0
 40
5.0
 40
6.0
 40
6.0
 40
6.0
 40
7.0
 40
7.0
 40
7.0
 40
8.0
 40
8.0
 40
8.0
 40
8.0
 10
103.0807020141604
 20
-128.7256482968116
 30
0.0
 10
103.0807020141604
 20
-128.9919541778215
 30
0.0
 10
102.9428981947504
 20
-129.2462022246329
 30
0.0
 10
102.5942545316431
 20
-129.2462022246329
 30
0.0
 10
102.3379394275405
 20
-129.2462022246329
 30
0.0
 10
102.2428547921476
 20
-129.1042642906406
 30
0.0
 10
102.1815320925102
 20
-128.9984998592434
 30
0.0
 10
102.1222764501639
 20
-129.123556825358
 30
0.0
 10
102.0078992800536
 20
-129.1993489260335
 30
0.0
 10
101.8473578304409
 20
-129.1993489260335
 30
0.0
 10
101.572439210718
 20
-129.1993489260335
 30
0.0
 10
101.4367024485992
 20
-129.0005669165346
 30
0.0
 10
101.4367024485992
 20
-128.7256482968116
 30
0.0
 10
101.4367024485992
 20
-128.4421169383756
 30
0.0
 10
101.5807074398826
 20
-128.2517754128155
 30
0.0
 10
101.8473578304409
 20
-128.2517754128155
 30
0.0
 10
102.0078992800536
 20
-128.2517754128155
 30
0.0
 10
102.1222764501639
 20
-128.3299790803307
 30
0.0
 10
102.1815320925102
 20
-128.454863791671
 30
0.0
 10
102.2325195056919
 20
-128.3659803281516
 30
0.0
 10
102.3276041410848
 20
-128.2073336810558
 30
0.0
 10
102.5897759075123
 20
-128.2073336810558
 30
0.0
 10
102.9642577867589
 20
-128.2073336810558
 30
0.0
 10
103.0807020141604
 20
-128.4865586701353
 30
0.0
 10
103.0807020141604
 20
-128.7256482968116
 30
0.0
  0
SPLINE
  5
7D
330
78
100
AcDbEntity
  8
_U+30EC_U+30A4_U+30E4_U+30FC 1
370
     0
100
AcDbSpline
210
0.0
220
0.0
230
1.0
 70
    11
 71
     3
 72
    17
 73
    13
 74
     0
 42
0.0000000001
 43
0.0000000001
 12
1.0
 22
0.0
 32
0.0
 13
1.0
 23
0.0
 33
0.0
 40
0.0
 40
0.0
 40
0.0
 40
0.0
 40
1.0
 40
1.0
 40
1.0
 40
2.0
 40
2.0
 40
2.0
 40
3.0
 40
3.0
 40
3.0
 40
4.0
 40
4.0
 40
4.0
 40
4.0
 10
101.6296277957731
 20
-128.7256482968116
 30
0.0
 10
101.6296277957731
 20
-128.8906683705551
 30
0.0
 10
101.7247124311661
 20
-128.9754177194923
 30
0.0
 10
101.8597601741878
 20
-128.9754177194923
 30
0.0
 10
101.9827500830113
 20
-128.9754177194923
 30
0.0
 10
102.1012613677039
 20
-128.903070714302
 30
0.0
 10
102.1012613677039
 20
-128.7256482968116
 30
0.0
 10
102.1012613677039
 20
-128.5478813697728
 30
0.0
 10
101.9827500830113
 20
-128.4760511289053
 30
0.0
 10
101.8597601741878
 20
-128.4760511289053
 30
0.0
 10
101.7247124311661
 20
-128.4760511289053
 30
0.0
 10
101.6296277957731
 20
-128.5626952803593
 30
0.0
 10
101.6296277957731
 20
-128.7256482968116
 30
0.0
  0
SPLINE
  5
7E
330
78
100
AcDbEntity
  8
_U+30EC_U+30A4_U+30E4_U+30FC 1
370
     0
100
AcDbSpline
210
0.0
220
0.0
230
1.0
 70
    11
 71
     3
 72
    17
 73
    13
 74
     0
 42
0.0000000001
 43
0.0000000001
 12
1.0
 22
0.0
 32
0.0
 13
1.0
 23
0.0
 33
0.0
 40
0.0
 40
0.0
 40
0.0
 40
0.0
 40
1.0
 40
1.0
 40
1.0
 40
2.0
 40
2.0
 40
2.0
 40
3.0
 40
3.0
 40
3.0
 40
4.0
 40
4.0
 40
4.0
 40
4.0
 10
102.289708090747
 20
-128.7256482968116
 30
0.0
 10
102.289708090747
 20
-128.8693087785466
 30
0.0
 10
102.3761799874268
 20
-129.0215819989946
 30
0.0
 10
102.579096111508
 20
-129.0215819989946
 30
0.0
 10
102.7844238024289
 20
-129.0215819989946
 30
0.0
 10
102.8860541192438
 20
-128.8948024851374
 30
0.0
 10
102.8860541192438
 20
-128.7256482968116
 30
0.0
 10
102.8860541192438
 20
-128.5394408858339
 30
0.0
 10
102.7634087199689
 20
-128.4293700850802
 30
0.0
 10
102.58564179293
 20
-128.4293700850802
 30
0.0
 10
102.3634331341314
 20
-128.4293700850802
 30
0.0
 10
102.289708090747
 20
-128.5923231015325
 30
0.0
 10
102.289708090747
 20
-128.7256482968116
 30
0.0
  0
HATCH
  5
7F
330
78
100
AcDbEntity
  8
_U+30EC_U+30A4_U+30E4_U+30FC 1
 62
   179
420
  2234388
100
AcDbHatch
 10
0.0
 20
0.0
 30
0.0
210
0.0
220
0.0
230
1.0
  2
SOLID
 70
     1
 71
     0
 91
        3
 92
        1
 93
        1
 72
     4
 94
        3
 73
     0
 74
     1
 95
       29
 96
       25
 40
0.0
 40
0.0
 40
0.0
 40
0.0
 40
1.0
 40
1.0
 40
1.0
 40
2.0
 40
2.0
 40
2.0
 40
3.0
 40
3.0
 40
3.0
 40
4.0
 40
4.0
 40
4.0
 40
5.0
 40
5.0
 40
5.0
 40
6.0
 40
6.0
 40
6.0
 40
7.0
 40
7.0
 40
7.0
 40
8.0
 40
8.0
 40
8.0
 40
8.0
 10
103.0807020141604
 20
-128.7256482968116
 10
103.0807020141604
 20
-128.9919541778215
 10
102.9428981947504
 20
-129.2462022246329
 10
102.5942545316431
 20
-129.2462022246329
 10
102.3379394275405
 20
-129.2462022246329
 10
102.2428547921476
 20
-129.1042642906406
 10
102.1815320925102
 20
-128.9984998592434
 10
102.1222764501639
 20
-129.123556825358
 10
102.0078992800536
 20
-129.1993489260335
 10
101.8473578304409
 20
-129.1993489260335
 10
101.572439210718
 20
-129.1993489260335
 10
101.4367024485992
 20
-129.0005669165346
 10
101.4367024485992
 20
-128.7256482968116
 10
101.4367024485992
 20
-128.4421169383756
 10
101.5807074398826
 20
-128.2517754128155
 10
101.8473578304409
 20
-128.2517754128155
 10
102.0078992800536
 20
-128.2517754128155
 10
102.1222764501639
 20
-128.3299790803307
 10
102.1815320925102
 20
-128.454863791671
 10
102.2325195056919
 20
-128.3659803281516
 10
102.3276041410848
 20
-128.2073336810558
 10
102.5897759075123
 20
-128.2073336810558
 10
102.9642577867589
 20
-128.2073336810558
 10
103.0807020141604
 20
-128.4865586701353
 10
103.0807020141604
 20
-128.7256482968116
 97
        0
 97
        0
 92
        1
 93
        1
 72
     4
 94
        3
 73
     0
 74
     1
 95
       17
 96
       13
 40
0.0
 40
0.0
 40
0.0
 40
0.0
 40
1.0
 40
1.0
 40
1.0
 40
2.0
 40
2.0
 40
2.0
 40
3.0
 40
3.0
 40
3.0
 40
4.0
 40
4.0
 40
4.0
 40
4.0
 10
101.6296277957731
 20
-128.7256482968116
 10
101.6296277957731
 20
-128.8906683705551
 10
101.7247124311661
 20
-128.9754177194923
 10
101.8597601741878
 20
-128.9754177194923
 10
101.9827500830113
 20
-128.9754177194923
 10
102.1012613677039
 20
-128.903070714302
 10
102.1012613677039
 20
-128.7256482968116
 10
102.1012613677039
 20
-128.5478813697728
 10
101.9827500830113
 20
-128.4760511289053
 10
101.8597601741878
 20
-128.4760511289053
 10
101.7247124311661
 20
-128.4760511289053
 10
101.6296277957731
 20
-128.5626952803593
 10
101.6296277957731
 20
-128.7256482968116
 97
        0
 97
        0
 92
        1
 93
        1
 72
     4
 94
        3
 73
     0
 74
     1
 95
       17
 96
       13
 40
0.0
 40
0.0
 40
0.0
 40
0.0
 40
1.0
 40
1.0
 40
1.0
 40
2.0
 40
2.0
 40
2.0
 40
3.0
 40
3.0
 40
3.0
 40
4.0
 40
4.0
 40
4.0
 40
4.0
 10
102.289708090747
 20
-128.7256482968116
 10
102.289708090747
 20
-128.8693087785466
 10
102.3761799874268
 20
-129.0215819989946
 10
102.579096111508
 20
-129.0215819989946
 10
102.7844238024289
 20
-129.0215819989946
 10
102.8860541192438
 20
-128.8948024851374
 10
102.8860541192438
 20
-128.7256482968116
 10
102.8860541192438
 20
-128.5394408858339
 10
102.7634087199689
 20
-128.4293700850802
 10
102.58564179293
 20
-128.4293700850802
 10
102.3634331341314
 20
-128.4293700850802
 10
102.289708090747
 20
-128.5923231015325
 10
102.289708090747
 20
-128.7256482968116
 97
        0
 97
        0
 75
     2
 76
     1
 98
        0
  0
POLYLINE
  5
80
330
78
100
AcDbEntity
  8
_U+30EC_U+30A4_U+30E4_U+30FC 1
370
     0
100
AcDb2dPolyline
 66
     1
 10
0.0
 20
0.0
 30
0.0
  0
VERTEX
  5
81
330
80
100
AcDbEntity
  8
_U+30EC_U+30A4_U+30E4_U+30FC 1
370
     0
100
AcDbVertex
100
AcDb2dVertex
 10
103.0297146009787
 20
-127.9887423725167
 30
0.0
  0
VERTEX
  5
82
330
80
100
AcDbEntity
  8
_U+30EC_U+30A4_U+30E4_U+30FC 1
370
     0
100
AcDbVertex
100
AcDb2dVertex
 10
102.7782226305554
 20
-127.9887423725167
 30
0.0
  0
VERTEX
  5
83
330
80
100
AcDbEntity
  8
_U+30EC_U+30A4_U+30E4_U+30FC 1
370
     0
100
AcDbVertex
100
AcDb2dVertex
 10
102.7782226305554
 20
-127.7370781473192
 30
0.0
  0
VERTEX
  5
84
330
80
100
AcDbEntity
  8
_U+30EC_U+30A4_U+30E4_U+30FC 1
370
     0
100
AcDbVertex
100
AcDb2dVertex
 10
103.0297146009787
 20
-127.7370781473192
 30
0.0
  0
VERTEX
  5
85
330
80
100
AcDbEntity
  8
_U+30EC_U+30A4_U+30E4_U+30FC 1
370
     0
100
AcDbVertex
100
AcDb2dVertex
 10
103.0297146009787
 20
-127.9887423725167
 30
0.0
  0
SEQEND
  5
86
330
80
100
AcDbEntity
  8
_U+30EC_U+30A4_U+30E4_U+30FC 1
370
     0
  0
HATCH
  5
87
330
78
100
AcDbEntity
  8
_U+30EC_U+30A4_U+30E4_U+30FC 1
 62
   179
420
  2234388
100
AcDbHatch
 10
0.0
 20
0.0
 30
0.0
210
0.0
220
0.0
230
1.0
  2
SOLID
 70
     1
 71
     0
 91
        1
 92
        1
 93
        4
 72
     1
 10
103.0297146009787
 20
-127.9887423725167
 11
102.7782226305554
 21
-127.9887423725167
 72
     1
 10
102.7782226305554
 20
-127.9887423725167
 11
102.7782226305554
 21
-127.7370781473192
 72
     1
 10
102.7782226305554
 20
-127.7370781473192
 11
103.0297146009787
 21
-127.7370781473192
 72
     1
 10
103.0297146009787
 20
-127.7370781473192
 11
103.0297146009787
 21
-127.9887423725167
 97
        0
 75
     2
 76
     1
 98
        0
  0
SPLINE
  5
88
330
78
100
AcDbEntity
  8
_U+30EC_U+30A4_U+30E4_U+30FC 1
370
     0
100
AcDbSpline
210
0.0
220
0.0
230
1.0
 70
    11
 71
     3
 72
    62
 73
    58
 74
     0
 42
0.0000000001
 43
0.0000000001
 12
1.0
 22
0.0
 32
0.0
 13
1.0
 23
0.0
 33
0.0
 40
0.0
 40
0.0
 40
0.0
 40
0.0
 40
1.0
 40
1.0
 40
1.0
 40
2.0
 40
2.0
 40
2.0
 40
3.0
 40
3.0
 40
3.0
 40
4.0
 40
4.0
 40
4.0
 40
5.0
 40
5.0
 40
5.0
 40
6.0
 40
6.0
 40
6.0
 40
7.0
 40
7.0
 40
7.0
 40
8.0
 40
8.0
 40
8.0
 40
9.0
 40
9.0
 40
9.0
 40
10.0
 40
10.0
 40
10.0
 40
11.0
 40
11.0
 40
11.0
 40
12.0
 40
12.0
 40
12.0
 40
13.0
 40
13.0
 40
13.0
 40
14.0
 40
14.0
 40
14.0
 40
15.0
 40
15.0
 40
15.0
 40
16.0
 40
16.0
 40
16.0
 40
17.0
 40
17.0
 40
17.0
 40
18.0
 40
18.0
 40
18.0
 40
19.0
 40
19.0
 40
19.0
 40
19.0
 10
103.0807020141604
 20
-127.0089572165117
 30
0.0
 10
103.0807020141604
 20
-127.1042141066788
 30
0.0
 10
103.0593424221518
 20
-127.3221163961209
 30
0.0
 10
102.8733072659483
 20
-127.4468288526869
 30
0.0
 10
102.7609971531292
 20
-127.5208984056198
 30
0.0
 10
102.661778403154
 20
-127.5252047749763
 30
0.0
 10
102.5770290542169
 20
-127.5293388895586
 30
0.0
 10
102.5770290542169
 20
-127.5293388895586
 30
0.0
 10
102.5770290542169
 20
-127.3093695428254
 30
0.0
 10
102.5770290542169
 20
-127.3093695428254
 30
0.0
 10
102.6514431166983
 20
-127.3073024855343
 30
0.0
 10
102.8860541192438
 20
-127.29662268953
 30
0.0
 10
102.8860541192438
 20
-127.013091331094
 30
0.0
 10
102.8860541192438
 20
-126.8756320212325
 30
0.0
 10
102.8161186808932
 20
-126.7233588007844
 30
0.0
 10
102.5877088502211
 20
-126.7233588007844
 30
0.0
 10
102.4716091323682
 20
-126.7233588007844
 30
0.0
 10
102.4226887764777
 20
-126.7614271058965
 30
0.0
 10
102.3909938980134
 20
-126.7931219843608
 30
0.0
 10
102.3169243450805
 20
-126.8671915372936
 30
0.0
 10
102.3041774917851
 20
-126.9836357646951
 30
0.0
 10
102.3041774917851
 20
-127.0385850376848
 30
0.0
 10
102.3041774917851
 20
-127.0575330628537
 30
0.0
 10
102.3062445490762
 20
-127.0935343106745
 30
0.0
 10
102.3103786636585
 20
-127.1210950745565
 30
0.0
 10
102.3103786636585
 20
-127.1210950745565
 30
0.0
 10
102.1160752782904
 20
-127.1210950745565
 30
0.0
 10
102.1160752782904
 20
-127.1210950745565
 30
0.0
 10
102.1222764501639
 20
-127.0830267694445
 30
0.0
 10
102.124343507455
 20
-127.040652094976
 30
0.0
 10
102.124343507455
 20
-127.0342786683282
 30
0.0
 10
102.124343507455
 20
-126.9688218541085
 30
0.0
 10
102.103328424995
 20
-126.7698675898353
 30
0.0
 10
101.8663058556098
 20
-126.7698675898353
 30
0.0
 10
101.6888834381194
 20
-126.7698675898353
 30
0.0
 10
101.6337619103555
 20
-126.9011257278233
 30
0.0
 10
101.6337619103555
 20
-127.0110242738028
 30
0.0
 10
101.6337619103555
 20
-127.2754353522957
 30
0.0
 10
101.8663058556098
 20
-127.2838758362346
 30
0.0
 10
101.9383083512515
 20
-127.2881822055912
 30
0.0
 10
101.9383083512515
 20
-127.2881822055912
 30
0.0
 10
101.9383083512515
 20
-127.4912705844466
 30
0.0
 10
101.9383083512515
 20
-127.4912705844466
 30
0.0
 10
101.8135958946855
 20
-127.4828301005078
 30
0.0
 10
101.4367024485992
 20
-127.4552693366258
 30
0.0
 10
101.4367024485992
 20
-126.9984496752816
 30
0.0
 10
101.4367024485992
 20
-126.7741739591919
 30
0.0
 10
101.5638264720049
 20
-126.5330172752244
 30
0.0
 10
101.8597601741878
 20
-126.5330172752244
 30
0.0
 10
102.0461398399399
 20
-126.5330172752244
 30
0.0
 10
102.1284776220373
 20
-126.6281019106173
 30
0.0
 10
102.1898003216748
 20
-126.727665170141
 30
0.0
 10
102.2173610855568
 20
-126.6661702157293
 30
0.0
 10
102.2979763199116
 20
-126.4842691741081
 30
0.0
 10
102.5749619969257
 20
-126.4842691741081
 30
0.0
 10
102.9136148831258
 20
-126.4842691741081
 30
0.0
 10
103.0807020141604
 20
-126.7317992847233
 30
0.0
 10
103.0807020141604
 20
-127.0089572165117
 30
0.0
  0
HATCH
  5
89
330
78
100
AcDbEntity
  8
_U+30EC_U+30A4_U+30E4_U+30FC 1
 62
   179
420
  2234388
100
AcDbHatch
 10
0.0
 20
0.0
 30
0.0
210
0.0
220
0.0
230
1.0
  2
SOLID
 70
     1
 71
     0
 91
        1
 92
        1
 93
        1
 72
     4
 94
        3
 73
     0
 74
     1
 95
       62
 96
       58
 40
0.0
 40
0.0
 40
0.0
 40
0.0
 40
1.0
 40
1.0
 40
1.0
 40
2.0
 40
2.0
 40
2.0
 40
3.0
 40
3.0
 40
3.0
 40
4.0
 40
4.0
 40
4.0
 40
5.0
 40
5.0
 40
5.0
 40
6.0
 40
6.0
 40
6.0
 40
7.0
 40
7.0
 40
7.0
 40
8.0
 40
8.0
 40
8.0
 40
9.0
 40
9.0
 40
9.0
 40
10.0
 40
10.0
 40
10.0
 40
11.0
 40
11.0
 40
11.0
 40
12.0
 40
12.0
 40
12.0
 40
13.0
 40
13.0
 40
13.0
 40
14.0
 40
14.0
 40
14.0
 40
15.0
 40
15.0
 40
15.0
 40
16.0
 40
16.0
 40
16.0
 40
17.0
 40
17.0
 40
17.0
 40
18.0
 40
18.0
 40
18.0
 40
19.0
 40
19.0
 40
19.0
 40
19.0
 10
103.0807020141604
 20
-127.0089572165117
 10
103.0807020141604
 20
-127.1042141066788
 10
103.0593424221518
 20
-127.3221163961209
 10
102.8733072659483
 20
-127.4468288526869
 10
102.7609971531292
 20
-127.5208984056198
 10
102.661778403154
 20
-127.5252047749763
 10
102.5770290542169
 20
-127.5293388895586
 10
102.5770290542169
 20
-127.5293388895586
 10
102.5770290542169
 20
-127.3093695428254
 10
102.5770290542169
 20
-127.3093695428254
 10
102.6514431166983
 20
-127.3073024855343
 10
102.8860541192438
 20
-127.29662268953
 10
102.8860541192438
 20
-127.013091331094
 10
102.8860541192438
 20
-126.8756320212325
 10
102.8161186808932
 20
-126.7233588007844
 10
102.5877088502211
 20
-126.7233588007844
 10
102.4716091323682
 20
-126.7233588007844
 10
102.4226887764777
 20
-126.7614271058965
 10
102.3909938980134
 20
-126.7931219843608
 10
102.3169243450805
 20
-126.8671915372936
 10
102.3041774917851
 20
-126.9836357646951
 10
102.3041774917851
 20
-127.0385850376848
 10
102.3041774917851
 20
-127.0575330628537
 10
102.3062445490762
 20
-127.0935343106745
 10
102.3103786636585
 20
-127.1210950745565
 10
102.3103786636585
 20
-127.1210950745565
 10
102.1160752782904
 20
-127.1210950745565
 10
102.1160752782904
 20
-127.1210950745565
 10
102.1222764501639
 20
-127.0830267694445
 10
102.124343507455
 20
-127.040652094976
 10
102.124343507455
 20
-127.0342786683282
 10
102.124343507455
 20
-126.9688218541085
 10
102.103328424995
 20
-126.7698675898353
 10
101.8663058556098
 20
-126.7698675898353
 10
101.6888834381194
 20
-126.7698675898353
 10
101.6337619103555
 20
-126.9011257278233
 10
101.6337619103555
 20
-127.0110242738028
 10
101.6337619103555
 20
-127.2754353522957
 10
101.8663058556098
 20
-127.2838758362346
 10
101.9383083512515
 20
-127.2881822055912
 10
101.9383083512515
 20
-127.2881822055912
 10
101.9383083512515
 20
-127.4912705844466
 10
101.9383083512515
 20
-127.4912705844466
 10
101.8135958946855
 20
-127.4828301005078
 10
101.4367024485992
 20
-127.4552693366258
 10
101.4367024485992
 20
-126.9984496752816
 10
101.4367024485992
 20
-126.7741739591919
 10
101.5638264720049
 20
-126.5330172752244
 10
101.8597601741878
 20
-126.5330172752244
 10
102.0461398399399
 20
-126.5330172752244
 10
102.1284776220373
 20
-126.6281019106173
 10
102.1898003216748
 20
-126.727665170141
 10
102.2173610855568
 20
-126.6661702157293
 10
102.2979763199116
 20
-126.4842691741081
 10
102.5749619969257
 20
-126.4842691741081
 10
102.9136148831258
 20
-126.4842691741081
 10
103.0807020141604
 20
-126.7317992847233
 10
103.0807020141604
 20
-127.0089572165117
 97
        0
 97
        0
 75
     2
 76
     1
 98
        0
  0
ENDBLK
  5
7B
330
78
100
AcDbEntity
  8
0
100
AcDbBlockEnd
  0
BLOCK
  5
8C
330
8A
100
AcDbEntity
  8
0
100
AcDbBlockBegin
  2
block 4
 70
     0
 10
0.0
 20
0.0
 30
0.0
  3
block 4
  1

  0
SPLINE
  5
8E
330
8A
100
AcDbEntity
  8
_U+30EC_U+30A4_U+30E4_U+30FC 1
370
     0
100
AcDbSpline
210
0.0
220
0.0
230
1.0
 70
    11
 71
     3
 72
    62
 73
    58
 74
     0
 42
0.0000000001
 43
0.0000000001
 12
1.0
 22
0.0
 32
0.0
 13
1.0
 23
0.0
 33
0.0
 40
0.0
 40
0.0
 40
0.0
 40
0.0
 40
1.0
 40
1.0
 40
1.0
 40
2.0
 40
2.0
 40
2.0
 40
3.0
 40
3.0
 40
3.0
 40
4.0
 40
4.0
 40
4.0
 40
5.0
 40
5.0
 40
5.0
 40
6.0
 40
6.0
 40
6.0
 40
7.0
 40
7.0
 40
7.0
 40
8.0
 40
8.0
 40
8.0
 40
9.0
 40
9.0
 40
9.0
 40
10.0
 40
10.0
 40
10.0
 40
11.0
 40
11.0
 40
11.0
 40
12.0
 40
12.0
 40
12.0
 40
13.0
 40
13.0
 40
13.0
 40
14.0
 40
14.0
 40
14.0
 40
15.0
 40
15.0
 40
15.0
 40
16.0
 40
16.0
 40
16.0
 40
17.0
 40
17.0
 40
17.0
 40
18.0
 40
18.0
 40
18.0
 40
19.0
 40
19.0
 40
19.0
 40
19.0
 10
103.0807020141604
 20
-133.5132974926634
 30
0.0
 10
103.0807020141604
 20
-133.6083821280562
 30
0.0
 10
103.0593424221518
 20
-133.8264566722726
 30
0.0
 10
102.8733072659483
 20
-133.9511691288386
 30
0.0
 10
102.7609971531292
 20
-134.0252386817715
 30
0.0
 10
102.661778403154
 20
-134.0293727963538
 30
0.0
 10
102.5770290542169
 20
-134.0335069109361
 30
0.0
 10
102.5770290542169
 20
-134.0335069109361
 30
0.0
 10
102.5770290542169
 20
-133.8137098189771
 30
0.0
 10
102.5770290542169
 20
-133.8137098189771
 30
0.0
 10
102.6514431166983
 20
-133.811642761686
 30
0.0
 10
102.8860541192438
 20
-133.8009629656817
 30
0.0
 10
102.8860541192438
 20
-133.5174316072456
 30
0.0
 10
102.8860541192438
 20
-133.3799722973842
 30
0.0
 10
102.8161186808932
 20
-133.2276990769361
 30
0.0
 10
102.5877088502211
 20
-133.2276990769361
 30
0.0
 10
102.4716091323682
 20
-133.2276990769361
 30
0.0
 10
102.4226887764777
 20
-133.2659396368224
 30
0.0
 10
102.3909938980134
 20
-133.2976345152867
 30
0.0
 10
102.3169243450805
 20
-133.3713595586711
 30
0.0
 10
102.3041774917851
 20
-133.4878037860725
 30
0.0
 10
102.3041774917851
 20
-133.5429253138365
 30
0.0
 10
102.3041774917851
 20
-133.5618733390054
 30
0.0
 10
102.3062445490762
 20
-133.5980468416005
 30
0.0
 10
102.3103786636585
 20
-133.6256076054825
 30
0.0
 10
102.3103786636585
 20
-133.6256076054825
 30
0.0
 10
102.1160752782904
 20
-133.6256076054825
 30
0.0
 10
102.1160752782904
 20
-133.6256076054825
 30
0.0
 10
102.1222764501639
 20
-133.5873670455962
 30
0.0
 10
102.124343507455
 20
-133.5449923711276
 30
0.0
 10
102.124343507455
 20
-133.5387911992542
 30
0.0
 10
102.124343507455
 20
-133.4733343850345
 30
0.0
 10
102.103328424995
 20
-133.274207865987
 30
0.0
 10
101.8663058556098
 20
-133.274207865987
 30
0.0
 10
101.6888834381194
 20
-133.274207865987
 30
0.0
 10
101.6337619103555
 20
-133.405466003975
 30
0.0
 10
101.6337619103555
 20
-133.5153645499545
 30
0.0
 10
101.6337619103555
 20
-133.7799478832217
 30
0.0
 10
101.8663058556098
 20
-133.7882161123863
 30
0.0
 10
101.9383083512515
 20
-133.7923502269686
 30
0.0
 10
101.9383083512515
 20
-133.7923502269686
 30
0.0
 10
101.9383083512515
 20
-133.9956108605983
 30
0.0
 10
101.9383083512515
 20
-133.9956108605983
 30
0.0
 10
101.8135958946855
 20
-133.9873426314337
 30
0.0
 10
101.4367024485992
 20
-133.9597818675517
 30
0.0
 10
101.4367024485992
 20
-133.5029622062076
 30
0.0
 10
101.4367024485992
 20
-133.2783419805693
 30
0.0
 10
101.5638264720049
 20
-133.0371852966018
 30
0.0
 10
101.8597601741878
 20
-133.0371852966018
 30
0.0
 10
102.0461398399399
 20
-133.0371852966018
 30
0.0
 10
102.1284776220373
 20
-133.1322699319947
 30
0.0
 10
102.1898003216748
 20
-133.232177701067
 30
0.0
 10
102.2173610855568
 20
-133.170510491881
 30
0.0
 10
102.2979763199116
 20
-132.9886094502598
 30
0.0
 10
102.5749619969257
 20
-132.9886094502598
 30
0.0
 10
102.9136148831258
 20
-132.9886094502598
 30
0.0
 10
103.0807020141604
 20
-133.2363118156493
 30
0.0
 10
103.0807020141604
 20
-133.5132974926634
 30
0.0
  0
HATCH
  5
8F
330
8A
100
AcDbEntity
  8
_U+30EC_U+30A4_U+30E4_U+30FC 1
 62
   179
420
  2234388
100
AcDbHatch
 10
0.0
 20
0.0
 30
0.0
210
0.0
220
0.0
230
1.0
  2
SOLID
 70
     1
 71
     0
 91
        1
 92
        1
 93
        1
 72
     4
 94
        3
 73
     0
 74
     1
 95
       62
 96
       58
 40
0.0
 40
0.0
 40
0.0
 40
0.0
 40
1.0
 40
1.0
 40
1.0
 40
2.0
 40
2.0
 40
2.0
 40
3.0
 40
3.0
 40
3.0
 40
4.0
 40
4.0
 40
4.0
 40
5.0
 40
5.0
 40
5.0
 40
6.0
 40
6.0
 40
6.0
 40
7.0
 40
7.0
 40
7.0
 40
8.0
 40
8.0
 40
8.0
 40
9.0
 40
9.0
 40
9.0
 40
10.0
 40
10.0
 40
10.0
 40
11.0
 40
11.0
 40
11.0
 40
12.0
 40
12.0
 40
12.0
 40
13.0
 40
13.0
 40
13.0
 40
14.0
 40
14.0
 40
14.0
 40
15.0
 40
15.0
 40
15.0
 40
16.0
 40
16.0
 40
16.0
 40
17.0
 40
17.0
 40
17.0
 40
18.0
 40
18.0
 40
18.0
 40
19.0
 40
19.0
 40
19.0
 40
19.0
 10
103.0807020141604
 20
-133.5132974926634
 10
103.0807020141604
 20
-133.6083821280562
 10
103.0593424221518
 20
-133.8264566722726
 10
102.8733072659483
 20
-133.9511691288386
 10
102.7609971531292
 20
-134.0252386817715
 10
102.661778403154
 20
-134.0293727963538
 10
102.5770290542169
 20
-134.0335069109361
 10
102.5770290542169
 20
-134.0335069109361
 10
102.5770290542169
 20
-133.8137098189771
 10
102.5770290542169
 20
-133.8137098189771
 10
102.6514431166983
 20
-133.811642761686
 10
102.8860541192438
 20
-133.8009629656817
 10
102.8860541192438
 20
-133.5174316072456
 10
102.8860541192438
 20
-133.3799722973842
 10
102.8161186808932
 20
-133.2276990769361
 10
102.5877088502211
 20
-133.2276990769361
 10
102.4716091323682
 20
-133.2276990769361
 10
102.4226887764777
 20
-133.2659396368224
 10
102.3909938980134
 20
-133.2976345152867
 10
102.3169243450805
 20
-133.3713595586711
 10
102.3041774917851
 20
-133.4878037860725
 10
102.3041774917851
 20
-133.5429253138365
 10
102.3041774917851
 20
-133.5618733390054
 10
102.3062445490762
 20
-133.5980468416005
 10
102.3103786636585
 20
-133.6256076054825
 10
102.3103786636585
 20
-133.6256076054825
 10
102.1160752782904
 20
-133.6256076054825
 10
102.1160752782904
 20
-133.6256076054825
 10
102.1222764501639
 20
-133.5873670455962
 10
102.124343507455
 20
-133.5449923711276
 10
102.124343507455
 20
-133.5387911992542
 10
102.124343507455
 20
-133.4733343850345
 10
102.103328424995
 20
-133.274207865987
 10
101.8663058556098
 20
-133.274207865987
 10
101.6888834381194
 20
-133.274207865987
 10
101.6337619103555
 20
-133.405466003975
 10
101.6337619103555
 20
-133.5153645499545
 10
101.6337619103555
 20
-133.7799478832217
 10
101.8663058556098
 20
-133.7882161123863
 10
101.9383083512515
 20
-133.7923502269686
 10
101.9383083512515
 20
-133.7923502269686
 10
101.9383083512515
 20
-133.9956108605983
 10
101.9383083512515
 20
-133.9956108605983
 10
101.8135958946855
 20
-133.9873426314337
 10
101.4367024485992
 20
-133.9597818675517
 10
101.4367024485992
 20
-133.5029622062076
 10
101.4367024485992
 20
-133.2783419805693
 10
101.5638264720049
 20
-133.0371852966018
 10
101.8597601741878
 20
-133.0371852966018
 10
102.0461398399399
 20
-133.0371852966018
 10
102.1284776220373
 20
-133.1322699319947
 10
102.1898003216748
 20
-133.232177701067
 10
102.2173610855568
 20
-133.170510491881
 10
102.2979763199116
 20
-132.9886094502598
 10
102.5749619969257
 20
-132.9886094502598
 10
102.9136148831258
 20
-132.9886094502598
 10
103.0807020141604
 20
-133.2363118156493
 10
103.0807020141604
 20
-133.5132974926634
 97
        0
 97
        0
 75
     2
 76
     1
 98
        0
  0
ENDBLK
  5
8D
330
8A
100
AcDbEntity
  8
0
100
AcDbBlockEnd
  0
BLOCK
  5
92
330
90
100
AcDbEntity
  8
0
100
AcDbBlockBegin
  2
block 5
 70
     0
 10
0.0
 20
0.0
 30
0.0
  3
block 5
  1

  0
SPLINE
  5
94
330
90
100
AcDbEntity
  8
_U+30EC_U+30A4_U+30E4_U+30FC 1
370
     0
100
AcDbSpline
210
0.0
220
0.0
230
1.0
 70
    11
 71
     3
 72
    26
 73
    22
 74
     0
 42
0.0000000001
 43
0.0000000001
 12
1.0
 22
0.0
 32
0.0
 13
1.0
 23
0.0
 33
0.0
 40
0.0
 40
0.0
 40
0.0
 40
0.0
 40
1.0
 40
1.0
 40
1.0
 40
2.0
 40
2.0
 40
2.0
 40
3.0
 40
3.0
 40
3.0
 40
4.0
 40
4.0
 40
4.0
 40
5.0
 40
5.0
 40
5.0
 40
6.0
 40
6.0
 40
6.0
 40
7.0
 40
7.0
 40
7.0
 40
7.0
 10
103.0297146009787
 20
-119.8908731796627
 30
0.0
 10
103.0297146009787
 20
-119.8908731796627
 30
0.0
 10
101.9255614979561
 20
-119.8908731796627
 30
0.0
 10
101.9255614979561
 20
-119.8908731796627
 30
0.0
 10
101.9255614979561
 20
-119.8908731796627
 30
0.0
 10
101.9255614979561
 20
-120.2209133271496
 30
0.0
 10
101.9255614979561
 20
-120.2209133271496
 30
0.0
 10
101.9255614979561
 20
-120.2209133271496
 30
0.0
 10
101.7774223920904
 20
-120.2209133271496
 30
0.0
 10
101.7774223920904
 20
-120.2209133271496
 30
0.0
 10
101.7626084815038
 20
-119.8888061223715
 30
0.0
 10
101.5999999746
 20
-119.8422973333207
 30
0.0
 10
101.4856228044897
 20
-119.8126695121475
 30
0.0
 10
101.4856228044897
 20
-119.8126695121475
 30
0.0
 10
101.4856228044897
 20
-119.6665974635729
 30
0.0
 10
101.4856228044897
 20
-119.6665974635729
 30
0.0
 10
101.4856228044897
 20
-119.6665974635729
 30
0.0
 10
103.0297146009787
 20
-119.6665974635729
 30
0.0
 10
103.0297146009787
 20
-119.6665974635729
 30
0.0
 10
103.0297146009787
 20
-119.6665974635729
 30
0.0
 10
103.0297146009787
 20
-119.8908731796627
 30
0.0
 10
103.0297146009787
 20
-119.8908731796627
 30
0.0
  0
HATCH
  5
95
330
90
100
AcDbEntity
  8
_U+30EC_U+30A4_U+30E4_U+30FC 1
 62
   179
420
  2234388
100
AcDbHatch
 10
0.0
 20
0.0
 30
0.0
210
0.0
220
0.0
230
1.0
  2
SOLID
 70
     1
 71
     0
 91
        1
 92
        1
 93
        1
 72
     4
 94
        3
 73
     0
 74
     1
 95
       26
 96
       22
 40
0.0
 40
0.0
 40
0.0
 40
0.0
 40
1.0
 40
1.0
 40
1.0
 40
2.0
 40
2.0
 40
2.0
 40
3.0
 40
3.0
 40
3.0
 40
4.0
 40
4.0
 40
4.0
 40
5.0
 40
5.0
 40
5.0
 40
6.0
 40
6.0
 40
6.0
 40
7.0
 40
7.0
 40
7.0
 40
7.0
 10
103.0297146009787
 20
-119.8908731796627
 10
103.0297146009787
 20
-119.8908731796627
 10
101.9255614979561
 20
-119.8908731796627
 10
101.9255614979561
 20
-119.8908731796627
 10
101.9255614979561
 20
-119.8908731796627
 10
101.9255614979561
 20
-120.2209133271496
 10
101.9255614979561
 20
-120.2209133271496
 10
101.9255614979561
 20
-120.2209133271496
 10
101.7774223920904
 20
-120.2209133271496
 10
101.7774223920904
 20
-120.2209133271496
 10
101.7626084815038
 20
-119.8888061223715
 10
101.5999999746
 20
-119.8422973333207
 10
101.4856228044897
 20
-119.8126695121475
 10
101.4856228044897
 20
-119.8126695121475
 10
101.4856228044897
 20
-119.6665974635729
 10
101.4856228044897
 20
-119.6665974635729
 10
101.4856228044897
 20
-119.6665974635729
 10
103.0297146009787
 20
-119.6665974635729
 10
103.0297146009787
 20
-119.6665974635729
 10
103.0297146009787
 20
-119.6665974635729
 10
103.0297146009787
 20
-119.8908731796627
 10
103.0297146009787
 20
-119.8908731796627
 97
        0
 97
        0
 75
     2
 76
     1
 98
        0
  0
ENDBLK
  5
93
330
90
100
AcDbEntity
  8
0
100
AcDbBlockEnd
  0
BLOCK
  5
B6
330
B4
100
AcDbEntity
  8
0
100
AcDbBlockBegin
  2
block 6
 70
     0
 10
0.0
 20
0.0
 30
0.0
  3
block 6
  1

  0
SPLINE
  5
B8
330
B4
100
AcDbEntity
  8
_U+30EC_U+30A4_U+30E4_U+30FC 1
370
     0
100
AcDbSpline
210
0.0
220
0.0
230
1.0
 70
    11
 71
     3
 72
    44
 73
    40
 74
     0
 42
0.0000000001
 43
0.0000000001
 12
1.0
 22
0.0
 32
0.0
 13
1.0
 23
0.0
 33
0.0
 40
0.0
 40
0.0
 40
0.0
 40
0.0
 40
1.0
 40
1.0
 40
1.0
 40
2.0
 40
2.0
 40
2.0
 40
3.0
 40
3.0
 40
3.0
 40
4.0
 40
4.0
 40
4.0
 40
5.0
 40
5.0
 40
5.0
 40
6.0
 40
6.0
 40
6.0
 40
7.0
 40
7.0
 40
7.0
 40
8.0
 40
8.0
 40
8.0
 40
9.0
 40
9.0
 40
9.0
 40
10.0
 40
10.0
 40
10.0
 40
11.0
 40
11.0
 40
11.0
 40
12.0
 40
12.0
 40
12.0
 40
13.0
 40
13.0
 40
13.0
 40
13.0
 10
88.54653318098838
 20
-118.35349931937
 30
0.0
 10
88.32863089154633
 20
-118.51231822124
 30
0.0
 10
88.2354410586703
 20
-118.5863877741728
 30
0.0
 10
88.18686521232829
 20
-118.7300482559078
 30
0.0
 10
88.18686521232829
 20
-118.7300482559078
 30
0.0
 10
88.96528453722048
 20
-118.7300482559078
 30
0.0
 10
88.96528453722048
 20
-118.7300482559078
 30
0.0
 10
88.96528453722048
 20
-118.7300482559078
 30
0.0
 10
88.96528453722048
 20
-118.9353759468287
 30
0.0
 10
88.96528453722048
 20
-118.9353759468287
 30
0.0
 10
88.96528453722048
 20
-118.9353759468287
 30
0.0
 10
87.93726804442194
 20
-118.9353759468287
 30
0.0
 10
87.93726804442194
 20
-118.9353759468287
 30
0.0
 10
87.96896292288623
 20
-118.5777750354597
 30
0.0
 10
88.03459199188025
 20
-118.4995713679446
 30
0.0
 10
88.41958141235692
 20
-118.2012260989219
 30
0.0
 10
88.67555200691098
 20
-118.002444089423
 30
0.0
 10
88.74100882113072
 20
-117.9345757083636
 30
0.0
 10
88.74100882113072
 20
-117.7971163985021
 30
0.0
 10
88.74100882113072
 20
-117.6786051138095
 30
0.0
 10
88.66917858026326
 20
-117.54769148537
 30
0.0
 10
88.4724636280555
 20
-117.54769148537
 30
0.0
 10
88.21218666414488
 20
-117.54769148537
 30
0.0
 10
88.20374618020601
 20
-117.7781683733332
 30
0.0
 10
88.19943981084946
 20
-117.8946126007347
 30
0.0
 10
88.19943981084946
 20
-117.8946126007347
 30
0.0
 10
87.97533634953395
 20
-117.8946126007347
 30
0.0
 10
87.97533634953395
 20
-117.8946126007347
 30
0.0
 10
87.98377683347282
 20
-117.767488577329
 30
0.0
 10
87.99428437470281
 20
-117.6555229740583
 30
0.0
 10
88.07472735428341
 20
-117.5370116893658
 30
0.0
 10
88.18462590026287
 20
-117.3761257302046
 30
0.0
 10
88.37083331124063
 20
-117.3423637944491
 30
0.0
 10
88.48727753864208
 20
-117.3423637944491
 30
0.0
 10
88.76443547043043
 20
-117.3423637944491
 30
0.0
 10
88.9716579638682
 20
-117.5263318933615
 30
0.0
 10
88.9716579638682
 20
-117.7991834557933
 30
0.0
 10
88.9716579638682
 20
-118.0279377960139
 30
0.0
 10
88.85538599124102
 20
-118.1271565459891
 30
0.0
 10
88.54653318098838
 20
-118.35349931937
 30
0.0
  0
HATCH
  5
B9
330
B4
100
AcDbEntity
  8
_U+30EC_U+30A4_U+30E4_U+30FC 1
 62
   179
420
  2234388
100
AcDbHatch
 10
0.0
 20
0.0
 30
0.0
210
0.0
220
0.0
230
1.0
  2
SOLID
 70
     1
 71
     0
 91
        1
 92
        1
 93
        1
 72
     4
 94
        3
 73
     0
 74
     1
 95
       44
 96
       40
 40
0.0
 40
0.0
 40
0.0
 40
0.0
 40
1.0
 40
1.0
 40
1.0
 40
2.0
 40
2.0
 40
2.0
 40
3.0
 40
3.0
 40
3.0
 40
4.0
 40
4.0
 40
4.0
 40
5.0
 40
5.0
 40
5.0
 40
6.0
 40
6.0
 40
6.0
 40
7.0
 40
7.0
 40
7.0
 40
8.0
 40
8.0
 40
8.0
 40
9.0
 40
9.0
 40
9.0
 40
10.0
 40
10.0
 40
10.0
 40
11.0
 40
11.0
 40
11.0
 40
12.0
 40
12.0
 40
12.0
 40
13.0
 40
13.0
 40
13.0
 40
13.0
 10
88.54653318098838
 20
-118.35349931937
 10
88.32863089154633
 20
-118.51231822124
 10
88.2354410586703
 20
-118.5863877741728
 10
88.18686521232829
 20
-118.7300482559078
 10
88.18686521232829
 20
-118.7300482559078
 10
88.96528453722048
 20
-118.7300482559078
 10
88.96528453722048
 20
-118.7300482559078
 10
88.96528453722048
 20
-118.7300482559078
 10
88.96528453722048
 20
-118.9353759468287
 10
88.96528453722048
 20
-118.9353759468287
 10
88.96528453722048
 20
-118.9353759468287
 10
87.93726804442194
 20
-118.9353759468287
 10
87.93726804442194
 20
-118.9353759468287
 10
87.96896292288623
 20
-118.5777750354597
 10
88.03459199188025
 20
-118.4995713679446
 10
88.41958141235692
 20
-118.2012260989219
 10
88.67555200691098
 20
-118.002444089423
 10
88.74100882113072
 20
-117.9345757083636
 10
88.74100882113072
 20
-117.7971163985021
 10
88.74100882113072
 20
-117.6786051138095
 10
88.66917858026326
 20
-117.54769148537
 10
88.4724636280555
 20
-117.54769148537
 10
88.21218666414488
 20
-117.54769148537
 10
88.20374618020601
 20
-117.7781683733332
 10
88.19943981084946
 20
-117.8946126007347
 10
88.19943981084946
 20
-117.8946126007347
 10
87.97533634953395
 20
-117.8946126007347
 10
87.97533634953395
 20
-117.8946126007347
 10
87.98377683347282
 20
-117.767488577329
 10
87.99428437470281
 20
-117.6555229740583
 10
88.07472735428341
 20
-117.5370116893658
 10
88.18462590026287
 20
-117.3761257302046
 10
88.37083331124063
 20
-117.3423637944491
 10
88.48727753864208
 20
-117.3423637944491
 10
88.76443547043043
 20
-117.3423637944491
 10
88.9716579638682
 20
-117.5263318933615
 10
88.9716579638682
 20
-117.7991834557933
 10
88.9716579638682
 20
-118.0279377960139
 10
88.85538599124102
 20
-118.1271565459891
 10
88.54653318098838
 20
-118.35349931937
 97
        0
 97
        0
 75
     2
 76
     1
 98
        0
  0
SPLINE
  5
BA
330
B4
100
AcDbEntity
  8
_U+30EC_U+30A4_U+30E4_U+30FC 1
370
     0
100
AcDbSpline
210
0.0
220
0.0
230
1.0
 70
    11
 71
     3
 72
    26
 73
    22
 74
     0
 42
0.0000000001
 43
0.0000000001
 12
1.0
 22
0.0
 32
0.0
 13
1.0
 23
0.0
 33
0.0
 40
0.0
 40
0.0
 40
0.0
 40
0.0
 40
1.0
 40
1.0
 40
1.0
 40
2.0
 40
2.0
 40
2.0
 40
3.0
 40
3.0
 40
3.0
 40
4.0
 40
4.0
 40
4.0
 40
5.0
 40
5.0
 40
5.0
 40
6.0
 40
6.0
 40
6.0
 40
7.0
 40
7.0
 40
7.0
 40
7.0
 10
89.58161211953168
 20
-118.9353759468287
 30
0.0
 10
89.58161211953168
 20
-118.9353759468287
 30
0.0
 10
89.58161211953168
 20
-117.8312228438061
 30
0.0
 10
89.58161211953168
 20
-117.8312228438061
 30
0.0
 10
89.58161211953168
 20
-117.8312228438061
 30
0.0
 10
89.25157197204474
 20
-117.8312228438061
 30
0.0
 10
89.25157197204474
 20
-117.8312228438061
 30
0.0
 10
89.25157197204474
 20
-117.8312228438061
 30
0.0
 10
89.25157197204474
 20
-117.6830837379404
 30
0.0
 10
89.25157197204474
 20
-117.6830837379404
 30
0.0
 10
89.58367917682284
 20
-117.6682698273538
 30
0.0
 10
89.6301879658737
 20
-117.5053168109014
 30
0.0
 10
89.65981578704685
 20
-117.3909396407912
 30
0.0
 10
89.65981578704685
 20
-117.3909396407912
 30
0.0
 10
89.80588783562145
 20
-117.3909396407912
 30
0.0
 10
89.80588783562145
 20
-117.3909396407912
 30
0.0
 10
89.80588783562145
 20
-117.3909396407912
 30
0.0
 10
89.80588783562145
 20
-118.9353759468287
 30
0.0
 10
89.80588783562145
 20
-118.9353759468287
 30
0.0
 10
89.80588783562145
 20
-118.9353759468287
 30
0.0
 10
89.58161211953168
 20
-118.9353759468287
 30
0.0
 10
89.58161211953168
 20
-118.9353759468287
 30
0.0
  0
HATCH
  5
BB
330
B4
100
AcDbEntity
  8
_U+30EC_U+30A4_U+30E4_U+30FC 1
 62
   179
420
  2234388
100
AcDbHatch
 10
0.0
 20
0.0
 30
0.0
210
0.0
220
0.0
230
1.0
  2
SOLID
 70
     1
 71
     0
 91
        1
 92
        1
 93
        1
 72
     4
 94
        3
 73
     0
 74
     1
 95
       26
 96
       22
 40
0.0
 40
0.0
 40
0.0
 40
0.0
 40
1.0
 40
1.0
 40
1.0
 40
2.0
 40
2.0
 40
2.0
 40
3.0
 40
3.0
 40
3.0
 40
4.0
 40
4.0
 40
4.0
 40
5.0
 40
5.0
 40
5.0
 40
6.0
 40
6.0
 40
6.0
 40
7.0
 40
7.0
 40
7.0
 40
7.0
 10
89.58161211953168
 20
-118.9353759468287
 10
89.58161211953168
 20
-118.9353759468287
 10
89.58161211953168
 20
-117.8312228438061
 10
89.58161211953168
 20
-117.8312228438061
 10
89.58161211953168
 20
-117.8312228438061
 10
89.25157197204474
 20
-117.8312228438061
 10
89.25157197204474
 20
-117.8312228438061
 10
89.25157197204474
 20
-117.8312228438061
 10
89.25157197204474
 20
-117.6830837379404
 10
89.25157197204474
 20
-117.6830837379404
 10
89.58367917682284
 20
-117.6682698273538
 10
89.6301879658737
 20
-117.5053168109014
 10
89.65981578704685
 20
-117.3909396407912
 10
89.65981578704685
 20
-117.3909396407912
 10
89.80588783562145
 20
-117.3909396407912
 10
89.80588783562145
 20
-117.3909396407912
 10
89.80588783562145
 20
-117.3909396407912
 10
89.80588783562145
 20
-118.9353759468287
 10
89.80588783562145
 20
-118.9353759468287
 10
89.80588783562145
 20
-118.9353759468287
 10
89.58161211953168
 20
-118.9353759468287
 10
89.58161211953168
 20
-118.9353759468287
 97
        0
 97
        0
 75
     2
 76
     1
 98
        0
  0
ENDBLK
  5
B7
330
B4
100
AcDbEntity
  8
0
100
AcDbBlockEnd
  0
ENDSEC
  0
SECTION
  2
ENTITIES
  0
POLYLINE
  5
41
330
1F
100
AcDbEntity
  8
_U+30EC_U+30A4_U+30E4_U+30FC 1
 62
   179
420
  2234388
370
    25
100
AcDb2dPolyline
 66
     1
 10
0.0
 20
0.0
 30
0.0
  0
VERTEX
  5
42
330
41
100
AcDbEntity
  8
_U+30EC_U+30A4_U+30E4_U+30FC 1
 62
   179
420
  2234388
370
    25
100
AcDbVertex
100
AcDb2dVertex
 10
79.52658658221885
 20
-132.0084919114423
 30
0.0
  0
VERTEX
  5
43
330
41
100
AcDbEntity
  8
_U+30EC_U+30A4_U+30E4_U+30FC 1
 62
   179
420
  2234388
370
    25
100
AcDbVertex
100
AcDb2dVertex
 10
87.52127165603522
 20
-132.0091621892196
 30
0.0
  0
VERTEX
  5
44
330
41
100
AcDbEntity
  8
_U+30EC_U+30A4_U+30E4_U+30FC 1
 62
   179
420
  2234388
370
    25
100
AcDbVertex
100
AcDb2dVertex
 10
87.52127165603522
 20
-135.0077732995811
 30
0.0
  0
VERTEX
  5
45
330
41
100
AcDbEntity
  8
_U+30EC_U+30A4_U+30E4_U+30FC 1
 62
   179
420
  2234388
370
    25
100
AcDbVertex
100
AcDb2dVertex
 10
77.52118607782533
 20
-135.0077732995811
 30
0.0
  0
SEQEND
  5
46
330
41
100
AcDbEntity
  8
_U+30EC_U+30A4_U+30E4_U+30FC 1
 62
   179
420
  2234388
370
    25
  0
POLYLINE
  5
47
330
1F
100
AcDbEntity
  8
_U+30EC_U+30A4_U+30E4_U+30FC 1
 62
   179
420
  2234388
370
    25
100
AcDb2dPolyline
 66
     1
 10
0.0
 20
0.0
 30
0.0
  0
VERTEX
  5
48
330
47
100
AcDbEntity
  8
_U+30EC_U+30A4_U+30E4_U+30FC 1
 62
   179
420
  2234388
370
    25
100
AcDbVertex
100
AcDb2dVertex
 10
78.52441549667526
 20
-132.0071160781094
 30
0.0
  0
VERTEX
  5
49
330
47
100
AcDbEntity
  8
_U+30EC_U+30A4_U+30E4_U+30FC 1
 62
   179
420
  2234388
370
    25
100
AcDbVertex
100
AcDb2dVertex
 10
79.02430159503322
 20
-133.0072058000815
 30
0.0
  0
VERTEX
  5
4A
330
47
100
AcDbEntity
  8
_U+30EC_U+30A4_U+30E4_U+30FC 1
 62
   179
420
  2234388
370
    25
100
AcDbVertex
100
AcDb2dVertex
 10
79.52418769339117
 20
-132.0071160781094
 30
0.0
  0
VERTEX
  5
4B
330
47
100
AcDbEntity
  8
_U+30EC_U+30A4_U+30E4_U+30FC 1
 62
   179
420
  2234388
370
    25
100
AcDbVertex
100
AcDb2dVertex
 10
79.52450519338306
 20
-123.7071721912955
 30
0.0
  0
VERTEX
  5
4C
330
47
100
AcDbEntity
  8
_U+30EC_U+30A4_U+30E4_U+30FC 1
 62
   179
420
  2234388
370
    25
100
AcDbVertex
100
AcDb2dVertex
 10
99.52432357203408
 20
-123.7071721912955
 30
0.0
  0
VERTEX
  5
4D
330
47
100
AcDbEntity
  8
_U+30EC_U+30A4_U+30E4_U+30FC 1
 62
   179
420
  2234388
370
    25
100
AcDbVertex
100
AcDb2dVertex
 10
99.52432357203408
 20
-122.7072235804344
 30
0.0
  0
VERTEX
  5
4E
330
47
100
AcDbEntity
  8
_U+30EC_U+30A4_U+30E4_U+30FC 1
 62
   179
420
  2234388
370
    25
100
AcDbVertex
100
AcDb2dVertex
 10
78.52441549667526
 20
-122.7072235804344
 30
0.0
  0
VERTEX
  5
4F
330
47
100
AcDbEntity
  8
_U+30EC_U+30A4_U+30E4_U+30FC 1
 62
   179
420
  2234388
370
    25
100
AcDbVertex
100
AcDb2dVertex
 10
78.52441549667526
 20
-132.0071160781094
 30
0.0
  0
SEQEND
  5
50
330
47
100
AcDbEntity
  8
_U+30EC_U+30A4_U+30E4_U+30FC 1
 62
   179
420
  2234388
370
    25
  0
POLYLINE
  5
51
330
1F
100
AcDbEntity
  8
_U+30EC_U+30A4_U+30E4_U+30FC 1
 62
   179
420
  2234388
370
    25
100
AcDb2dPolyline
 66
     1
 10
0.0
 20
0.0
 30
0.0
  0
VERTEX
  5
52
330
51
100
AcDbEntity
  8
_U+30EC_U+30A4_U+30E4_U+30FC 1
 62
   179
420
  2234388
370
    25
100
AcDbVertex
100
AcDb2dVertex
 10
78.52441549667526
 20
-132.0071160781094
 30
0.0
  0
VERTEX
  5
53
330
51
100
AcDbEntity
  8
_U+30EC_U+30A4_U+30E4_U+30FC 1
 62
   179
420
  2234388
370
    25
100
AcDbVertex
100
AcDb2dVertex
 10
77.52118607782533
 20
-135.0077732995811
 30
0.0
  0
SEQEND
  5
54
330
51
100
AcDbEntity
  8
_U+30EC_U+30A4_U+30E4_U+30FC 1
 62
   179
420
  2234388
370
    25
  0
SPLINE
  5
55
330
1F
100
AcDbEntity
  8
_U+30EC_U+30A4_U+30E4_U+30FC 1
 62
   179
420
  2234388
370
     9
100
AcDbSpline
210
0.0
220
0.0
230
1.0
 70
    11
 71
     3
 72
    17
 73
    13
 74
     0
 42
0.0000000001
 43
0.0000000001
 12
1.0
 22
0.0
 32
0.0
 13
1.0
 23
0.0
 33
0.0
 40
0.0
 40
0.0
 40
0.0
 40
0.0
 40
1.0
 40
1.0
 40
1.0
 40
2.0
 40
2.0
 40
2.0
 40
3.0
 40
3.0
 40
3.0
 40
4.0
 40
4.0
 40
4.0
 40
4.0
 10
87.62118053365026
 20
-139.007532465248
 30
0.0
 10
87.62118053365026
 20
-138.9524285763731
 30
0.0
 10
87.57637775588354
 20
-138.9076257986063
 30
0.0
 10
87.52127165603522
 20
-138.9076257986063
 30
0.0
 10
87.46648526854406
 20
-138.9076257986063
 30
0.0
 10
87.42136499191739
 20
-138.9524285763731
 30
0.0
 10
87.42136499191739
 20
-139.007532465248
 30
0.0
 10
87.42136499191739
 20
-139.0626716319011
 30
0.0
 10
87.46648526854406
 20
-139.1074391318896
 30
0.0
 10
87.52127165603522
 20
-139.1074391318896
 30
0.0
 10
87.57637775588354
 20
-139.1074391318896
 30
0.0
 10
87.62118053365026
 20
-139.0626716319011
 30
0.0
 10
87.62118053365026
 20
-139.007532465248
 30
0.0
  0
SPLINE
  5
56
330
1F
100
AcDbEntity
  8
_U+30EC_U+30A4_U+30E4_U+30FC 1
 62
   179
420
  2234388
370
     9
100
AcDbSpline
210
0.0
220
0.0
230
1.0
 70
    11
 71
     3
 72
    17
 73
    13
 74
     0
 42
0.0000000001
 43
0.0000000001
 12
1.0
 22
0.0
 32
0.0
 13
1.0
 23
0.0
 33
0.0
 40
0.0
 40
0.0
 40
0.0
 40
0.0
 40
1.0
 40
1.0
 40
1.0
 40
2.0
 40
2.0
 40
2.0
 40
3.0
 40
3.0
 40
3.0
 40
4.0
 40
4.0
 40
4.0
 40
4.0
 10
77.62179829748072
 20
-139.007532465248
 30
0.0
 10
77.62179829748072
 20
-138.9524285763731
 30
0.0
 10
77.57699552084595
 20
-138.9076257986063
 30
0.0
 10
77.52118607782533
 20
-138.9076257986063
 30
0.0
 10
77.46608219034226
 20
-138.9076257986063
 30
0.0
 10
77.4212794137075
 20
-138.9524285763731
 30
0.0
 10
77.4212794137075
 20
-139.007532465248
 30
0.0
 10
77.4212794137075
 20
-139.0626716319011
 30
0.0
 10
77.46608219034226
 20
-139.1074391318896
 30
0.0
 10
77.52118607782533
 20
-139.1074391318896
 30
0.0
 10
77.57699552084595
 20
-139.1074391318896
 30
0.0
 10
77.62179829748072
 20
-139.0626716319011
 30
0.0
 10
77.62179829748072
 20
-139.007532465248
 30
0.0
  0
POLYLINE
  5
57
330
1F
100
AcDbEntity
  8
_U+30EC_U+30A4_U+30E4_U+30FC 1
 62
   179
420
  2234388
370
     9
100
AcDb2dPolyline
 66
     1
 10
0.0
 20
0.0
 30
0.0
  0
VERTEX
  5
58
330
57
100
AcDbEntity
  8
_U+30EC_U+30A4_U+30E4_U+30FC 1
 62
   179
420
  2234388
370
     9
100
AcDbVertex
100
AcDb2dVertex
 10
77.52118607782533
 20
-139.007532465248
 30
0.0
  0
VERTEX
  5
59
330
57
100
AcDbEntity
  8
_U+30EC_U+30A4_U+30E4_U+30FC 1
 62
   179
420
  2234388
370
     9
100
AcDbVertex
100
AcDb2dVertex
 10
87.52127165603522
 20
-139.007532465248
 30
0.0
  0
SEQEND
  5
5A
330
57
100
AcDbEntity
  8
_U+30EC_U+30A4_U+30E4_U+30FC 1
 62
   179
420
  2234388
370
     9
  0
POLYLINE
  5
5B
330
1F
100
AcDbEntity
  8
_U+30EC_U+30A4_U+30E4_U+30FC 1
 62
   179
420
  2234388
370
     9
100
AcDb2dPolyline
 66
     1
 10
0.0
 20
0.0
 30
0.0
  0
VERTEX
  5
5C
330
5B
100
AcDbEntity
  8
_U+30EC_U+30A4_U+30E4_U+30FC 1
 62
   179
420
  2234388
370
     9
100
AcDbVertex
100
AcDb2dVertex
 10
77.52118607782533
 20
-136.5470485769744
 30
0.0
  0
VERTEX
  5
5D
330
5B
100
AcDbEntity
  8
_U+30EC_U+30A4_U+30E4_U+30FC 1
 62
   179
420
  2234388
370
     9
100
AcDbVertex
100
AcDb2dVertex
 10
77.52118607782533
 20
-140.0073046872205
 30
0.0
  0
SEQEND
  5
5E
330
5B
100
AcDbEntity
  8
_U+30EC_U+30A4_U+30E4_U+30FC 1
 62
   179
420
  2234388
370
     9
  0
POLYLINE
  5
5F
330
1F
100
AcDbEntity
  8
_U+30EC_U+30A4_U+30E4_U+30FC 1
 62
   179
420
  2234388
370
     9
100
AcDb2dPolyline
 66
     1
 10
0.0
 20
0.0
 30
0.0
  0
VERTEX
  5
60
330
5F
100
AcDbEntity
  8
_U+30EC_U+30A4_U+30E4_U+30FC 1
 62
   179
420
  2234388
370
     9
100
AcDbVertex
100
AcDb2dVertex
 10
87.52127165603522
 20
-136.5470485769744
 30
0.0
  0
VERTEX
  5
61
330
5F
100
AcDbEntity
  8
_U+30EC_U+30A4_U+30E4_U+30FC 1
 62
   179
420
  2234388
370
     9
100
AcDbVertex
100
AcDb2dVertex
 10
87.52127165603522
 20
-140.0073046872205
 30
0.0
  0
SEQEND
  5
62
330
5F
100
AcDbEntity
  8
_U+30EC_U+30A4_U+30E4_U+30FC 1
 62
   179
420
  2234388
370
     9
  0
INSERT
  5
64
330
1F
100
AcDbEntity
  8
_U+30EC_U+30A4_U+30E4_U+30FC 1
100
AcDbBlockReference
  2
block 2
 10
0.0
 20
0.0
 30
0.0
  0
POLYLINE
  5
6C
330
1F
100
AcDbEntity
  8
_U+30EC_U+30A4_U+30E4_U+30FC 1
 62
   179
420
  2234388
370
     9
100
AcDb2dPolyline
 66
     1
 10
0.0
 20
0.0
 30
0.0
  0
VERTEX
  5
6D
330
6C
100
AcDbEntity
  8
_U+30EC_U+30A4_U+30E4_U+30FC 1
 62
   179
420
  2234388
370
     9
100
AcDbVertex
100
AcDb2dVertex
 10
104.7729159381313
 20
-132.007433578109
 30
0.0
  0
VERTEX
  5
6E
330
6C
100
AcDbEntity
  8
_U+30EC_U+30A4_U+30E4_U+30FC 1
 62
   179
420
  2234388
370
     9
100
AcDbVertex
100
AcDb2dVertex
 10
88.67125662669666
 20
-132.007433578109
 30
0.0
  0
SEQEND
  5
6F
330
6C
100
AcDbEntity
  8
_U+30EC_U+30A4_U+30E4_U+30FC 1
 62
   179
420
  2234388
370
     9
  0
POLYLINE
  5
70
330
1F
100
AcDbEntity
  8
_U+30EC_U+30A4_U+30E4_U+30FC 1
 62
   179
420
  2234388
370
     9
100
AcDb2dPolyline
 66
     1
 10
0.0
 20
0.0
 30
0.0
  0
VERTEX
  5
71
330
70
100
AcDbEntity
  8
_U+30EC_U+30A4_U+30E4_U+30FC 1
 62
   179
420
  2234388
370
     9
100
AcDbVertex
100
AcDb2dVertex
 10
104.7729159381313
 20
-123.7071721912955
 30
0.0
  0
VERTEX
  5
72
330
70
100
AcDbEntity
  8
_U+30EC_U+30A4_U+30E4_U+30FC 1
 62
   179
420
  2234388
370
     9
100
AcDbVertex
100
AcDb2dVertex
 10
100.7066935418693
 20
-123.7071721912955
 30
0.0
  0
SEQEND
  5
73
330
70
100
AcDbEntity
  8
_U+30EC_U+30A4_U+30E4_U+30FC 1
 62
   179
420
  2234388
370
     9
  0
POLYLINE
  5
74
330
1F
100
AcDbEntity
  8
_U+30EC_U+30A4_U+30E4_U+30FC 1
 62
   179
420
  2234388
370
     9
100
AcDb2dPolyline
 66
     1
 10
0.0
 20
0.0
 30
0.0
  0
VERTEX
  5
75
330
74
100
AcDbEntity
  8
_U+30EC_U+30A4_U+30E4_U+30FC 1
 62
   179
420
  2234388
370
     9
100
AcDbVertex
100
AcDb2dVertex
 10
104.7729159381313
 20
-122.7659610804195
 30
0.0
  0
VERTEX
  5
76
330
74
100
AcDbEntity
  8
_U+30EC_U+30A4_U+30E4_U+30FC 1
 62
   179
420
  2234388
370
     9
100
AcDbVertex
100
AcDb2dVertex
 10
100.7066935418693
 20
-122.7659610804195
 30
0.0
  0
SEQEND
  5
77
330
74
100
AcDbEntity
  8
_U+30EC_U+30A4_U+30E4_U+30FC 1
 62
   179
420
  2234388
370
     9
  0
INSERT
  5
79
330
1F
100
AcDbEntity
  8
_U+30EC_U+30A4_U+30E4_U+30FC 1
100
AcDbBlockReference
  2
block 3
 10
0.0
 20
0.0
 30
0.0
  0
INSERT
  5
8B
330
1F
100
AcDbEntity
  8
_U+30EC_U+30A4_U+30E4_U+30FC 1
100
AcDbBlockReference
  2
block 4
 10
0.0
 20
0.0
 30
0.0
  0
INSERT
  5
91
330
1F
100
AcDbEntity
  8
_U+30EC_U+30A4_U+30E4_U+30FC 1
100
AcDbBlockReference
  2
block 5
 10
0.0
 20
0.0
 30
0.0
  0
SPLINE
  5
96
330
1F
100
AcDbEntity
  8
_U+30EC_U+30A4_U+30E4_U+30FC 1
 62
   179
420
  2234388
370
     9
100
AcDbSpline
210
0.0
220
0.0
230
1.0
 70
    11
 71
     3
 72
    17
 73
    13
 74
     0
 42
0.0000000001
 43
0.0000000001
 12
1.0
 22
0.0
 32
0.0
 13
1.0
 23
0.0
 33
0.0
 40
0.0
 40
0.0
 40
0.0
 40
0.0
 40
1.0
 40
1.0
 40
1.0
 40
2.0
 40
2.0
 40
2.0
 40
3.0
 40
3.0
 40
3.0
 40
4.0
 40
4.0
 40
4.0
 40
4.0
 10
103.8727329055414
 20
-131.9984730225561
 30
0.0
 10
103.8727329055414
 20
-132.0536121892086
 30
0.0
 10
103.8279301289066
 20
-132.0983796891978
 30
0.0
 10
103.7728262414235
 20
-132.0983796891978
 30
0.0
 10
103.7176870761636
 20
-132.0983796891978
 30
0.0
 10
103.6729221963041
 20
-132.0536121892086
 30
0.0
 10
103.6729221963041
 20
-131.9984730225561
 30
0.0
 10
103.6729221963041
 20
-131.9433691336806
 30
0.0
 10
103.7176870761636
 20
-131.8985663559145
 30
0.0
 10
103.7728262414235
 20
-131.8985663559145
 30
0.0
 10
103.8279301289066
 20
-131.8985663559145
 30
0.0
 10
103.8727329055414
 20
-131.9433691336806
 30
0.0
 10
103.8727329055414
 20
-131.9984730225561
 30
0.0
  0
HATCH
  5
97
330
1F
100
AcDbEntity
  8
_U+30EC_U+30A4_U+30E4_U+30FC 1
 62
   179
420
  2234388
100
AcDbHatch
 10
0.0
 20
0.0
 30
0.0
210
0.0
220
0.0
230
1.0
  2
SOLID
 70
     1
 71
     0
 91
        1
 92
        1
 93
        1
 72
     4
 94
        3
 73
     0
 74
     1
 95
       17
 96
       13
 40
0.0
 40
0.0
 40
0.0
 40
0.0
 40
1.0
 40
1.0
 40
1.0
 40
2.0
 40
2.0
 40
2.0
 40
3.0
 40
3.0
 40
3.0
 40
4.0
 40
4.0
 40
4.0
 40
4.0
 10
103.8727329055414
 20
-131.9984730225561
 10
103.8727329055414
 20
-132.0536121892086
 10
103.8279301289066
 20
-132.0983796891978
 10
103.7728262414235
 20
-132.0983796891978
 10
103.7176870761636
 20
-132.0983796891978
 10
103.6729221963041
 20
-132.0536121892086
 10
103.6729221963041
 20
-131.9984730225561
 10
103.6729221963041
 20
-131.9433691336806
 10
103.7176870761636
 20
-131.8985663559145
 10
103.7728262414235
 20
-131.8985663559145
 10
103.8279301289066
 20
-131.8985663559145
 10
103.8727329055414
 20
-131.9433691336806
 10
103.8727329055414
 20
-131.9984730225561
 97
        0
 97
        0
 75
     2
 76
     1
 98
        0
  0
POLYLINE
  5
98
330
1F
100
AcDbEntity
  8
_U+30EC_U+30A4_U+30E4_U+30FC 1
 62
   179
420
  2234388
370
     9
100
AcDb2dPolyline
 66
     1
 10
0.0
 20
0.0
 30
0.0
  0
VERTEX
  5
99
330
98
100
AcDbEntity
  8
_U+30EC_U+30A4_U+30E4_U+30FC 1
 62
   179
420
  2234388
370
     9
100
AcDbVertex
100
AcDb2dVertex
 10
103.7728262414235
 20
-134.9981424662502
 30
0.0
  0
VERTEX
  5
9A
330
98
100
AcDbEntity
  8
_U+30EC_U+30A4_U+30E4_U+30FC 1
 62
   179
420
  2234388
370
     9
100
AcDbVertex
100
AcDb2dVertex
 10
103.7728262414235
 20
-118.9956485813621
 30
0.0
  0
SEQEND
  5
9B
330
98
100
AcDbEntity
  8
_U+30EC_U+30A4_U+30E4_U+30FC 1
 62
   179
420
  2234388
370
     9
  0
POLYLINE
  5
9C
330
1F
100
AcDbEntity
  8
_U+30EC_U+30A4_U+30E4_U+30FC 1
 62
   179
420
  2234388
370
     9
100
AcDb2dPolyline
 66
     1
 10
0.0
 20
0.0
 30
0.0
  0
VERTEX
  5
9D
330
9C
100
AcDbEntity
  8
_U+30EC_U+30A4_U+30E4_U+30FC 1
 62
   179
420
  2234388
370
     9
100
AcDbVertex
100
AcDb2dVertex
 10
104.7729159381313
 20
-135.0071030218037
 30
0.0
  0
VERTEX
  5
9E
330
9C
100
AcDbEntity
  8
_U+30EC_U+30A4_U+30E4_U+30FC 1
 62
   179
420
  2234388
370
     9
100
AcDbVertex
100
AcDb2dVertex
 10
88.67125662669666
 20
-135.0071030218037
 30
0.0
  0
SEQEND
  5
9F
330
9C
100
AcDbEntity
  8
_U+30EC_U+30A4_U+30E4_U+30FC 1
 62
   179
420
  2234388
370
     9
  0
SPLINE
  5
A0
330
1F
100
AcDbEntity
  8
_U+30EC_U+30A4_U+30E4_U+30FC 1
 62
   179
420
  2234388
370
     9
100
AcDbSpline
210
0.0
220
0.0
230
1.0
 70
    11
 71
     3
 72
    17
 73
    13
 74
     0
 42
0.0000000001
 43
0.0000000001
 12
1.0
 22
0.0
 32
0.0
 13
1.0
 23
0.0
 33
0.0
 40
0.0
 40
0.0
 40
0.0
 40
0.0
 40
1.0
 40
1.0
 40
1.0
 40
2.0
 40
2.0
 40
2.0
 40
3.0
 40
3.0
 40
3.0
 40
4.0
 40
4.0
 40
4.0
 40
4.0
 10
103.8727329055414
 20
-134.9981424662502
 30
0.0
 10
103.8727329055414
 20
-135.0532463551258
 30
0.0
 10
103.8279301289066
 20
-135.0980491328919
 30
0.0
 10
103.7728262414235
 20
-135.0980491328919
 30
0.0
 10
103.7176870761636
 20
-135.0980491328919
 30
0.0
 10
103.6729221963041
 20
-135.0532463551258
 30
0.0
 10
103.6729221963041
 20
-134.9981424662502
 30
0.0
 10
103.6729221963041
 20
-134.9430032995978
 30
0.0
 10
103.7176870761636
 20
-134.8982357996086
 30
0.0
 10
103.7728262414235
 20
-134.8982357996086
 30
0.0
 10
103.8279301289066
 20
-134.8982357996086
 30
0.0
 10
103.8727329055414
 20
-134.9430032995978
 30
0.0
 10
103.8727329055414
 20
-134.9981424662502
 30
0.0
  0
HATCH
  5
A1
330
1F
100
AcDbEntity
  8
_U+30EC_U+30A4_U+30E4_U+30FC 1
 62
   179
420
  2234388
100
AcDbHatch
 10
0.0
 20
0.0
 30
0.0
210
0.0
220
0.0
230
1.0
  2
SOLID
 70
     1
 71
     0
 91
        1
 92
        1
 93
        1
 72
     4
 94
        3
 73
     0
 74
     1
 95
       17
 96
       13
 40
0.0
 40
0.0
 40
0.0
 40
0.0
 40
1.0
 40
1.0
 40
1.0
 40
2.0
 40
2.0
 40
2.0
 40
3.0
 40
3.0
 40
3.0
 40
4.0
 40
4.0
 40
4.0
 40
4.0
 10
103.8727329055414
 20
-134.9981424662502
 10
103.8727329055414
 20
-135.0532463551258
 10
103.8279301289066
 20
-135.0980491328919
 10
103.7728262414235
 20
-135.0980491328919
 10
103.7176870761636
 20
-135.0980491328919
 10
103.6729221963041
 20
-135.0532463551258
 10
103.6729221963041
 20
-134.9981424662502
 10
103.6729221963041
 20
-134.9430032995978
 10
103.7176870761636
 20
-134.8982357996086
 10
103.7728262414235
 20
-134.8982357996086
 10
103.8279301289066
 20
-134.8982357996086
 10
103.8727329055414
 20
-134.9430032995978
 10
103.8727329055414
 20
-134.9981424662502
 97
        0
 97
        0
 75
     2
 76
     1
 98
        0
  0
SPLINE
  5
A2
330
1F
100
AcDbEntity
  8
_U+30EC_U+30A4_U+30E4_U+30FC 1
 62
   179
420
  2234388
370
     9
100
AcDbSpline
210
0.0
220
0.0
230
1.0
 70
    11
 71
     3
 72
    17
 73
    13
 74
     0
 42
0.0000000001
 43
0.0000000001
 12
1.0
 22
0.0
 32
0.0
 13
1.0
 23
0.0
 33
0.0
 40
0.0
 40
0.0
 40
0.0
 40
0.0
 40
1.0
 40
1.0
 40
1.0
 40
2.0
 40
2.0
 40
2.0
 40
3.0
 40
3.0
 40
3.0
 40
4.0
 40
4.0
 40
4.0
 40
4.0
 10
103.8727329055414
 20
-123.7071721912955
 30
0.0
 10
103.8727329055414
 20
-123.7623113579482
 30
0.0
 10
103.8279301289066
 20
-123.8070788579371
 30
0.0
 10
103.7728262414235
 20
-123.8070788579371
 30
0.0
 10
103.7176870761636
 20
-123.8070788579371
 30
0.0
 10
103.6729221963041
 20
-123.7623113579482
 30
0.0
 10
103.6729221963041
 20
-123.7071721912955
 30
0.0
 10
103.6729221963041
 20
-123.6520683024203
 30
0.0
 10
103.7176870761636
 20
-123.6072655246539
 30
0.0
 10
103.7728262414235
 20
-123.6072655246539
 30
0.0
 10
103.8279301289066
 20
-123.6072655246539
 30
0.0
 10
103.8727329055414
 20
-123.6520683024203
 30
0.0
 10
103.8727329055414
 20
-123.7071721912955
 30
0.0
  0
HATCH
  5
A3
330
1F
100
AcDbEntity
  8
_U+30EC_U+30A4_U+30E4_U+30FC 1
 62
   179
420
  2234388
100
AcDbHatch
 10
0.0
 20
0.0
 30
0.0
210
0.0
220
0.0
230
1.0
  2
SOLID
 70
     1
 71
     0
 91
        1
 92
        1
 93
        1
 72
     4
 94
        3
 73
     0
 74
     1
 95
       17
 96
       13
 40
0.0
 40
0.0
 40
0.0
 40
0.0
 40
1.0
 40
1.0
 40
1.0
 40
2.0
 40
2.0
 40
2.0
 40
3.0
 40
3.0
 40
3.0
 40
4.0
 40
4.0
 40
4.0
 40
4.0
 10
103.8727329055414
 20
-123.7071721912955
 10
103.8727329055414
 20
-123.7623113579482
 10
103.8279301289066
 20
-123.8070788579371
 10
103.7728262414235
 20
-123.8070788579371
 10
103.7176870761636
 20
-123.8070788579371
 10
103.6729221963041
 20
-123.7623113579482
 10
103.6729221963041
 20
-123.7071721912955
 10
103.6729221963041
 20
-123.6520683024203
 10
103.7176870761636
 20
-123.6072655246539
 10
103.7728262414235
 20
-123.6072655246539
 10
103.8279301289066
 20
-123.6072655246539
 10
103.8727329055414
 20
-123.6520683024203
 10
103.8727329055414
 20
-123.7071721912955
 97
        0
 97
        0
 75
     2
 76
     1
 98
        0
  0
SPLINE
  5
A4
330
1F
100
AcDbEntity
  8
_U+30EC_U+30A4_U+30E4_U+30FC 1
 62
   179
420
  2234388
370
     9
100
AcDbSpline
210
0.0
220
0.0
230
1.0
 70
    11
 71
     3
 72
    17
 73
    13
 74
     0
 42
0.0000000001
 43
0.0000000001
 12
1.0
 22
0.0
 32
0.0
 13
1.0
 23
0.0
 33
0.0
 40
0.0
 40
0.0
 40
0.0
 40
0.0
 40
1.0
 40
1.0
 40
1.0
 40
2.0
 40
2.0
 40
2.0
 40
3.0
 40
3.0
 40
3.0
 40
4.0
 40
4.0
 40
4.0
 40
4.0
 10
103.8727329055414
 20
-122.7659610804195
 30
0.0
 10
103.8727329055414
 20
-122.8211002470726
 30
0.0
 10
103.8279301289066
 20
-122.865903024839
 30
0.0
 10
103.7728262414235
 20
-122.865903024839
 30
0.0
 10
103.7176870761636
 20
-122.865903024839
 30
0.0
 10
103.6729221963041
 20
-122.8211002470726
 30
0.0
 10
103.6729221963041
 20
-122.7659610804195
 30
0.0
 10
103.6729221963041
 20
-122.7108571915446
 30
0.0
 10
103.7176870761636
 20
-122.6660544137778
 30
0.0
 10
103.7728262414235
 20
-122.6660544137778
 30
0.0
 10
103.8279301289066
 20
-122.6660544137778
 30
0.0
 10
103.8727329055414
 20
-122.7108571915446
 30
0.0
 10
103.8727329055414
 20
-122.7659610804195
 30
0.0
  0
HATCH
  5
A5
330
1F
100
AcDbEntity
  8
_U+30EC_U+30A4_U+30E4_U+30FC 1
 62
   179
420
  2234388
100
AcDbHatch
 10
0.0
 20
0.0
 30
0.0
210
0.0
220
0.0
230
1.0
  2
SOLID
 70
     1
 71
     0
 91
        1
 92
        1
 93
        1
 72
     4
 94
        3
 73
     0
 74
     1
 95
       17
 96
       13
 40
0.0
 40
0.0
 40
0.0
 40
0.0
 40
1.0
 40
1.0
 40
1.0
 40
2.0
 40
2.0
 40
2.0
 40
3.0
 40
3.0
 40
3.0
 40
4.0
 40
4.0
 40
4.0
 40
4.0
 10
103.8727329055414
 20
-122.7659610804195
 10
103.8727329055414
 20
-122.8211002470726
 10
103.8279301289066
 20
-122.865903024839
 10
103.7728262414235
 20
-122.865903024839
 10
103.7176870761636
 20
-122.865903024839
 10
103.6729221963041
 20
-122.8211002470726
 10
103.6729221963041
 20
-122.7659610804195
 10
103.6729221963041
 20
-122.7108571915446
 10
103.7176870761636
 20
-122.6660544137778
 10
103.7728262414235
 20
-122.6660544137778
 10
103.8279301289066
 20
-122.6660544137778
 10
103.8727329055414
 20
-122.7108571915446
 10
103.8727329055414
 20
-122.7659610804195
 97
        0
 97
        0
 75
     2
 76
     1
 98
        0
  0
SPLINE
  5
A6
330
1F
100
AcDbEntity
  8
_U+30EC_U+30A4_U+30E4_U+30FC 1
 62
   179
420
  2234388
370
     9
100
AcDbSpline
210
0.0
220
0.0
230
1.0
 70
    11
 71
     3
 72
    17
 73
    13
 74
     0
 42
0.0000000001
 43
0.0000000001
 12
1.0
 22
0.0
 32
0.0
 13
1.0
 23
0.0
 33
0.0
 40
0.0
 40
0.0
 40
0.0
 40
0.0
 40
1.0
 40
1.0
 40
1.0
 40
2.0
 40
2.0
 40
2.0
 40
3.0
 40
3.0
 40
3.0
 40
4.0
 40
4.0
 40
4.0
 40
4.0
 10
78.6243221607931
 20
-119.5315533034505
 30
0.0
 10
78.6243221607931
 20
-119.4764141367977
 30
0.0
 10
78.57951938415833
 20
-119.4316466368088
 30
0.0
 10
78.52441549667526
 20
-119.4316466368088
 30
0.0
 10
78.46927633141532
 20
-119.4316466368088
 30
0.0
 10
78.42450883255742
 20
-119.4764141367977
 30
0.0
 10
78.42450883255742
 20
-119.5315533034505
 30
0.0
 10
78.42450883255742
 20
-119.5866571923257
 30
0.0
 10
78.46927633141532
 20
-119.6314599700921
 30
0.0
 10
78.52441549667526
 20
-119.6314599700921
 30
0.0
 10
78.57951938415833
 20
-119.6314599700921
 30
0.0
 10
78.6243221607931
 20
-119.5866571923257
 30
0.0
 10
78.6243221607931
 20
-119.5315533034505
 30
0.0
  0
POLYLINE
  5
A7
330
1F
100
AcDbEntity
  8
_U+30EC_U+30A4_U+30E4_U+30FC 1
 62
   179
420
  2234388
370
     9
100
AcDb2dPolyline
 66
     1
 10
0.0
 20
0.0
 30
0.0
  0
VERTEX
  5
A8
330
A7
100
AcDbEntity
  8
_U+30EC_U+30A4_U+30E4_U+30FC 1
 62
   179
420
  2234388
370
     9
100
AcDbVertex
100
AcDb2dVertex
 10
78.52441549667526
 20
-120.9915946919745
 30
0.0
  0
VERTEX
  5
A9
330
A7
100
AcDbEntity
  8
_U+30EC_U+30A4_U+30E4_U+30FC 1
 62
   179
420
  2234388
370
     9
100
AcDbVertex
100
AcDb2dVertex
 10
78.52441549667526
 20
-118.5317810814782
 30
0.0
  0
SEQEND
  5
AA
330
A7
100
AcDbEntity
  8
_U+30EC_U+30A4_U+30E4_U+30FC 1
 62
   179
420
  2234388
370
     9
  0
SPLINE
  5
AB
330
1F
100
AcDbEntity
  8
_U+30EC_U+30A4_U+30E4_U+30FC 1
 62
   179
420
  2234388
370
     9
100
AcDbSpline
210
0.0
220
0.0
230
1.0
 70
    11
 71
     3
 72
    17
 73
    13
 74
     0
 42
0.0000000001
 43
0.0000000001
 12
1.0
 22
0.0
 32
0.0
 13
1.0
 23
0.0
 33
0.0
 40
0.0
 40
0.0
 40
0.0
 40
0.0
 40
1.0
 40
1.0
 40
1.0
 40
2.0
 40
2.0
 40
2.0
 40
3.0
 40
3.0
 40
3.0
 40
4.0
 40
4.0
 40
4.0
 40
4.0
 10
99.62423023615192
 20
-119.5315533034505
 30
0.0
 10
99.62423023615192
 20
-119.4764141367977
 30
0.0
 10
99.57946273729404
 20
-119.4316466368088
 30
0.0
 10
99.52432357203408
 20
-119.4316466368088
 30
0.0
 10
99.46953718454292
 20
-119.4316466368088
 30
0.0
 10
99.4247721973663
 20
-119.4764141367977
 30
0.0
 10
99.4247721973663
 20
-119.5315533034505
 30
0.0
 10
99.4247721973663
 20
-119.5866571923257
 30
0.0
 10
99.46953718454292
 20
-119.6314599700921
 30
0.0
 10
99.52432357203408
 20
-119.6314599700921
 30
0.0
 10
99.57946273729404
 20
-119.6314599700921
 30
0.0
 10
99.62423023615192
 20
-119.5866571923257
 30
0.0
 10
99.62423023615192
 20
-119.5315533034505
 30
0.0
  0
POLYLINE
  5
AC
330
1F
100
AcDbEntity
  8
_U+30EC_U+30A4_U+30E4_U+30FC 1
 62
   179
420
  2234388
370
     9
100
AcDb2dPolyline
 66
     1
 10
0.0
 20
0.0
 30
0.0
  0
VERTEX
  5
AD
330
AC
100
AcDbEntity
  8
_U+30EC_U+30A4_U+30E4_U+30FC 1
 62
   179
420
  2234388
370
     9
100
AcDbVertex
100
AcDb2dVertex
 10
99.52432357203408
 20
-120.9915946919745
 30
0.0
  0
VERTEX
  5
AE
330
AC
100
AcDbEntity
  8
_U+30EC_U+30A4_U+30E4_U+30FC 1
 62
   179
420
  2234388
370
     9
100
AcDbVertex
100
AcDb2dVertex
 10
99.52432357203408
 20
-118.5317810814782
 30
0.0
  0
SEQEND
  5
AF
330
AC
100
AcDbEntity
  8
_U+30EC_U+30A4_U+30E4_U+30FC 1
 62
   179
420
  2234388
370
     9
  0
POLYLINE
  5
B0
330
1F
100
AcDbEntity
  8
_U+30EC_U+30A4_U+30E4_U+30FC 1
 62
   179
420
  2234388
370
     9
100
AcDb2dPolyline
 66
     1
 10
0.0
 20
0.0
 30
0.0
  0
VERTEX
  5
B1
330
B0
100
AcDbEntity
  8
_U+30EC_U+30A4_U+30E4_U+30FC 1
 62
   179
420
  2234388
370
     9
100
AcDbVertex
100
AcDb2dVertex
 10
78.52508577443594
 20
-119.5315533034505
 30
0.0
  0
VERTEX
  5
B2
330
B0
100
AcDbEntity
  8
_U+30EC_U+30A4_U+30E4_U+30FC 1
 62
   179
420
  2234388
370
     9
100
AcDbVertex
100
AcDb2dVertex
 10
99.52432357203408
 20
-119.5315533034505
 30
0.0
  0
SEQEND
  5
B3
330
B0
100
AcDbEntity
  8
_U+30EC_U+30A4_U+30E4_U+30FC 1
 62
   179
420
  2234388
370
     9
  0
INSERT
  5
B5
330
1F
100
AcDbEntity
  8
_U+30EC_U+30A4_U+30E4_U+30FC 1
100
AcDbBlockReference
  2
block 6
 10
0.0
 20
0.0
 30
0.0
  0
ENDSEC
  0
SECTION
  2
OBJECTS
  0
DICTIONARY
  5
C
330
0
100
AcDbDictionary
281
     1
  3
ACAD_GROUP
350
D
  3
ACAD_LAYOUT
350
1A
  3
ACAD_MATERIAL
350
3B
  3
ACAD_MLEADERSTYLE
350
BD
  3
ACAD_MLINESTYLE
350
17
  3
ACAD_PLOTSETTINGS
350
19
  3
ACAD_PLOTSTYLENAME
350
E
  3
ACAD_TABLESTYLE
350
BC
  3
ACAD_VISUALSTYLE
350
2A
  0
SUN
  5
3F
330
29
100
AcDbSun
 90
        1
290
     0
 63
     7
421
 16777215
 40
1.0
291
     1
 91
  2455826
 92
 54000000
292
     0
 70
     2
 71
   256
280
     1
  0
DICTIONARY
  5
D
102
{ACAD_REACTORS
330
C
102
}
330
C
100
AcDbDictionary
281
     1
  0
DICTIONARY
  5
1A
102
{ACAD_REACTORS
330
C
102
}
330
C
100
AcDbDictionary
281
     1
  3
Layout1
350
1E
  3
Layout2
350
26
  3
Model
350
22
  0
DICTIONARY
  5
3B
102
{ACAD_REACTORS
330
C
102
}
330
C
100
AcDbDictionary
281
     1
  3
ByBlock
350
3D
  3
ByLayer
350
3C
  3
Global
350
3E
  0
DICTIONARY
  5
BD
102
{ACAD_REACTORS
330
C
102
}
330
C
100
AcDbDictionary
281
     1
  0
DICTIONARY
  5
17
102
{ACAD_REACTORS
330
C
102
}
330
C
100
AcDbDictionary
281
     1
  3
Standard
350
18
  0
DICTIONARY
  5
19
102
{ACAD_REACTORS
330
C
102
}
330
C
100
AcDbDictionary
281
     1
  0
ACDBDICTIONARYWDFLT
  5
E
102
{ACAD_REACTORS
330
C
102
}
330
C
100
AcDbDictionary
281
     1
  3
Normal
350
F
100
AcDbDictionaryWithDefault
340
F
  0
DICTIONARY
  5
BC
102
{ACAD_REACTORS
330
C
102
}
330
C
100
AcDbDictionary
281
     1
  0
DICTIONARY
  5
2A
102
{ACAD_REACTORS
330
C
102
}
330
C
100
AcDbDictionary
281
     1
  3
2dWireframe
350
2F
  3
3D Hidden
350
31
  3
3dWireframe
350
30
  3
Basic
350
32
  3
Brighten
350
36
  3
ColorChange
350
3A
  3
Conceptual
350
34
  3
Dim
350
35
  3
Facepattern
350
39
  3
Flat
350
2B
  3
FlatWithEdges
350
2C
  3
Gouraud
350
2D
  3
GouraudWithEdges
350
2E
  3
Linepattern
350
38
  3
Realistic
350
33
  3
Thicken
350
37
  0
LAYOUT
  5
1E
102
{ACAD_REACTORS
330
1A
102
}
330
1A
100
AcDbPlotSettings
  1

  2
none_device
  4

  6

 40
0.0
 41
0.0
 42
0.0
 43
0.0
 44
0.0
 45
0.0
 46
0.0
 47
0.0
 48
0.0
 49
0.0
140
0.0
141
0.0
142
1.0
143
1.0
 70
   688
 72
     0
 73
     0
 74
     5
  7

 75
    16
 76
     0
 77
     2
 78
   300
147
1.0
148
0.0
149
0.0
100
AcDbLayout
  1
Layout1
 70
     1
 71
     1
 10
0.0
 20
0.0
 11
12.0
 21
9.0
 12
0.0
 22
0.0
 32
0.0
 14
1.000000000000000E+20
 24
1.000000000000000E+20
 34
1.000000000000000E+20
 15
-1.000000000000000E+20
 25
-1.000000000000000E+20
 35
-1.000000000000000E+20
146
0.0
 13
0.0
 23
0.0
 33
0.0
 16
1.0
 26
0.0
 36
0.0
 17
0.0
 27
1.0
 37
0.0
 76
     0
330
1B
  0
LAYOUT
  5
26
102
{ACAD_REACTORS
330
1A
102
}
330
1A
100
AcDbPlotSettings
  1

  2
none_device
  4

  6

 40
0.0
 41
0.0
 42
0.0
 43
0.0
 44
0.0
 45
0.0
 46
0.0
 47
0.0
 48
0.0
 49
0.0
140
0.0
141
0.0
142
1.0
143
1.0
 70
   688
 72
     0
 73
     0
 74
     5
  7

 75
    16
 76
     0
 77
     2
 78
   300
147
1.0
148
0.0
149
0.0
100
AcDbLayout
  1
Layout2
 70
     1
 71
     2
 10
0.0
 20
0.0
 11
0.0
 21
0.0
 12
0.0
 22
0.0
 32
0.0
 14
0.0
 24
0.0
 34
0.0
 15
0.0
 25
0.0
 35
0.0
146
0.0
 13
0.0
 23
0.0
 33
0.0
 16
1.0
 26
0.0
 36
0.0
 17
0.0
 27
1.0
 37
0.0
 76
     0
330
23
  0
LAYOUT
  5
22
102
{ACAD_REACTORS
330
1A
102
}
330
1A
100
AcDbPlotSettings
  1

  2
none_device
  4

  6

 40
0.0
 41
0.0
 42
0.0
 43
0.0
 44
0.0
 45
0.0
 46
0.0
 47
0.0
 48
0.0
 49
0.0
140
0.0
141
0.0
142
1.0
143
1.0
 70
  1712
 72
     0
 73
     0
 74
     0
  7

 75
     0
 76
     0
 77
     2
 78
   300
147
1.0
148
0.0
149
0.0
100
AcDbLayout
  1
Model
 70
     1
 71
     0
 10
0.0
 20
0.0
 11
12.0
 21
9.0
 12
0.0
 22
0.0
 32
0.0
 14
1.000000000000000E+20
 24
1.000000000000000E+20
 34
1.000000000000000E+20
 15
-1.000000000000000E+20
 25
-1.000000000000000E+20
 35
-1.000000000000000E+20
146
0.0
 13
0.0
 23
0.0
 33
0.0
 16
1.0
 26
0.0
 36
0.0
 17
0.0
 27
1.0
 37
0.0
 76
     0
330
1F
331
29
  0
MATERIAL
  5
3D
102
{ACAD_REACTORS
330
3B
102
}
330
3B
100
AcDbMaterial
  1
ByBlock
 72
     1
 94
      127
  0
MATERIAL
  5
3C
102
{ACAD_REACTORS
330
3B
102
}
330
3B
100
AcDbMaterial
  1
ByLayer
 72
     1
 94
      127
  0
MATERIAL
  5
3E
102
{ACAD_REACTORS
330
3B
102
}
330
3B
100
AcDbMaterial
  1
Global
 72
     1
 94
      127
  0
MLINESTYLE
  5
18
102
{ACAD_REACTORS
330
17
102
}
330
17
100
AcDbMlineStyle
  2
Standard
 70
     0
  3

 62
   256
 51
90.0
 52
90.0
 71
     2
 49
0.5
 62
   256
  6
BYLAYER
 49
-0.5
 62
   256
  6
BYLAYER
  0
ACDBPLACEHOLDER
  5
F
102
{ACAD_REACTORS
330
E
102
}
330
E
  0
VISUALSTYLE
  5
2F
102
{ACAD_REACTORS
330
2A
102
}
330
2A
100
AcDbVisualStyle
  2
2dWireframe
 70
     4
177
     2
291
     0
 71
     0
176
     1
 72
     2
176
     1
 73
     0
176
     1
 90
        0
176
     1
 40
-0.6
176
     1
 41
-30.0
176
     1
 62
     5
 63
     7
421
 16777215
176
     1
 74
     1
176
     1
 91
        4
176
     1
 64
     7
176
     1
 65
   257
176
     1
 75
     1
176
     1
175
     1
176
     1
 42
1.0
176
     1
 92
        0
176
     1
 66
   257
176
     1
 43
1.0
176
     1
 76
     1
176
     1
 77
     6
176
     1
 78
     2
176
     1
 67
     7
176
     1
 79
     5
176
     1
170
     0
176
     1
171
     0
176
     1
290
     0
176
     1
 93
        1
176
     1
 44
0.0
176
     1
173
     0
176
     1
  0
VISUALSTYLE
  5
31
102
{ACAD_REACTORS
330
2A
102
}
330
2A
100
AcDbVisualStyle
  2
3D Hidden
 70
     6
177
     2
291
     0
 71
     1
176
     1
 72
     2
176
     1
 73
     2
176
     1
 90
        0
176
     1
 40
-0.6
176
     1
 41
-30.0
176
     1
 62
     5
 63
     7
421
 16777215
176
     1
 74
     2
176
     1
 91
        2
176
     1
 64
     7
176
     1
 65
   257
176
     1
 75
     2
176
     1
175
     1
176
     1
 42
40.0
176
     1
 92
        0
176
     1
 66
   257
176
     1
 43
1.0
176
     1
 76
     1
176
     1
 77
     6
176
     1
 78
     2
176
     1
 67
     7
176
     1
 79
     3
176
     1
170
     0
176
     1
171
     0
176
     1
290
     0
176
     1
 93
        1
176
     1
 44
0.0
176
     1
173
     0
176
     1
  0
VISUALSTYLE
  5
30
102
{ACAD_REACTORS
330
2A
102
}
330
2A
100
AcDbVisualStyle
  2
3dWireframe
 70
     5
177
     2
291
     0
 71
     0
176
     1
 72
     2
176
     1
 73
     0
176
     1
 90
        0
176
     1
 40
-0.6
176
     1
 41
-30.0
176
     1
 62
     5
 63
     7
421
 16777215
176
     1
 74
     1
176
     1
 91
        4
176
     1
 64
     7
176
     1
 65
   257
176
     1
 75
     1
176
     1
175
     1
176
     1
 42
1.0
176
     1
 92
        0
176
     1
 66
   257
176
     1
 43
1.0
176
     1
 76
     1
176
     1
 77
     6
176
     1
 78
     2
176
     1
 67
     7
176
     1
 79
     5
176
     1
170
     0
176
     1
171
     0
176
     1
290
     0
176
     1
 93
        1
176
     1
 44
0.0
176
     1
173
     0
176
     1
  0
VISUALSTYLE
  5
32
102
{ACAD_REACTORS
330
2A
102
}
330
2A
100
AcDbVisualStyle
  2
Basic
 70
     7
177
     2
291
     1
 71
     1
176
     1
 72
     0
176
     1
 73
     1
176
     1
 90
        0
176
     1
 40
-0.6
176
     1
 41
-30.0
176
     1
 62
     5
 63
     7
421
 16777215
176
     1
 74
     0
176
     1
 91
        4
176
     1
 64
     7
176
     1
 65
   257
176
     1
 75
     1
176
     1
175
     1
176
     1
 42
1.0
176
     1
 92
        8
176
     1
 66
     7
176
     1
 43
1.0
176
     1
 76
     1
176
     1
 77
     6
176
     1
 78
     2
176
     1
 67
     7
176
     1
 79
     5
176
     1
170
     0
176
     1
171
     0
176
     1
290
     0
176
     1
 93
        1
176
     1
 44
0.0
176
     1
173
     0
176
     1
  0
VISUALSTYLE
  5
36
102
{ACAD_REACTORS
330
2A
102
}
330
2A
100
AcDbVisualStyle
  2
Brighten
 70
    12
177
     2
291
     1
 71
     2
176
     1
 72
     2
176
     1
 73
     0
176
     1
 90
        0
176
     1
 40
-0.6
176
     1
 41
-30.0
176
     1
 62
     5
 63
     7
421
 16777215
176
     1
 74
     1
176
     1
 91
        4
176
     1
 64
     7
176
     1
 65
   257
176
     1
 75
     1
176
     1
175
     1
176
     1
 42
1.0
176
     1
 92
        8
176
     1
 66
     7
176
     1
 43
1.0
176
     1
 76
     1
176
     1
 77
     6
176
     1
 78
     2
176
     1
 67
     7
176
     1
 79
     5
176
     1
170
     0
176
     1
171
     0
176
     1
290
     0
176
     1
 93
        1
176
     1
 44
50.0
176
     1
173
     0
176
     1
  0
VISUALSTYLE
  5
3A
102
{ACAD_REACTORS
330
2A
102
}
330
2A
100
AcDbVisualStyle
  2
ColorChange
 70
    16
177
     2
291
     1
 71
     2
176
     1
 72
     2
176
     1
 73
     3
176
     1
 90
        0
176
     1
 40
-0.6
176
     1
 41
-30.0
176
     1
 62
     5
 63
     8
421
  8421504
176
     1
 74
     1
176
     1
 91
        4
176
     1
 64
     7
176
     1
 65
   257
176
     1
 75
     1
176
     1
175
     1
176
     1
 42
1.0
176
     1
 92
        8
176
     1
 66
     8
424
  8421504
176
     1
 43
1.0
176
     1
 76
     1
176
     1
 77
     6
176
     1
 78
     2
176
     1
 67
     7
176
     1
 79
     5
176
     1
170
     0
176
     1
171
     0
176
     1
290
     0
176
     1
 93
        1
176
     1
 44
0.0
176
     1
173
     0
176
     1
  0
VISUALSTYLE
  5
34
102
{ACAD_REACTORS
330
2A
102
}
330
2A
100
AcDbVisualStyle
  2
Conceptual
 70
     9
177
     2
291
     0
 71
     3
176
     1
 72
     2
176
     1
 73
     0
176
     1
 90
        0
176
     1
 40
-0.6
176
     1
 41
-30.0
176
     1
 62
     5
 63
     7
421
 16777215
176
     1
 74
     2
176
     1
 91
        2
176
     1
 64
     7
176
     1
 65
   257
176
     1
 75
     1
176
     1
175
     1
176
     1
 42
40.0
176
     1
 92
        8
176
     1
 66
     7
176
     1
 43
1.0
176
     1
 76
     1
176
     1
 77
     6
176
     1
 78
     2
176
     1
 67
     7
176
     1
 79
     3
176
     1
170
     0
176
     1
171
     0
176
     1
290
     0
176
     1
 93
        1
176
     1
 44
0.0
176
     1
173
     0
176
     1
  0
VISUALSTYLE
  5
35
102
{ACAD_REACTORS
330
2A
102
}
330
2A
100
AcDbVisualStyle
  2
Dim
 70
    11
177
     2
291
     1
 71
     2
176
     1
 72
     2
176
     1
 73
     0
176
     1
 90
        0
176
     1
 40
-0.6
176
     1
 41
-30.0
176
     1
 62
     5
 63
     7
421
 16777215
176
     1
 74
     1
176
     1
 91
        4
176
     1
 64
     7
176
     1
 65
   257
176
     1
 75
     1
176
     1
175
     1
176
     1
 42
1.0
176
     1
 92
        8
176
     1
 66
     7
176
     1
 43
1.0
176
     1
 76
     1
176
     1
 77
     6
176
     1
 78
     2
176
     1
 67
     7
176
     1
 79
     5
176
     1
170
     0
176
     1
171
     0
176
     1
290
     0
176
     1
 93
        1
176
     1
 44
-50.0
176
     1
173
     0
176
     1
  0
VISUALSTYLE
  5
39
102
{ACAD_REACTORS
330
2A
102
}
330
2A
100
AcDbVisualStyle
  2
Facepattern
 70
    15
177
     2
291
     1
 71
     2
176
     1
 72
     2
176
     1
 73
     0
176
     1
 90
        0
176
     1
 40
-0.6
176
     1
 41
-30.0
176
     1
 62
     5
 63
     7
421
 16777215
176
     1
 74
     1
176
     1
 91
        4
176
     1
 64
     7
176
     1
 65
   257
176
     1
 75
     1
176
     1
175
     1
176
     1
 42
1.0
176
     1
 92
        8
176
     1
 66
     7
176
     1
 43
1.0
176
     1
 76
     1
176
     1
 77
     6
176
     1
 78
     2
176
     1
 67
     7
176
     1
 79
     5
176
     1
170
     0
176
     1
171
     0
176
     1
290
     0
176
     1
 93
        1
176
     1
 44
0.0
176
     1
173
     0
176
     1
  0
VISUALSTYLE
  5
2B
102
{ACAD_REACTORS
330
2A
102
}
330
2A
100
AcDbVisualStyle
  2
Flat
 70
     0
177
     2
291
     1
 71
     2
176
     1
 72
     1
176
     1
 73
     1
176
     1
 90
        2
176
     1
 40
-0.6
176
     1
 41
30.0
176
     1
 62
     5
 63
     7
421
 16777215
176
     1
 74
     0
176
     1
 91
        4
176
     1
 64
     7
176
     1
 65
   257
176
     1
 75
     1
176
     1
175
     1
176
     1
 42
1.0
176
     1
 92
        8
176
     1
 66
     7
176
     1
 43
1.0
176
     1
 76
     1
176
     1
 77
     6
176
     1
 78
     2
176
     1
 67
     7
176
     1
 79
     5
176
     1
170
     0
176
     1
171
     0
176
     1
290
     0
176
     1
 93
       13
176
     1
 44
0.0
176
     1
173
     0
176
     1
  0
VISUALSTYLE
  5
2C
102
{ACAD_REACTORS
330
2A
102
}
330
2A
100
AcDbVisualStyle
  2
FlatWithEdges
 70
     1
177
     2
291
     1
 71
     2
176
     1
 72
     1
176
     1
 73
     1
176
     1
 90
        2
176
     1
 40
-0.6
176
     1
 41
30.0
176
     1
 62
     5
 63
     7
421
 16777215
176
     1
 74
     1
176
     1
 91
        4
176
     1
 64
     7
176
     1
 65
   257
176
     1
 75
     1
176
     1
175
     1
176
     1
 42
1.0
176
     1
 92
        0
176
     1
 66
   257
176
     1
 43
1.0
176
     1
 76
     1
176
     1
 77
     6
176
     1
 78
     2
176
     1
 67
     7
176
     1
 79
     5
176
     1
170
     0
176
     1
171
     0
176
     1
290
     0
176
     1
 93
       13
176
     1
 44
0.0
176
     1
173
     0
176
     1
  0
VISUALSTYLE
  5
2D
102
{ACAD_REACTORS
330
2A
102
}
330
2A
100
AcDbVisualStyle
  2
Gouraud
 70
     2
177
     2
291
     1
 71
     2
176
     1
 72
     2
176
     1
 73
     1
176
     1
 90
        2
176
     1
 40
-0.6
176
     1
 41
30.0
176
     1
 62
     5
 63
     7
421
 16777215
176
     1
 74
     0
176
     1
 91
        4
176
     1
 64
     7
176
     1
 65
   257
176
     1
 75
     1
176
     1
175
     1
176
     1
 42
1.0
176
     1
 92
        0
176
     1
 66
     7
176
     1
 43
1.0
176
     1
 76
     1
176
     1
 77
     6
176
     1
 78
     2
176
     1
 67
     7
176
     1
 79
     5
176
     1
170
     0
176
     1
171
     0
176
     1
290
     0
176
     1
 93
       13
176
     1
 44
0.0
176
     1
173
     0
176
     1
  0
VISUALSTYLE
  5
2E
102
{ACAD_REACTORS
330
2A
102
}
330
2A
100
AcDbVisualStyle
  2
GouraudWithEdges
 70
     3
177
     2
291
     1
 71
     2
176
     1
 72
     2
176
     1
 73
     1
176
     1
 90
        2
176
     1
 40
-0.6
176
     1
 41
30.0
176
     1
 62
     5
 63
     7
421
 16777215
176
     1
 74
     1
176
     1
 91
        4
176
     1
 64
     7
176
     1
 65
   257
176
     1
 75
     1
176
     1
175
     1
176
     1
 42
1.0
176
     1
 92
        0
176
     1
 66
   257
176
     1
 43
1.0
176
     1
 76
     1
176
     1
 77
     6
176
     1
 78
     2
176
     1
 67
     7
176
     1
 79
     5
176
     1
170
     0
176
     1
171
     0
176
     1
290
     0
176
     1
 93
       13
176
     1
 44
0.0
176
     1
173
     0
176
     1
  0
VISUALSTYLE
  5
38
102
{ACAD_REACTORS
330
2A
102
}
330
2A
100
AcDbVisualStyle
  2
Linepattern
 70
    14
177
     2
291
     1
 71
     2
176
     1
 72
     2
176
     1
 73
     0
176
     1
 90
        0
176
     1
 40
-0.6
176
     1
 41
-30.0
176
     1
 62
     5
 63
     7
421
 16777215
176
     1
 74
     1
176
     1
 91
        4
176
     1
 64
     7
176
     1
 65
   257
176
     1
 75
     7
176
     1
175
     7
176
     1
 42
1.0
176
     1
 92
        8
176
     1
 66
     7
176
     1
 43
1.0
176
     1
 76
     1
176
     1
 77
     6
176
     1
 78
     2
176
     1
 67
     7
176
     1
 79
     5
176
     1
170
     0
176
     1
171
     0
176
     1
290
     0
176
     1
 93
        1
176
     1
 44
0.0
176
     1
173
     0
176
     1
  0
VISUALSTYLE
  5
33
102
{ACAD_REACTORS
330
2A
102
}
330
2A
100
AcDbVisualStyle
  2
Realistic
 70
     8
177
     2
291
     0
 71
     2
176
     1
 72
     2
176
     1
 73
     0
176
     1
 90
        0
176
     1
 40
-0.6
176
     1
 41
-30.0
176
     1
 62
     5
 63
     7
421
 16777215
176
     1
 74
     1
176
     1
 91
        0
176
     1
 64
     7
176
     1
 65
   257
176
     1
 75
     1
176
     1
175
     1
176
     1
 42
1.0
176
     1
 92
        8
176
     1
 66
     8
424
  7895160
176
     1
 43
1.0
176
     1
 76
     1
176
     1
 77
     6
176
     1
 78
     2
176
     1
 67
     7
176
     1
 79
     5
176
     1
170
     0
176
     1
171
     0
176
     1
290
     0
176
     1
 93
       13
176
     1
 44
0.0
176
     1
173
     0
176
     1
  0
VISUALSTYLE
  5
37
102
{ACAD_REACTORS
330
2A
102
}
330
2A
100
AcDbVisualStyle
  2
Thicken
 70
    13
177
     2
291
     1
 71
     2
176
     1
 72
     2
176
     1
 73
     0
176
     1
 90
        0
176
     1
 40
-0.6
176
     1
 41
-30.0
176
     1
 62
     5
 63
     7
421
 16777215
176
     1
 74
     1
176
     1
 91
        4
176
     1
 64
     7
176
     1
 65
   257
176
     1
 75
     1
176
     1
175
     1
176
     1
 42
1.0
176
     1
 92
       12
176
     1
 66
     7
176
     1
 43
1.0
176
     1
 76
     1
176
     1
 77
     6
176
     1
 78
     2
176
     1
 67
     7
176
     1
 79
     5
176
     1
170
     0
176
     1
171
     0
176
     1
290
     0
176
     1
 93
        1
176
     1
 44
0.0
176
     1
173
     0
176
     1
  0
ENDSEC
  0
EOF
