  0
SECTION
  2
HEADER
  9
$ACADVER
  1
AC1024
  9
$ACADMAINTVER
 70
   226
  9
$DWGCODEPAGE
  3
ANSI_932
  9
$INSBASE
 10
0.0
 20
0.0
 30
0.0
  9
$EXTMIN
 10
1.000000000000000E+20
 20
1.000000000000000E+20
 30
1.000000000000000E+20
  9
$EXTMAX
 10
-1.000000000000000E+20
 20
-1.000000000000000E+20
 30
-1.000000000000000E+20
  9
$LIMMIN
 10
0.0
 20
0.0
  9
$LIMMAX
 10
12.0
 20
9.0
  9
$ORTHOMODE
 70
     0
  9
$REGENMODE
 70
     1
  9
$FILLMODE
 70
     1
  9
$QTEXTMODE
 70
     0
  9
$MIRRTEXT
 70
     0
  9
$LTSCALE
 40
1.0
  9
$ATTMODE
 70
     1
  9
$TEXTSIZE
 40
0.2
  9
$TRACEWID
 40
0.05
  9
$TEXTSTYLE
  7
Standard
  9
$CLAYER
  8
0
  9
$CELTYPE
  6
ByLayer
  9
$CECOLOR
 62
   256
  9
$CELTSCALE
 40
1.0
  9
$DISPSILH
 70
     0
  9
$DIMSCALE
 40
1.0
  9
$DIMASZ
 40
0.18
  9
$DIMEXO
 40
0.0625
  9
$DIMDLI
 40
0.38
  9
$DIMRND
 40
0.0
  9
$DIMDLE
 40
0.0
  9
$DIMEXE
 40
0.18
  9
$DIMTP
 40
0.0
  9
$DIMTM
 40
0.0
  9
$DIMTXT
 40
0.18
  9
$DIMCEN
 40
0.09
  9
$DIMTSZ
 40
0.0
  9
$DIMTOL
 70
     0
  9
$DIMLIM
 70
     0
  9
$DIMTIH
 70
     1
  9
$DIMTOH
 70
     1
  9
$DIMSE1
 70
     0
  9
$DIMSE2
 70
     0
  9
$DIMTAD
 70
     0
  9
$DIMZIN
 70
     0
  9
$DIMBLK
  1

  9
$DIMASO
 70
     1
  9
$DIMSHO
 70
     1
  9
$DIMPOST
  1

  9
$DIMAPOST
  1

  9
$DIMALT
 70
     0
  9
$DIMALTD
 70
     2
  9
$DIMALTF
 40
25.4
  9
$DIMLFAC
 40
1.0
  9
$DIMTOFL
 70
     0
  9
$DIMTVP
 40
0.0
  9
$DIMTIX
 70
     0
  9
$DIMSOXD
 70
     0
  9
$DIMSAH
 70
     0
  9
$DIMBLK1
  1

  9
$DIMBLK2
  1

  9
$DIMSTYLE
  2
Standard
  9
$DIMCLRD
 70
     0
  9
$DIMCLRE
 70
     0
  9
$DIMCLRT
 70
     0
  9
$DIMTFAC
 40
1.0
  9
$DIMGAP
 40
0.09
  9
$DIMJUST
 70
     0
  9
$DIMSD1
 70
     0
  9
$DIMSD2
 70
     0
  9
$DIMTOLJ
 70
     1
  9
$DIMTZIN
 70
     0
  9
$DIMALTZ
 70
     0
  9
$DIMALTTZ
 70
     0
  9
$DIMUPT
 70
     0
  9
$DIMDEC
 70
     4
  9
$DIMTDEC
 70
     4
  9
$DIMALTU
 70
     2
  9
$DIMALTTD
 70
     2
  9
$DIMTXSTY
  7
Standard
  9
$DIMAUNIT
 70
     0
  9
$DIMADEC
 70
     0
  9
$DIMALTRND
 40
0.0
  9
$DIMAZIN
 70
     0
  9
$DIMDSEP
 70
    46
  9
$DIMATFIT
 70
     3
  9
$DIMFRAC
 70
     0
  9
$DIMLDRBLK
  1

  9
$DIMLUNIT
 70
     2
  9
$DIMLWD
 70
    -2
  9
$DIMLWE
 70
    -2
  9
$DIMTMOVE
 70
     0
  9
$DIMFXL
 40
1.0
  9
$DIMFXLON
 70
     0
  9
$DIMJOGANG
 40
0.7853981633974483
  9
$DIMTFILL
 70
     0
  9
$DIMTFILLCLR
 70
     0
  9
$DIMARCSYM
 70
     0
  9
$DIMLTYPE
  6

  9
$DIMLTEX1
  6

  9
$DIMLTEX2
  6

  9
$DIMTXTDIRECTION
 70
     0
  9
$LUNITS
 70
     2
  9
$LUPREC
 70
     4
  9
$SKETCHINC
 40
0.1
  9
$FILLETRAD
 40
0.0
  9
$AUNITS
 70
     0
  9
$AUPREC
 70
     0
  9
$MENU
  1
.
  9
$ELEVATION
 40
0.0
  9
$PELEVATION
 40
0.0
  9
$THICKNESS
 40
0.0
  9
$LIMCHECK
 70
     0
  9
$CHAMFERA
 40
0.0
  9
$CHAMFERB
 40
0.0
  9
$CHAMFERC
 40
0.0
  9
$CHAMFERD
 40
0.0
  9
$SKPOLY
 70
     0
  9
$TDCREATE
 40
2459569.488865741
  9
$TDUCREATE
 40
2459569.113865740
  9
$TDUPDATE
 40
2459569.488865741
  9
$TDUUPDATE
 40
2459569.113865740
  9
$TDINDWG
 40
0.0000115741
  9
$TDUSRTIMER
 40
0.0000115741
  9
$USRTIMER
 70
     1
  9
$ANGBASE
 50
0.0
  9
$ANGDIR
 70
     0
  9
$PDMODE
 70
     0
  9
$PDSIZE
 40
0.0
  9
$PLINEWID
 40
0.0
  9
$SPLFRAME
 70
     0
  9
$SPLINETYPE
 70
     6
  9
$SPLINESEGS
 70
     8
  9
$HANDSEED
  5
12B
  9
$SURFTAB1
 70
     6
  9
$SURFTAB2
 70
     6
  9
$SURFTYPE
 70
     6
  9
$SURFU
 70
     6
  9
$SURFV
 70
     6
  9
$UCSBASE
  2

  9
$UCSNAME
  2

  9
$UCSORG
 10
0.0
 20
0.0
 30
0.0
  9
$UCSXDIR
 10
1.0
 20
0.0
 30
0.0
  9
$UCSYDIR
 10
0.0
 20
1.0
 30
0.0
  9
$UCSORTHOREF
  2

  9
$UCSORTHOVIEW
 70
     0
  9
$UCSORGTOP
 10
0.0
 20
0.0
 30
0.0
  9
$UCSORGBOTTOM
 10
0.0
 20
0.0
 30
0.0
  9
$UCSORGLEFT
 10
0.0
 20
0.0
 30
0.0
  9
$UCSORGRIGHT
 10
0.0
 20
0.0
 30
0.0
  9
$UCSORGFRONT
 10
0.0
 20
0.0
 30
0.0
  9
$UCSORGBACK
 10
0.0
 20
0.0
 30
0.0
  9
$PUCSBASE
  2

  9
$PUCSNAME
  2

  9
$PUCSORG
 10
0.0
 20
0.0
 30
0.0
  9
$PUCSXDIR
 10
1.0
 20
0.0
 30
0.0
  9
$PUCSYDIR
 10
0.0
 20
1.0
 30
0.0
  9
$PUCSORTHOREF
  2

  9
$PUCSORTHOVIEW
 70
     0
  9
$PUCSORGTOP
 10
0.0
 20
0.0
 30
0.0
  9
$PUCSORGBOTTOM
 10
0.0
 20
0.0
 30
0.0
  9
$PUCSORGLEFT
 10
0.0
 20
0.0
 30
0.0
  9
$PUCSORGRIGHT
 10
0.0
 20
0.0
 30
0.0
  9
$PUCSORGFRONT
 10
0.0
 20
0.0
 30
0.0
  9
$PUCSORGBACK
 10
0.0
 20
0.0
 30
0.0
  9
$USERI1
 70
     0
  9
$USERI2
 70
     0
  9
$USERI3
 70
     0
  9
$USERI4
 70
     0
  9
$USERI5
 70
     0
  9
$USERR1
 40
0.0
  9
$USERR2
 40
0.0
  9
$USERR3
 40
0.0
  9
$USERR4
 40
0.0
  9
$USERR5
 40
0.0
  9
$WORLDVIEW
 70
     1
  9
$SHADEDGE
 70
     3
  9
$SHADEDIF
 70
    70
  9
$TILEMODE
 70
     1
  9
$MAXACTVP
 70
    64
  9
$PINSBASE
 10
0.0
 20
0.0
 30
0.0
  9
$PLIMCHECK
 70
     0
  9
$PEXTMIN
 10
1.000000000000000E+20
 20
1.000000000000000E+20
 30
1.000000000000000E+20
  9
$PEXTMAX
 10
-1.000000000000000E+20
 20
-1.000000000000000E+20
 30
-1.000000000000000E+20
  9
$PLIMMIN
 10
0.0
 20
0.0
  9
$PLIMMAX
 10
12.0
 20
9.0
  9
$UNITMODE
 70
     0
  9
$VISRETAIN
 70
     1
  9
$PLINEGEN
 70
     0
  9
$PSLTSCALE
 70
     1
  9
$TREEDEPTH
 70
  3020
  9
$CMLSTYLE
  2
Standard
  9
$CMLJUST
 70
     0
  9
$CMLSCALE
 40
1.0
  9
$PROXYGRAPHICS
 70
     1
  9
$MEASUREMENT
 70
     0
  9
$CELWEIGHT
370
    -1
  9
$ENDCAPS
280
     0
  9
$JOINSTYLE
280
     0
  9
$LWDISPLAY
290
     1
  9
$INSUNITS
 70
     4
  9
$HYPERLINKBASE
  1

  9
$STYLESHEET
  1

  9
$XEDIT
290
     1
  9
$CEPSNTYPE
380
     0
  9
$PSTYLEMODE
290
     1
  9
$FINGERPRINTGUID
  2
{5A8A159B-8927-C143-ABC3-312617930B01}
  9
$VERSIONGUID
  2
{C681F59D-922E-7049-960A-38464B73FFBE}
  9
$EXTNAMES
290
     1
  9
$PSVPSCALE
 40
0.0
  9
$OLESTARTUP
290
     0
  9
$SORTENTS
280
   127
  9
$INDEXCTL
280
     0
  9
$HIDETEXT
280
     1
  9
$XCLIPFRAME
280
     2
  9
$HALOGAP
280
     0
  9
$OBSCOLOR
 70
   257
  9
$OBSLTYPE
280
     0
  9
$INTERSECTIONDISPLAY
280
     0
  9
$INTERSECTIONCOLOR
 70
   257
  9
$DIMASSOC
280
     2
  9
$PROJECTNAME
  1

  9
$CAMERADISPLAY
290
     0
  9
$LENSLENGTH
 40
50.0
  9
$CAMERAHEIGHT
 40
0.0
  9
$STEPSPERSEC
 40
2.0
  9
$STEPSIZE
 40
6.0
  9
$3DDWFPREC
 40
2.0
  9
$PSOLWIDTH
 40
0.25
  9
$PSOLHEIGHT
 40
4.0
  9
$LOFTANG1
 40
1.570796326794896
  9
$LOFTANG2
 40
1.570796326794896
  9
$LOFTMAG1
 40
0.0
  9
$LOFTMAG2
 40
0.0
  9
$LOFTPARAM
 70
     7
  9
$LOFTNORMALS
280
     1
  9
$LATITUDE
 40
37.795
  9
$LONGITUDE
 40
-122.394
  9
$NORTHDIRECTION
 40
0.0
  9
$TIMEZONE
 70
 -8000
  9
$LIGHTGLYPHDISPLAY
280
     1
  9
$TILEMODELIGHTSYNCH
280
     1
  9
$CMATERIAL
347
11
  9
$SOLIDHIST
280
     0
  9
$SHOWHIST
280
     1
  9
$DWFFRAME
280
     2
  9
$DGNFRAME
280
     0
  9
$REALWORLDSCALE
290
     1
  9
$INTERFERECOLOR
 62
     1
  9
$INTERFEREOBJVS
345
33
  9
$INTERFEREVPVS
346
30
  9
$CSHADOW
280
     0
  9
$SHADOWPLANELOCATION
 40
0.0
  0
ENDSEC
  0
SECTION
  2
CLASSES
  0
CLASS
  1
ACDBDICTIONARYWDFLT
  2
AcDbDictionaryWithDefault
  3
ObjectDBX Classes
 90
        0
 91
        1
280
     0
281
     0
  0
CLASS
  1
MATERIAL
  2
AcDbMaterial
  3
ObjectDBX Classes
 90
     1153
 91
        3
280
     0
281
     0
  0
CLASS
  1
VISUALSTYLE
  2
AcDbVisualStyle
  3
ObjectDBX Classes
 90
     4095
 91
       24
280
     0
281
     0
  0
CLASS
  1
SCALE
  2
AcDbScale
  3
ObjectDBX Classes
 90
     1153
 91
       17
280
     0
281
     0
  0
CLASS
  1
TABLESTYLE
  2
AcDbTableStyle
  3
ObjectDBX Classes
 90
     4095
 91
        1
280
     0
281
     0
  0
CLASS
  1
MLEADERSTYLE
  2
AcDbMLeaderStyle
  3
ACDB_MLEADERSTYLE_CLASS
 90
     4095
 91
        1
280
     0
281
     0
  0
CLASS
  1
ACDBSECTIONVIEWSTYLE
  2
AcDbSectionViewStyle
  3
ObjectDBX Classes
 90
     1025
 91
        1
280
     0
281
     0
  0
CLASS
  1
ACDBDETAILVIEWSTYLE
  2
AcDbDetailViewStyle
  3
ObjectDBX Classes
 90
     1025
 91
        1
280
     0
281
     0
  0
CLASS
  1
DICTIONARYVAR
  2
AcDbDictionaryVar
  3
ObjectDBX Classes
 90
        0
 91
        5
280
     0
281
     0
  0
CLASS
  1
CELLSTYLEMAP
  2
AcDbCellStyleMap
  3
ObjectDBX Classes
 90
     1152
 91
        1
280
     0
281
     0
  0
ENDSEC
  0
SECTION
  2
TABLES
  0
TABLE
  2
VPORT
  5
8
330
0
100
AcDbSymbolTable
 70
     1
  0
VPORT
  5
57
330
8
100
AcDbSymbolTableRecord
100
AcDbViewportTableRecord
  2
*Active
 70
     0
 10
0.0
 20
0.0
 11
1.0
 21
1.0
 12
0.0
 22
0.0
 13
0.0
 23
0.0
 14
1.0
 24
1.0
 15
0.0
 25
0.0
 16
0.0
 26
0.0
 36
1.0
 17
104.9999999737534
 27
-148.4999999628701
 37
0.0
 40
302.939999924255
 41
0.7070707070707534
 42
50.0
 43
0.0
 44
0.0
 50
0.0
 51
0.0
 71
     0
 72
   100
 73
     1
 74
     0
 75
     1
 76
     0
 77
     0
 78
     0
281
     0
 65
     1
110
0.0
120
0.0
130
0.0
111
1.0
121
0.0
131
0.0
112
0.0
122
1.0
132
0.0
 79
     0
146
0.0
 60
     3
 61
     5
292
     1
282
     1
141
0.0
142
0.0
 63
   250
421
  3355443
  0
ENDTAB
  0
TABLE
  2
LTYPE
  5
5
330
0
100
AcDbSymbolTable
 70
     2
  0
LTYPE
  5
5B
330
5
100
AcDbSymbolTableRecord
100
AcDbLinetypeTableRecord
  2
ByBlock
 70
     0
  3

 72
    65
 73
     0
 40
0.0
  0
LTYPE
  5
5C
330
5
100
AcDbSymbolTableRecord
100
AcDbLinetypeTableRecord
  2
ByLayer
 70
     0
  3

 72
    65
 73
     0
 40
0.0
  0
LTYPE
  5
5D
330
5
100
AcDbSymbolTableRecord
100
AcDbLinetypeTableRecord
  2
Continuous
 70
     0
  3
Solid line
 72
    65
 73
     0
 40
0.0
  0
LTYPE
  5
CF
330
5
100
AcDbSymbolTableRecord
100
AcDbLinetypeTableRecord
  2
AI-Linetype-0
 70
     0
  3
Adobe Illustrator Linetype No. 0
 72
    65
 73
     2
 40
1.411111110758333
 49
0.7055555553791667
 74
     0
 49
-0.7055555553791667
 74
     0
  0
ENDTAB
  0
TABLE
  2
LAYER
  5
2
330
0
100
AcDbSymbolTable
 70
     2
  0
LAYER
  5
54
330
2
100
AcDbSymbolTableRecord
100
AcDbLayerTableRecord
  2
0
 70
     0
 62
     7
  6
Continuous
370
    -3
390
F
347
21
  0
LAYER
  5
78
330
2
100
AcDbSymbolTableRecord
100
AcDbLayerTableRecord
  2
レイヤー 1
 70
     0
 62
     7
  6
Continuous
370
     0
390
F
347
21
  0
ENDTAB
  0
TABLE
  2
STYLE
  5
3
330
0
100
AcDbSymbolTable
 70
     2
  0
STYLE
  5
55
330
3
100
AcDbSymbolTableRecord
100
AcDbTextStyleTableRecord
  2
Standard
 70
     0
 40
0.0
 41
1.0
 50
0.0
 71
     0
 42
0.2
  3
txt
  4

  0
STYLE
  5
5A
330
3
100
AcDbSymbolTableRecord
100
AcDbTextStyleTableRecord
  2
Annotative
 70
     0
 40
0.0
 41
1.0
 50
0.0
 71
     0
 42
0.2
  3
txt
  4

1001
AcadAnnotative
1000
AnnotativeData
1002
{
1070
     1
1070
     1
1002
}
  0
ENDTAB
  0
TABLE
  2
VIEW
  5
6
330
0
100
AcDbSymbolTable
 70
     0
  0
ENDTAB
  0
TABLE
  2
UCS
  5
7
330
0
100
AcDbSymbolTable
 70
     0
  0
ENDTAB
  0
TABLE
  2
APPID
  5
9
330
0
100
AcDbSymbolTable
 70
     2
  0
APPID
  5
56
330
9
100
AcDbSymbolTableRecord
100
AcDbRegAppTableRecord
  2
ACAD
 70
     0
  0
APPID
  5
5E
330
9
100
AcDbSymbolTableRecord
100
AcDbRegAppTableRecord
  2
AcadAnnotative
 70
     0
  0
ENDTAB
  0
TABLE
  2
DIMSTYLE
  5
A
330
0
100
AcDbSymbolTable
 70
     2
100
AcDbDimStyleTable
 71
     0
  0
DIMSTYLE
105
58
330
A
100
AcDbSymbolTableRecord
100
AcDbDimStyleTableRecord
  2
Standard
 70
     0
340
55
  0
DIMSTYLE
105
59
330
A
100
AcDbSymbolTableRecord
100
AcDbDimStyleTableRecord
  2
Annotative
 70
     0
340
55
1001
AcadAnnotative
1000
AnnotativeData
1002
{
1070
     1
1070
     1
1002
}
  0
ENDTAB
  0
TABLE
  2
BLOCK_RECORD
  5
1
330
0
100
AcDbSymbolTable
 70
    13
  0
BLOCK_RECORD
  5
70
330
1
100
AcDbSymbolTableRecord
100
AcDbBlockTableRecord
  2
*Model_Space
340
73
 70
     0
280
     1
281
     0
  0
BLOCK_RECORD
  5
6C
330
1
100
AcDbSymbolTableRecord
100
AcDbBlockTableRecord
  2
*Paper_Space
340
6F
 70
     0
280
     1
281
     0
  0
BLOCK_RECORD
  5
74
330
1
100
AcDbSymbolTableRecord
100
AcDbBlockTableRecord
  2
*Paper_Space0
340
77
 70
     0
280
     1
281
     0
  0
BLOCK_RECORD
  5
79
330
1
100
AcDbSymbolTableRecord
100
AcDbBlockTableRecord
  2
Block_0
340
0
102
{BLKREFS
331
7A
102
}
 70
     0
280
     1
281
     0
  0
BLOCK_RECORD
  5
85
330
1
100
AcDbSymbolTableRecord
100
AcDbBlockTableRecord
  2
Block_1
340
0
102
{BLKREFS
331
86
102
}
 70
     0
280
     1
281
     0
  0
BLOCK_RECORD
  5
89
330
1
100
AcDbSymbolTableRecord
100
AcDbBlockTableRecord
  2
Block_2
340
0
102
{BLKREFS
331
8A
102
}
 70
     0
280
     1
281
     0
  0
BLOCK_RECORD
  5
95
330
1
100
AcDbSymbolTableRecord
100
AcDbBlockTableRecord
  2
Block_3
340
0
102
{BLKREFS
331
96
102
}
 70
     0
280
     1
281
     0
  0
BLOCK_RECORD
  5
99
330
1
100
AcDbSymbolTableRecord
100
AcDbBlockTableRecord
  2
Block_4
340
0
102
{BLKREFS
331
9A
102
}
 70
     0
280
     1
281
     0
  0
BLOCK_RECORD
  5
A3
330
1
100
AcDbSymbolTableRecord
100
AcDbBlockTableRecord
  2
Block_5
340
0
102
{BLKREFS
331
A4
102
}
 70
     0
280
     1
281
     0
  0
BLOCK_RECORD
  5
A9
330
1
100
AcDbSymbolTableRecord
100
AcDbBlockTableRecord
  2
Block_6
340
0
102
{BLKREFS
331
AA
102
}
 70
     0
280
     1
281
     0
  0
BLOCK_RECORD
  5
BE
330
1
100
AcDbSymbolTableRecord
100
AcDbBlockTableRecord
  2
Block_7
340
0
102
{BLKREFS
331
BF
102
}
 70
     0
280
     1
281
     0
  0
BLOCK_RECORD
  5
C2
330
1
100
AcDbSymbolTableRecord
100
AcDbBlockTableRecord
  2
Block_8
340
0
102
{BLKREFS
331
C3
102
}
 70
     0
280
     1
281
     0
  0
BLOCK_RECORD
  5
CA
330
1
100
AcDbSymbolTableRecord
100
AcDbBlockTableRecord
  2
Block_9
340
0
102
{BLKREFS
331
CB
102
}
 70
     0
280
     1
281
     0
  0
BLOCK_RECORD
  5
D2
330
1
100
AcDbSymbolTableRecord
100
AcDbBlockTableRecord
  2
Block_10
340
0
102
{BLKREFS
331
D3
102
}
 70
     0
280
     1
281
     0
  0
BLOCK_RECORD
  5
D6
330
1
100
AcDbSymbolTableRecord
100
AcDbBlockTableRecord
  2
Block_11
340
0
102
{BLKREFS
331
D7
102
}
 70
     0
280
     1
281
     0
  0
ENDTAB
  0
ENDSEC
  0
SECTION
  2
BLOCKS
  0
BLOCK
  5
71
330
70
100
AcDbEntity
  8
0
100
AcDbBlockBegin
  2
*Model_Space
 70
     0
 10
0.0
 20
0.0
 30
0.0
  3
*Model_Space
  1

  0
ENDBLK
  5
72
330
70
100
AcDbEntity
  8
0
100
AcDbBlockEnd
  0
BLOCK
  5
6D
330
6C
100
AcDbEntity
 67
     1
  8
0
100
AcDbBlockBegin
  2
*Paper_Space
 70
     0
 10
0.0
 20
0.0
 30
0.0
  3
*Paper_Space
  1

  0
ENDBLK
  5
6E
330
6C
100
AcDbEntity
 67
     1
  8
0
100
AcDbBlockEnd
  0
BLOCK
  5
75
330
74
100
AcDbEntity
 67
     1
  8
0
100
AcDbBlockBegin
  2
*Paper_Space0
 70
     0
 10
0.0
 20
0.0
 30
0.0
  3
*Paper_Space0
  1

  0
ENDBLK
  5
76
330
74
100
AcDbEntity
 67
     1
  8
0
100
AcDbBlockEnd
  0
BLOCK
  5
7B
330
79
100
AcDbEntity
  8
0
100
AcDbBlockBegin
  2
Block_0
 70
     0
 10
0.0
 20
0.0
 30
0.0
  3
Block_0
  1

  0
LWPOLYLINE
  5
7D
330
79
100
AcDbEntity
  8
レイヤー 1
 62
   250
420
  2299925
370
    25
100
AcDbPolyline
 90
        4
 70
     0
 43
0.0
 10
93.43145051471518
 20
-152.1029246508695
 10
101.4261357904944
 20
-152.103630206407
 10
101.4261357904944
 20
-155.102594018786
 10
91.42604995966113
 20
-155.102594018786
  0
LWPOLYLINE
  5
7E
330
79
100
AcDbEntity
  8
レイヤー 1
 62
   250
420
  2299925
370
    25
100
AcDbPolyline
 90
        7
 70
     1
 43
0.0
 10
92.42927940385463
 20
-152.10190159534
 10
92.92913023706306
 20
-153.1018501809403
 10
93.42919273693821
 20
-152.10190159534
 10
93.42936912582677
 20
-146.8018036750012
 10
113.4291870350095
 20
-146.8018036750012
 10
113.4291870350095
 20
-145.8018550894009
 10
92.42927940385463
 20
-145.8018550894009
  0
LINE
  5
7F
330
79
100
AcDbEntity
  8
レイヤー 1
 62
   250
420
  2299925
370
    25
100
AcDbLine
 10
92.42927940385463
 20
-152.10190159534
 30
0.0
 11
91.42604995966113
 21
-155.102594018786
 31
0.0
  0
CIRCLE
  5
80
330
79
100
AcDbEntity
  8
レイヤー 1
 62
   250
420
  2299925
370
     9
100
AcDbCircle
 10
101.4261357904944
 20
-159.1023530834103
 30
0.0
 40
0.0999066653797365
  0
SPLINE
  5
81
330
79
100
AcDbEntity
  8
レイヤー 1
 62
   250
420
  2299925
370
     9
100
AcDbSpline
210
0.0
220
0.0
230
1.0
 70
     9
 71
     3
 72
    17
 73
    13
 74
     0
 42
0.0000000001
 43
0.0000000001
 40
0.0
 40
0.0
 40
0.0
 40
0.0
 40
1.0
 40
1.0
 40
1.0
 40
2.0
 40
2.0
 40
2.0
 40
3.0
 40
3.0
 40
3.0
 40
4.0
 40
4.0
 40
4.0
 40
4.0
 10
91.52666218185828
 20
-159.1023530834103
 30
0.0
 10
91.52666218185828
 20
-159.0472139181504
 30
0.0
 10
91.48185940409156
 20
-159.0024464192925
 30
0.0
 10
91.42604995966113
 20
-159.0024464192925
 30
0.0
 10
91.37094607078589
 20
-159.0024464192925
 30
0.0
 10
91.32614329301949
 20
-159.0472139181504
 30
0.0
 10
91.32614329301949
 20
-159.1023530834103
 30
0.0
 10
91.32614329301949
 20
-159.1574569708934
 30
0.0
 10
91.37094607078589
 20
-159.2022597475281
 30
0.0
 10
91.42604995966113
 20
-159.2022597475281
 30
0.0
 10
91.48185940409156
 20
-159.2022597475281
 30
0.0
 10
91.52666218185828
 20
-159.1574569708934
 30
0.0
 10
91.52666218185828
 20
-159.1023530834103
 30
0.0
  0
LINE
  5
82
330
79
100
AcDbEntity
  8
レイヤー 1
 62
   250
420
  2299925
370
     9
100
AcDbLine
 10
91.42604995966113
 20
-159.1023530834103
 30
0.0
 11
101.4261357904944
 21
-159.1023530834103
 31
0.0
  0
LINE
  5
83
330
79
100
AcDbEntity
  8
レイヤー 1
 62
   250
420
  2299925
370
     9
100
AcDbLine
 10
91.42604995966113
 20
-156.6418692572936
 30
0.0
 11
91.42604995966113
 21
-160.1020900023494
 31
0.0
  0
LINE
  5
84
330
79
100
AcDbEntity
  8
レイヤー 1
 62
   250
420
  2299925
370
     9
100
AcDbLine
 10
101.4261357904944
 20
-156.6418692572936
 30
0.0
 11
101.4261357904944
 21
-160.1020900023494
 31
0.0
  0
INSERT
  5
86
330
79
100
AcDbEntity
  8
レイヤー 1
100
AcDbBlockReference
  2
Block_1
 10
0.0
 20
0.0
 30
0.0
  0
LINE
  5
92
330
79
100
AcDbEntity
  8
レイヤー 1
 62
   250
420
  2299925
370
     9
100
AcDbLine
 10
118.6777805084033
 20
-152.1020779842244
 30
0.0
 11
102.576085512429
 21
-152.1020779842244
 31
0.0
  0
LINE
  5
93
330
79
100
AcDbEntity
  8
レイヤー 1
 62
   250
420
  2299925
370
     9
100
AcDbLine
 10
118.6777805084033
 20
-146.8018036750012
 30
0.0
 11
114.6115570048447
 21
-146.8018036750012
 31
0.0
  0
LINE
  5
94
330
79
100
AcDbEntity
  8
レイヤー 1
 62
   250
420
  2299925
370
     9
100
AcDbLine
 10
118.6777805084033
 20
-145.8605925879024
 30
0.0
 11
114.6115570048447
 21
-145.8605925879024
 31
0.0
  0
INSERT
  5
96
330
79
100
AcDbEntity
  8
レイヤー 1
100
AcDbBlockReference
  2
Block_3
 10
0.0
 20
0.0
 30
0.0
  0
INSERT
  5
A4
330
79
100
AcDbEntity
  8
レイヤー 1
100
AcDbBlockReference
  2
Block_5
 10
0.0
 20
0.0
 30
0.0
  0
INSERT
  5
AA
330
79
100
AcDbEntity
  8
レイヤー 1
100
AcDbBlockReference
  2
Block_6
 10
0.0
 20
0.0
 30
0.0
  0
SPLINE
  5
AF
330
79
100
AcDbEntity
  8
レイヤー 1
 62
   250
420
  2299925
370
     9
100
AcDbSpline
210
0.0
220
0.0
230
1.0
 70
     9
 71
     3
 72
    17
 73
    13
 74
     0
 42
0.0000000001
 43
0.0000000001
 40
0.0
 40
0.0
 40
0.0
 40
0.0
 40
1.0
 40
1.0
 40
1.0
 40
2.0
 40
2.0
 40
2.0
 40
3.0
 40
3.0
 40
3.0
 40
4.0
 40
4.0
 40
4.0
 40
4.0
 10
117.7775963685167
 20
-152.0931174288975
 30
0.0
 10
117.7775963685167
 20
-152.1482565941574
 30
0.0
 10
117.732793591882
 20
-152.1930179398896
 30
0.0
 10
117.6776897043989
 20
-152.1930179398896
 30
0.0
 10
117.622550539139
 20
-152.1930179398896
 30
0.0
 10
117.5777830402811
 20
-152.1482565941574
 30
0.0
 10
117.5777830402811
 20
-152.0931174288975
 30
0.0
 10
117.5777830402811
 20
-152.0380135414144
 30
0.0
 10
117.622550539139
 20
-151.9932107647797
 30
0.0
 10
117.6776897043989
 20
-151.9932107647797
 30
0.0
 10
117.732793591882
 20
-151.9932107647797
 30
0.0
 10
117.7775963685167
 20
-152.0380135414144
 30
0.0
 10
117.7775963685167
 20
-152.0931174288975
 30
0.0
  0
HATCH
  5
B0
330
79
100
AcDbEntity
  8
レイヤー 1
 62
   250
420
  2299925
440
 33554687
100
AcDbHatch
 10
0.0
 20
0.0
 30
0.0
210
0.0
220
0.0
230
1.0
  2
SOLID
 70
     1
 71
     1
 91
        1
 92
        1
 93
        1
 72
     4
 94
        3
 73
     0
 74
     0
 95
       17
 96
       13
 40
0.0
 40
0.0
 40
0.0
 40
0.0
 40
1.0
 40
1.0
 40
1.0
 40
2.0
 40
2.0
 40
2.0
 40
3.0
 40
3.0
 40
3.0
 40
4.0
 40
4.0
 40
4.0
 40
4.0
 10
117.7775963685167
 20
-152.0931174288975
 10
117.7775963685167
 20
-152.1482565941574
 10
117.732793591882
 20
-152.1930179398896
 10
117.6776897043989
 20
-152.1930179398896
 10
117.622550539139
 20
-152.1930179398896
 10
117.5777830402811
 20
-152.1482565941574
 10
117.5777830402811
 20
-152.0931174288975
 10
117.5777830402811
 20
-152.0380135414144
 10
117.622550539139
 20
-151.9932107647797
 10
117.6776897043989
 20
-151.9932107647797
 10
117.732793591882
 20
-151.9932107647797
 10
117.7775963685167
 20
-152.0380135414144
 10
117.7775963685167
 20
-152.0931174288975
 97
        0
 97
        1
330
AF
 75
     2
 76
     1
 98
        1
 10
0.0
 20
0.0
450
        0
451
        0
460
0.0
461
0.0
452
        0
462
0.0
453
        0
470

  0
LINE
  5
B1
330
79
100
AcDbEntity
  8
レイヤー 1
 62
   250
420
  2299925
370
     9
100
AcDbLine
 10
117.6776897043989
 20
-155.0929279079215
 30
0.0
 11
117.6776897043989
 21
-142.0902801840911
 31
0.0
  0
LINE
  5
B2
330
79
100
AcDbEntity
  8
レイヤー 1
 62
   250
420
  2299925
370
     9
100
AcDbLine
 10
118.6777805084033
 20
-155.1018884632484
 30
0.0
 11
102.576085512429
 21
-155.1018884632484
 31
0.0
  0
SPLINE
  5
B3
330
79
100
AcDbEntity
  8
レイヤー 1
 62
   250
420
  2299925
370
     9
100
AcDbSpline
210
0.0
220
0.0
230
1.0
 70
     9
 71
     3
 72
    17
 73
    13
 74
     0
 42
0.0000000001
 43
0.0000000001
 40
0.0
 40
0.0
 40
0.0
 40
0.0
 40
1.0
 40
1.0
 40
1.0
 40
2.0
 40
2.0
 40
2.0
 40
3.0
 40
3.0
 40
3.0
 40
4.0
 40
4.0
 40
4.0
 40
4.0
 10
117.7775963685167
 20
-155.0929279079215
 30
0.0
 10
117.7775963685167
 20
-155.1480670731814
 30
0.0
 10
117.732793591882
 20
-155.1928345720393
 30
0.0
 10
117.6776897043989
 20
-155.1928345720393
 30
0.0
 10
117.622550539139
 20
-155.1928345720393
 30
0.0
 10
117.5777830402811
 20
-155.1480670731814
 30
0.0
 10
117.5777830402811
 20
-155.0929279079215
 30
0.0
 10
117.5777830402811
 20
-155.0378179391785
 30
0.0
 10
117.622550539139
 20
-154.9930151614118
 30
0.0
 10
117.6776897043989
 20
-154.9930151614118
 30
0.0
 10
117.732793591882
 20
-154.9930151614118
 30
0.0
 10
117.7775963685167
 20
-155.0378179391785
 30
0.0
 10
117.7775963685167
 20
-155.0929279079215
 30
0.0
  0
HATCH
  5
B4
330
79
100
AcDbEntity
  8
レイヤー 1
 62
   250
420
  2299925
440
 33554687
100
AcDbHatch
 10
0.0
 20
0.0
 30
0.0
210
0.0
220
0.0
230
1.0
  2
SOLID
 70
     1
 71
     1
 91
        1
 92
        1
 93
        1
 72
     4
 94
        3
 73
     0
 74
     0
 95
       17
 96
       13
 40
0.0
 40
0.0
 40
0.0
 40
0.0
 40
1.0
 40
1.0
 40
1.0
 40
2.0
 40
2.0
 40
2.0
 40
3.0
 40
3.0
 40
3.0
 40
4.0
 40
4.0
 40
4.0
 40
4.0
 10
117.7775963685167
 20
-155.0929279079215
 10
117.7775963685167
 20
-155.1480670731814
 10
117.732793591882
 20
-155.1928345720393
 10
117.6776897043989
 20
-155.1928345720393
 10
117.622550539139
 20
-155.1928345720393
 10
117.5777830402811
 20
-155.1480670731814
 10
117.5777830402811
 20
-155.0929279079215
 10
117.5777830402811
 20
-155.0378179391785
 10
117.622550539139
 20
-154.9930151614118
 10
117.6776897043989
 20
-154.9930151614118
 10
117.732793591882
 20
-154.9930151614118
 10
117.7775963685167
 20
-155.0378179391785
 10
117.7775963685167
 20
-155.0929279079215
 97
        0
 97
        1
330
B3
 75
     2
 76
     1
 98
        1
 10
0.0
 20
0.0
450
        0
451
        0
460
0.0
461
0.0
452
        0
462
0.0
453
        0
470

  0
SPLINE
  5
B5
330
79
100
AcDbEntity
  8
レイヤー 1
 62
   250
420
  2299925
370
     9
100
AcDbSpline
210
0.0
220
0.0
230
1.0
 70
     9
 71
     3
 72
    17
 73
    13
 74
     0
 42
0.0000000001
 43
0.0000000001
 40
0.0
 40
0.0
 40
0.0
 40
0.0
 40
1.0
 40
1.0
 40
1.0
 40
2.0
 40
2.0
 40
2.0
 40
3.0
 40
3.0
 40
3.0
 40
4.0
 40
4.0
 40
4.0
 40
4.0
 10
117.7775963685167
 20
-146.8018036750012
 30
0.0
 10
117.7775963685167
 20
-146.8569012745569
 30
0.0
 10
117.732793591882
 20
-146.9017040523236
 30
0.0
 10
117.6776897043989
 20
-146.9017040523236
 30
0.0
 10
117.622550539139
 20
-146.9017040523236
 30
0.0
 10
117.5777830402811
 20
-146.8569012745569
 30
0.0
 10
117.5777830402811
 20
-146.8018036750012
 30
0.0
 10
117.5777830402811
 20
-146.7466645097413
 30
0.0
 10
117.622550539139
 20
-146.7018970108834
 30
0.0
 10
117.6776897043989
 20
-146.7018970108834
 30
0.0
 10
117.732793591882
 20
-146.7018970108834
 30
0.0
 10
117.7775963685167
 20
-146.7466645097413
 30
0.0
 10
117.7775963685167
 20
-146.8018036750012
 30
0.0
  0
HATCH
  5
B6
330
79
100
AcDbEntity
  8
レイヤー 1
 62
   250
420
  2299925
440
 33554687
100
AcDbHatch
 10
0.0
 20
0.0
 30
0.0
210
0.0
220
0.0
230
1.0
  2
SOLID
 70
     1
 71
     1
 91
        1
 92
        1
 93
        1
 72
     4
 94
        3
 73
     0
 74
     0
 95
       17
 96
       13
 40
0.0
 40
0.0
 40
0.0
 40
0.0
 40
1.0
 40
1.0
 40
1.0
 40
2.0
 40
2.0
 40
2.0
 40
3.0
 40
3.0
 40
3.0
 40
4.0
 40
4.0
 40
4.0
 40
4.0
 10
117.7775963685167
 20
-146.8018036750012
 10
117.7775963685167
 20
-146.8569012745569
 10
117.732793591882
 20
-146.9017040523236
 10
117.6776897043989
 20
-146.9017040523236
 10
117.622550539139
 20
-146.9017040523236
 10
117.5777830402811
 20
-146.8569012745569
 10
117.5777830402811
 20
-146.8018036750012
 10
117.5777830402811
 20
-146.7466645097413
 10
117.622550539139
 20
-146.7018970108834
 10
117.6776897043989
 20
-146.7018970108834
 10
117.732793591882
 20
-146.7018970108834
 10
117.7775963685167
 20
-146.7466645097413
 10
117.7775963685167
 20
-146.8018036750012
 97
        0
 97
        1
330
B5
 75
     2
 76
     1
 98
        1
 10
0.0
 20
0.0
450
        0
451
        0
460
0.0
461
0.0
452
        0
462
0.0
453
        0
470

  0
SPLINE
  5
B7
330
79
100
AcDbEntity
  8
レイヤー 1
 62
   250
420
  2299925
370
     9
100
AcDbSpline
210
0.0
220
0.0
230
1.0
 70
     9
 71
     3
 72
    17
 73
    13
 74
     0
 42
0.0000000001
 43
0.0000000001
 40
0.0
 40
0.0
 40
0.0
 40
0.0
 40
1.0
 40
1.0
 40
1.0
 40
2.0
 40
2.0
 40
2.0
 40
3.0
 40
3.0
 40
3.0
 40
4.0
 40
4.0
 40
4.0
 40
4.0
 10
117.7775963685167
 20
-145.8605925879024
 30
0.0
 10
117.7775963685167
 20
-145.9157317531624
 30
0.0
 10
117.732793591882
 20
-145.9604929414479
 30
0.0
 10
117.6776897043989
 20
-145.9604929414479
 30
0.0
 10
117.622550539139
 20
-145.9604929414479
 30
0.0
 10
117.5777830402811
 20
-145.9157317531624
 30
0.0
 10
117.5777830402811
 20
-145.8605925879024
 30
0.0
 10
117.5777830402811
 20
-145.8054887004194
 30
0.0
 10
117.622550539139
 20
-145.7606859237846
 30
0.0
 10
117.6776897043989
 20
-145.7606859237846
 30
0.0
 10
117.732793591882
 20
-145.7606859237846
 30
0.0
 10
117.7775963685167
 20
-145.8054887004194
 30
0.0
 10
117.7775963685167
 20
-145.8605925879024
 30
0.0
  0
HATCH
  5
B8
330
79
100
AcDbEntity
  8
レイヤー 1
 62
   250
420
  2299925
440
 33554687
100
AcDbHatch
 10
0.0
 20
0.0
 30
0.0
210
0.0
220
0.0
230
1.0
  2
SOLID
 70
     1
 71
     1
 91
        1
 92
        1
 93
        1
 72
     4
 94
        3
 73
     0
 74
     0
 95
       17
 96
       13
 40
0.0
 40
0.0
 40
0.0
 40
0.0
 40
1.0
 40
1.0
 40
1.0
 40
2.0
 40
2.0
 40
2.0
 40
3.0
 40
3.0
 40
3.0
 40
4.0
 40
4.0
 40
4.0
 40
4.0
 10
117.7775963685167
 20
-145.8605925879024
 10
117.7775963685167
 20
-145.9157317531624
 10
117.732793591882
 20
-145.9604929414479
 10
117.6776897043989
 20
-145.9604929414479
 10
117.622550539139
 20
-145.9604929414479
 10
117.5777830402811
 20
-145.9157317531624
 10
117.5777830402811
 20
-145.8605925879024
 10
117.5777830402811
 20
-145.8054887004194
 10
117.622550539139
 20
-145.7606859237846
 10
117.6776897043989
 20
-145.7606859237846
 10
117.732793591882
 20
-145.7606859237846
 10
117.7775963685167
 20
-145.8054887004194
 10
117.7775963685167
 20
-145.8605925879024
 97
        0
 97
        1
330
B7
 75
     2
 76
     1
 98
        1
 10
0.0
 20
0.0
450
        0
451
        0
460
0.0
461
0.0
452
        0
462
0.0
453
        0
470

  0
SPLINE
  5
B9
330
79
100
AcDbEntity
  8
レイヤー 1
 62
   250
420
  2299925
370
     9
100
AcDbSpline
210
0.0
220
0.0
230
1.0
 70
     9
 71
     3
 72
    17
 73
    13
 74
     0
 42
0.0000000001
 43
0.0000000001
 40
0.0
 40
0.0
 40
0.0
 40
0.0
 40
1.0
 40
1.0
 40
1.0
 40
2.0
 40
2.0
 40
2.0
 40
3.0
 40
3.0
 40
3.0
 40
4.0
 40
4.0
 40
4.0
 40
4.0
 10
92.52918607049627
 20
-142.6261848926412
 30
0.0
 10
92.52918607049627
 20
-142.5710457273816
 30
0.0
 10
92.48438329272987
 20
-142.5262782285234
 30
0.0
 10
92.42927940385463
 20
-142.5262782285234
 30
0.0
 10
92.37431662609075
 20
-142.5262782285234
 30
0.0
 10
92.32951384832404
 20
-142.5710457273816
 30
0.0
 10
92.32951384832404
 20
-142.6261848926412
 30
0.0
 10
92.32951384832404
 20
-142.6812887801243
 30
0.0
 10
92.37431662609075
 20
-142.7260915567591
 30
0.0
 10
92.42927940385463
 20
-142.7260915567591
 30
0.0
 10
92.48438329272987
 20
-142.7260915567591
 30
0.0
 10
92.52918607049627
 20
-142.6812887801243
 30
0.0
 10
92.52918607049627
 20
-142.6261848926412
 30
0.0
  0
LINE
  5
BA
330
79
100
AcDbEntity
  8
レイヤー 1
 62
   250
420
  2299925
370
     9
100
AcDbLine
 10
92.42927940385463
 20
-144.0861846085832
 30
0.0
 11
92.42927940385463
 21
-141.6264126959253
 31
0.0
  0
SPLINE
  5
BB
330
79
100
AcDbEntity
  8
レイヤー 1
 62
   250
420
  2299925
370
     9
100
AcDbSpline
210
0.0
220
0.0
230
1.0
 70
     9
 71
     3
 72
    17
 73
    13
 74
     0
 42
0.0000000001
 43
0.0000000001
 40
0.0
 40
0.0
 40
0.0
 40
0.0
 40
1.0
 40
1.0
 40
1.0
 40
2.0
 40
2.0
 40
2.0
 40
3.0
 40
3.0
 40
3.0
 40
4.0
 40
4.0
 40
4.0
 40
4.0
 10
113.5290936991273
 20
-142.6261848926412
 30
0.0
 10
113.5290936991273
 20
-142.5710457273816
 30
0.0
 10
113.4842909224925
 20
-142.5262782285234
 30
0.0
 10
113.4291870350095
 20
-142.5262782285234
 30
0.0
 10
113.3744006475183
 20
-142.5262782285234
 30
0.0
 10
113.3296331486604
 20
-142.5710457273816
 30
0.0
 10
113.3296331486604
 20
-142.6261848926412
 30
0.0
 10
113.3296331486604
 20
-142.6812887801243
 30
0.0
 10
113.3744006475183
 20
-142.7260915567591
 30
0.0
 10
113.4291870350095
 20
-142.7260915567591
 30
0.0
 10
113.4842909224925
 20
-142.7260915567591
 30
0.0
 10
113.5290936991273
 20
-142.6812887801243
 30
0.0
 10
113.5290936991273
 20
-142.6261848926412
 30
0.0
  0
LINE
  5
BC
330
79
100
AcDbEntity
  8
レイヤー 1
 62
   250
420
  2299925
370
     9
100
AcDbLine
 10
113.4291870350095
 20
-144.0861846085832
 30
0.0
 11
113.4291870350095
 21
-141.6264126959253
 31
0.0
  0
LINE
  5
BD
330
79
100
AcDbEntity
  8
レイヤー 1
 62
   250
420
  2299925
370
     9
100
AcDbLine
 10
92.42994968163232
 20
-142.6261848926412
 30
0.0
 11
113.4291870350095
 21
-142.6261848926412
 31
0.0
  0
INSERT
  5
BF
330
79
100
AcDbEntity
  8
レイヤー 1
100
AcDbBlockReference
  2
Block_7
 10
0.0
 20
0.0
 30
0.0
  0
ENDBLK
  5
7C
330
79
100
AcDbEntity
  8
0
100
AcDbBlockEnd
  0
BLOCK
  5
87
330
85
100
AcDbEntity
  8
0
100
AcDbBlockBegin
  2
Block_1
 70
     0
 10
0.0
 20
0.0
 30
0.0
  3
Block_1
  1

  0
INSERT
  5
8A
330
85
100
AcDbEntity
  8
レイヤー 1
100
AcDbBlockReference
  2
Block_2
 10
0.0
 20
0.0
 30
0.0
  0
ENDBLK
  5
88
330
85
100
AcDbEntity
  8
0
100
AcDbBlockEnd
  0
BLOCK
  5
8B
330
89
100
AcDbEntity
  8
0
100
AcDbBlockBegin
  2
Block_2
 70
     0
 10
0.0
 20
0.0
 30
0.0
  3
Block_2
  1

  0
SPLINE
  5
8D
330
89
100
AcDbEntity
  8
レイヤー 1
100
AcDbSpline
210
0.0
220
0.0
230
1.0
 70
    11
 71
     3
 72
    26
 73
    22
 74
     0
 42
0.0000000001
 43
0.0000000001
 40
0.0
 40
0.0
 40
0.0
 40
0.0
 40
1.0
 40
1.0
 40
1.0
 40
2.0
 40
2.0
 40
2.0
 40
3.0
 40
3.0
 40
3.0
 40
4.0
 40
4.0
 40
4.0
 40
5.0
 40
5.0
 40
5.0
 40
6.0
 40
6.0
 40
6.0
 40
7.0
 40
7.0
 40
7.0
 40
7.0
 10
95.76383596781251
 20
-158.5060871999568
 30
0.0
 10
95.76383596781251
 20
-158.5060871999568
 30
0.0
 10
95.76383596781251
 20
-157.4019340969342
 30
0.0
 10
95.76383596781251
 20
-157.4019340969342
 30
0.0
 10
95.76383596781251
 20
-157.4019340969342
 30
0.0
 10
95.43379582032558
 20
-157.4019340969342
 30
0.0
 10
95.43379582032558
 20
-157.4019340969342
 30
0.0
 10
95.43379582032558
 20
-157.4019340969342
 30
0.0
 10
95.43379582032558
 20
-157.2537949910685
 30
0.0
 10
95.43379582032558
 20
-157.2537949910685
 30
0.0
 10
95.76590302510366
 20
-157.2389810804819
 30
0.0
 10
95.81241181415455
 20
-157.0760280640296
 30
0.0
 10
95.8420396353277
 20
-156.9616508939193
 30
0.0
 10
95.8420396353277
 20
-156.9616508939193
 30
0.0
 10
95.98811168390227
 20
-156.9616508939193
 30
0.0
 10
95.98811168390227
 20
-156.9616508939193
 30
0.0
 10
95.98811168390227
 20
-156.9616508939193
 30
0.0
 10
95.98811168390227
 20
-158.5060871999568
 30
0.0
 10
95.98811168390227
 20
-158.5060871999568
 30
0.0
 10
95.98811168390227
 20
-158.5060871999568
 30
0.0
 10
95.76383596781251
 20
-158.5060871999568
 30
0.0
 10
95.76383596781251
 20
-158.5060871999568
 30
0.0
  0
HATCH
  5
8E
330
89
100
AcDbEntity
  8
レイヤー 1
 62
   250
420
  2299925
440
 33554687
100
AcDbHatch
 10
0.0
 20
0.0
 30
0.0
210
0.0
220
0.0
230
1.0
  2
SOLID
 70
     1
 71
     1
 91
        1
 92
        1
 93
        1
 72
     4
 94
        3
 73
     0
 74
     0
 95
       26
 96
       22
 40
0.0
 40
0.0
 40
0.0
 40
0.0
 40
1.0
 40
1.0
 40
1.0
 40
2.0
 40
2.0
 40
2.0
 40
3.0
 40
3.0
 40
3.0
 40
4.0
 40
4.0
 40
4.0
 40
5.0
 40
5.0
 40
5.0
 40
6.0
 40
6.0
 40
6.0
 40
7.0
 40
7.0
 40
7.0
 40
7.0
 10
95.76383596781251
 20
-158.5060871999568
 10
95.76383596781251
 20
-158.5060871999568
 10
95.76383596781251
 20
-157.4019340969342
 10
95.76383596781251
 20
-157.4019340969342
 10
95.76383596781251
 20
-157.4019340969342
 10
95.43379582032558
 20
-157.4019340969342
 10
95.43379582032558
 20
-157.4019340969342
 10
95.43379582032558
 20
-157.4019340969342
 10
95.43379582032558
 20
-157.2537949910685
 10
95.43379582032558
 20
-157.2537949910685
 10
95.76590302510366
 20
-157.2389810804819
 10
95.81241181415455
 20
-157.0760280640296
 10
95.8420396353277
 20
-156.9616508939193
 10
95.8420396353277
 20
-156.9616508939193
 10
95.98811168390227
 20
-156.9616508939193
 10
95.98811168390227
 20
-156.9616508939193
 10
95.98811168390227
 20
-156.9616508939193
 10
95.98811168390227
 20
-158.5060871999568
 10
95.98811168390227
 20
-158.5060871999568
 10
95.98811168390227
 20
-158.5060871999568
 10
95.76383596781251
 20
-158.5060871999568
 10
95.76383596781251
 20
-158.5060871999568
 97
        0
 97
        1
330
8D
 75
     2
 76
     1
 98
        1
 10
0.0
 20
0.0
450
        0
451
        0
460
0.0
461
0.0
452
        0
462
0.0
453
        0
470

  0
SPLINE
  5
8F
330
89
100
AcDbEntity
  8
レイヤー 1
100
AcDbSpline
210
0.0
220
0.0
230
1.0
 70
     9
 71
     3
 72
    17
 73
    13
 74
     0
 42
0.0000000001
 43
0.0000000001
 40
0.0
 40
0.0
 40
0.0
 40
0.0
 40
1.0
 40
1.0
 40
1.0
 40
2.0
 40
2.0
 40
2.0
 40
3.0
 40
3.0
 40
3.0
 40
4.0
 40
4.0
 40
4.0
 40
4.0
 10
96.98925643191589
 20
-157.1056558852028
 30
0.0
 10
96.73983151878381
 20
-157.1056558852028
 30
0.0
 10
96.69297822018441
 20
-157.3891872436388
 30
0.0
 10
96.69297822018441
 20
-157.7340413017123
 30
0.0
 10
96.69297822018441
 20
-158.053401653195
 30
0.0
 10
96.72915172277953
 20
-158.3620822086734
 30
0.0
 10
96.98925643191589
 20
-158.3620822086734
 30
0.0
 10
97.23695879730534
 20
-158.3620822086734
 30
0.0
 10
97.28553464364736
 20
-158.080962417077
 30
0.0
 10
97.28553464364736
 20
-157.7340413017123
 30
0.0
 10
97.28553464364736
 20
-157.4143364406811
 30
0.0
 10
97.24729408376109
 20
-157.1056558852028
 30
0.0
 10
96.98925643191589
 20
-157.1056558852028
 30
0.0
  0
SPLINE
  5
90
330
89
100
AcDbEntity
  8
レイヤー 1
100
AcDbSpline
210
0.0
220
0.0
230
1.0
 70
     9
 71
     3
 72
    29
 73
    25
 74
     0
 42
0.0000000001
 43
0.0000000001
 40
0.0
 40
0.0
 40
0.0
 40
0.0
 40
1.0
 40
1.0
 40
1.0
 40
2.0
 40
2.0
 40
2.0
 40
3.0
 40
3.0
 40
3.0
 40
4.0
 40
4.0
 40
4.0
 40
5.0
 40
5.0
 40
5.0
 40
6.0
 40
6.0
 40
6.0
 40
7.0
 40
7.0
 40
7.0
 40
8.0
 40
8.0
 40
8.0
 40
8.0
 10
97.38716496046224
 20
-158.3283202729179
 30
0.0
 10
97.27898896222541
 20
-158.5377820784211
 30
0.0
 10
97.10570065931733
 20
-158.55673010359
 30
0.0
 10
96.98925643191589
 20
-158.55673010359
 30
0.0
 10
96.82837047275471
 20
-158.55673010359
 30
0.0
 10
96.68677704831095
 20
-158.5102213145391
 30
0.0
 10
96.59169241291806
 20
-158.3283202729179
 30
0.0
 10
96.48799503881203
 20
-158.1336723780013
 30
0.0
 10
96.46904701364316
 20
-157.8969943181646
 30
0.0
 10
96.46904701364316
 20
-157.7340413017123
 30
0.0
 10
96.46904701364316
 20
-157.5900363104289
 30
0.0
 10
96.48592798152089
 20
-157.3381998304571
 30
0.0
 10
96.59169241291806
 20
-157.1394178209582
 30
0.0
 10
96.69952390160638
 20
-156.936501696877
 30
0.0
 10
96.86040986076754
 20
-156.9130750475772
 30
0.0
 10
96.98925643191589
 20
-156.9130750475772
 30
0.0
 10
97.14807533378589
 20
-156.9130750475772
 30
0.0
 10
97.29173581552082
 20
-156.957516779337
 30
0.0
 10
97.38716496046224
 20
-157.1394178209582
 30
0.0
 10
97.48638371043744
 20
-157.3319986585836
 30
0.0
 10
97.50981035973714
 20
-157.5604084892557
 30
0.0
 10
97.50981035973714
 20
-157.7340413017123
 30
0.0
 10
97.50981035973714
 20
-157.9052625473292
 30
0.0
 10
97.48845076772859
 20
-158.1357394352924
 30
0.0
 10
97.38716496046224
 20
-158.3283202729179
 30
0.0
  0
HATCH
  5
91
330
89
100
AcDbEntity
  8
レイヤー 1
 62
   250
420
  2299925
440
 33554687
100
AcDbHatch
 10
0.0
 20
0.0
 30
0.0
210
0.0
220
0.0
230
1.0
  2
SOLID
 70
     1
 71
     1
 91
        2
 92
        1
 93
        1
 72
     4
 94
        3
 73
     0
 74
     0
 95
       17
 96
       13
 40
0.0
 40
0.0
 40
0.0
 40
0.0
 40
1.0
 40
1.0
 40
1.0
 40
2.0
 40
2.0
 40
2.0
 40
3.0
 40
3.0
 40
3.0
 40
4.0
 40
4.0
 40
4.0
 40
4.0
 10
96.98925643191589
 20
-157.1056558852028
 10
96.73983151878381
 20
-157.1056558852028
 10
96.69297822018441
 20
-157.3891872436388
 10
96.69297822018441
 20
-157.7340413017123
 10
96.69297822018441
 20
-158.053401653195
 10
96.72915172277953
 20
-158.3620822086734
 10
96.98925643191589
 20
-158.3620822086734
 10
97.23695879730534
 20
-158.3620822086734
 10
97.28553464364736
 20
-158.080962417077
 10
97.28553464364736
 20
-157.7340413017123
 10
97.28553464364736
 20
-157.4143364406811
 10
97.24729408376109
 20
-157.1056558852028
 10
96.98925643191589
 20
-157.1056558852028
 97
        0
 97
        1
330
8F
 92
        1
 93
        1
 72
     4
 94
        3
 73
     0
 74
     0
 95
       29
 96
       25
 40
0.0
 40
0.0
 40
0.0
 40
0.0
 40
1.0
 40
1.0
 40
1.0
 40
2.0
 40
2.0
 40
2.0
 40
3.0
 40
3.0
 40
3.0
 40
4.0
 40
4.0
 40
4.0
 40
5.0
 40
5.0
 40
5.0
 40
6.0
 40
6.0
 40
6.0
 40
7.0
 40
7.0
 40
7.0
 40
8.0
 40
8.0
 40
8.0
 40
8.0
 10
97.38716496046224
 20
-158.3283202729179
 10
97.27898896222541
 20
-158.5377820784211
 10
97.10570065931733
 20
-158.55673010359
 10
96.98925643191589
 20
-158.55673010359
 10
96.82837047275471
 20
-158.55673010359
 10
96.68677704831095
 20
-158.5102213145391
 10
96.59169241291806
 20
-158.3283202729179
 10
96.48799503881203
 20
-158.1336723780013
 10
96.46904701364316
 20
-157.8969943181646
 10
96.46904701364316
 20
-157.7340413017123
 10
96.46904701364316
 20
-157.5900363104289
 10
96.48592798152089
 20
-157.3381998304571
 10
96.59169241291806
 20
-157.1394178209582
 10
96.69952390160638
 20
-156.936501696877
 10
96.86040986076754
 20
-156.9130750475772
 10
96.98925643191589
 20
-156.9130750475772
 10
97.14807533378589
 20
-156.9130750475772
 10
97.29173581552082
 20
-156.957516779337
 10
97.38716496046224
 20
-157.1394178209582
 10
97.48638371043744
 20
-157.3319986585836
 10
97.50981035973714
 20
-157.5604084892557
 10
97.50981035973714
 20
-157.7340413017123
 10
97.50981035973714
 20
-157.9052625473292
 10
97.48845076772859
 20
-158.1357394352924
 10
97.38716496046224
 20
-158.3283202729179
 97
        0
 97
        1
330
90
 75
     2
 76
     1
 98
        1
 10
0.0
 20
0.0
450
        0
451
        0
460
0.0
461
0.0
452
        0
462
0.0
453
        0
470

  0
ENDBLK
  5
8C
330
89
100
AcDbEntity
  8
0
100
AcDbBlockEnd
  0
BLOCK
  5
97
330
95
100
AcDbEntity
  8
0
100
AcDbBlockBegin
  2
Block_3
 70
     0
 10
0.0
 20
0.0
 30
0.0
  3
Block_3
  1

  0
INSERT
  5
9A
330
95
100
AcDbEntity
  8
レイヤー 1
100
AcDbBlockReference
  2
Block_4
 10
0.0
 20
0.0
 30
0.0
  0
ENDBLK
  5
98
330
95
100
AcDbEntity
  8
0
100
AcDbBlockEnd
  0
BLOCK
  5
9B
330
99
100
AcDbEntity
  8
0
100
AcDbBlockBegin
  2
Block_4
 70
     0
 10
0.0
 20
0.0
 30
0.0
  3
Block_4
  1

  0
SPLINE
  5
9D
330
99
100
AcDbEntity
  8
レイヤー 1
100
AcDbSpline
210
0.0
220
0.0
230
1.0
 70
     9
 71
     3
 72
    53
 73
    49
 74
     0
 42
0.0000000001
 43
0.0000000001
 40
0.0
 40
0.0
 40
0.0
 40
0.0
 40
1.0
 40
1.0
 40
1.0
 40
2.0
 40
2.0
 40
2.0
 40
3.0
 40
3.0
 40
3.0
 40
4.0
 40
4.0
 40
4.0
 40
5.0
 40
5.0
 40
5.0
 40
6.0
 40
6.0
 40
6.0
 40
7.0
 40
7.0
 40
7.0
 40
8.0
 40
8.0
 40
8.0
 40
9.0
 40
9.0
 40
9.0
 40
10.0
 40
10.0
 40
10.0
 40
11.0
 40
11.0
 40
11.0
 40
12.0
 40
12.0
 40
12.0
 40
13.0
 40
13.0
 40
13.0
 40
14.0
 40
14.0
 40
14.0
 40
15.0
 40
15.0
 40
15.0
 40
16.0
 40
16.0
 40
16.0
 40
16.0
 10
116.9857964117257
 20
-150.3391438426235
 30
0.0
 10
116.9857964117257
 20
-150.4176920196872
 30
0.0
 10
116.968915443848
 20
-150.5189778269536
 30
0.0
 10
116.9051811773709
 20
-150.6206081437684
 30
0.0
 10
116.7952826313914
 20
-150.7938964466765
 30
0.0
 10
116.6640244934034
 20
-150.8152560386851
 30
0.0
 10
116.5561930047151
 20
-150.8342040638539
 30
0.0
 10
116.5561930047151
 20
-150.8342040638539
 30
0.0
 10
116.5561930047151
 20
-150.6119954050553
 30
0.0
 10
116.5561930047151
 20
-150.6119954050553
 30
0.0
 10
116.754975014214
 20
-150.5568738772913
 30
0.0
 10
116.7846028353872
 20
-150.4300943634341
 30
0.0
 10
116.7846028353872
 20
-150.3370767853324
 30
0.0
 10
116.7846028353872
 20
-150.1975504181798
 30
0.0
 10
116.685384085412
 20
-150.0449326881832
 30
0.0
 10
116.4524956306091
 20
-150.0449326881832
 30
0.0
 10
116.196525036055
 20
-150.0449326881832
 30
0.0
 10
116.126934107253
 20
-150.2247666725132
 30
0.0
 10
116.126934107253
 20
-150.345345014497
 30
0.0
 10
116.126934107253
 20
-150.3770398929613
 30
0.0
 10
116.126934107253
 20
-150.5189778269536
 30
0.0
 10
116.2557806784013
 20
-150.607861290473
 30
0.0
 10
116.2557806784013
 20
-150.607861290473
 30
0.0
 10
116.2368326532325
 20
-150.7835611602208
 30
0.0
 10
116.2368326532325
 20
-150.7835611602208
 30
0.0
 10
116.2368326532325
 20
-150.7835611602208
 30
0.0
 10
115.3907172020551
 20
-150.662982818237
 30
0.0
 10
115.3907172020551
 20
-150.662982818237
 30
0.0
 10
115.3907172020551
 20
-150.662982818237
 30
0.0
 10
115.3907172020551
 20
-149.8843912385706
 30
0.0
 10
115.3907172020551
 20
-149.8843912385706
 30
0.0
 10
115.3907172020551
 20
-149.8843912385706
 30
0.0
 10
115.5853650969717
 20
-149.8843912385706
 30
0.0
 10
115.5853650969717
 20
-149.8843912385706
 30
0.0
 10
115.5853650969717
 20
-149.8843912385706
 30
0.0
 10
115.5853650969717
 20
-150.5000298017847
 30
0.0
 10
115.5853650969717
 20
-150.5000298017847
 30
0.0
 10
115.5853650969717
 20
-150.5000298017847
 30
0.0
 10
116.0084228225604
 20
-150.5654866160045
 30
0.0
 10
116.0084228225604
 20
-150.5654866160045
 30
0.0
 10
115.9743163772564
 20
-150.504163916367
 30
0.0
 10
115.9343532696275
 20
-150.4218261342695
 30
0.0
 10
115.9343532696275
 20
-150.3033148495769
 30
0.0
 10
115.9343532696275
 20
-150.049411312314
 30
0.0
 10
116.120388425831
 20
-149.8123887429288
 30
0.0
 10
116.4335476054402
 20
-149.8123887429288
 30
0.0
 10
116.7508408996317
 20
-149.8123887429288
 30
0.0
 10
116.9857964117257
 20
-150.0366644590186
 30
0.0
 10
116.9857964117257
 20
-150.3391438426235
 30
0.0
  0
HATCH
  5
9E
330
99
100
AcDbEntity
  8
レイヤー 1
 62
   250
420
  2299925
440
 33554687
100
AcDbHatch
 10
0.0
 20
0.0
 30
0.0
210
0.0
220
0.0
230
1.0
  2
SOLID
 70
     1
 71
     1
 91
        1
 92
        1
 93
        1
 72
     4
 94
        3
 73
     0
 74
     0
 95
       53
 96
       49
 40
0.0
 40
0.0
 40
0.0
 40
0.0
 40
1.0
 40
1.0
 40
1.0
 40
2.0
 40
2.0
 40
2.0
 40
3.0
 40
3.0
 40
3.0
 40
4.0
 40
4.0
 40
4.0
 40
5.0
 40
5.0
 40
5.0
 40
6.0
 40
6.0
 40
6.0
 40
7.0
 40
7.0
 40
7.0
 40
8.0
 40
8.0
 40
8.0
 40
9.0
 40
9.0
 40
9.0
 40
10.0
 40
10.0
 40
10.0
 40
11.0
 40
11.0
 40
11.0
 40
12.0
 40
12.0
 40
12.0
 40
13.0
 40
13.0
 40
13.0
 40
14.0
 40
14.0
 40
14.0
 40
15.0
 40
15.0
 40
15.0
 40
16.0
 40
16.0
 40
16.0
 40
16.0
 10
116.9857964117257
 20
-150.3391438426235
 10
116.9857964117257
 20
-150.4176920196872
 10
116.968915443848
 20
-150.5189778269536
 10
116.9051811773709
 20
-150.6206081437684
 10
116.7952826313914
 20
-150.7938964466765
 10
116.6640244934034
 20
-150.8152560386851
 10
116.5561930047151
 20
-150.8342040638539
 10
116.5561930047151
 20
-150.8342040638539
 10
116.5561930047151
 20
-150.6119954050553
 10
116.5561930047151
 20
-150.6119954050553
 10
116.754975014214
 20
-150.5568738772913
 10
116.7846028353872
 20
-150.4300943634341
 10
116.7846028353872
 20
-150.3370767853324
 10
116.7846028353872
 20
-150.1975504181798
 10
116.685384085412
 20
-150.0449326881832
 10
116.4524956306091
 20
-150.0449326881832
 10
116.196525036055
 20
-150.0449326881832
 10
116.126934107253
 20
-150.2247666725132
 10
116.126934107253
 20
-150.345345014497
 10
116.126934107253
 20
-150.3770398929613
 10
116.126934107253
 20
-150.5189778269536
 10
116.2557806784013
 20
-150.607861290473
 10
116.2557806784013
 20
-150.607861290473
 10
116.2368326532325
 20
-150.7835611602208
 10
116.2368326532325
 20
-150.7835611602208
 10
116.2368326532325
 20
-150.7835611602208
 10
115.3907172020551
 20
-150.662982818237
 10
115.3907172020551
 20
-150.662982818237
 10
115.3907172020551
 20
-150.662982818237
 10
115.3907172020551
 20
-149.8843912385706
 10
115.3907172020551
 20
-149.8843912385706
 10
115.3907172020551
 20
-149.8843912385706
 10
115.5853650969717
 20
-149.8843912385706
 10
115.5853650969717
 20
-149.8843912385706
 10
115.5853650969717
 20
-149.8843912385706
 10
115.5853650969717
 20
-150.5000298017847
 10
115.5853650969717
 20
-150.5000298017847
 10
115.5853650969717
 20
-150.5000298017847
 10
116.0084228225604
 20
-150.5654866160045
 10
116.0084228225604
 20
-150.5654866160045
 10
115.9743163772564
 20
-150.504163916367
 10
115.9343532696275
 20
-150.4218261342695
 10
115.9343532696275
 20
-150.3033148495769
 10
115.9343532696275
 20
-150.049411312314
 10
116.120388425831
 20
-149.8123887429288
 10
116.4335476054402
 20
-149.8123887429288
 10
116.7508408996317
 20
-149.8123887429288
 10
116.9857964117257
 20
-150.0366644590186
 10
116.9857964117257
 20
-150.3391438426235
 97
        0
 97
        1
330
9D
 75
     2
 76
     1
 98
        1
 10
0.0
 20
0.0
450
        0
451
        0
460
0.0
461
0.0
452
        0
462
0.0
453
        0
470

  0
SPLINE
  5
9F
330
99
100
AcDbEntity
  8
レイヤー 1
100
AcDbSpline
210
0.0
220
0.0
230
1.0
 70
    11
 71
     3
 72
    17
 73
    13
 74
     0
 42
0.0000000001
 43
0.0000000001
 40
0.0
 40
0.0
 40
0.0
 40
0.0
 40
1.0
 40
1.0
 40
1.0
 40
2.0
 40
2.0
 40
2.0
 40
3.0
 40
3.0
 40
3.0
 40
4.0
 40
4.0
 40
4.0
 40
4.0
 10
116.9348089985441
 20
-149.5832898931597
 30
0.0
 10
116.9348089985441
 20
-149.5832898931597
 30
0.0
 10
116.6833170281208
 20
-149.5832898931597
 30
0.0
 10
116.6833170281208
 20
-149.5832898931597
 30
0.0
 10
116.6833170281208
 20
-149.5832898931597
 30
0.0
 10
116.6833170281208
 20
-149.3317979227365
 30
0.0
 10
116.6833170281208
 20
-149.3317979227365
 30
0.0
 10
116.6833170281208
 20
-149.3317979227365
 30
0.0
 10
116.9348089985441
 20
-149.3317979227365
 30
0.0
 10
116.9348089985441
 20
-149.3317979227365
 30
0.0
 10
116.9348089985441
 20
-149.3317979227365
 30
0.0
 10
116.9348089985441
 20
-149.5832898931597
 30
0.0
 10
116.9348089985441
 20
-149.5832898931597
 30
0.0
  0
HATCH
  5
A0
330
99
100
AcDbEntity
  8
レイヤー 1
 62
   250
420
  2299925
440
 33554687
100
AcDbHatch
 10
0.0
 20
0.0
 30
0.0
210
0.0
220
0.0
230
1.0
  2
SOLID
 70
     1
 71
     1
 91
        1
 92
        1
 93
        1
 72
     4
 94
        3
 73
     0
 74
     0
 95
       17
 96
       13
 40
0.0
 40
0.0
 40
0.0
 40
0.0
 40
1.0
 40
1.0
 40
1.0
 40
2.0
 40
2.0
 40
2.0
 40
3.0
 40
3.0
 40
3.0
 40
4.0
 40
4.0
 40
4.0
 40
4.0
 10
116.9348089985441
 20
-149.5832898931597
 10
116.9348089985441
 20
-149.5832898931597
 10
116.6833170281208
 20
-149.5832898931597
 10
116.6833170281208
 20
-149.5832898931597
 10
116.6833170281208
 20
-149.5832898931597
 10
116.6833170281208
 20
-149.3317979227365
 10
116.6833170281208
 20
-149.3317979227365
 10
116.6833170281208
 20
-149.3317979227365
 10
116.9348089985441
 20
-149.3317979227365
 10
116.9348089985441
 20
-149.3317979227365
 10
116.9348089985441
 20
-149.3317979227365
 10
116.9348089985441
 20
-149.5832898931597
 10
116.9348089985441
 20
-149.5832898931597
 97
        0
 97
        1
330
9F
 75
     2
 76
     1
 98
        1
 10
0.0
 20
0.0
450
        0
451
        0
460
0.0
461
0.0
452
        0
462
0.0
453
        0
470

  0
SPLINE
  5
A1
330
99
100
AcDbEntity
  8
レイヤー 1
100
AcDbSpline
210
0.0
220
0.0
230
1.0
 70
     9
 71
     3
 72
    62
 73
    58
 74
     0
 42
0.0000000001
 43
0.0000000001
 40
0.0
 40
0.0
 40
0.0
 40
0.0
 40
1.0
 40
1.0
 40
1.0
 40
2.0
 40
2.0
 40
2.0
 40
3.0
 40
3.0
 40
3.0
 40
4.0
 40
4.0
 40
4.0
 40
5.0
 40
5.0
 40
5.0
 40
6.0
 40
6.0
 40
6.0
 40
7.0
 40
7.0
 40
7.0
 40
8.0
 40
8.0
 40
8.0
 40
9.0
 40
9.0
 40
9.0
 40
10.0
 40
10.0
 40
10.0
 40
11.0
 40
11.0
 40
11.0
 40
12.0
 40
12.0
 40
12.0
 40
13.0
 40
13.0
 40
13.0
 40
14.0
 40
14.0
 40
14.0
 40
15.0
 40
15.0
 40
15.0
 40
16.0
 40
16.0
 40
16.0
 40
17.0
 40
17.0
 40
17.0
 40
18.0
 40
18.0
 40
18.0
 40
19.0
 40
19.0
 40
19.0
 40
19.0
 10
116.9857964117257
 20
-148.6035047371547
 30
0.0
 10
116.9857964117257
 20
-148.6987616273218
 30
0.0
 10
116.9644368197172
 20
-148.9166639167639
 30
0.0
 10
116.7784016635137
 20
-149.0413763733299
 30
0.0
 10
116.6660915506946
 20
-149.1154459262628
 30
0.0
 10
116.5668728007194
 20
-149.1195800408451
 30
0.0
 10
116.4821234517822
 20
-149.1237141554274
 30
0.0
 10
116.4821234517822
 20
-149.1237141554274
 30
0.0
 10
116.4821234517822
 20
-148.9039170634685
 30
0.0
 10
116.4821234517822
 20
-148.9039170634685
 30
0.0
 10
116.5561930047151
 20
-148.9018500061773
 30
0.0
 10
116.7911485168091
 20
-148.891170210173
 30
0.0
 10
116.7911485168091
 20
-148.607638851737
 30
0.0
 10
116.7911485168091
 20
-148.4701795418755
 30
0.0
 10
116.7212130784586
 20
-148.3179063214274
 30
0.0
 10
116.4928032477865
 20
-148.3179063214274
 30
0.0
 10
116.3763590203851
 20
-148.3179063214274
 30
0.0
 10
116.327783174043
 20
-148.3559746265395
 30
0.0
 10
116.2960882955787
 20
-148.3876695050037
 30
0.0
 10
116.2220187426459
 20
-148.4617390579366
 30
0.0
 10
116.2092718893504
 20
-148.5781832853381
 30
0.0
 10
116.2092718893504
 20
-148.6331325583278
 30
0.0
 10
116.2092718893504
 20
-148.6520805834967
 30
0.0
 10
116.2113389466416
 20
-148.6880818313175
 30
0.0
 10
116.2154730612239
 20
-148.7156425951996
 30
0.0
 10
116.2154730612239
 20
-148.7156425951996
 30
0.0
 10
116.0211696758558
 20
-148.7156425951996
 30
0.0
 10
116.0211696758558
 20
-148.7156425951996
 30
0.0
 10
116.0273708477292
 20
-148.6775742900875
 30
0.0
 10
116.0294379050204
 20
-148.6351996156189
 30
0.0
 10
116.0294379050204
 20
-148.6288261889712
 30
0.0
 10
116.0294379050204
 20
-148.5633693747515
 30
0.0
 10
116.0084228225604
 20
-148.3644151104783
 30
0.0
 10
115.7714002531752
 20
-148.3644151104783
 30
0.0
 10
115.5936333261363
 20
-148.3644151104783
 30
0.0
 10
115.5385117983723
 20
-148.4956732484663
 30
0.0
 10
115.5385117983723
 20
-148.6055717944458
 30
0.0
 10
115.5385117983723
 20
-148.8699828729387
 30
0.0
 10
115.7714002531752
 20
-148.8784233568776
 30
0.0
 10
115.8434027488169
 20
-148.8825574714599
 30
0.0
 10
115.8434027488169
 20
-148.8825574714599
 30
0.0
 10
115.8434027488169
 20
-149.0858181050896
 30
0.0
 10
115.8434027488169
 20
-149.0858181050896
 30
0.0
 10
115.7183457827023
 20
-149.077549875925
 30
0.0
 10
115.3417968461645
 20
-149.0499891120431
 30
0.0
 10
115.3417968461645
 20
-148.5929971959247
 30
0.0
 10
115.3417968461645
 20
-148.3687214798349
 30
0.0
 10
115.4689208695703
 20
-148.1275647958674
 30
0.0
 10
115.7648545717532
 20
-148.1275647958674
 30
0.0
 10
115.9512342375052
 20
-148.1275647958674
 30
0.0
 10
116.0335720196027
 20
-148.2226494312603
 30
0.0
 10
116.0948947192401
 20
-148.322212690784
 30
0.0
 10
116.1224554831221
 20
-148.2607177363723
 30
0.0
 10
116.203070717477
 20
-148.0788166947511
 30
0.0
 10
116.4800563944911
 20
-148.0788166947511
 30
0.0
 10
116.8187092806912
 20
-148.0788166947511
 30
0.0
 10
116.9857964117257
 20
-148.3263468053663
 30
0.0
 10
116.9857964117257
 20
-148.6035047371547
 30
0.0
  0
HATCH
  5
A2
330
99
100
AcDbEntity
  8
レイヤー 1
 62
   250
420
  2299925
440
 33554687
100
AcDbHatch
 10
0.0
 20
0.0
 30
0.0
210
0.0
220
0.0
230
1.0
  2
SOLID
 70
     1
 71
     1
 91
        1
 92
        1
 93
        1
 72
     4
 94
        3
 73
     0
 74
     0
 95
       62
 96
       58
 40
0.0
 40
0.0
 40
0.0
 40
0.0
 40
1.0
 40
1.0
 40
1.0
 40
2.0
 40
2.0
 40
2.0
 40
3.0
 40
3.0
 40
3.0
 40
4.0
 40
4.0
 40
4.0
 40
5.0
 40
5.0
 40
5.0
 40
6.0
 40
6.0
 40
6.0
 40
7.0
 40
7.0
 40
7.0
 40
8.0
 40
8.0
 40
8.0
 40
9.0
 40
9.0
 40
9.0
 40
10.0
 40
10.0
 40
10.0
 40
11.0
 40
11.0
 40
11.0
 40
12.0
 40
12.0
 40
12.0
 40
13.0
 40
13.0
 40
13.0
 40
14.0
 40
14.0
 40
14.0
 40
15.0
 40
15.0
 40
15.0
 40
16.0
 40
16.0
 40
16.0
 40
17.0
 40
17.0
 40
17.0
 40
18.0
 40
18.0
 40
18.0
 40
19.0
 40
19.0
 40
19.0
 40
19.0
 10
116.9857964117257
 20
-148.6035047371547
 10
116.9857964117257
 20
-148.6987616273218
 10
116.9644368197172
 20
-148.9166639167639
 10
116.7784016635137
 20
-149.0413763733299
 10
116.6660915506946
 20
-149.1154459262628
 10
116.5668728007194
 20
-149.1195800408451
 10
116.4821234517822
 20
-149.1237141554274
 10
116.4821234517822
 20
-149.1237141554274
 10
116.4821234517822
 20
-148.9039170634685
 10
116.4821234517822
 20
-148.9039170634685
 10
116.5561930047151
 20
-148.9018500061773
 10
116.7911485168091
 20
-148.891170210173
 10
116.7911485168091
 20
-148.607638851737
 10
116.7911485168091
 20
-148.4701795418755
 10
116.7212130784586
 20
-148.3179063214274
 10
116.4928032477865
 20
-148.3179063214274
 10
116.3763590203851
 20
-148.3179063214274
 10
116.327783174043
 20
-148.3559746265395
 10
116.2960882955787
 20
-148.3876695050037
 10
116.2220187426459
 20
-148.4617390579366
 10
116.2092718893504
 20
-148.5781832853381
 10
116.2092718893504
 20
-148.6331325583278
 10
116.2092718893504
 20
-148.6520805834967
 10
116.2113389466416
 20
-148.6880818313175
 10
116.2154730612239
 20
-148.7156425951996
 10
116.2154730612239
 20
-148.7156425951996
 10
116.0211696758558
 20
-148.7156425951996
 10
116.0211696758558
 20
-148.7156425951996
 10
116.0273708477292
 20
-148.6775742900875
 10
116.0294379050204
 20
-148.6351996156189
 10
116.0294379050204
 20
-148.6288261889712
 10
116.0294379050204
 20
-148.5633693747515
 10
116.0084228225604
 20
-148.3644151104783
 10
115.7714002531752
 20
-148.3644151104783
 10
115.5936333261363
 20
-148.3644151104783
 10
115.5385117983723
 20
-148.4956732484663
 10
115.5385117983723
 20
-148.6055717944458
 10
115.5385117983723
 20
-148.8699828729387
 10
115.7714002531752
 20
-148.8784233568776
 10
115.8434027488169
 20
-148.8825574714599
 10
115.8434027488169
 20
-148.8825574714599
 10
115.8434027488169
 20
-149.0858181050896
 10
115.8434027488169
 20
-149.0858181050896
 10
115.7183457827023
 20
-149.077549875925
 10
115.3417968461645
 20
-149.0499891120431
 10
115.3417968461645
 20
-148.5929971959247
 10
115.3417968461645
 20
-148.3687214798349
 10
115.4689208695703
 20
-148.1275647958674
 10
115.7648545717532
 20
-148.1275647958674
 10
115.9512342375052
 20
-148.1275647958674
 10
116.0335720196027
 20
-148.2226494312603
 10
116.0948947192401
 20
-148.322212690784
 10
116.1224554831221
 20
-148.2607177363723
 10
116.203070717477
 20
-148.0788166947511
 10
116.4800563944911
 20
-148.0788166947511
 10
116.8187092806912
 20
-148.0788166947511
 10
116.9857964117257
 20
-148.3263468053663
 10
116.9857964117257
 20
-148.6035047371547
 97
        0
 97
        1
330
A1
 75
     2
 76
     1
 98
        1
 10
0.0
 20
0.0
450
        0
451
        0
460
0.0
461
0.0
452
        0
462
0.0
453
        0
470

  0
ENDBLK
  5
9C
330
99
100
AcDbEntity
  8
0
100
AcDbBlockEnd
  0
BLOCK
  5
A5
330
A3
100
AcDbEntity
  8
0
100
AcDbBlockBegin
  2
Block_5
 70
     0
 10
0.0
 20
0.0
 30
0.0
  3
Block_5
  1

  0
SPLINE
  5
A7
330
A3
100
AcDbEntity
  8
レイヤー 1
100
AcDbSpline
210
0.0
220
0.0
230
1.0
 70
     9
 71
     3
 72
    62
 73
    58
 74
     0
 42
0.0000000001
 43
0.0000000001
 40
0.0
 40
0.0
 40
0.0
 40
0.0
 40
1.0
 40
1.0
 40
1.0
 40
2.0
 40
2.0
 40
2.0
 40
3.0
 40
3.0
 40
3.0
 40
4.0
 40
4.0
 40
4.0
 40
5.0
 40
5.0
 40
5.0
 40
6.0
 40
6.0
 40
6.0
 40
7.0
 40
7.0
 40
7.0
 40
8.0
 40
8.0
 40
8.0
 40
9.0
 40
9.0
 40
9.0
 40
10.0
 40
10.0
 40
10.0
 40
11.0
 40
11.0
 40
11.0
 40
12.0
 40
12.0
 40
12.0
 40
13.0
 40
13.0
 40
13.0
 40
14.0
 40
14.0
 40
14.0
 40
15.0
 40
15.0
 40
15.0
 40
16.0
 40
16.0
 40
16.0
 40
17.0
 40
17.0
 40
17.0
 40
18.0
 40
18.0
 40
18.0
 40
19.0
 40
19.0
 40
19.0
 40
19.0
 10
116.9857964117257
 20
-153.6078504390286
 30
0.0
 10
116.9857964117257
 20
-153.7029350744215
 30
0.0
 10
116.9644368197172
 20
-153.9210096186378
 30
0.0
 10
116.7784016635137
 20
-154.0457220752038
 30
0.0
 10
116.6660915506946
 20
-154.1197916281367
 30
0.0
 10
116.5668728007194
 20
-154.123925742719
 30
0.0
 10
116.4821234517822
 20
-154.1280598573013
 30
0.0
 10
116.4821234517822
 20
-154.1280598573013
 30
0.0
 10
116.4821234517822
 20
-153.9082627653424
 30
0.0
 10
116.4821234517822
 20
-153.9082627653424
 30
0.0
 10
116.5561930047151
 20
-153.9061957080512
 30
0.0
 10
116.7911485168091
 20
-153.8955159120469
 30
0.0
 10
116.7911485168091
 20
-153.6119845536109
 30
0.0
 10
116.7911485168091
 20
-153.4745252437494
 30
0.0
 10
116.7212130784586
 20
-153.3222520233014
 30
0.0
 10
116.4928032477865
 20
-153.3222520233014
 30
0.0
 10
116.3763590203851
 20
-153.3222520233014
 30
0.0
 10
116.327783174043
 20
-153.3604925831876
 30
0.0
 10
116.2960882955787
 20
-153.3921874616519
 30
0.0
 10
116.2220187426459
 20
-153.4659125050363
 30
0.0
 10
116.2092718893504
 20
-153.5823567324377
 30
0.0
 10
116.2092718893504
 20
-153.6374782602017
 30
0.0
 10
116.2092718893504
 20
-153.6564262853706
 30
0.0
 10
116.2113389466416
 20
-153.6925997879657
 30
0.0
 10
116.2154730612239
 20
-153.7201605518477
 30
0.0
 10
116.2154730612239
 20
-153.7201605518477
 30
0.0
 10
116.0211696758558
 20
-153.7201605518477
 30
0.0
 10
116.0211696758558
 20
-153.7201605518477
 30
0.0
 10
116.0273708477292
 20
-153.6819199919615
 30
0.0
 10
116.0294379050204
 20
-153.6395453174929
 30
0.0
 10
116.0294379050204
 20
-153.6333441456194
 30
0.0
 10
116.0294379050204
 20
-153.5678873313997
 30
0.0
 10
116.0084228225604
 20
-153.3687608123522
 30
0.0
 10
115.7714002531752
 20
-153.3687608123522
 30
0.0
 10
115.5936333261363
 20
-153.3687608123522
 30
0.0
 10
115.5385117983723
 20
-153.5000189503403
 30
0.0
 10
115.5385117983723
 20
-153.6099174963197
 30
0.0
 10
115.5385117983723
 20
-153.8745008295869
 30
0.0
 10
115.7714002531752
 20
-153.8827690587515
 30
0.0
 10
115.8434027488169
 20
-153.8869031733338
 30
0.0
 10
115.8434027488169
 20
-153.8869031733338
 30
0.0
 10
115.8434027488169
 20
-154.0901638069636
 30
0.0
 10
115.8434027488169
 20
-154.0901638069636
 30
0.0
 10
115.7183457827023
 20
-154.081895577799
 30
0.0
 10
115.3417968461645
 20
-154.0543348139169
 30
0.0
 10
115.3417968461645
 20
-153.5975151525728
 30
0.0
 10
115.3417968461645
 20
-153.3728949269345
 30
0.0
 10
115.4689208695703
 20
-153.131738242967
 30
0.0
 10
115.7648545717532
 20
-153.131738242967
 30
0.0
 10
115.9512342375052
 20
-153.131738242967
 30
0.0
 10
116.0335720196027
 20
-153.22682287836
 30
0.0
 10
116.0948947192401
 20
-153.3267306474322
 30
0.0
 10
116.1224554831221
 20
-153.2650634382462
 30
0.0
 10
116.203070717477
 20
-153.083162396625
 30
0.0
 10
116.4800563944911
 20
-153.083162396625
 30
0.0
 10
116.8187092806912
 20
-153.083162396625
 30
0.0
 10
116.9857964117257
 20
-153.3308647620145
 30
0.0
 10
116.9857964117257
 20
-153.6078504390286
 30
0.0
  0
HATCH
  5
A8
330
A3
100
AcDbEntity
  8
レイヤー 1
 62
   250
420
  2299925
440
 33554687
100
AcDbHatch
 10
0.0
 20
0.0
 30
0.0
210
0.0
220
0.0
230
1.0
  2
SOLID
 70
     1
 71
     1
 91
        1
 92
        1
 93
        1
 72
     4
 94
        3
 73
     0
 74
     0
 95
       62
 96
       58
 40
0.0
 40
0.0
 40
0.0
 40
0.0
 40
1.0
 40
1.0
 40
1.0
 40
2.0
 40
2.0
 40
2.0
 40
3.0
 40
3.0
 40
3.0
 40
4.0
 40
4.0
 40
4.0
 40
5.0
 40
5.0
 40
5.0
 40
6.0
 40
6.0
 40
6.0
 40
7.0
 40
7.0
 40
7.0
 40
8.0
 40
8.0
 40
8.0
 40
9.0
 40
9.0
 40
9.0
 40
10.0
 40
10.0
 40
10.0
 40
11.0
 40
11.0
 40
11.0
 40
12.0
 40
12.0
 40
12.0
 40
13.0
 40
13.0
 40
13.0
 40
14.0
 40
14.0
 40
14.0
 40
15.0
 40
15.0
 40
15.0
 40
16.0
 40
16.0
 40
16.0
 40
17.0
 40
17.0
 40
17.0
 40
18.0
 40
18.0
 40
18.0
 40
19.0
 40
19.0
 40
19.0
 40
19.0
 10
116.9857964117257
 20
-153.6078504390286
 10
116.9857964117257
 20
-153.7029350744215
 10
116.9644368197172
 20
-153.9210096186378
 10
116.7784016635137
 20
-154.0457220752038
 10
116.6660915506946
 20
-154.1197916281367
 10
116.5668728007194
 20
-154.123925742719
 10
116.4821234517822
 20
-154.1280598573013
 10
116.4821234517822
 20
-154.1280598573013
 10
116.4821234517822
 20
-153.9082627653424
 10
116.4821234517822
 20
-153.9082627653424
 10
116.5561930047151
 20
-153.9061957080512
 10
116.7911485168091
 20
-153.8955159120469
 10
116.7911485168091
 20
-153.6119845536109
 10
116.7911485168091
 20
-153.4745252437494
 10
116.7212130784586
 20
-153.3222520233014
 10
116.4928032477865
 20
-153.3222520233014
 10
116.3763590203851
 20
-153.3222520233014
 10
116.327783174043
 20
-153.3604925831876
 10
116.2960882955787
 20
-153.3921874616519
 10
116.2220187426459
 20
-153.4659125050363
 10
116.2092718893504
 20
-153.5823567324377
 10
116.2092718893504
 20
-153.6374782602017
 10
116.2092718893504
 20
-153.6564262853706
 10
116.2113389466416
 20
-153.6925997879657
 10
116.2154730612239
 20
-153.7201605518477
 10
116.2154730612239
 20
-153.7201605518477
 10
116.0211696758558
 20
-153.7201605518477
 10
116.0211696758558
 20
-153.7201605518477
 10
116.0273708477292
 20
-153.6819199919615
 10
116.0294379050204
 20
-153.6395453174929
 10
116.0294379050204
 20
-153.6333441456194
 10
116.0294379050204
 20
-153.5678873313997
 10
116.0084228225604
 20
-153.3687608123522
 10
115.7714002531752
 20
-153.3687608123522
 10
115.5936333261363
 20
-153.3687608123522
 10
115.5385117983723
 20
-153.5000189503403
 10
115.5385117983723
 20
-153.6099174963197
 10
115.5385117983723
 20
-153.8745008295869
 10
115.7714002531752
 20
-153.8827690587515
 10
115.8434027488169
 20
-153.8869031733338
 10
115.8434027488169
 20
-153.8869031733338
 10
115.8434027488169
 20
-154.0901638069636
 10
115.8434027488169
 20
-154.0901638069636
 10
115.7183457827023
 20
-154.081895577799
 10
115.3417968461645
 20
-154.0543348139169
 10
115.3417968461645
 20
-153.5975151525728
 10
115.3417968461645
 20
-153.3728949269345
 10
115.4689208695703
 20
-153.131738242967
 10
115.7648545717532
 20
-153.131738242967
 10
115.9512342375052
 20
-153.131738242967
 10
116.0335720196027
 20
-153.22682287836
 10
116.0948947192401
 20
-153.3267306474322
 10
116.1224554831221
 20
-153.2650634382462
 10
116.203070717477
 20
-153.083162396625
 10
116.4800563944911
 20
-153.083162396625
 10
116.8187092806912
 20
-153.083162396625
 10
116.9857964117257
 20
-153.3308647620145
 10
116.9857964117257
 20
-153.6078504390286
 97
        0
 97
        1
330
A7
 75
     2
 76
     1
 98
        1
 10
0.0
 20
0.0
450
        0
451
        0
460
0.0
461
0.0
452
        0
462
0.0
453
        0
470

  0
ENDBLK
  5
A6
330
A3
100
AcDbEntity
  8
0
100
AcDbBlockEnd
  0
BLOCK
  5
AB
330
A9
100
AcDbEntity
  8
0
100
AcDbBlockBegin
  2
Block_6
 70
     0
 10
0.0
 20
0.0
 30
0.0
  3
Block_6
  1

  0
SPLINE
  5
AD
330
A9
100
AcDbEntity
  8
レイヤー 1
100
AcDbSpline
210
0.0
220
0.0
230
1.0
 70
    11
 71
     3
 72
    26
 73
    22
 74
     0
 42
0.0000000001
 43
0.0000000001
 40
0.0
 40
0.0
 40
0.0
 40
0.0
 40
1.0
 40
1.0
 40
1.0
 40
2.0
 40
2.0
 40
2.0
 40
3.0
 40
3.0
 40
3.0
 40
4.0
 40
4.0
 40
4.0
 40
5.0
 40
5.0
 40
5.0
 40
6.0
 40
6.0
 40
6.0
 40
7.0
 40
7.0
 40
7.0
 40
7.0
 10
116.9348089985441
 20
-142.9854152745835
 30
0.0
 10
116.9348089985441
 20
-142.9854152745835
 30
0.0
 10
115.8306558955215
 20
-142.9854152745835
 30
0.0
 10
115.8306558955215
 20
-142.9854152745835
 30
0.0
 10
115.8306558955215
 20
-142.9854152745835
 30
0.0
 10
115.8306558955215
 20
-143.3154554220704
 30
0.0
 10
115.8306558955215
 20
-143.3154554220704
 30
0.0
 10
115.8306558955215
 20
-143.3154554220704
 30
0.0
 10
115.6825167896557
 20
-143.3154554220704
 30
0.0
 10
115.6825167896557
 20
-143.3154554220704
 30
0.0
 10
115.6677028790692
 20
-142.9833482172923
 30
0.0
 10
115.5047498626168
 20
-142.9368394282415
 30
0.0
 10
115.3907172020551
 20
-142.9072116070683
 30
0.0
 10
115.3907172020551
 20
-142.9072116070683
 30
0.0
 10
115.3907172020551
 20
-142.7611395584937
 30
0.0
 10
115.3907172020551
 20
-142.7611395584937
 30
0.0
 10
115.3907172020551
 20
-142.7611395584937
 30
0.0
 10
116.9348089985441
 20
-142.7611395584937
 30
0.0
 10
116.9348089985441
 20
-142.7611395584937
 30
0.0
 10
116.9348089985441
 20
-142.7611395584937
 30
0.0
 10
116.9348089985441
 20
-142.9854152745835
 30
0.0
 10
116.9348089985441
 20
-142.9854152745835
 30
0.0
  0
HATCH
  5
AE
330
A9
100
AcDbEntity
  8
レイヤー 1
 62
   250
420
  2299925
440
 33554687
100
AcDbHatch
 10
0.0
 20
0.0
 30
0.0
210
0.0
220
0.0
230
1.0
  2
SOLID
 70
     1
 71
     1
 91
        1
 92
        1
 93
        1
 72
     4
 94
        3
 73
     0
 74
     0
 95
       26
 96
       22
 40
0.0
 40
0.0
 40
0.0
 40
0.0
 40
1.0
 40
1.0
 40
1.0
 40
2.0
 40
2.0
 40
2.0
 40
3.0
 40
3.0
 40
3.0
 40
4.0
 40
4.0
 40
4.0
 40
5.0
 40
5.0
 40
5.0
 40
6.0
 40
6.0
 40
6.0
 40
7.0
 40
7.0
 40
7.0
 40
7.0
 10
116.9348089985441
 20
-142.9854152745835
 10
116.9348089985441
 20
-142.9854152745835
 10
115.8306558955215
 20
-142.9854152745835
 10
115.8306558955215
 20
-142.9854152745835
 10
115.8306558955215
 20
-142.9854152745835
 10
115.8306558955215
 20
-143.3154554220704
 10
115.8306558955215
 20
-143.3154554220704
 10
115.8306558955215
 20
-143.3154554220704
 10
115.6825167896557
 20
-143.3154554220704
 10
115.6825167896557
 20
-143.3154554220704
 10
115.6677028790692
 20
-142.9833482172923
 10
115.5047498626168
 20
-142.9368394282415
 10
115.3907172020551
 20
-142.9072116070683
 10
115.3907172020551
 20
-142.9072116070683
 10
115.3907172020551
 20
-142.7611395584937
 10
115.3907172020551
 20
-142.7611395584937
 10
115.3907172020551
 20
-142.7611395584937
 10
116.9348089985441
 20
-142.7611395584937
 10
116.9348089985441
 20
-142.7611395584937
 10
116.9348089985441
 20
-142.7611395584937
 10
116.9348089985441
 20
-142.9854152745835
 10
116.9348089985441
 20
-142.9854152745835
 97
        0
 97
        1
330
AD
 75
     2
 76
     1
 98
        1
 10
0.0
 20
0.0
450
        0
451
        0
460
0.0
461
0.0
452
        0
462
0.0
453
        0
470

  0
ENDBLK
  5
AC
330
A9
100
AcDbEntity
  8
0
100
AcDbBlockEnd
  0
BLOCK
  5
C0
330
BE
100
AcDbEntity
  8
0
100
AcDbBlockBegin
  2
Block_7
 70
     0
 10
0.0
 20
0.0
 30
0.0
  3
Block_7
  1

  0
INSERT
  5
C3
330
BE
100
AcDbEntity
  8
レイヤー 1
100
AcDbBlockReference
  2
Block_8
 10
0.0
 20
0.0
 30
0.0
  0
ENDBLK
  5
C1
330
BE
100
AcDbEntity
  8
0
100
AcDbBlockEnd
  0
BLOCK
  5
C4
330
C2
100
AcDbEntity
  8
0
100
AcDbBlockBegin
  2
Block_8
 70
     0
 10
0.0
 20
0.0
 30
0.0
  3
Block_8
  1

  0
SPLINE
  5
C6
330
C2
100
AcDbEntity
  8
レイヤー 1
100
AcDbSpline
210
0.0
220
0.0
230
1.0
 70
     9
 71
     3
 72
    44
 73
    40
 74
     0
 42
0.0000000001
 43
0.0000000001
 40
0.0
 40
0.0
 40
0.0
 40
0.0
 40
1.0
 40
1.0
 40
1.0
 40
2.0
 40
2.0
 40
2.0
 40
3.0
 40
3.0
 40
3.0
 40
4.0
 40
4.0
 40
4.0
 40
5.0
 40
5.0
 40
5.0
 40
6.0
 40
6.0
 40
6.0
 40
7.0
 40
7.0
 40
7.0
 40
8.0
 40
8.0
 40
8.0
 40
9.0
 40
9.0
 40
9.0
 40
10.0
 40
10.0
 40
10.0
 40
11.0
 40
11.0
 40
11.0
 40
12.0
 40
12.0
 40
12.0
 40
13.0
 40
13.0
 40
13.0
 40
13.0
 10
102.4516275785537
 20
-141.448213669065
 30
0.0
 10
102.2337252891117
 20
-141.607032570935
 30
0.0
 10
102.1405354562357
 20
-141.6811021238679
 30
0.0
 10
102.0919596098937
 20
-141.8247626056028
 30
0.0
 10
102.0919596098937
 20
-141.8247626056028
 30
0.0
 10
102.8703789347858
 20
-141.8247626056028
 30
0.0
 10
102.8703789347858
 20
-141.8247626056028
 30
0.0
 10
102.8703789347858
 20
-141.8247626056028
 30
0.0
 10
102.8703789347858
 20
-142.0300902965237
 30
0.0
 10
102.8703789347858
 20
-142.0300902965237
 30
0.0
 10
102.8703789347858
 20
-142.0300902965237
 30
0.0
 10
101.8423624419873
 20
-142.0300902965237
 30
0.0
 10
101.8423624419873
 20
-142.0300902965237
 30
0.0
 10
101.8740573204516
 20
-141.6724893851548
 30
0.0
 10
101.9396863894456
 20
-141.5942857176396
 30
0.0
 10
102.3246758099223
 20
-141.295940448617
 30
0.0
 10
102.5806464044763
 20
-141.0971584391181
 30
0.0
 10
102.6461032186961
 20
-141.0292900580586
 30
0.0
 10
102.6461032186961
 20
-140.8918307481972
 30
0.0
 10
102.6461032186961
 20
-140.7733194635046
 30
0.0
 10
102.5742729778286
 20
-140.6424058350651
 30
0.0
 10
102.3775580256209
 20
-140.6424058350651
 30
0.0
 10
102.1172810617102
 20
-140.6424058350651
 30
0.0
 10
102.1088405777714
 20
-140.8728827230283
 30
0.0
 10
102.1045342084148
 20
-140.9893269504297
 30
0.0
 10
102.1045342084148
 20
-140.9893269504297
 30
0.0
 10
101.8804307470993
 20
-140.9893269504297
 30
0.0
 10
101.8804307470993
 20
-140.9893269504297
 30
0.0
 10
101.8888712310382
 20
-140.862202927024
 30
0.0
 10
101.8993787722682
 20
-140.7502373237534
 30
0.0
 10
101.9798217518488
 20
-140.6317260390608
 30
0.0
 10
102.0897202978282
 20
-140.4708400798996
 30
0.0
 10
102.275927708806
 20
-140.4370781441442
 30
0.0
 10
102.3923719362074
 20
-140.4370781441442
 30
0.0
 10
102.6695298679958
 20
-140.4370781441442
 30
0.0
 10
102.8767523614336
 20
-140.6210462430565
 30
0.0
 10
102.8767523614336
 20
-140.8938978054883
 30
0.0
 10
102.8767523614336
 20
-141.1226521457089
 30
0.0
 10
102.7604803888064
 20
-141.2218708956841
 30
0.0
 10
102.4516275785537
 20
-141.448213669065
 30
0.0
  0
HATCH
  5
C7
330
C2
100
AcDbEntity
  8
レイヤー 1
 62
   250
420
  2299925
440
 33554687
100
AcDbHatch
 10
0.0
 20
0.0
 30
0.0
210
0.0
220
0.0
230
1.0
  2
SOLID
 70
     1
 71
     1
 91
        1
 92
        1
 93
        1
 72
     4
 94
        3
 73
     0
 74
     0
 95
       44
 96
       40
 40
0.0
 40
0.0
 40
0.0
 40
0.0
 40
1.0
 40
1.0
 40
1.0
 40
2.0
 40
2.0
 40
2.0
 40
3.0
 40
3.0
 40
3.0
 40
4.0
 40
4.0
 40
4.0
 40
5.0
 40
5.0
 40
5.0
 40
6.0
 40
6.0
 40
6.0
 40
7.0
 40
7.0
 40
7.0
 40
8.0
 40
8.0
 40
8.0
 40
9.0
 40
9.0
 40
9.0
 40
10.0
 40
10.0
 40
10.0
 40
11.0
 40
11.0
 40
11.0
 40
12.0
 40
12.0
 40
12.0
 40
13.0
 40
13.0
 40
13.0
 40
13.0
 10
102.4516275785537
 20
-141.448213669065
 10
102.2337252891117
 20
-141.607032570935
 10
102.1405354562357
 20
-141.6811021238679
 10
102.0919596098937
 20
-141.8247626056028
 10
102.0919596098937
 20
-141.8247626056028
 10
102.8703789347858
 20
-141.8247626056028
 10
102.8703789347858
 20
-141.8247626056028
 10
102.8703789347858
 20
-141.8247626056028
 10
102.8703789347858
 20
-142.0300902965237
 10
102.8703789347858
 20
-142.0300902965237
 10
102.8703789347858
 20
-142.0300902965237
 10
101.8423624419873
 20
-142.0300902965237
 10
101.8423624419873
 20
-142.0300902965237
 10
101.8740573204516
 20
-141.6724893851548
 10
101.9396863894456
 20
-141.5942857176396
 10
102.3246758099223
 20
-141.295940448617
 10
102.5806464044763
 20
-141.0971584391181
 10
102.6461032186961
 20
-141.0292900580586
 10
102.6461032186961
 20
-140.8918307481972
 10
102.6461032186961
 20
-140.7733194635046
 10
102.5742729778286
 20
-140.6424058350651
 10
102.3775580256209
 20
-140.6424058350651
 10
102.1172810617102
 20
-140.6424058350651
 10
102.1088405777714
 20
-140.8728827230283
 10
102.1045342084148
 20
-140.9893269504297
 10
102.1045342084148
 20
-140.9893269504297
 10
101.8804307470993
 20
-140.9893269504297
 10
101.8804307470993
 20
-140.9893269504297
 10
101.8888712310382
 20
-140.862202927024
 10
101.8993787722682
 20
-140.7502373237534
 10
101.9798217518488
 20
-140.6317260390608
 10
102.0897202978282
 20
-140.4708400798996
 10
102.275927708806
 20
-140.4370781441442
 10
102.3923719362074
 20
-140.4370781441442
 10
102.6695298679958
 20
-140.4370781441442
 10
102.8767523614336
 20
-140.6210462430565
 10
102.8767523614336
 20
-140.8938978054883
 10
102.8767523614336
 20
-141.1226521457089
 10
102.7604803888064
 20
-141.2218708956841
 10
102.4516275785537
 20
-141.448213669065
 97
        0
 97
        1
330
C6
 75
     2
 76
     1
 98
        1
 10
0.0
 20
0.0
450
        0
451
        0
460
0.0
461
0.0
452
        0
462
0.0
453
        0
470

  0
SPLINE
  5
C8
330
C2
100
AcDbEntity
  8
レイヤー 1
100
AcDbSpline
210
0.0
220
0.0
230
1.0
 70
    11
 71
     3
 72
    26
 73
    22
 74
     0
 42
0.0000000001
 43
0.0000000001
 40
0.0
 40
0.0
 40
0.0
 40
0.0
 40
1.0
 40
1.0
 40
1.0
 40
2.0
 40
2.0
 40
2.0
 40
3.0
 40
3.0
 40
3.0
 40
4.0
 40
4.0
 40
4.0
 40
5.0
 40
5.0
 40
5.0
 40
6.0
 40
6.0
 40
6.0
 40
7.0
 40
7.0
 40
7.0
 40
7.0
 10
103.4867065170971
 20
-142.0300902965237
 30
0.0
 10
103.4867065170971
 20
-142.0300902965237
 30
0.0
 10
103.4867065170971
 20
-140.9259371935011
 30
0.0
 10
103.4867065170971
 20
-140.9259371935011
 30
0.0
 10
103.4867065170971
 20
-140.9259371935011
 30
0.0
 10
103.1566663696101
 20
-140.9259371935011
 30
0.0
 10
103.1566663696101
 20
-140.9259371935011
 30
0.0
 10
103.1566663696101
 20
-140.9259371935011
 30
0.0
 10
103.1566663696101
 20
-140.7777980876354
 30
0.0
 10
103.1566663696101
 20
-140.7777980876354
 30
0.0
 10
103.4887735743882
 20
-140.7629841770488
 30
0.0
 10
103.5352823634391
 20
-140.6000311605965
 30
0.0
 10
103.5649101846122
 20
-140.4856539904862
 30
0.0
 10
103.5649101846122
 20
-140.4856539904862
 30
0.0
 10
103.7109822331868
 20
-140.4856539904862
 30
0.0
 10
103.7109822331868
 20
-140.4856539904862
 30
0.0
 10
103.7109822331868
 20
-140.4856539904862
 30
0.0
 10
103.7109822331868
 20
-142.0300902965237
 30
0.0
 10
103.7109822331868
 20
-142.0300902965237
 30
0.0
 10
103.7109822331868
 20
-142.0300902965237
 30
0.0
 10
103.4867065170971
 20
-142.0300902965237
 30
0.0
 10
103.4867065170971
 20
-142.0300902965237
 30
0.0
  0
HATCH
  5
C9
330
C2
100
AcDbEntity
  8
レイヤー 1
 62
   250
420
  2299925
440
 33554687
100
AcDbHatch
 10
0.0
 20
0.0
 30
0.0
210
0.0
220
0.0
230
1.0
  2
SOLID
 70
     1
 71
     1
 91
        1
 92
        1
 93
        1
 72
     4
 94
        3
 73
     0
 74
     0
 95
       26
 96
       22
 40
0.0
 40
0.0
 40
0.0
 40
0.0
 40
1.0
 40
1.0
 40
1.0
 40
2.0
 40
2.0
 40
2.0
 40
3.0
 40
3.0
 40
3.0
 40
4.0
 40
4.0
 40
4.0
 40
5.0
 40
5.0
 40
5.0
 40
6.0
 40
6.0
 40
6.0
 40
7.0
 40
7.0
 40
7.0
 40
7.0
 10
103.4867065170971
 20
-142.0300902965237
 10
103.4867065170971
 20
-142.0300902965237
 10
103.4867065170971
 20
-140.9259371935011
 10
103.4867065170971
 20
-140.9259371935011
 10
103.4867065170971
 20
-140.9259371935011
 10
103.1566663696101
 20
-140.9259371935011
 10
103.1566663696101
 20
-140.9259371935011
 10
103.1566663696101
 20
-140.9259371935011
 10
103.1566663696101
 20
-140.7777980876354
 10
103.1566663696101
 20
-140.7777980876354
 10
103.4887735743882
 20
-140.7629841770488
 10
103.5352823634391
 20
-140.6000311605965
 10
103.5649101846122
 20
-140.4856539904862
 10
103.5649101846122
 20
-140.4856539904862
 10
103.7109822331868
 20
-140.4856539904862
 10
103.7109822331868
 20
-140.4856539904862
 10
103.7109822331868
 20
-140.4856539904862
 10
103.7109822331868
 20
-142.0300902965237
 10
103.7109822331868
 20
-142.0300902965237
 10
103.7109822331868
 20
-142.0300902965237
 10
103.4867065170971
 20
-142.0300902965237
 10
103.4867065170971
 20
-142.0300902965237
 97
        0
 97
        1
330
C8
 75
     2
 76
     1
 98
        1
 10
0.0
 20
0.0
450
        0
451
        0
460
0.0
461
0.0
452
        0
462
0.0
453
        0
470

  0
ENDBLK
  5
C5
330
C2
100
AcDbEntity
  8
0
100
AcDbBlockEnd
  0
BLOCK
  5
CC
330
CA
100
AcDbEntity
  8
0
100
AcDbBlockBegin
  2
Block_9
 70
     0
 10
0.0
 20
0.0
 30
0.0
  3
Block_9
  1

  0
LINE
  5
CE
330
CA
100
AcDbEntity
  8
レイヤー 1
  6
AI-Linetype-0
 62
   154
420
    23468
370
    25
100
AcDbLine
 10
112.4256982859327
 20
-145.1693970829188
 30
0.0
 11
93.42927940360473
 21
-145.1693970829188
 31
0.0
  0
LINE
  5
D0
330
CA
100
AcDbEntity
  8
レイヤー 1
 62
   250
420
  2299925
370
     9
100
AcDbLine
 10
104.3701634756134
 20
-144.5882614797246
 30
0.0
 11
108.7088140858422
 21
-140.2496389949651
 31
0.0
  0
LWPOLYLINE
  5
D1
330
CA
100
AcDbEntity
  8
レイヤー 1
 62
   250
420
  2299925
370
     9
100
AcDbPolyline
 90
        3
 70
     0
 43
0.0
 10
104.8704023518181
 20
-143.7221567796438
 10
104.3701634756134
 20
-144.5882614797246
 10
105.2362700389273
 20
-144.0880226036755
  0
INSERT
  5
D3
330
CA
100
AcDbEntity
  8
レイヤー 1
100
AcDbBlockReference
  2
Block_10
 10
0.0
 20
0.0
 30
0.0
  0
ENDBLK
  5
CD
330
CA
100
AcDbEntity
  8
0
100
AcDbBlockEnd
  0
BLOCK
  5
D4
330
D2
100
AcDbEntity
  8
0
100
AcDbBlockBegin
  2
Block_10
 70
     0
 10
0.0
 20
0.0
 30
0.0
  3
Block_10
  1

  0
INSERT
  5
D7
330
D2
100
AcDbEntity
  8
レイヤー 1
100
AcDbBlockReference
  2
Block_11
 10
0.0
 20
0.0
 30
0.0
  0
ENDBLK
  5
D5
330
D2
100
AcDbEntity
  8
0
100
AcDbBlockEnd
  0
BLOCK
  5
D8
330
D6
100
AcDbEntity
  8
0
100
AcDbBlockBegin
  2
Block_11
 70
     0
 10
0.0
 20
0.0
 30
0.0
  3
Block_11
  1

  0
SPLINE
  5
DA
330
D6
100
AcDbEntity
  8
レイヤー 1
100
AcDbSpline
210
0.0
220
0.0
230
1.0
 70
     9
 71
     3
 72
    17
 73
    13
 74
     0
 42
0.0000000001
 43
0.0000000001
 40
0.0
 40
0.0
 40
0.0
 40
0.0
 40
1.0
 40
1.0
 40
1.0
 40
2.0
 40
2.0
 40
2.0
 40
3.0
 40
3.0
 40
3.0
 40
4.0
 40
4.0
 40
4.0
 40
4.0
 10
107.3068006459163
 20
-138.8137491514944
 30
0.0
 10
107.2899196780386
 20
-138.8432047178933
 30
0.0
 10
107.2392767744055
 20
-138.9363945507694
 30
0.0
 10
107.2285969784012
 20
-138.9553425759382
 30
0.0
 10
107.4191107587355
 20
-139.0145982182845
 30
0.0
 10
107.4401258411955
 20
-139.0209716449323
 30
0.0
 10
107.5121283368372
 20
-139.0485324088142
 30
0.0
 10
107.5672498646012
 20
-138.9617160025859
 30
0.0
 10
107.5903320043524
 20
-138.8876464496531
 30
0.0
 10
107.605145914939
 20
-138.8137491514944
 30
0.0
 10
107.605145914939
 20
-138.8137491514944
 30
0.0
 10
107.3068006459163
 20
-138.8137491514944
 30
0.0
 10
107.3068006459163
 20
-138.8137491514944
 30
0.0
  0
SPLINE
  5
DB
330
D6
100
AcDbEntity
  8
レイヤー 1
100
AcDbSpline
210
0.0
220
0.0
230
1.0
 70
    11
 71
     3
 72
    20
 73
    16
 74
     0
 42
0.0000000001
 43
0.0000000001
 40
0.0
 40
0.0
 40
0.0
 40
0.0
 40
1.0
 40
1.0
 40
1.0
 40
2.0
 40
2.0
 40
2.0
 40
3.0
 40
3.0
 40
3.0
 40
4.0
 40
4.0
 40
4.0
 40
5.0
 40
5.0
 40
5.0
 40
5.0
 10
107.2434108889877
 20
-137.9633273309605
 30
0.0
 10
107.2434108889877
 20
-137.9633273309605
 30
0.0
 10
107.2117160105234
 20
-137.9633273309605
 30
0.0
 10
107.2117160105234
 20
-137.9633273309605
 30
0.0
 10
107.2582247995743
 20
-138.06271833571
 30
0.0
 10
107.2899196780386
 20
-138.1429890605163
 30
0.0
 10
107.3236816137941
 20
-138.2699408291478
 30
0.0
 10
107.3236816137941
 20
-138.2699408291478
 30
0.0
 10
107.5310763620061
 20
-138.2699408291478
 30
0.0
 10
107.5310763620061
 20
-138.2699408291478
 30
0.0
 10
107.5627712404704
 20
-138.176923251046
 30
0.0
 10
107.5861978897701
 20
-138.0923461568831
 30
0.0
 10
107.6092800295213
 20
-137.9633273309605
 30
0.0
 10
107.6092800295213
 20
-137.9633273309605
 30
0.0
 10
107.2434108889877
 20
-137.9633273309605
 30
0.0
 10
107.2434108889877
 20
-137.9633273309605
 30
0.0
  0
SPLINE
  5
DC
330
D6
100
AcDbEntity
  8
レイヤー 1
100
AcDbSpline
210
0.0
220
0.0
230
1.0
 70
     9
 71
     3
 72
   242
 73
   238
 74
     0
 42
0.0000000001
 43
0.0000000001
 40
0.0
 40
0.0
 40
0.0
 40
0.0
 40
1.0
 40
1.0
 40
1.0
 40
2.0
 40
2.0
 40
2.0
 40
3.0
 40
3.0
 40
3.0
 40
4.0
 40
4.0
 40
4.0
 40
5.0
 40
5.0
 40
5.0
 40
6.0
 40
6.0
 40
6.0
 40
7.0
 40
7.0
 40
7.0
 40
8.0
 40
8.0
 40
8.0
 40
9.0
 40
9.0
 40
9.0
 40
10.0
 40
10.0
 40
10.0
 40
11.0
 40
11.0
 40
11.0
 40
12.0
 40
12.0
 40
12.0
 40
13.0
 40
13.0
 40
13.0
 40
14.0
 40
14.0
 40
14.0
 40
15.0
 40
15.0
 40
15.0
 40
16.0
 40
16.0
 40
16.0
 40
17.0
 40
17.0
 40
17.0
 40
18.0
 40
18.0
 40
18.0
 40
19.0
 40
19.0
 40
19.0
 40
20.0
 40
20.0
 40
20.0
 40
21.0
 40
21.0
 40
21.0
 40
22.0
 40
22.0
 40
22.0
 40
23.0
 40
23.0
 40
23.0
 40
24.0
 40
24.0
 40
24.0
 40
25.0
 40
25.0
 40
25.0
 40
26.0
 40
26.0
 40
26.0
 40
27.0
 40
27.0
 40
27.0
 40
28.0
 40
28.0
 40
28.0
 40
29.0
 40
29.0
 40
29.0
 40
30.0
 40
30.0
 40
30.0
 40
31.0
 40
31.0
 40
31.0
 40
32.0
 40
32.0
 40
32.0
 40
33.0
 40
33.0
 40
33.0
 40
34.0
 40
34.0
 40
34.0
 40
35.0
 40
35.0
 40
35.0
 40
36.0
 40
36.0
 40
36.0
 40
37.0
 40
37.0
 40
37.0
 40
38.0
 40
38.0
 40
38.0
 40
39.0
 40
39.0
 40
39.0
 40
40.0
 40
40.0
 40
40.0
 40
41.0
 40
41.0
 40
41.0
 40
42.0
 40
42.0
 40
42.0
 40
43.0
 40
43.0
 40
43.0
 40
44.0
 40
44.0
 40
44.0
 40
45.0
 40
45.0
 40
45.0
 40
46.0
 40
46.0
 40
46.0
 40
47.0
 40
47.0
 40
47.0
 40
48.0
 40
48.0
 40
48.0
 40
49.0
 40
49.0
 40
49.0
 40
50.0
 40
50.0
 40
50.0
 40
51.0
 40
51.0
 40
51.0
 40
52.0
 40
52.0
 40
52.0
 40
53.0
 40
53.0
 40
53.0
 40
54.0
 40
54.0
 40
54.0
 40
55.0
 40
55.0
 40
55.0
 40
56.0
 40
56.0
 40
56.0
 40
57.0
 40
57.0
 40
57.0
 40
58.0
 40
58.0
 40
58.0
 40
59.0
 40
59.0
 40
59.0
 40
60.0
 40
60.0
 40
60.0
 40
61.0
 40
61.0
 40
61.0
 40
62.0
 40
62.0
 40
62.0
 40
63.0
 40
63.0
 40
63.0
 40
64.0
 40
64.0
 40
64.0
 40
65.0
 40
65.0
 40
65.0
 40
66.0
 40
66.0
 40
66.0
 40
67.0
 40
67.0
 40
67.0
 40
68.0
 40
68.0
 40
68.0
 40
69.0
 40
69.0
 40
69.0
 40
70.0
 40
70.0
 40
70.0
 40
71.0
 40
71.0
 40
71.0
 40
72.0
 40
72.0
 40
72.0
 40
73.0
 40
73.0
 40
73.0
 40
74.0
 40
74.0
 40
74.0
 40
75.0
 40
75.0
 40
75.0
 40
76.0
 40
76.0
 40
76.0
 40
77.0
 40
77.0
 40
77.0
 40
78.0
 40
78.0
 40
78.0
 40
79.0
 40
79.0
 40
79.0
 40
79.0
 10
107.8717963054973
 20
-138.4285874762435
 30
0.0
 10
107.8717963054973
 20
-138.4285874762435
 30
0.0
 10
107.6178927682344
 20
-138.4285874762435
 30
0.0
 10
107.6178927682344
 20
-138.4285874762435
 30
0.0
 10
107.6178927682344
 20
-138.4285874762435
 30
0.0
 10
107.3409070912203
 20
-138.4285874762435
 30
0.0
 10
107.3409070912203
 20
-138.4285874762435
 30
0.0
 10
107.3409070912203
 20
-138.4285874762435
 30
0.0
 10
107.4676866050775
 20
-138.4709621507121
 30
0.0
 10
107.4676866050775
 20
-138.4709621507121
 30
0.0
 10
107.4783664010818
 20
-138.4752685200687
 30
0.0
 10
107.4911132543772
 20
-138.4814696919421
 30
0.0
 10
107.4911132543772
 20
-138.4942165452375
 30
0.0
 10
107.4911132543772
 20
-138.5154038824718
 30
0.0
 10
107.4590738663644
 20
-138.5217773091195
 30
0.0
 10
107.4380587839043
 20
-138.5259114237018
 30
0.0
 10
107.4273789879001
 20
-138.5491658182273
 30
0.0
 10
107.3977511667269
 20
-138.6147948872213
 30
0.0
 10
107.378803141558
 20
-138.659236618981
 30
0.0
 10
107.378803141558
 20
-138.659236618981
 30
0.0
 10
107.6495876466987
 20
-138.659236618981
 30
0.0
 10
107.6495876466987
 20
-138.659236618981
 30
0.0
 10
107.7405381675093
 20
-138.659236618981
 30
0.0
 10
107.9372531197171
 20
-138.6549302496244
 30
0.0
 10
108.0791910537094
 20
-138.6464897656856
 30
0.0
 10
108.0791910537094
 20
-138.6464897656856
 30
0.0
 10
108.0791910537094
 20
-138.8242566927245
 30
0.0
 10
108.0791910537094
 20
-138.8242566927245
 30
0.0
 10
107.9965087620633
 20
-138.8199503233679
 30
0.0
 10
107.9754936796033
 20
-138.8199503233679
 30
0.0
 10
107.7956596952733
 20
-138.8158162087856
 30
0.0
 10
107.763964816809
 20
-138.9701564865248
 30
0.0
 10
107.7195230850493
 20
-139.0505994661054
 30
0.0
 10
107.6750813532896
 20
-139.1203626496817
 30
0.0
 10
107.7956596952733
 20
-139.179618292028
 30
0.0
 10
107.9014241266704
 20
-139.2473144183131
 30
0.0
 10
108.0051215007765
 20
-139.3298244551849
 30
0.0
 10
108.0051215007765
 20
-139.3298244551849
 30
0.0
 10
107.8866102160839
 20
-139.4969115862195
 30
0.0
 10
107.8866102160839
 20
-139.4969115862195
 30
0.0
 10
107.8631835667842
 20
-139.4779635610506
 30
0.0
 10
107.8504367134888
 20
-139.4695230771118
 30
0.0
 10
107.7384711102181
 20
-139.3847737281746
 30
0.0
 10
107.6898952638761
 20
-139.3467054230626
 30
0.0
 10
107.6306396215298
 20
-139.310876430016
 30
0.0
 10
107.550024387175
 20
-139.2664346982563
 30
0.0
 10
107.3384955243806
 20
-139.452642109234
 30
0.0
 10
107.1335123430083
 20
-139.4758965037595
 30
0.0
 10
106.8434353031502
 20
-139.5055243249326
 30
0.0
 10
106.8434353031502
 20
-139.5055243249326
 30
0.0
 10
106.7400824385927
 20
-139.3256903406026
 30
0.0
 10
106.7400824385927
 20
-139.3256903406026
 30
0.0
 10
107.0573757327842
 20
-139.321383971246
 30
0.0
 10
107.2327310929835
 20
-139.2960625194294
 30
0.0
 10
107.3850043134315
 20
-139.1859917186757
 30
0.0
 10
107.2668375382874
 20
-139.1351765602683
 30
0.0
 10
107.177954074768
 20
-139.1077880511605
 30
0.0
 10
107.1417805721729
 20
-139.0950411978651
 30
0.0
 10
107.122832547004
 20
-139.1226019617471
 30
0.0
 10
107.1080186364174
 20
-139.141549986916
 30
0.0
 10
107.0804578725354
 20
-139.1754841774457
 30
0.0
 10
107.0804578725354
 20
-139.1754841774457
 30
0.0
 10
106.8837429203276
 20
-139.092974140574
 30
0.0
 10
106.8837429203276
 20
-139.092974140574
 30
0.0
 10
106.9664252119737
 20
-139.0125311609934
 30
0.0
 10
107.0277479116111
 20
-138.9172742708262
 30
0.0
 10
107.0845919871177
 20
-138.8158162087856
 30
0.0
 10
106.8944227163319
 20
-138.8199503233679
 30
0.0
 10
106.8730631243234
 20
-138.8199503233679
 30
0.0
 10
106.7907253422259
 20
-138.8242566927245
 30
0.0
 10
106.7907253422259
 20
-138.8242566927245
 30
0.0
 10
106.7907253422259
 20
-138.6464897656856
 30
0.0
 10
106.7907253422259
 20
-138.6464897656856
 30
0.0
 10
106.9302517093785
 20
-138.6528631923333
 30
0.0
 10
107.1397135148817
 20
-138.6571695616898
 30
0.0
 10
107.1652072214726
 20
-138.6571695616898
 30
0.0
 10
107.1820881893503
 20
-138.6232353711601
 30
0.0
 10
107.2372097171143
 20
-138.5026570291764
 30
0.0
 10
107.2561577422832
 20
-138.4285874762435
 30
0.0
 10
107.2372097171143
 20
-138.4285874762435
 30
0.0
 10
107.0594427900754
 20
-138.4349609028912
 30
0.0
 10
106.8647948951588
 20
-138.4477077561867
 30
0.0
 10
106.8647948951588
 20
-138.4477077561867
 30
0.0
 10
106.8647948951588
 20
-138.5810329514658
 30
0.0
 10
106.8647948951588
 20
-138.5810329514658
 30
0.0
 10
106.8162190488167
 20
-138.6063544032824
 30
0.0
 10
106.7569634064705
 20
-138.6380492817467
 30
0.0
 10
106.6236382111913
 20
-138.7036783507407
 30
0.0
 10
106.6236382111913
 20
-138.7036783507407
 30
0.0
 10
106.6236382111913
 20
-138.8495781445411
 30
0.0
 10
106.6236382111913
 20
-138.8495781445411
 30
0.0
 10
106.6236382111913
 20
-138.8495781445411
 30
0.0
 10
106.6236382111913
 20
-139.3172498566637
 30
0.0
 10
106.6236382111913
 20
-139.3172498566637
 30
0.0
 10
106.6236382111913
 20
-139.4440293705209
 30
0.0
 10
106.5874647085962
 20
-139.5032850128672
 30
0.0
 10
106.3042778597086
 20
-139.4948445289283
 30
0.0
 10
106.3042778597086
 20
-139.4948445289283
 30
0.0
 10
106.2005804856026
 20
-139.2876220354906
 30
0.0
 10
106.2005804856026
 20
-139.2876220354906
 30
0.0
 10
106.2639702425312
 20
-139.3001966340117
 30
0.0
 10
106.3125460888732
 20
-139.3045030033683
 30
0.0
 10
106.3528537060506
 20
-139.3045030033683
 30
0.0
 10
106.4289903162747
 20
-139.3045030033683
 30
0.0
 10
106.4396701122789
 20
-139.2812486088429
 30
0.0
 10
106.4396701122789
 20
-139.2156195398489
 30
0.0
 10
106.4396701122789
 20
-139.2156195398489
 30
0.0
 10
106.4396701122789
 20
-138.7861883876125
 30
0.0
 10
106.4396701122789
 20
-138.7861883876125
 30
0.0
 10
106.3421739100464
 20
-138.8263237500156
 30
0.0
 10
106.3252929421687
 20
-138.8326971766633
 30
0.0
 10
106.2787841531178
 20
-138.8518174566065
 30
0.0
 10
106.2746500385355
 20
-138.8728325390665
 30
0.0
 10
106.2701714144047
 20
-138.9024603602396
 30
0.0
 10
106.2512233892358
 20
-138.9024603602396
 30
0.0
 10
106.2429551600712
 20
-138.9024603602396
 30
0.0
 10
106.2322753640669
 20
-138.8983262456573
 30
0.0
 10
106.2257296826449
 20
-138.8750718511319
 30
0.0
 10
106.2257296826449
 20
-138.8750718511319
 30
0.0
 10
106.1730197217206
 20
-138.6824910135064
 30
0.0
 10
106.1730197217206
 20
-138.6824910135064
 30
0.0
 10
106.3190917702952
 20
-138.6359822244556
 30
0.0
 10
106.384548584515
 20
-138.6127278299301
 30
0.0
 10
106.4396701122789
 20
-138.5915404926959
 30
0.0
 10
106.4396701122789
 20
-138.5915404926959
 30
0.0
 10
106.4396701122789
 20
-138.1789903083372
 30
0.0
 10
106.4396701122789
 20
-138.1789903083372
 30
0.0
 10
106.4396701122789
 20
-138.1789903083372
 30
0.0
 10
106.3866156418061
 20
-138.1789903083372
 30
0.0
 10
106.3866156418061
 20
-138.1789903083372
 30
0.0
 10
106.3866156418061
 20
-138.1789903083372
 30
0.0
 10
106.3084119742909
 20
-138.1789903083372
 30
0.0
 10
106.3084119742909
 20
-138.1789903083372
 30
0.0
 10
106.2405435932315
 20
-138.1789903083372
 30
0.0
 10
106.2322753640669
 20
-138.1789903083372
 30
0.0
 10
106.1961018614718
 20
-138.1853637349849
 30
0.0
 10
106.1961018614718
 20
-138.1853637349849
 30
0.0
 10
106.1961018614718
 20
-137.9907158400683
 30
0.0
 10
106.1961018614718
 20
-137.9907158400683
 30
0.0
 10
106.2236626253538
 20
-137.997089266716
 30
0.0
 10
106.2322753640669
 20
-137.997089266716
 30
0.0
 10
106.3018662928689
 20
-137.997089266716
 30
0.0
 10
106.3018662928689
 20
-137.997089266716
 30
0.0
 10
106.4351914881481
 20
-137.997089266716
 30
0.0
 10
106.4351914881481
 20
-137.997089266716
 30
0.0
 10
106.4351914881481
 20
-137.9273260831397
 30
0.0
 10
106.4351914881481
 20
-137.8448160462679
 30
0.0
 10
106.433124430857
 20
-137.8405096769114
 30
0.0
 10
106.4248562016924
 20
-137.6606756925814
 30
0.0
 10
106.4248562016924
 20
-137.6417276674125
 30
0.0
 10
106.4224446348527
 20
-137.5952188783616
 30
0.0
 10
106.4224446348527
 20
-137.5952188783616
 30
0.0
 10
106.6384521217779
 20
-137.6036593623005
 30
0.0
 10
106.6384521217779
 20
-137.6036593623005
 30
0.0
 10
106.6491319177822
 20
-137.6036593623005
 30
0.0
 10
106.6701470002422
 20
-137.6057264195916
 30
0.0
 10
106.6701470002422
 20
-137.6226073874693
 30
0.0
 10
106.6701470002422
 20
-137.6417276674125
 30
0.0
 10
106.6553330896556
 20
-137.6522352086425
 30
0.0
 10
106.6298393830647
 20
-137.6713554885856
 30
0.0
 10
106.6298393830647
 20
-137.7219983922188
 30
0.0
 10
106.6236382111913
 20
-137.9505804776651
 30
0.0
 10
106.6257052684824
 20
-137.997089266716
 30
0.0
 10
106.7548963491793
 20
-137.997089266716
 30
0.0
 10
106.7672986929262
 20
-137.997089266716
 30
0.0
 10
106.8647948951588
 20
-137.9886487827771
 30
0.0
 10
106.8647948951588
 20
-137.9886487827771
 30
0.0
 10
106.8647948951588
 20
-138.1832966776937
 30
0.0
 10
106.8647948951588
 20
-138.1832966776937
 30
0.0
 10
106.8265543352725
 20
-138.1810573656283
 30
0.0
 10
106.7590304637616
 20
-138.176923251046
 30
0.0
 10
106.6236382111913
 20
-138.1789903083372
 30
0.0
 10
106.6236382111913
 20
-138.1789903083372
 30
0.0
 10
106.6236382111913
 20
-138.517470939763
 30
0.0
 10
106.6236382111913
 20
-138.517470939763
 30
0.0
 10
106.6787597389553
 20
-138.4942165452375
 30
0.0
 10
106.744216553175
 20
-138.4666557813555
 30
0.0
 10
106.7927923995171
 20
-138.4434013868301
 30
0.0
 10
106.7927923995171
 20
-138.4434013868301
 30
0.0
 10
106.7927923995171
 20
-138.2658067145655
 30
0.0
 10
106.7927923995171
 20
-138.2658067145655
 30
0.0
 10
106.9071695696274
 20
-138.2783813130866
 30
0.0
 10
107.02568085432
 20
-138.2783813130866
 30
0.0
 10
107.1417805721729
 20
-138.2783813130866
 30
0.0
 10
107.1186984324217
 20
-138.1832966776937
 30
0.0
 10
107.0911376685397
 20
-138.100786640822
 30
0.0
 10
107.0277479116111
 20
-137.9674614455428
 30
0.0
 10
106.9833061798514
 20
-137.969528502834
 30
0.0
 10
106.9006238882054
 20
-137.9738348721905
 30
0.0
 10
106.8627278378676
 20
-137.9759019294817
 30
0.0
 10
106.8627278378676
 20
-137.9759019294817
 30
0.0
 10
106.8627278378676
 20
-137.7960679451517
 30
0.0
 10
106.8627278378676
 20
-137.7960679451517
 30
0.0
 10
106.9874402944337
 20
-137.8045084290905
 30
0.0
 10
107.1610731068903
 20
-137.8088147984471
 30
0.0
 10
107.2434108889877
 20
-137.8088147984471
 30
0.0
 10
107.2434108889877
 20
-137.8088147984471
 30
0.0
 10
107.3260931806337
 20
-137.8088147984471
 30
0.0
 10
107.3260931806337
 20
-137.8088147984471
 30
0.0
 10
107.3260931806337
 20
-137.6458617819948
 30
0.0
 10
107.3260931806337
 20
-137.6353542407647
 30
0.0
 10
107.3236816137941
 20
-137.580404967775
 30
0.0
 10
107.3236816137941
 20
-137.580404967775
 30
0.0
 10
107.5479573298838
 20
-137.6057264195916
 30
0.0
 10
107.5479573298838
 20
-137.6057264195916
 30
0.0
 10
107.5524359540146
 20
-137.6057264195916
 30
0.0
 10
107.5734510364747
 20
-137.6077934768828
 30
0.0
 10
107.5734510364747
 20
-137.6246744447605
 30
0.0
 10
107.5734510364747
 20
-137.6394883553471
 30
0.0
 10
107.5627712404704
 20
-137.6481010940602
 30
0.0
 10
107.5352104765884
 20
-137.6629150046468
 30
0.0
 10
107.529009304715
 20
-137.7283718188665
 30
0.0
 10
107.5269422474238
 20
-137.7495591561008
 30
0.0
 10
107.5269422474238
 20
-137.8088147984471
 30
0.0
 10
107.5269422474238
 20
-137.8088147984471
 30
0.0
 10
107.6220268828167
 20
-137.8088147984471
 30
0.0
 10
107.6220268828167
 20
-137.8088147984471
 30
0.0
 10
107.7047091744627
 20
-137.8088147984471
 30
0.0
 10
107.8779974773708
 20
-137.8045084290905
 30
0.0
 10
108.0030544434853
 20
-137.7960679451517
 30
0.0
 10
108.0030544434853
 20
-137.7960679451517
 30
0.0
 10
108.0030544434853
 20
-137.9759019294817
 30
0.0
 10
108.0030544434853
 20
-137.9759019294817
 30
0.0
 10
107.9734266223122
 20
-137.9738348721905
 30
0.0
 10
107.8549153376196
 20
-137.969528502834
 30
0.0
 10
107.8146077204422
 20
-137.9674614455428
 30
0.0
 10
107.7997938098556
 20
-138.0182766039503
 30
0.0
 10
107.7660318741001
 20
-138.1304144619951
 30
0.0
 10
107.7002305503319
 20
-138.2699408291478
 30
0.0
 10
107.7426052248005
 20
-138.2699408291478
 30
0.0
 10
108.0199354113631
 20
-138.2509928039789
 30
0.0
 10
108.0812581110005
 20
-138.2487534919135
 30
0.0
 10
108.0812581110005
 20
-138.2487534919135
 30
0.0
 10
108.0812581110005
 20
-138.4328938456001
 30
0.0
 10
108.0812581110005
 20
-138.4328938456001
 30
0.0
 10
108.0516302898274
 20
-138.4328938456001
 30
0.0
 10
108.0347493219496
 20
-138.4285874762435
 30
0.0
 10
107.8717963054973
 20
-138.4285874762435
 30
0.0
  0
HATCH
  5
DD
330
D6
100
AcDbEntity
  8
レイヤー 1
 62
   250
420
  2299925
440
 33554687
100
AcDbHatch
 10
0.0
 20
0.0
 30
0.0
210
0.0
220
0.0
230
1.0
  2
SOLID
 70
     1
 71
     1
 91
        3
 92
        1
 93
        1
 72
     4
 94
        3
 73
     0
 74
     0
 95
       17
 96
       13
 40
0.0
 40
0.0
 40
0.0
 40
0.0
 40
1.0
 40
1.0
 40
1.0
 40
2.0
 40
2.0
 40
2.0
 40
3.0
 40
3.0
 40
3.0
 40
4.0
 40
4.0
 40
4.0
 40
4.0
 10
107.3068006459163
 20
-138.8137491514944
 10
107.2899196780386
 20
-138.8432047178933
 10
107.2392767744055
 20
-138.9363945507694
 10
107.2285969784012
 20
-138.9553425759382
 10
107.4191107587355
 20
-139.0145982182845
 10
107.4401258411955
 20
-139.0209716449323
 10
107.5121283368372
 20
-139.0485324088142
 10
107.5672498646012
 20
-138.9617160025859
 10
107.5903320043524
 20
-138.8876464496531
 10
107.605145914939
 20
-138.8137491514944
 10
107.605145914939
 20
-138.8137491514944
 10
107.3068006459163
 20
-138.8137491514944
 10
107.3068006459163
 20
-138.8137491514944
 97
        0
 97
        1
330
DA
 92
        1
 93
        1
 72
     4
 94
        3
 73
     0
 74
     0
 95
       20
 96
       16
 40
0.0
 40
0.0
 40
0.0
 40
0.0
 40
1.0
 40
1.0
 40
1.0
 40
2.0
 40
2.0
 40
2.0
 40
3.0
 40
3.0
 40
3.0
 40
4.0
 40
4.0
 40
4.0
 40
5.0
 40
5.0
 40
5.0
 40
5.0
 10
107.2434108889877
 20
-137.9633273309605
 10
107.2434108889877
 20
-137.9633273309605
 10
107.2117160105234
 20
-137.9633273309605
 10
107.2117160105234
 20
-137.9633273309605
 10
107.2582247995743
 20
-138.06271833571
 10
107.2899196780386
 20
-138.1429890605163
 10
107.3236816137941
 20
-138.2699408291478
 10
107.3236816137941
 20
-138.2699408291478
 10
107.5310763620061
 20
-138.2699408291478
 10
107.5310763620061
 20
-138.2699408291478
 10
107.5627712404704
 20
-138.176923251046
 10
107.5861978897701
 20
-138.0923461568831
 10
107.6092800295213
 20
-137.9633273309605
 10
107.6092800295213
 20
-137.9633273309605
 10
107.2434108889877
 20
-137.9633273309605
 10
107.2434108889877
 20
-137.9633273309605
 97
        0
 97
        1
330
DB
 92
        1
 93
        1
 72
     4
 94
        3
 73
     0
 74
     0
 95
      242
 96
      238
 40
0.0
 40
0.0
 40
0.0
 40
0.0
 40
1.0
 40
1.0
 40
1.0
 40
2.0
 40
2.0
 40
2.0
 40
3.0
 40
3.0
 40
3.0
 40
4.0
 40
4.0
 40
4.0
 40
5.0
 40
5.0
 40
5.0
 40
6.0
 40
6.0
 40
6.0
 40
7.0
 40
7.0
 40
7.0
 40
8.0
 40
8.0
 40
8.0
 40
9.0
 40
9.0
 40
9.0
 40
10.0
 40
10.0
 40
10.0
 40
11.0
 40
11.0
 40
11.0
 40
12.0
 40
12.0
 40
12.0
 40
13.0
 40
13.0
 40
13.0
 40
14.0
 40
14.0
 40
14.0
 40
15.0
 40
15.0
 40
15.0
 40
16.0
 40
16.0
 40
16.0
 40
17.0
 40
17.0
 40
17.0
 40
18.0
 40
18.0
 40
18.0
 40
19.0
 40
19.0
 40
19.0
 40
20.0
 40
20.0
 40
20.0
 40
21.0
 40
21.0
 40
21.0
 40
22.0
 40
22.0
 40
22.0
 40
23.0
 40
23.0
 40
23.0
 40
24.0
 40
24.0
 40
24.0
 40
25.0
 40
25.0
 40
25.0
 40
26.0
 40
26.0
 40
26.0
 40
27.0
 40
27.0
 40
27.0
 40
28.0
 40
28.0
 40
28.0
 40
29.0
 40
29.0
 40
29.0
 40
30.0
 40
30.0
 40
30.0
 40
31.0
 40
31.0
 40
31.0
 40
32.0
 40
32.0
 40
32.0
 40
33.0
 40
33.0
 40
33.0
 40
34.0
 40
34.0
 40
34.0
 40
35.0
 40
35.0
 40
35.0
 40
36.0
 40
36.0
 40
36.0
 40
37.0
 40
37.0
 40
37.0
 40
38.0
 40
38.0
 40
38.0
 40
39.0
 40
39.0
 40
39.0
 40
40.0
 40
40.0
 40
40.0
 40
41.0
 40
41.0
 40
41.0
 40
42.0
 40
42.0
 40
42.0
 40
43.0
 40
43.0
 40
43.0
 40
44.0
 40
44.0
 40
44.0
 40
45.0
 40
45.0
 40
45.0
 40
46.0
 40
46.0
 40
46.0
 40
47.0
 40
47.0
 40
47.0
 40
48.0
 40
48.0
 40
48.0
 40
49.0
 40
49.0
 40
49.0
 40
50.0
 40
50.0
 40
50.0
 40
51.0
 40
51.0
 40
51.0
 40
52.0
 40
52.0
 40
52.0
 40
53.0
 40
53.0
 40
53.0
 40
54.0
 40
54.0
 40
54.0
 40
55.0
 40
55.0
 40
55.0
 40
56.0
 40
56.0
 40
56.0
 40
57.0
 40
57.0
 40
57.0
 40
58.0
 40
58.0
 40
58.0
 40
59.0
 40
59.0
 40
59.0
 40
60.0
 40
60.0
 40
60.0
 40
61.0
 40
61.0
 40
61.0
 40
62.0
 40
62.0
 40
62.0
 40
63.0
 40
63.0
 40
63.0
 40
64.0
 40
64.0
 40
64.0
 40
65.0
 40
65.0
 40
65.0
 40
66.0
 40
66.0
 40
66.0
 40
67.0
 40
67.0
 40
67.0
 40
68.0
 40
68.0
 40
68.0
 40
69.0
 40
69.0
 40
69.0
 40
70.0
 40
70.0
 40
70.0
 40
71.0
 40
71.0
 40
71.0
 40
72.0
 40
72.0
 40
72.0
 40
73.0
 40
73.0
 40
73.0
 40
74.0
 40
74.0
 40
74.0
 40
75.0
 40
75.0
 40
75.0
 40
76.0
 40
76.0
 40
76.0
 40
77.0
 40
77.0
 40
77.0
 40
78.0
 40
78.0
 40
78.0
 40
79.0
 40
79.0
 40
79.0
 40
79.0
 10
107.8717963054973
 20
-138.4285874762435
 10
107.8717963054973
 20
-138.4285874762435
 10
107.6178927682344
 20
-138.4285874762435
 10
107.6178927682344
 20
-138.4285874762435
 10
107.6178927682344
 20
-138.4285874762435
 10
107.3409070912203
 20
-138.4285874762435
 10
107.3409070912203
 20
-138.4285874762435
 10
107.3409070912203
 20
-138.4285874762435
 10
107.4676866050775
 20
-138.4709621507121
 10
107.4676866050775
 20
-138.4709621507121
 10
107.4783664010818
 20
-138.4752685200687
 10
107.4911132543772
 20
-138.4814696919421
 10
107.4911132543772
 20
-138.4942165452375
 10
107.4911132543772
 20
-138.5154038824718
 10
107.4590738663644
 20
-138.5217773091195
 10
107.4380587839043
 20
-138.5259114237018
 10
107.4273789879001
 20
-138.5491658182273
 10
107.3977511667269
 20
-138.6147948872213
 10
107.378803141558
 20
-138.659236618981
 10
107.378803141558
 20
-138.659236618981
 10
107.6495876466987
 20
-138.659236618981
 10
107.6495876466987
 20
-138.659236618981
 10
107.7405381675093
 20
-138.659236618981
 10
107.9372531197171
 20
-138.6549302496244
 10
108.0791910537094
 20
-138.6464897656856
 10
108.0791910537094
 20
-138.6464897656856
 10
108.0791910537094
 20
-138.8242566927245
 10
108.0791910537094
 20
-138.8242566927245
 10
107.9965087620633
 20
-138.8199503233679
 10
107.9754936796033
 20
-138.8199503233679
 10
107.7956596952733
 20
-138.8158162087856
 10
107.763964816809
 20
-138.9701564865248
 10
107.7195230850493
 20
-139.0505994661054
 10
107.6750813532896
 20
-139.1203626496817
 10
107.7956596952733
 20
-139.179618292028
 10
107.9014241266704
 20
-139.2473144183131
 10
108.0051215007765
 20
-139.3298244551849
 10
108.0051215007765
 20
-139.3298244551849
 10
107.8866102160839
 20
-139.4969115862195
 10
107.8866102160839
 20
-139.4969115862195
 10
107.8631835667842
 20
-139.4779635610506
 10
107.8504367134888
 20
-139.4695230771118
 10
107.7384711102181
 20
-139.3847737281746
 10
107.6898952638761
 20
-139.3467054230626
 10
107.6306396215298
 20
-139.310876430016
 10
107.550024387175
 20
-139.2664346982563
 10
107.3384955243806
 20
-139.452642109234
 10
107.1335123430083
 20
-139.4758965037595
 10
106.8434353031502
 20
-139.5055243249326
 10
106.8434353031502
 20
-139.5055243249326
 10
106.7400824385927
 20
-139.3256903406026
 10
106.7400824385927
 20
-139.3256903406026
 10
107.0573757327842
 20
-139.321383971246
 10
107.2327310929835
 20
-139.2960625194294
 10
107.3850043134315
 20
-139.1859917186757
 10
107.2668375382874
 20
-139.1351765602683
 10
107.177954074768
 20
-139.1077880511605
 10
107.1417805721729
 20
-139.0950411978651
 10
107.122832547004
 20
-139.1226019617471
 10
107.1080186364174
 20
-139.141549986916
 10
107.0804578725354
 20
-139.1754841774457
 10
107.0804578725354
 20
-139.1754841774457
 10
106.8837429203276
 20
-139.092974140574
 10
106.8837429203276
 20
-139.092974140574
 10
106.9664252119737
 20
-139.0125311609934
 10
107.0277479116111
 20
-138.9172742708262
 10
107.0845919871177
 20
-138.8158162087856
 10
106.8944227163319
 20
-138.8199503233679
 10
106.8730631243234
 20
-138.8199503233679
 10
106.7907253422259
 20
-138.8242566927245
 10
106.7907253422259
 20
-138.8242566927245
 10
106.7907253422259
 20
-138.6464897656856
 10
106.7907253422259
 20
-138.6464897656856
 10
106.9302517093785
 20
-138.6528631923333
 10
107.1397135148817
 20
-138.6571695616898
 10
107.1652072214726
 20
-138.6571695616898
 10
107.1820881893503
 20
-138.6232353711601
 10
107.2372097171143
 20
-138.5026570291764
 10
107.2561577422832
 20
-138.4285874762435
 10
107.2372097171143
 20
-138.4285874762435
 10
107.0594427900754
 20
-138.4349609028912
 10
106.8647948951588
 20
-138.4477077561867
 10
106.8647948951588
 20
-138.4477077561867
 10
106.8647948951588
 20
-138.5810329514658
 10
106.8647948951588
 20
-138.5810329514658
 10
106.8162190488167
 20
-138.6063544032824
 10
106.7569634064705
 20
-138.6380492817467
 10
106.6236382111913
 20
-138.7036783507407
 10
106.6236382111913
 20
-138.7036783507407
 10
106.6236382111913
 20
-138.8495781445411
 10
106.6236382111913
 20
-138.8495781445411
 10
106.6236382111913
 20
-138.8495781445411
 10
106.6236382111913
 20
-139.3172498566637
 10
106.6236382111913
 20
-139.3172498566637
 10
106.6236382111913
 20
-139.4440293705209
 10
106.5874647085962
 20
-139.5032850128672
 10
106.3042778597086
 20
-139.4948445289283
 10
106.3042778597086
 20
-139.4948445289283
 10
106.2005804856026
 20
-139.2876220354906
 10
106.2005804856026
 20
-139.2876220354906
 10
106.2639702425312
 20
-139.3001966340117
 10
106.3125460888732
 20
-139.3045030033683
 10
106.3528537060506
 20
-139.3045030033683
 10
106.4289903162747
 20
-139.3045030033683
 10
106.4396701122789
 20
-139.2812486088429
 10
106.4396701122789
 20
-139.2156195398489
 10
106.4396701122789
 20
-139.2156195398489
 10
106.4396701122789
 20
-138.7861883876125
 10
106.4396701122789
 20
-138.7861883876125
 10
106.3421739100464
 20
-138.8263237500156
 10
106.3252929421687
 20
-138.8326971766633
 10
106.2787841531178
 20
-138.8518174566065
 10
106.2746500385355
 20
-138.8728325390665
 10
106.2701714144047
 20
-138.9024603602396
 10
106.2512233892358
 20
-138.9024603602396
 10
106.2429551600712
 20
-138.9024603602396
 10
106.2322753640669
 20
-138.8983262456573
 10
106.2257296826449
 20
-138.8750718511319
 10
106.2257296826449
 20
-138.8750718511319
 10
106.1730197217206
 20
-138.6824910135064
 10
106.1730197217206
 20
-138.6824910135064
 10
106.3190917702952
 20
-138.6359822244556
 10
106.384548584515
 20
-138.6127278299301
 10
106.4396701122789
 20
-138.5915404926959
 10
106.4396701122789
 20
-138.5915404926959
 10
106.4396701122789
 20
-138.1789903083372
 10
106.4396701122789
 20
-138.1789903083372
 10
106.4396701122789
 20
-138.1789903083372
 10
106.3866156418061
 20
-138.1789903083372
 10
106.3866156418061
 20
-138.1789903083372
 10
106.3866156418061
 20
-138.1789903083372
 10
106.3084119742909
 20
-138.1789903083372
 10
106.3084119742909
 20
-138.1789903083372
 10
106.2405435932315
 20
-138.1789903083372
 10
106.2322753640669
 20
-138.1789903083372
 10
106.1961018614718
 20
-138.1853637349849
 10
106.1961018614718
 20
-138.1853637349849
 10
106.1961018614718
 20
-137.9907158400683
 10
106.1961018614718
 20
-137.9907158400683
 10
106.2236626253538
 20
-137.997089266716
 10
106.2322753640669
 20
-137.997089266716
 10
106.3018662928689
 20
-137.997089266716
 10
106.3018662928689
 20
-137.997089266716
 10
106.4351914881481
 20
-137.997089266716
 10
106.4351914881481
 20
-137.997089266716
 10
106.4351914881481
 20
-137.9273260831397
 10
106.4351914881481
 20
-137.8448160462679
 10
106.433124430857
 20
-137.8405096769114
 10
106.4248562016924
 20
-137.6606756925814
 10
106.4248562016924
 20
-137.6417276674125
 10
106.4224446348527
 20
-137.5952188783616
 10
106.4224446348527
 20
-137.5952188783616
 10
106.6384521217779
 20
-137.6036593623005
 10
106.6384521217779
 20
-137.6036593623005
 10
106.6491319177822
 20
-137.6036593623005
 10
106.6701470002422
 20
-137.6057264195916
 10
106.6701470002422
 20
-137.6226073874693
 10
106.6701470002422
 20
-137.6417276674125
 10
106.6553330896556
 20
-137.6522352086425
 10
106.6298393830647
 20
-137.6713554885856
 10
106.6298393830647
 20
-137.7219983922188
 10
106.6236382111913
 20
-137.9505804776651
 10
106.6257052684824
 20
-137.997089266716
 10
106.7548963491793
 20
-137.997089266716
 10
106.7672986929262
 20
-137.997089266716
 10
106.8647948951588
 20
-137.9886487827771
 10
106.8647948951588
 20
-137.9886487827771
 10
106.8647948951588
 20
-138.1832966776937
 10
106.8647948951588
 20
-138.1832966776937
 10
106.8265543352725
 20
-138.1810573656283
 10
106.7590304637616
 20
-138.176923251046
 10
106.6236382111913
 20
-138.1789903083372
 10
106.6236382111913
 20
-138.1789903083372
 10
106.6236382111913
 20
-138.517470939763
 10
106.6236382111913
 20
-138.517470939763
 10
106.6787597389553
 20
-138.4942165452375
 10
106.744216553175
 20
-138.4666557813555
 10
106.7927923995171
 20
-138.4434013868301
 10
106.7927923995171
 20
-138.4434013868301
 10
106.7927923995171
 20
-138.2658067145655
 10
106.7927923995171
 20
-138.2658067145655
 10
106.9071695696274
 20
-138.2783813130866
 10
107.02568085432
 20
-138.2783813130866
 10
107.1417805721729
 20
-138.2783813130866
 10
107.1186984324217
 20
-138.1832966776937
 10
107.0911376685397
 20
-138.100786640822
 10
107.0277479116111
 20
-137.9674614455428
 10
106.9833061798514
 20
-137.969528502834
 10
106.9006238882054
 20
-137.9738348721905
 10
106.8627278378676
 20
-137.9759019294817
 10
106.8627278378676
 20
-137.9759019294817
 10
106.8627278378676
 20
-137.7960679451517
 10
106.8627278378676
 20
-137.7960679451517
 10
106.9874402944337
 20
-137.8045084290905
 10
107.1610731068903
 20
-137.8088147984471
 10
107.2434108889877
 20
-137.8088147984471
 10
107.2434108889877
 20
-137.8088147984471
 10
107.3260931806337
 20
-137.8088147984471
 10
107.3260931806337
 20
-137.8088147984471
 10
107.3260931806337
 20
-137.6458617819948
 10
107.3260931806337
 20
-137.6353542407647
 10
107.3236816137941
 20
-137.580404967775
 10
107.3236816137941
 20
-137.580404967775
 10
107.5479573298838
 20
-137.6057264195916
 10
107.5479573298838
 20
-137.6057264195916
 10
107.5524359540146
 20
-137.6057264195916
 10
107.5734510364747
 20
-137.6077934768828
 10
107.5734510364747
 20
-137.6246744447605
 10
107.5734510364747
 20
-137.6394883553471
 10
107.5627712404704
 20
-137.6481010940602
 10
107.5352104765884
 20
-137.6629150046468
 10
107.529009304715
 20
-137.7283718188665
 10
107.5269422474238
 20
-137.7495591561008
 10
107.5269422474238
 20
-137.8088147984471
 10
107.5269422474238
 20
-137.8088147984471
 10
107.6220268828167
 20
-137.8088147984471
 10
107.6220268828167
 20
-137.8088147984471
 10
107.7047091744627
 20
-137.8088147984471
 10
107.8779974773708
 20
-137.8045084290905
 10
108.0030544434853
 20
-137.7960679451517
 10
108.0030544434853
 20
-137.7960679451517
 10
108.0030544434853
 20
-137.9759019294817
 10
108.0030544434853
 20
-137.9759019294817
 10
107.9734266223122
 20
-137.9738348721905
 10
107.8549153376196
 20
-137.969528502834
 10
107.8146077204422
 20
-137.9674614455428
 10
107.7997938098556
 20
-138.0182766039503
 10
107.7660318741001
 20
-138.1304144619951
 10
107.7002305503319
 20
-138.2699408291478
 10
107.7426052248005
 20
-138.2699408291478
 10
108.0199354113631
 20
-138.2509928039789
 10
108.0812581110005
 20
-138.2487534919135
 10
108.0812581110005
 20
-138.2487534919135
 10
108.0812581110005
 20
-138.4328938456001
 10
108.0812581110005
 20
-138.4328938456001
 10
108.0516302898274
 20
-138.4328938456001
 10
108.0347493219496
 20
-138.4285874762435
 10
107.8717963054973
 20
-138.4285874762435
 97
        0
 97
        1
330
DC
 75
     2
 76
     1
 98
        1
 10
0.0
 20
0.0
450
        0
451
        0
460
0.0
461
0.0
452
        0
462
0.0
453
        0
470

  0
SPLINE
  5
DE
330
D6
100
AcDbEntity
  8
レイヤー 1
100
AcDbSpline
210
0.0
220
0.0
230
1.0
 70
    11
 71
     3
 72
    17
 73
    13
 74
     0
 42
0.0000000001
 43
0.0000000001
 40
0.0
 40
0.0
 40
0.0
 40
0.0
 40
1.0
 40
1.0
 40
1.0
 40
2.0
 40
2.0
 40
2.0
 40
3.0
 40
3.0
 40
3.0
 40
4.0
 40
4.0
 40
4.0
 40
4.0
 10
109.7283582624984
 20
-139.2283663931443
 30
0.0
 10
109.7283582624984
 20
-139.2283663931443
 30
0.0
 10
109.0217691784737
 20
-139.2283663931443
 30
0.0
 10
109.0217691784737
 20
-139.2283663931443
 30
0.0
 10
109.0217691784737
 20
-139.2283663931443
 30
0.0
 10
109.0217691784737
 20
-139.3425713084803
 30
0.0
 10
109.0217691784737
 20
-139.3425713084803
 30
0.0
 10
109.0217691784737
 20
-139.3425713084803
 30
0.0
 10
109.7283582624984
 20
-139.3425713084803
 30
0.0
 10
109.7283582624984
 20
-139.3425713084803
 30
0.0
 10
109.7283582624984
 20
-139.3425713084803
 30
0.0
 10
109.7283582624984
 20
-139.2283663931443
 30
0.0
 10
109.7283582624984
 20
-139.2283663931443
 30
0.0
  0
SPLINE
  5
DF
330
D6
100
AcDbEntity
  8
レイヤー 1
100
AcDbSpline
210
0.0
220
0.0
230
1.0
 70
    11
 71
     3
 72
    17
 73
    13
 74
     0
 42
0.0000000001
 43
0.0000000001
 40
0.0
 40
0.0
 40
0.0
 40
0.0
 40
1.0
 40
1.0
 40
1.0
 40
2.0
 40
2.0
 40
2.0
 40
3.0
 40
3.0
 40
3.0
 40
4.0
 40
4.0
 40
4.0
 40
4.0
 10
109.7283582624984
 20
-138.9849703971114
 30
0.0
 10
109.7283582624984
 20
-138.9849703971114
 30
0.0
 10
109.0217691784737
 20
-138.9849703971114
 30
0.0
 10
109.0217691784737
 20
-138.9849703971114
 30
0.0
 10
109.0217691784737
 20
-138.9849703971114
 30
0.0
 10
109.0217691784737
 20
-139.0993475672217
 30
0.0
 10
109.0217691784737
 20
-139.0993475672217
 30
0.0
 10
109.0217691784737
 20
-139.0993475672217
 30
0.0
 10
109.7283582624984
 20
-139.0993475672217
 30
0.0
 10
109.7283582624984
 20
-139.0993475672217
 30
0.0
 10
109.7283582624984
 20
-139.0993475672217
 30
0.0
 10
109.7283582624984
 20
-138.9849703971114
 30
0.0
 10
109.7283582624984
 20
-138.9849703971114
 30
0.0
  0
SPLINE
  5
E0
330
D6
100
AcDbEntity
  8
レイヤー 1
100
AcDbSpline
210
0.0
220
0.0
230
1.0
 70
    11
 71
     3
 72
    17
 73
    13
 74
     0
 42
0.0000000001
 43
0.0000000001
 40
0.0
 40
0.0
 40
0.0
 40
0.0
 40
1.0
 40
1.0
 40
1.0
 40
2.0
 40
2.0
 40
2.0
 40
3.0
 40
3.0
 40
3.0
 40
4.0
 40
4.0
 40
4.0
 40
4.0
 10
109.7283582624984
 20
-138.7522541970827
 30
0.0
 10
109.7283582624984
 20
-138.7522541970827
 30
0.0
 10
109.0217691784737
 20
-138.7522541970827
 30
0.0
 10
109.0217691784737
 20
-138.7522541970827
 30
0.0
 10
109.0217691784737
 20
-138.7522541970827
 30
0.0
 10
109.0217691784737
 20
-138.8602579405453
 30
0.0
 10
109.0217691784737
 20
-138.8602579405453
 30
0.0
 10
109.0217691784737
 20
-138.8602579405453
 30
0.0
 10
109.7283582624984
 20
-138.8602579405453
 30
0.0
 10
109.7283582624984
 20
-138.8602579405453
 30
0.0
 10
109.7283582624984
 20
-138.8602579405453
 30
0.0
 10
109.7283582624984
 20
-138.7522541970827
 30
0.0
 10
109.7283582624984
 20
-138.7522541970827
 30
0.0
  0
SPLINE
  5
E1
330
D6
100
AcDbEntity
  8
レイヤー 1
100
AcDbSpline
210
0.0
220
0.0
230
1.0
 70
     9
 71
     3
 72
   203
 73
   199
 74
     0
 42
0.0000000001
 43
0.0000000001
 40
0.0
 40
0.0
 40
0.0
 40
0.0
 40
1.0
 40
1.0
 40
1.0
 40
2.0
 40
2.0
 40
2.0
 40
3.0
 40
3.0
 40
3.0
 40
4.0
 40
4.0
 40
4.0
 40
5.0
 40
5.0
 40
5.0
 40
6.0
 40
6.0
 40
6.0
 40
7.0
 40
7.0
 40
7.0
 40
8.0
 40
8.0
 40
8.0
 40
9.0
 40
9.0
 40
9.0
 40
10.0
 40
10.0
 40
10.0
 40
11.0
 40
11.0
 40
11.0
 40
12.0
 40
12.0
 40
12.0
 40
13.0
 40
13.0
 40
13.0
 40
14.0
 40
14.0
 40
14.0
 40
15.0
 40
15.0
 40
15.0
 40
16.0
 40
16.0
 40
16.0
 40
17.0
 40
17.0
 40
17.0
 40
18.0
 40
18.0
 40
18.0
 40
19.0
 40
19.0
 40
19.0
 40
20.0
 40
20.0
 40
20.0
 40
21.0
 40
21.0
 40
21.0
 40
22.0
 40
22.0
 40
22.0
 40
23.0
 40
23.0
 40
23.0
 40
24.0
 40
24.0
 40
24.0
 40
25.0
 40
25.0
 40
25.0
 40
26.0
 40
26.0
 40
26.0
 40
27.0
 40
27.0
 40
27.0
 40
28.0
 40
28.0
 40
28.0
 40
29.0
 40
29.0
 40
29.0
 40
30.0
 40
30.0
 40
30.0
 40
31.0
 40
31.0
 40
31.0
 40
32.0
 40
32.0
 40
32.0
 40
33.0
 40
33.0
 40
33.0
 40
34.0
 40
34.0
 40
34.0
 40
35.0
 40
35.0
 40
35.0
 40
36.0
 40
36.0
 40
36.0
 40
37.0
 40
37.0
 40
37.0
 40
38.0
 40
38.0
 40
38.0
 40
39.0
 40
39.0
 40
39.0
 40
40.0
 40
40.0
 40
40.0
 40
41.0
 40
41.0
 40
41.0
 40
42.0
 40
42.0
 40
42.0
 40
43.0
 40
43.0
 40
43.0
 40
44.0
 40
44.0
 40
44.0
 40
45.0
 40
45.0
 40
45.0
 40
46.0
 40
46.0
 40
46.0
 40
47.0
 40
47.0
 40
47.0
 40
48.0
 40
48.0
 40
48.0
 40
49.0
 40
49.0
 40
49.0
 40
50.0
 40
50.0
 40
50.0
 40
51.0
 40
51.0
 40
51.0
 40
52.0
 40
52.0
 40
52.0
 40
53.0
 40
53.0
 40
53.0
 40
54.0
 40
54.0
 40
54.0
 40
55.0
 40
55.0
 40
55.0
 40
56.0
 40
56.0
 40
56.0
 40
57.0
 40
57.0
 40
57.0
 40
58.0
 40
58.0
 40
58.0
 40
59.0
 40
59.0
 40
59.0
 40
60.0
 40
60.0
 40
60.0
 40
61.0
 40
61.0
 40
61.0
 40
62.0
 40
62.0
 40
62.0
 40
63.0
 40
63.0
 40
63.0
 40
64.0
 40
64.0
 40
64.0
 40
65.0
 40
65.0
 40
65.0
 40
66.0
 40
66.0
 40
66.0
 40
66.0
 10
109.563338188755
 20
-138.4962836025287
 30
0.0
 10
109.563338188755
 20
-138.4962836025287
 30
0.0
 10
109.0045437010475
 20
-138.4962836025287
 30
0.0
 10
109.0045437010475
 20
-138.4962836025287
 30
0.0
 10
108.9942084145917
 20
-138.5407253342884
 30
0.0
 10
108.9855956758786
 20
-138.5724202127527
 30
0.0
 10
108.9728488225832
 20
-138.610660772639
 30
0.0
 10
108.998342529174
 20
-138.610660772639
 30
0.0
 10
109.0131564397606
 20
-138.6127278299301
 30
0.0
 10
109.019357611634
 20
-138.6127278299301
 30
0.0
 10
109.019357611634
 20
-138.6127278299301
 30
0.0
 10
109.2078043346772
 20
-138.6127278299301
 30
0.0
 10
109.2078043346772
 20
-138.6127278299301
 30
0.0
 10
109.2078043346772
 20
-138.6127278299301
 30
0.0
 10
109.5822862139238
 20
-138.6127278299301
 30
0.0
 10
109.5822862139238
 20
-138.6127278299301
 30
0.0
 10
109.632929117557
 20
-138.6127278299301
 30
0.0
 10
109.9164604759931
 20
-138.5999809766347
 30
0.0
 10
109.9481553544574
 20
-138.5999809766347
 30
0.0
 10
109.9460882971662
 20
-138.6275417405167
 30
0.0
 10
109.9440212398751
 20
-138.6464897656856
 30
0.0
 10
109.9440212398751
 20
-138.6761175868587
 30
0.0
 10
109.9419541825839
 20
-138.707812465323
 30
0.0
 10
109.9419541825839
 20
-138.8432047178933
 30
0.0
 10
109.9419541825839
 20
-138.8707654817753
 30
0.0
 10
109.9419541825839
 20
-138.8707654817753
 30
0.0
 10
109.9419541825839
 20
-139.1162285350994
 30
0.0
 10
109.9419541825839
 20
-139.1162285350994
 30
0.0
 10
109.9419541825839
 20
-139.1606702668591
 30
0.0
 10
109.9460882971662
 20
-139.3573852190669
 30
0.0
 10
109.9502224117485
 20
-139.5096584395149
 30
0.0
 10
109.9502224117485
 20
-139.5096584395149
 30
0.0
 10
109.7238796383676
 20
-139.5096584395149
 30
0.0
 10
109.7238796383676
 20
-139.5096584395149
 30
0.0
 10
109.7238796383676
 20
-139.5096584395149
 30
0.0
 10
109.7259466956588
 20
-139.4758965037595
 30
0.0
 10
109.7259466956588
 20
-139.4758965037595
 30
0.0
 10
109.7259466956588
 20
-139.4758965037595
 30
0.0
 10
109.0238362357649
 20
-139.4758965037595
 30
0.0
 10
109.0238362357649
 20
-139.4758965037595
 30
0.0
 10
109.0238362357649
 20
-139.4758965037595
 30
0.0
 10
109.025903293056
 20
-139.5096584395149
 30
0.0
 10
109.025903293056
 20
-139.5096584395149
 30
0.0
 10
109.025903293056
 20
-139.5096584395149
 30
0.0
 10
108.8078287488397
 20
-139.5096584395149
 30
0.0
 10
108.8078287488397
 20
-139.5096584395149
 30
0.0
 10
108.8123073729705
 20
-139.4547091665252
 30
0.0
 10
108.8123073729705
 20
-139.4419623132298
 30
0.0
 10
108.818508544844
 20
-139.3277573978937
 30
0.0
 10
108.8205756021351
 20
-139.3001966340117
 30
0.0
 10
108.8226426594263
 20
-139.1670436935068
 30
0.0
 10
108.8226426594263
 20
-139.1479234135637
 30
0.0
 10
108.8226426594263
 20
-139.1479234135637
 30
0.0
 10
108.8226426594263
 20
-138.9448350347082
 30
0.0
 10
108.8226426594263
 20
-138.9448350347082
 30
0.0
 10
108.6831162922736
 20
-139.1944322026146
 30
0.0
 10
108.5139621039479
 20
-139.3256903406026
 30
0.0
 10
108.4081976725507
 20
-139.3911471548223
 30
0.0
 10
108.4081976725507
 20
-139.3911471548223
 30
0.0
 10
108.2345648600941
 20
-139.2516207876697
 30
0.0
 10
108.2345648600941
 20
-139.2516207876697
 30
0.0
 10
108.3234483236136
 20
-139.2008056292623
 30
0.0
 10
108.467453314897
 20
-139.113989223034
 30
0.0
 10
108.6049126247585
 20
-138.9195135828916
 30
0.0
 10
108.6958631455691
 20
-138.7925618142602
 30
0.0
 10
108.7613199597888
 20
-138.648729077751
 30
0.0
 10
108.7954264050928
 20
-138.4962836025287
 30
0.0
 10
108.5666720648722
 20
-138.4985229145941
 30
0.0
 10
108.3868380805422
 20
-138.5048963412418
 30
0.0
 10
108.2917534451492
 20
-138.5069633985329
 30
0.0
 10
108.2917534451492
 20
-138.5069633985329
 30
0.0
 10
108.2917534451492
 20
-138.3291964714941
 30
0.0
 10
108.2917534451492
 20
-138.3291964714941
 30
0.0
 10
108.488468397357
 20
-138.3355698981418
 30
0.0
 10
108.7719997557931
 20
-138.3398762674983
 30
0.0
 10
108.92220591895
 20
-138.3398762674983
 30
0.0
 10
108.92220591895
 20
-138.3398762674983
 30
0.0
 10
109.1358018390355
 20
-138.3398762674983
 30
0.0
 10
109.1358018390355
 20
-138.3398762674983
 30
0.0
 10
109.1358018390355
 20
-138.3398762674983
 30
0.0
 10
109.1358018390355
 20
-138.2318725240358
 30
0.0
 10
109.1358018390355
 20
-138.2318725240358
 30
0.0
 10
109.1358018390355
 20
-138.2318725240358
 30
0.0
 10
108.9897297904609
 20
-138.2318725240358
 30
0.0
 10
108.9897297904609
 20
-138.2318725240358
 30
0.0
 10
108.8205756021351
 20
-138.2318725240358
 30
0.0
 10
108.6514214138093
 20
-138.2361788933923
 30
0.0
 10
108.4843342827747
 20
-138.24255232004
 30
0.0
 10
108.4843342827747
 20
-138.24255232004
 30
0.0
 10
108.4843342827747
 20
-138.0711588196488
 30
0.0
 10
108.4843342827747
 20
-138.0711588196488
 30
0.0
 10
108.6386745605139
 20
-138.0816663608789
 30
0.0
 10
108.8247097167174
 20
-138.0816663608789
 30
0.0
 10
108.9897297904609
 20
-138.0816663608789
 30
0.0
 10
108.9897297904609
 20
-138.0816663608789
 30
0.0
 10
109.1358018390355
 20
-138.0816663608789
 30
0.0
 10
109.1358018390355
 20
-138.0816663608789
 30
0.0
 10
109.1358018390355
 20
-138.0816663608789
 30
0.0
 10
109.1358018390355
 20
-137.9633273309605
 30
0.0
 10
109.1358018390355
 20
-137.9633273309605
 30
0.0
 10
109.1358018390355
 20
-137.9633273309605
 30
0.0
 10
109.0045437010475
 20
-137.9633273309605
 30
0.0
 10
109.0045437010475
 20
-137.9633273309605
 30
0.0
 10
108.9580349119966
 20
-137.9633273309605
 30
0.0
 10
108.7551187879154
 20
-137.9717678148994
 30
0.0
 10
108.7127441134468
 20
-137.9717678148994
 30
0.0
 10
108.5098279893656
 20
-137.9759019294817
 30
0.0
 10
108.433346869593
 20
-137.9779689867729
 30
0.0
 10
108.3551432020779
 20
-137.9802082988383
 30
0.0
 10
108.3551432020779
 20
-137.9802082988383
 30
0.0
 10
108.3551432020779
 20
-137.7960679451517
 30
0.0
 10
108.3551432020779
 20
-137.7960679451517
 30
0.0
 10
108.4695203721881
 20
-137.8045084290905
 30
0.0
 10
108.5139621039479
 20
-137.8045084290905
 30
0.0
 10
108.8967122123591
 20
-137.8131211678036
 30
0.0
 10
108.8333224554305
 20
-137.7178642776365
 30
0.0
 10
108.8057616915485
 20
-137.6903035137545
 30
0.0
 10
108.7699326985019
 20
-137.6543022659336
 30
0.0
 10
108.7699326985019
 20
-137.6543022659336
 30
0.0
 10
108.9452880587012
 20
-137.5717922290619
 30
0.0
 10
108.9452880587012
 20
-137.5717922290619
 30
0.0
 10
108.9855956758786
 20
-137.6077934768828
 30
0.0
 10
109.0300374076383
 20
-137.6501681513513
 30
0.0
 10
109.1041069605712
 20
-137.7600666973308
 30
0.0
 10
109.1041069605712
 20
-137.7600666973308
 30
0.0
 10
108.9897297904609
 20
-137.8151882250948
 30
0.0
 10
108.9897297904609
 20
-137.8151882250948
 30
0.0
 10
108.9897297904609
 20
-137.8151882250948
 30
0.0
 10
109.0004095864651
 20
-137.8151882250948
 30
0.0
 10
109.0004095864651
 20
-137.8151882250948
 30
0.0
 10
109.0004095864651
 20
-137.8151882250948
 30
0.0
 10
109.5230305715775
 20
-137.8151882250948
 30
0.0
 10
109.5230305715775
 20
-137.8151882250948
 30
0.0
 10
109.5230305715775
 20
-137.8151882250948
 30
0.0
 10
109.4279459361847
 20
-137.7707464933351
 30
0.0
 10
109.4279459361847
 20
-137.7707464933351
 30
0.0
 10
109.4551621905181
 20
-137.7326781882231
 30
0.0
 10
109.5123507755733
 20
-137.6522352086425
 30
0.0
 10
109.5271646861599
 20
-137.5781656557096
 30
0.0
 10
109.5271646861599
 20
-137.5781656557096
 30
0.0
 10
109.7407606062454
 20
-137.6417276674125
 30
0.0
 10
109.7407606062454
 20
-137.6417276674125
 30
0.0
 10
109.7493733449585
 20
-137.6437947247036
 30
0.0
 10
109.7703884274185
 20
-137.6543022659336
 30
0.0
 10
109.7703884274185
 20
-137.6754896031679
 30
0.0
 10
109.7703884274185
 20
-137.7135579082799
 30
0.0
 10
109.7049316131987
 20
-137.7135579082799
 30
0.0
 10
109.6859835880299
 20
-137.7135579082799
 30
0.0
 10
109.6753037920256
 20
-137.7326781882231
 30
0.0
 10
109.6518771427259
 20
-137.7728135506262
 30
0.0
 10
109.6222493215528
 20
-137.8131211678036
 30
0.0
 10
110.0222249073903
 20
-137.8067477411559
 30
0.0
 10
110.0518527285634
 20
-137.8045084290905
 30
0.0
 10
110.1279893387874
 20
-137.7983072572171
 30
0.0
 10
110.1279893387874
 20
-137.7983072572171
 30
0.0
 10
110.1279893387874
 20
-137.9802082988383
 30
0.0
 10
110.1279893387874
 20
-137.9802082988383
 30
0.0
 10
110.1090413136186
 20
-137.9802082988383
 30
0.0
 10
110.0835476070277
 20
-137.9779689867729
 30
0.0
 10
109.8637505150688
 20
-137.969528502834
 30
0.0
 10
109.812763101887
 20
-137.9674614455428
 30
0.0
 10
109.5929660099281
 20
-137.9633273309605
 30
0.0
 10
109.5485242781684
 20
-137.9633273309605
 30
0.0
 10
109.5485242781684
 20
-137.9633273309605
 30
0.0
 10
109.3325167912432
 20
-137.9633273309605
 30
0.0
 10
109.3325167912432
 20
-137.9633273309605
 30
0.0
 10
109.3325167912432
 20
-137.9633273309605
 30
0.0
 10
109.3325167912432
 20
-138.0816663608789
 30
0.0
 10
109.3325167912432
 20
-138.0816663608789
 30
0.0
 10
109.3325167912432
 20
-138.0816663608789
 30
0.0
 10
109.5061496036998
 20
-138.0816663608789
 30
0.0
 10
109.5061496036998
 20
-138.0816663608789
 30
0.0
 10
109.6691026201521
 20
-138.0816663608789
 30
0.0
 10
109.8592718909379
 20
-138.0816663608789
 30
0.0
 10
110.0160237355168
 20
-138.0711588196488
 30
0.0
 10
110.0160237355168
 20
-138.0711588196488
 30
0.0
 10
110.0160237355168
 20
-138.24255232004
 30
0.0
 10
110.0160237355168
 20
-138.24255232004
 30
0.0
 10
109.8065619300136
 20
-138.2341118361012
 30
0.0
 10
109.6098469778058
 20
-138.2318725240358
 30
0.0
 10
109.5061496036998
 20
-138.2318725240358
 30
0.0
 10
109.5061496036998
 20
-138.2318725240358
 30
0.0
 10
109.3325167912432
 20
-138.2318725240358
 30
0.0
 10
109.3325167912432
 20
-138.2318725240358
 30
0.0
 10
109.3325167912432
 20
-138.2318725240358
 30
0.0
 10
109.3325167912432
 20
-138.3398762674983
 30
0.0
 10
109.3325167912432
 20
-138.3398762674983
 30
0.0
 10
109.3325167912432
 20
-138.3398762674983
 30
0.0
 10
109.563338188755
 20
-138.3398762674983
 30
0.0
 10
109.563338188755
 20
-138.3398762674983
 30
0.0
 10
109.6963188744856
 20
-138.3398762674983
 30
0.0
 10
109.9843288570525
 20
-138.3355698981418
 30
0.0
 10
110.1934461530072
 20
-138.3291964714941
 30
0.0
 10
110.1934461530072
 20
-138.3291964714941
 30
0.0
 10
110.1934461530072
 20
-138.5069633985329
 30
0.0
 10
110.1934461530072
 20
-138.5069633985329
 30
0.0
 10
110.0012098249302
 20
-138.5005899718852
 30
0.0
 10
109.688050645321
 20
-138.4962836025287
 30
0.0
 10
109.563338188755
 20
-138.4962836025287
 30
0.0
  0
HATCH
  5
E2
330
D6
100
AcDbEntity
  8
レイヤー 1
 62
   250
420
  2299925
440
 33554687
100
AcDbHatch
 10
0.0
 20
0.0
 30
0.0
210
0.0
220
0.0
230
1.0
  2
SOLID
 70
     1
 71
     1
 91
        4
 92
        1
 93
        1
 72
     4
 94
        3
 73
     0
 74
     0
 95
       17
 96
       13
 40
0.0
 40
0.0
 40
0.0
 40
0.0
 40
1.0
 40
1.0
 40
1.0
 40
2.0
 40
2.0
 40
2.0
 40
3.0
 40
3.0
 40
3.0
 40
4.0
 40
4.0
 40
4.0
 40
4.0
 10
109.7283582624984
 20
-139.2283663931443
 10
109.7283582624984
 20
-139.2283663931443
 10
109.0217691784737
 20
-139.2283663931443
 10
109.0217691784737
 20
-139.2283663931443
 10
109.0217691784737
 20
-139.2283663931443
 10
109.0217691784737
 20
-139.3425713084803
 10
109.0217691784737
 20
-139.3425713084803
 10
109.0217691784737
 20
-139.3425713084803
 10
109.7283582624984
 20
-139.3425713084803
 10
109.7283582624984
 20
-139.3425713084803
 10
109.7283582624984
 20
-139.3425713084803
 10
109.7283582624984
 20
-139.2283663931443
 10
109.7283582624984
 20
-139.2283663931443
 97
        0
 97
        1
330
DE
 92
        1
 93
        1
 72
     4
 94
        3
 73
     0
 74
     0
 95
       17
 96
       13
 40
0.0
 40
0.0
 40
0.0
 40
0.0
 40
1.0
 40
1.0
 40
1.0
 40
2.0
 40
2.0
 40
2.0
 40
3.0
 40
3.0
 40
3.0
 40
4.0
 40
4.0
 40
4.0
 40
4.0
 10
109.7283582624984
 20
-138.9849703971114
 10
109.7283582624984
 20
-138.9849703971114
 10
109.0217691784737
 20
-138.9849703971114
 10
109.0217691784737
 20
-138.9849703971114
 10
109.0217691784737
 20
-138.9849703971114
 10
109.0217691784737
 20
-139.0993475672217
 10
109.0217691784737
 20
-139.0993475672217
 10
109.0217691784737
 20
-139.0993475672217
 10
109.7283582624984
 20
-139.0993475672217
 10
109.7283582624984
 20
-139.0993475672217
 10
109.7283582624984
 20
-139.0993475672217
 10
109.7283582624984
 20
-138.9849703971114
 10
109.7283582624984
 20
-138.9849703971114
 97
        0
 97
        1
330
DF
 92
        1
 93
        1
 72
     4
 94
        3
 73
     0
 74
     0
 95
       17
 96
       13
 40
0.0
 40
0.0
 40
0.0
 40
0.0
 40
1.0
 40
1.0
 40
1.0
 40
2.0
 40
2.0
 40
2.0
 40
3.0
 40
3.0
 40
3.0
 40
4.0
 40
4.0
 40
4.0
 40
4.0
 10
109.7283582624984
 20
-138.7522541970827
 10
109.7283582624984
 20
-138.7522541970827
 10
109.0217691784737
 20
-138.7522541970827
 10
109.0217691784737
 20
-138.7522541970827
 10
109.0217691784737
 20
-138.7522541970827
 10
109.0217691784737
 20
-138.8602579405453
 10
109.0217691784737
 20
-138.8602579405453
 10
109.0217691784737
 20
-138.8602579405453
 10
109.7283582624984
 20
-138.8602579405453
 10
109.7283582624984
 20
-138.8602579405453
 10
109.7283582624984
 20
-138.8602579405453
 10
109.7283582624984
 20
-138.7522541970827
 10
109.7283582624984
 20
-138.7522541970827
 97
        0
 97
        1
330
E0
 92
        1
 93
        1
 72
     4
 94
        3
 73
     0
 74
     0
 95
      203
 96
      199
 40
0.0
 40
0.0
 40
0.0
 40
0.0
 40
1.0
 40
1.0
 40
1.0
 40
2.0
 40
2.0
 40
2.0
 40
3.0
 40
3.0
 40
3.0
 40
4.0
 40
4.0
 40
4.0
 40
5.0
 40
5.0
 40
5.0
 40
6.0
 40
6.0
 40
6.0
 40
7.0
 40
7.0
 40
7.0
 40
8.0
 40
8.0
 40
8.0
 40
9.0
 40
9.0
 40
9.0
 40
10.0
 40
10.0
 40
10.0
 40
11.0
 40
11.0
 40
11.0
 40
12.0
 40
12.0
 40
12.0
 40
13.0
 40
13.0
 40
13.0
 40
14.0
 40
14.0
 40
14.0
 40
15.0
 40
15.0
 40
15.0
 40
16.0
 40
16.0
 40
16.0
 40
17.0
 40
17.0
 40
17.0
 40
18.0
 40
18.0
 40
18.0
 40
19.0
 40
19.0
 40
19.0
 40
20.0
 40
20.0
 40
20.0
 40
21.0
 40
21.0
 40
21.0
 40
22.0
 40
22.0
 40
22.0
 40
23.0
 40
23.0
 40
23.0
 40
24.0
 40
24.0
 40
24.0
 40
25.0
 40
25.0
 40
25.0
 40
26.0
 40
26.0
 40
26.0
 40
27.0
 40
27.0
 40
27.0
 40
28.0
 40
28.0
 40
28.0
 40
29.0
 40
29.0
 40
29.0
 40
30.0
 40
30.0
 40
30.0
 40
31.0
 40
31.0
 40
31.0
 40
32.0
 40
32.0
 40
32.0
 40
33.0
 40
33.0
 40
33.0
 40
34.0
 40
34.0
 40
34.0
 40
35.0
 40
35.0
 40
35.0
 40
36.0
 40
36.0
 40
36.0
 40
37.0
 40
37.0
 40
37.0
 40
38.0
 40
38.0
 40
38.0
 40
39.0
 40
39.0
 40
39.0
 40
40.0
 40
40.0
 40
40.0
 40
41.0
 40
41.0
 40
41.0
 40
42.0
 40
42.0
 40
42.0
 40
43.0
 40
43.0
 40
43.0
 40
44.0
 40
44.0
 40
44.0
 40
45.0
 40
45.0
 40
45.0
 40
46.0
 40
46.0
 40
46.0
 40
47.0
 40
47.0
 40
47.0
 40
48.0
 40
48.0
 40
48.0
 40
49.0
 40
49.0
 40
49.0
 40
50.0
 40
50.0
 40
50.0
 40
51.0
 40
51.0
 40
51.0
 40
52.0
 40
52.0
 40
52.0
 40
53.0
 40
53.0
 40
53.0
 40
54.0
 40
54.0
 40
54.0
 40
55.0
 40
55.0
 40
55.0
 40
56.0
 40
56.0
 40
56.0
 40
57.0
 40
57.0
 40
57.0
 40
58.0
 40
58.0
 40
58.0
 40
59.0
 40
59.0
 40
59.0
 40
60.0
 40
60.0
 40
60.0
 40
61.0
 40
61.0
 40
61.0
 40
62.0
 40
62.0
 40
62.0
 40
63.0
 40
63.0
 40
63.0
 40
64.0
 40
64.0
 40
64.0
 40
65.0
 40
65.0
 40
65.0
 40
66.0
 40
66.0
 40
66.0
 40
66.0
 10
109.563338188755
 20
-138.4962836025287
 10
109.563338188755
 20
-138.4962836025287
 10
109.0045437010475
 20
-138.4962836025287
 10
109.0045437010475
 20
-138.4962836025287
 10
108.9942084145917
 20
-138.5407253342884
 10
108.9855956758786
 20
-138.5724202127527
 10
108.9728488225832
 20
-138.610660772639
 10
108.998342529174
 20
-138.610660772639
 10
109.0131564397606
 20
-138.6127278299301
 10
109.019357611634
 20
-138.6127278299301
 10
109.019357611634
 20
-138.6127278299301
 10
109.2078043346772
 20
-138.6127278299301
 10
109.2078043346772
 20
-138.6127278299301
 10
109.2078043346772
 20
-138.6127278299301
 10
109.5822862139238
 20
-138.6127278299301
 10
109.5822862139238
 20
-138.6127278299301
 10
109.632929117557
 20
-138.6127278299301
 10
109.9164604759931
 20
-138.5999809766347
 10
109.9481553544574
 20
-138.5999809766347
 10
109.9460882971662
 20
-138.6275417405167
 10
109.9440212398751
 20
-138.6464897656856
 10
109.9440212398751
 20
-138.6761175868587
 10
109.9419541825839
 20
-138.707812465323
 10
109.9419541825839
 20
-138.8432047178933
 10
109.9419541825839
 20
-138.8707654817753
 10
109.9419541825839
 20
-138.8707654817753
 10
109.9419541825839
 20
-139.1162285350994
 10
109.9419541825839
 20
-139.1162285350994
 10
109.9419541825839
 20
-139.1606702668591
 10
109.9460882971662
 20
-139.3573852190669
 10
109.9502224117485
 20
-139.5096584395149
 10
109.9502224117485
 20
-139.5096584395149
 10
109.7238796383676
 20
-139.5096584395149
 10
109.7238796383676
 20
-139.5096584395149
 10
109.7238796383676
 20
-139.5096584395149
 10
109.7259466956588
 20
-139.4758965037595
 10
109.7259466956588
 20
-139.4758965037595
 10
109.7259466956588
 20
-139.4758965037595
 10
109.0238362357649
 20
-139.4758965037595
 10
109.0238362357649
 20
-139.4758965037595
 10
109.0238362357649
 20
-139.4758965037595
 10
109.025903293056
 20
-139.5096584395149
 10
109.025903293056
 20
-139.5096584395149
 10
109.025903293056
 20
-139.5096584395149
 10
108.8078287488397
 20
-139.5096584395149
 10
108.8078287488397
 20
-139.5096584395149
 10
108.8123073729705
 20
-139.4547091665252
 10
108.8123073729705
 20
-139.4419623132298
 10
108.818508544844
 20
-139.3277573978937
 10
108.8205756021351
 20
-139.3001966340117
 10
108.8226426594263
 20
-139.1670436935068
 10
108.8226426594263
 20
-139.1479234135637
 10
108.8226426594263
 20
-139.1479234135637
 10
108.8226426594263
 20
-138.9448350347082
 10
108.8226426594263
 20
-138.9448350347082
 10
108.6831162922736
 20
-139.1944322026146
 10
108.5139621039479
 20
-139.3256903406026
 10
108.4081976725507
 20
-139.3911471548223
 10
108.4081976725507
 20
-139.3911471548223
 10
108.2345648600941
 20
-139.2516207876697
 10
108.2345648600941
 20
-139.2516207876697
 10
108.3234483236136
 20
-139.2008056292623
 10
108.467453314897
 20
-139.113989223034
 10
108.6049126247585
 20
-138.9195135828916
 10
108.6958631455691
 20
-138.7925618142602
 10
108.7613199597888
 20
-138.648729077751
 10
108.7954264050928
 20
-138.4962836025287
 10
108.5666720648722
 20
-138.4985229145941
 10
108.3868380805422
 20
-138.5048963412418
 10
108.2917534451492
 20
-138.5069633985329
 10
108.2917534451492
 20
-138.5069633985329
 10
108.2917534451492
 20
-138.3291964714941
 10
108.2917534451492
 20
-138.3291964714941
 10
108.488468397357
 20
-138.3355698981418
 10
108.7719997557931
 20
-138.3398762674983
 10
108.92220591895
 20
-138.3398762674983
 10
108.92220591895
 20
-138.3398762674983
 10
109.1358018390355
 20
-138.3398762674983
 10
109.1358018390355
 20
-138.3398762674983
 10
109.1358018390355
 20
-138.3398762674983
 10
109.1358018390355
 20
-138.2318725240358
 10
109.1358018390355
 20
-138.2318725240358
 10
109.1358018390355
 20
-138.2318725240358
 10
108.9897297904609
 20
-138.2318725240358
 10
108.9897297904609
 20
-138.2318725240358
 10
108.8205756021351
 20
-138.2318725240358
 10
108.6514214138093
 20
-138.2361788933923
 10
108.4843342827747
 20
-138.24255232004
 10
108.4843342827747
 20
-138.24255232004
 10
108.4843342827747
 20
-138.0711588196488
 10
108.4843342827747
 20
-138.0711588196488
 10
108.6386745605139
 20
-138.0816663608789
 10
108.8247097167174
 20
-138.0816663608789
 10
108.9897297904609
 20
-138.0816663608789
 10
108.9897297904609
 20
-138.0816663608789
 10
109.1358018390355
 20
-138.0816663608789
 10
109.1358018390355
 20
-138.0816663608789
 10
109.1358018390355
 20
-138.0816663608789
 10
109.1358018390355
 20
-137.9633273309605
 10
109.1358018390355
 20
-137.9633273309605
 10
109.1358018390355
 20
-137.9633273309605
 10
109.0045437010475
 20
-137.9633273309605
 10
109.0045437010475
 20
-137.9633273309605
 10
108.9580349119966
 20
-137.9633273309605
 10
108.7551187879154
 20
-137.9717678148994
 10
108.7127441134468
 20
-137.9717678148994
 10
108.5098279893656
 20
-137.9759019294817
 10
108.433346869593
 20
-137.9779689867729
 10
108.3551432020779
 20
-137.9802082988383
 10
108.3551432020779
 20
-137.9802082988383
 10
108.3551432020779
 20
-137.7960679451517
 10
108.3551432020779
 20
-137.7960679451517
 10
108.4695203721881
 20
-137.8045084290905
 10
108.5139621039479
 20
-137.8045084290905
 10
108.8967122123591
 20
-137.8131211678036
 10
108.8333224554305
 20
-137.7178642776365
 10
108.8057616915485
 20
-137.6903035137545
 10
108.7699326985019
 20
-137.6543022659336
 10
108.7699326985019
 20
-137.6543022659336
 10
108.9452880587012
 20
-137.5717922290619
 10
108.9452880587012
 20
-137.5717922290619
 10
108.9855956758786
 20
-137.6077934768828
 10
109.0300374076383
 20
-137.6501681513513
 10
109.1041069605712
 20
-137.7600666973308
 10
109.1041069605712
 20
-137.7600666973308
 10
108.9897297904609
 20
-137.8151882250948
 10
108.9897297904609
 20
-137.8151882250948
 10
108.9897297904609
 20
-137.8151882250948
 10
109.0004095864651
 20
-137.8151882250948
 10
109.0004095864651
 20
-137.8151882250948
 10
109.0004095864651
 20
-137.8151882250948
 10
109.5230305715775
 20
-137.8151882250948
 10
109.5230305715775
 20
-137.8151882250948
 10
109.5230305715775
 20
-137.8151882250948
 10
109.4279459361847
 20
-137.7707464933351
 10
109.4279459361847
 20
-137.7707464933351
 10
109.4551621905181
 20
-137.7326781882231
 10
109.5123507755733
 20
-137.6522352086425
 10
109.5271646861599
 20
-137.5781656557096
 10
109.5271646861599
 20
-137.5781656557096
 10
109.7407606062454
 20
-137.6417276674125
 10
109.7407606062454
 20
-137.6417276674125
 10
109.7493733449585
 20
-137.6437947247036
 10
109.7703884274185
 20
-137.6543022659336
 10
109.7703884274185
 20
-137.6754896031679
 10
109.7703884274185
 20
-137.7135579082799
 10
109.7049316131987
 20
-137.7135579082799
 10
109.6859835880299
 20
-137.7135579082799
 10
109.6753037920256
 20
-137.7326781882231
 10
109.6518771427259
 20
-137.7728135506262
 10
109.6222493215528
 20
-137.8131211678036
 10
110.0222249073903
 20
-137.8067477411559
 10
110.0518527285634
 20
-137.8045084290905
 10
110.1279893387874
 20
-137.7983072572171
 10
110.1279893387874
 20
-137.7983072572171
 10
110.1279893387874
 20
-137.9802082988383
 10
110.1279893387874
 20
-137.9802082988383
 10
110.1090413136186
 20
-137.9802082988383
 10
110.0835476070277
 20
-137.9779689867729
 10
109.8637505150688
 20
-137.969528502834
 10
109.812763101887
 20
-137.9674614455428
 10
109.5929660099281
 20
-137.9633273309605
 10
109.5485242781684
 20
-137.9633273309605
 10
109.5485242781684
 20
-137.9633273309605
 10
109.3325167912432
 20
-137.9633273309605
 10
109.3325167912432
 20
-137.9633273309605
 10
109.3325167912432
 20
-137.9633273309605
 10
109.3325167912432
 20
-138.0816663608789
 10
109.3325167912432
 20
-138.0816663608789
 10
109.3325167912432
 20
-138.0816663608789
 10
109.5061496036998
 20
-138.0816663608789
 10
109.5061496036998
 20
-138.0816663608789
 10
109.6691026201521
 20
-138.0816663608789
 10
109.8592718909379
 20
-138.0816663608789
 10
110.0160237355168
 20
-138.0711588196488
 10
110.0160237355168
 20
-138.0711588196488
 10
110.0160237355168
 20
-138.24255232004
 10
110.0160237355168
 20
-138.24255232004
 10
109.8065619300136
 20
-138.2341118361012
 10
109.6098469778058
 20
-138.2318725240358
 10
109.5061496036998
 20
-138.2318725240358
 10
109.5061496036998
 20
-138.2318725240358
 10
109.3325167912432
 20
-138.2318725240358
 10
109.3325167912432
 20
-138.2318725240358
 10
109.3325167912432
 20
-138.2318725240358
 10
109.3325167912432
 20
-138.3398762674983
 10
109.3325167912432
 20
-138.3398762674983
 10
109.3325167912432
 20
-138.3398762674983
 10
109.563338188755
 20
-138.3398762674983
 10
109.563338188755
 20
-138.3398762674983
 10
109.6963188744856
 20
-138.3398762674983
 10
109.9843288570525
 20
-138.3355698981418
 10
110.1934461530072
 20
-138.3291964714941
 10
110.1934461530072
 20
-138.3291964714941
 10
110.1934461530072
 20
-138.5069633985329
 10
110.1934461530072
 20
-138.5069633985329
 10
110.0012098249302
 20
-138.5005899718852
 10
109.688050645321
 20
-138.4962836025287
 10
109.563338188755
 20
-138.4962836025287
 97
        0
 97
        1
330
E1
 75
     2
 76
     1
 98
        1
 10
0.0
 20
0.0
450
        0
451
        0
460
0.0
461
0.0
452
        0
462
0.0
453
        0
470

  0
SPLINE
  5
E3
330
D6
100
AcDbEntity
  8
レイヤー 1
100
AcDbSpline
210
0.0
220
0.0
230
1.0
 70
     9
 71
     3
 72
    29
 73
    25
 74
     0
 42
0.0000000001
 43
0.0000000001
 40
0.0
 40
0.0
 40
0.0
 40
0.0
 40
1.0
 40
1.0
 40
1.0
 40
2.0
 40
2.0
 40
2.0
 40
3.0
 40
3.0
 40
3.0
 40
4.0
 40
4.0
 40
4.0
 40
5.0
 40
5.0
 40
5.0
 40
6.0
 40
6.0
 40
6.0
 40
7.0
 40
7.0
 40
7.0
 40
8.0
 40
8.0
 40
8.0
 40
8.0
 10
111.4385036613765
 20
-137.9442070510174
 30
0.0
 10
111.4385036613765
 20
-137.9442070510174
 30
0.0
 10
111.0850368645898
 20
-137.9442070510174
 30
0.0
 10
111.0850368645898
 20
-137.9442070510174
 30
0.0
 10
110.9730712613192
 20
-137.9442070510174
 30
0.0
 10
110.8335448941666
 20
-137.9505804776651
 30
0.0
 10
110.7257134054783
 20
-137.9633273309605
 30
0.0
 10
110.7257134054783
 20
-137.9633273309605
 30
0.0
 10
110.7257134054783
 20
-137.7283718188665
 30
0.0
 10
110.7257134054783
 20
-137.7283718188665
 30
0.0
 10
110.8438801806223
 20
-137.7431857294531
 30
0.0
 10
111.0281927890832
 20
-137.7474920988096
 30
0.0
 10
111.0850368645898
 20
-137.7474920988096
 30
0.0
 10
111.0850368645898
 20
-137.7474920988096
 30
0.0
 10
111.4385036613765
 20
-137.7474920988096
 30
0.0
 10
111.4385036613765
 20
-137.7474920988096
 30
0.0
 10
111.4574516865453
 20
-137.7474920988096
 30
0.0
 10
111.6607123201751
 20
-137.7474920988096
 30
0.0
 10
111.8023057446189
 20
-137.7283718188665
 30
0.0
 10
111.8023057446189
 20
-137.7283718188665
 30
0.0
 10
111.8023057446189
 20
-137.9633273309605
 30
0.0
 10
111.8023057446189
 20
-137.9633273309605
 30
0.0
 10
111.6458984095885
 20
-137.9442070510174
 30
0.0
 10
111.4553846292542
 20
-137.9442070510174
 30
0.0
 10
111.4385036613765
 20
-137.9442070510174
 30
0.0
  0
SPLINE
  5
E4
330
D6
100
AcDbEntity
  8
レイヤー 1
100
AcDbSpline
210
0.0
220
0.0
230
1.0
 70
     9
 71
     3
 72
    47
 73
    43
 74
     0
 42
0.0000000001
 43
0.0000000001
 40
0.0
 40
0.0
 40
0.0
 40
0.0
 40
1.0
 40
1.0
 40
1.0
 40
2.0
 40
2.0
 40
2.0
 40
3.0
 40
3.0
 40
3.0
 40
4.0
 40
4.0
 40
4.0
 40
5.0
 40
5.0
 40
5.0
 40
6.0
 40
6.0
 40
6.0
 40
7.0
 40
7.0
 40
7.0
 40
8.0
 40
8.0
 40
8.0
 40
9.0
 40
9.0
 40
9.0
 40
10.0
 40
10.0
 40
10.0
 40
11.0
 40
11.0
 40
11.0
 40
12.0
 40
12.0
 40
12.0
 40
13.0
 40
13.0
 40
13.0
 40
14.0
 40
14.0
 40
14.0
 40
14.0
 10
111.5401339781913
 20
-138.4730292080033
 30
0.0
 10
111.5401339781913
 20
-138.4730292080033
 30
0.0
 10
111.4385036613765
 20
-138.4730292080033
 30
0.0
 10
111.4385036613765
 20
-138.4730292080033
 30
0.0
 10
111.4385036613765
 20
-138.5598456142315
 30
0.0
 10
111.4174885789164
 20
-138.9491414040648
 30
0.0
 10
111.2207736267087
 20
-139.169110750798
 30
0.0
 10
111.0681558967121
 20
-139.3382649391238
 30
0.0
 10
110.8611056580486
 20
-139.4082003774743
 30
0.0
 10
110.7763563091115
 20
-139.435588886582
 30
0.0
 10
110.7763563091115
 20
-139.435588886582
 30
0.0
 10
110.5817084141948
 20
-139.2685017555475
 30
0.0
 10
110.5817084141948
 20
-139.2685017555475
 30
0.0
 10
110.6792046164274
 20
-139.255754902252
 30
0.0
 10
110.8545599766266
 20
-139.2325005077266
 30
0.0
 10
111.0430066996698
 20
-139.0442260394577
 30
0.0
 10
111.1170762526027
 20
-138.9723957985902
 30
0.0
 10
111.2207736267087
 20
-138.8326971766633
 30
0.0
 10
111.2207736267087
 20
-138.4730292080033
 30
0.0
 10
111.2207736267087
 20
-138.4730292080033
 30
0.0
 10
110.9899522291969
 20
-138.4730292080033
 30
0.0
 10
110.9899522291969
 20
-138.4730292080033
 30
0.0
 10
110.8039170729934
 20
-138.4730292080033
 30
0.0
 10
110.6175374072414
 20
-138.4773355773598
 30
0.0
 10
110.4315022510379
 20
-138.4921494879464
 30
0.0
 10
110.4315022510379
 20
-138.4921494879464
 30
0.0
 10
110.4315022510379
 20
-138.2721801412132
 30
0.0
 10
110.4315022510379
 20
-138.2721801412132
 30
0.0
 10
110.6199489740811
 20
-138.2869940517998
 30
0.0
 10
110.9055473898083
 20
-138.2911281663821
 30
0.0
 10
110.9899522291969
 20
-138.2911281663821
 30
0.0
 10
110.9899522291969
 20
-138.2911281663821
 30
0.0
 10
111.5401339781913
 20
-138.2911281663821
 30
0.0
 10
111.5401339781913
 20
-138.2911281663821
 30
0.0
 10
111.5590820033602
 20
-138.2911281663821
 30
0.0
 10
111.8763752975517
 20
-138.2911281663821
 30
0.0
 10
112.1047851282238
 20
-138.2721801412132
 30
0.0
 10
112.1047851282238
 20
-138.2721801412132
 30
0.0
 10
112.1047851282238
 20
-138.4921494879464
 30
0.0
 10
112.1047851282238
 20
-138.4921494879464
 30
0.0
 10
111.9166829147291
 20
-138.4773355773598
 30
0.0
 10
111.728236191686
 20
-138.4730292080033
 30
0.0
 10
111.5401339781913
 20
-138.4730292080033
 30
0.0
  0
HATCH
  5
E5
330
D6
100
AcDbEntity
  8
レイヤー 1
 62
   250
420
  2299925
440
 33554687
100
AcDbHatch
 10
0.0
 20
0.0
 30
0.0
210
0.0
220
0.0
230
1.0
  2
SOLID
 70
     1
 71
     1
 91
        2
 92
        1
 93
        1
 72
     4
 94
        3
 73
     0
 74
     0
 95
       29
 96
       25
 40
0.0
 40
0.0
 40
0.0
 40
0.0
 40
1.0
 40
1.0
 40
1.0
 40
2.0
 40
2.0
 40
2.0
 40
3.0
 40
3.0
 40
3.0
 40
4.0
 40
4.0
 40
4.0
 40
5.0
 40
5.0
 40
5.0
 40
6.0
 40
6.0
 40
6.0
 40
7.0
 40
7.0
 40
7.0
 40
8.0
 40
8.0
 40
8.0
 40
8.0
 10
111.4385036613765
 20
-137.9442070510174
 10
111.4385036613765
 20
-137.9442070510174
 10
111.0850368645898
 20
-137.9442070510174
 10
111.0850368645898
 20
-137.9442070510174
 10
110.9730712613192
 20
-137.9442070510174
 10
110.8335448941666
 20
-137.9505804776651
 10
110.7257134054783
 20
-137.9633273309605
 10
110.7257134054783
 20
-137.9633273309605
 10
110.7257134054783
 20
-137.7283718188665
 10
110.7257134054783
 20
-137.7283718188665
 10
110.8438801806223
 20
-137.7431857294531
 10
111.0281927890832
 20
-137.7474920988096
 10
111.0850368645898
 20
-137.7474920988096
 10
111.0850368645898
 20
-137.7474920988096
 10
111.4385036613765
 20
-137.7474920988096
 10
111.4385036613765
 20
-137.7474920988096
 10
111.4574516865453
 20
-137.7474920988096
 10
111.6607123201751
 20
-137.7474920988096
 10
111.8023057446189
 20
-137.7283718188665
 10
111.8023057446189
 20
-137.7283718188665
 10
111.8023057446189
 20
-137.9633273309605
 10
111.8023057446189
 20
-137.9633273309605
 10
111.6458984095885
 20
-137.9442070510174
 10
111.4553846292542
 20
-137.9442070510174
 10
111.4385036613765
 20
-137.9442070510174
 97
        0
 97
        1
330
E3
 92
        1
 93
        1
 72
     4
 94
        3
 73
     0
 74
     0
 95
       47
 96
       43
 40
0.0
 40
0.0
 40
0.0
 40
0.0
 40
1.0
 40
1.0
 40
1.0
 40
2.0
 40
2.0
 40
2.0
 40
3.0
 40
3.0
 40
3.0
 40
4.0
 40
4.0
 40
4.0
 40
5.0
 40
5.0
 40
5.0
 40
6.0
 40
6.0
 40
6.0
 40
7.0
 40
7.0
 40
7.0
 40
8.0
 40
8.0
 40
8.0
 40
9.0
 40
9.0
 40
9.0
 40
10.0
 40
10.0
 40
10.0
 40
11.0
 40
11.0
 40
11.0
 40
12.0
 40
12.0
 40
12.0
 40
13.0
 40
13.0
 40
13.0
 40
14.0
 40
14.0
 40
14.0
 40
14.0
 10
111.5401339781913
 20
-138.4730292080033
 10
111.5401339781913
 20
-138.4730292080033
 10
111.4385036613765
 20
-138.4730292080033
 10
111.4385036613765
 20
-138.4730292080033
 10
111.4385036613765
 20
-138.5598456142315
 10
111.4174885789164
 20
-138.9491414040648
 10
111.2207736267087
 20
-139.169110750798
 10
111.0681558967121
 20
-139.3382649391238
 10
110.8611056580486
 20
-139.4082003774743
 10
110.7763563091115
 20
-139.435588886582
 10
110.7763563091115
 20
-139.435588886582
 10
110.5817084141948
 20
-139.2685017555475
 10
110.5817084141948
 20
-139.2685017555475
 10
110.6792046164274
 20
-139.255754902252
 10
110.8545599766266
 20
-139.2325005077266
 10
111.0430066996698
 20
-139.0442260394577
 10
111.1170762526027
 20
-138.9723957985902
 10
111.2207736267087
 20
-138.8326971766633
 10
111.2207736267087
 20
-138.4730292080033
 10
111.2207736267087
 20
-138.4730292080033
 10
110.9899522291969
 20
-138.4730292080033
 10
110.9899522291969
 20
-138.4730292080033
 10
110.8039170729934
 20
-138.4730292080033
 10
110.6175374072414
 20
-138.4773355773598
 10
110.4315022510379
 20
-138.4921494879464
 10
110.4315022510379
 20
-138.4921494879464
 10
110.4315022510379
 20
-138.2721801412132
 10
110.4315022510379
 20
-138.2721801412132
 10
110.6199489740811
 20
-138.2869940517998
 10
110.9055473898083
 20
-138.2911281663821
 10
110.9899522291969
 20
-138.2911281663821
 10
110.9899522291969
 20
-138.2911281663821
 10
111.5401339781913
 20
-138.2911281663821
 10
111.5401339781913
 20
-138.2911281663821
 10
111.5590820033602
 20
-138.2911281663821
 10
111.8763752975517
 20
-138.2911281663821
 10
112.1047851282238
 20
-138.2721801412132
 10
112.1047851282238
 20
-138.2721801412132
 10
112.1047851282238
 20
-138.4921494879464
 10
112.1047851282238
 20
-138.4921494879464
 10
111.9166829147291
 20
-138.4773355773598
 10
111.728236191686
 20
-138.4730292080033
 10
111.5401339781913
 20
-138.4730292080033
 97
        0
 97
        1
330
E4
 75
     2
 76
     1
 98
        1
 10
0.0
 20
0.0
450
        0
451
        0
460
0.0
461
0.0
452
        0
462
0.0
453
        0
470

  0
SPLINE
  5
E6
330
D6
100
AcDbEntity
  8
レイヤー 1
100
AcDbSpline
210
0.0
220
0.0
230
1.0
 70
     9
 71
     3
 72
    29
 73
    25
 74
     0
 42
0.0000000001
 43
0.0000000001
 40
0.0
 40
0.0
 40
0.0
 40
0.0
 40
1.0
 40
1.0
 40
1.0
 40
2.0
 40
2.0
 40
2.0
 40
3.0
 40
3.0
 40
3.0
 40
4.0
 40
4.0
 40
4.0
 40
5.0
 40
5.0
 40
5.0
 40
6.0
 40
6.0
 40
6.0
 40
7.0
 40
7.0
 40
7.0
 40
8.0
 40
8.0
 40
8.0
 40
8.0
 10
113.3860161391882
 20
-138.6359822244556
 30
0.0
 10
113.3860161391882
 20
-138.6359822244556
 30
0.0
 10
112.9016357139621
 20
-138.6359822244556
 30
0.0
 10
112.9016357139621
 20
-138.6359822244556
 30
0.0
 10
112.8740749500801
 20
-138.6359822244556
 30
0.0
 10
112.5567816558886
 20
-138.6359822244556
 30
0.0
 10
112.3452527930942
 20
-138.6613036762722
 30
0.0
 10
112.3452527930942
 20
-138.6613036762722
 30
0.0
 10
112.3452527930942
 20
-138.4308267883089
 30
0.0
 10
112.3452527930942
 20
-138.4308267883089
 30
0.0
 10
112.5037271854157
 20
-138.4540811828344
 30
0.0
 10
112.69424096575
 20
-138.4561482401255
 30
0.0
 10
112.9016357139621
 20
-138.4561482401255
 30
0.0
 10
112.9016357139621
 20
-138.4561482401255
 30
0.0
 10
113.3860161391882
 20
-138.4561482401255
 30
0.0
 10
113.3860161391882
 20
-138.4561482401255
 30
0.0
 10
113.5720512953917
 20
-138.4561482401255
 30
0.0
 10
113.7584309611437
 20
-138.4540811828344
 30
0.0
 10
113.942399060056
 20
-138.4308267883089
 30
0.0
 10
113.942399060056
 20
-138.4308267883089
 30
0.0
 10
113.942399060056
 20
-138.6613036762722
 30
0.0
 10
113.942399060056
 20
-138.6613036762722
 30
0.0
 10
113.7584309611437
 20
-138.6380492817467
 30
0.0
 10
113.5107285957543
 20
-138.6359822244556
 30
0.0
 10
113.3860161391882
 20
-138.6359822244556
 30
0.0
  0
HATCH
  5
E7
330
D6
100
AcDbEntity
  8
レイヤー 1
 62
   250
420
  2299925
440
 33554687
100
AcDbHatch
 10
0.0
 20
0.0
 30
0.0
210
0.0
220
0.0
230
1.0
  2
SOLID
 70
     1
 71
     1
 91
        1
 92
        1
 93
        1
 72
     4
 94
        3
 73
     0
 74
     0
 95
       29
 96
       25
 40
0.0
 40
0.0
 40
0.0
 40
0.0
 40
1.0
 40
1.0
 40
1.0
 40
2.0
 40
2.0
 40
2.0
 40
3.0
 40
3.0
 40
3.0
 40
4.0
 40
4.0
 40
4.0
 40
5.0
 40
5.0
 40
5.0
 40
6.0
 40
6.0
 40
6.0
 40
7.0
 40
7.0
 40
7.0
 40
8.0
 40
8.0
 40
8.0
 40
8.0
 10
113.3860161391882
 20
-138.6359822244556
 10
113.3860161391882
 20
-138.6359822244556
 10
112.9016357139621
 20
-138.6359822244556
 10
112.9016357139621
 20
-138.6359822244556
 10
112.8740749500801
 20
-138.6359822244556
 10
112.5567816558886
 20
-138.6359822244556
 10
112.3452527930942
 20
-138.6613036762722
 10
112.3452527930942
 20
-138.6613036762722
 10
112.3452527930942
 20
-138.4308267883089
 10
112.3452527930942
 20
-138.4308267883089
 10
112.5037271854157
 20
-138.4540811828344
 10
112.69424096575
 20
-138.4561482401255
 10
112.9016357139621
 20
-138.4561482401255
 10
112.9016357139621
 20
-138.4561482401255
 10
113.3860161391882
 20
-138.4561482401255
 10
113.3860161391882
 20
-138.4561482401255
 10
113.5720512953917
 20
-138.4561482401255
 10
113.7584309611437
 20
-138.4540811828344
 10
113.942399060056
 20
-138.4308267883089
 10
113.942399060056
 20
-138.4308267883089
 10
113.942399060056
 20
-138.6613036762722
 10
113.942399060056
 20
-138.6613036762722
 10
113.7584309611437
 20
-138.6380492817467
 10
113.5107285957543
 20
-138.6359822244556
 10
113.3860161391882
 20
-138.6359822244556
 97
        0
 97
        1
330
E6
 75
     2
 76
     1
 98
        1
 10
0.0
 20
0.0
450
        0
451
        0
460
0.0
461
0.0
452
        0
462
0.0
453
        0
470

  0
SPLINE
  5
E8
330
D6
100
AcDbEntity
  8
レイヤー 1
100
AcDbSpline
210
0.0
220
0.0
230
1.0
 70
     9
 71
     3
 72
    17
 73
    13
 74
     0
 42
0.0000000001
 43
0.0000000001
 40
0.0
 40
0.0
 40
0.0
 40
0.0
 40
1.0
 40
1.0
 40
1.0
 40
2.0
 40
2.0
 40
2.0
 40
3.0
 40
3.0
 40
3.0
 40
4.0
 40
4.0
 40
4.0
 40
4.0
 10
115.8048176793821
 20
-137.6691161765202
 30
0.0
 10
115.7500406611666
 20
-137.6691161765202
 30
0.0
 10
115.7055989294069
 20
-137.7135579082799
 30
0.0
 10
115.7055989294069
 20
-137.7686794360439
 30
0.0
 10
115.7055989294069
 20
-137.8256957663248
 30
0.0
 10
115.7500406611666
 20
-137.8744438674411
 30
0.0
 10
115.8089517939644
 20
-137.8744438674411
 30
0.0
 10
115.8682074363107
 20
-137.8744438674411
 30
0.0
 10
115.9085150534881
 20
-137.8236287090336
 30
0.0
 10
115.9085150534881
 20
-137.7707464933351
 30
0.0
 10
115.9085150534881
 20
-137.7135579082799
 30
0.0
 10
115.8620062644373
 20
-137.6691161765202
 30
0.0
 10
115.8048176793821
 20
-137.6691161765202
 30
0.0
  0
SPLINE
  5
E9
330
D6
100
AcDbEntity
  8
レイヤー 1
100
AcDbSpline
210
0.0
220
0.0
230
1.0
 70
     9
 71
     3
 72
    17
 73
    13
 74
     0
 42
0.0000000001
 43
0.0000000001
 40
0.0
 40
0.0
 40
0.0
 40
0.0
 40
1.0
 40
1.0
 40
1.0
 40
2.0
 40
2.0
 40
2.0
 40
3.0
 40
3.0
 40
3.0
 40
4.0
 40
4.0
 40
4.0
 40
4.0
 10
115.8068847366733
 20
-137.9991563240071
 30
0.0
 10
115.6801052228161
 20
-137.9991563240071
 30
0.0
 10
115.5784749060012
 20
-137.8976982619665
 30
0.0
 10
115.5784749060012
 20
-137.7707464933351
 30
0.0
 10
115.5784749060012
 20
-137.6437947247036
 30
0.0
 10
115.6801052228161
 20
-137.5400973505976
 30
0.0
 10
115.8068847366733
 20
-137.5400973505976
 30
0.0
 10
115.934008760079
 20
-137.5400973505976
 30
0.0
 10
116.037706134185
 20
-137.6437947247036
 30
0.0
 10
116.037706134185
 20
-137.7707464933351
 30
0.0
 10
116.037706134185
 20
-137.8976982619665
 30
0.0
 10
115.934008760079
 20
-137.9991563240071
 30
0.0
 10
115.8068847366733
 20
-137.9991563240071
 30
0.0
  0
SPLINE
  5
EA
330
D6
100
AcDbEntity
  8
レイヤー 1
100
AcDbSpline
210
0.0
220
0.0
230
1.0
 70
     9
 71
     3
 72
    44
 73
    40
 74
     0
 42
0.0000000001
 43
0.0000000001
 40
0.0
 40
0.0
 40
0.0
 40
0.0
 40
1.0
 40
1.0
 40
1.0
 40
2.0
 40
2.0
 40
2.0
 40
3.0
 40
3.0
 40
3.0
 40
4.0
 40
4.0
 40
4.0
 40
5.0
 40
5.0
 40
5.0
 40
6.0
 40
6.0
 40
6.0
 40
7.0
 40
7.0
 40
7.0
 40
8.0
 40
8.0
 40
8.0
 40
9.0
 40
9.0
 40
9.0
 40
10.0
 40
10.0
 40
10.0
 40
11.0
 40
11.0
 40
11.0
 40
12.0
 40
12.0
 40
12.0
 40
13.0
 40
13.0
 40
13.0
 40
13.0
 10
115.5974229311701
 20
-138.1981105882803
 30
0.0
 10
115.4854573278994
 20
-138.5662190408792
 30
0.0
 10
115.4348144242663
 20
-138.724865687975
 30
0.0
 10
115.2380994720585
 20
-138.9744628558814
 30
0.0
 10
115.0537868635976
 20
-139.2051119986188
 30
0.0
 10
114.817108803761
 20
-139.3911471548223
 30
0.0
 10
114.5377115599072
 20
-139.4843369876983
 30
0.0
 10
114.5377115599072
 20
-139.4843369876983
 30
0.0
 10
114.3451307222818
 20
-139.3045030033683
 30
0.0
 10
114.3451307222818
 20
-139.3045030033683
 30
0.0
 10
114.9862629920868
 20
-139.1522297829203
 30
0.0
 10
115.3163031395737
 20
-138.5958468620524
 30
0.0
 10
115.3796928965023
 20
-138.1557359138117
 30
0.0
 10
115.3796928965023
 20
-138.1557359138117
 30
0.0
 10
114.6138481701312
 20
-138.1557359138117
 30
0.0
 10
114.6138481701312
 20
-138.1557359138117
 30
0.0
 10
114.5208305920295
 20
-138.1557359138117
 30
0.0
 10
114.3368624931172
 20
-138.1600422831683
 30
0.0
 10
114.1801106485383
 20
-138.1789903083372
 30
0.0
 10
114.1801106485383
 20
-138.1789903083372
 30
0.0
 10
114.1801106485383
 20
-137.959020961604
 30
0.0
 10
114.1801106485383
 20
-137.959020961604
 30
0.0
 10
114.2669270547666
 20
-137.9802082988383
 30
0.0
 10
114.5187635347383
 20
-137.9802082988383
 30
0.0
 10
114.6179822847135
 20
-137.9802082988383
 30
0.0
 10
114.6179822847135
 20
-137.9802082988383
 30
0.0
 10
115.0496527490153
 20
-137.9802082988383
 30
0.0
 10
115.0496527490153
 20
-137.9802082988383
 30
0.0
 10
115.0920274234839
 20
-137.9802082988383
 30
0.0
 10
115.3266384260294
 20
-137.9779689867729
 30
0.0
 10
115.3648789859157
 20
-137.9717678148994
 30
0.0
 10
115.4072536603843
 20
-137.9653943882517
 30
0.0
 10
115.4093207176754
 20
-137.9633273309605
 30
0.0
 10
115.4706434173129
 20
-137.9230197137831
 30
0.0
 10
115.4706434173129
 20
-137.9230197137831
 30
0.0
 10
115.6587456308075
 20
-138.0775322462966
 30
0.0
 10
115.6587456308075
 20
-138.0775322462966
 30
0.0
 10
115.6294623191829
 20
-138.1071600674697
 30
0.0
 10
115.6146484085963
 20
-138.138854945934
 30
0.0
 10
115.5974229311701
 20
-138.1981105882803
 30
0.0
  0
HATCH
  5
EB
330
D6
100
AcDbEntity
  8
レイヤー 1
 62
   250
420
  2299925
440
 33554687
100
AcDbHatch
 10
0.0
 20
0.0
 30
0.0
210
0.0
220
0.0
230
1.0
  2
SOLID
 70
     1
 71
     1
 91
        3
 92
        1
 93
        1
 72
     4
 94
        3
 73
     0
 74
     0
 95
       17
 96
       13
 40
0.0
 40
0.0
 40
0.0
 40
0.0
 40
1.0
 40
1.0
 40
1.0
 40
2.0
 40
2.0
 40
2.0
 40
3.0
 40
3.0
 40
3.0
 40
4.0
 40
4.0
 40
4.0
 40
4.0
 10
115.8048176793821
 20
-137.6691161765202
 10
115.7500406611666
 20
-137.6691161765202
 10
115.7055989294069
 20
-137.7135579082799
 10
115.7055989294069
 20
-137.7686794360439
 10
115.7055989294069
 20
-137.8256957663248
 10
115.7500406611666
 20
-137.8744438674411
 10
115.8089517939644
 20
-137.8744438674411
 10
115.8682074363107
 20
-137.8744438674411
 10
115.9085150534881
 20
-137.8236287090336
 10
115.9085150534881
 20
-137.7707464933351
 10
115.9085150534881
 20
-137.7135579082799
 10
115.8620062644373
 20
-137.6691161765202
 10
115.8048176793821
 20
-137.6691161765202
 97
        0
 97
        1
330
E8
 92
        1
 93
        1
 72
     4
 94
        3
 73
     0
 74
     0
 95
       17
 96
       13
 40
0.0
 40
0.0
 40
0.0
 40
0.0
 40
1.0
 40
1.0
 40
1.0
 40
2.0
 40
2.0
 40
2.0
 40
3.0
 40
3.0
 40
3.0
 40
4.0
 40
4.0
 40
4.0
 40
4.0
 10
115.8068847366733
 20
-137.9991563240071
 10
115.6801052228161
 20
-137.9991563240071
 10
115.5784749060012
 20
-137.8976982619665
 10
115.5784749060012
 20
-137.7707464933351
 10
115.5784749060012
 20
-137.6437947247036
 10
115.6801052228161
 20
-137.5400973505976
 10
115.8068847366733
 20
-137.5400973505976
 10
115.934008760079
 20
-137.5400973505976
 10
116.037706134185
 20
-137.6437947247036
 10
116.037706134185
 20
-137.7707464933351
 10
116.037706134185
 20
-137.8976982619665
 10
115.934008760079
 20
-137.9991563240071
 10
115.8068847366733
 20
-137.9991563240071
 97
        0
 97
        1
330
E9
 92
        1
 93
        1
 72
     4
 94
        3
 73
     0
 74
     0
 95
       44
 96
       40
 40
0.0
 40
0.0
 40
0.0
 40
0.0
 40
1.0
 40
1.0
 40
1.0
 40
2.0
 40
2.0
 40
2.0
 40
3.0
 40
3.0
 40
3.0
 40
4.0
 40
4.0
 40
4.0
 40
5.0
 40
5.0
 40
5.0
 40
6.0
 40
6.0
 40
6.0
 40
7.0
 40
7.0
 40
7.0
 40
8.0
 40
8.0
 40
8.0
 40
9.0
 40
9.0
 40
9.0
 40
10.0
 40
10.0
 40
10.0
 40
11.0
 40
11.0
 40
11.0
 40
12.0
 40
12.0
 40
12.0
 40
13.0
 40
13.0
 40
13.0
 40
13.0
 10
115.5974229311701
 20
-138.1981105882803
 10
115.4854573278994
 20
-138.5662190408792
 10
115.4348144242663
 20
-138.724865687975
 10
115.2380994720585
 20
-138.9744628558814
 10
115.0537868635976
 20
-139.2051119986188
 10
114.817108803761
 20
-139.3911471548223
 10
114.5377115599072
 20
-139.4843369876983
 10
114.5377115599072
 20
-139.4843369876983
 10
114.3451307222818
 20
-139.3045030033683
 10
114.3451307222818
 20
-139.3045030033683
 10
114.9862629920868
 20
-139.1522297829203
 10
115.3163031395737
 20
-138.5958468620524
 10
115.3796928965023
 20
-138.1557359138117
 10
115.3796928965023
 20
-138.1557359138117
 10
114.6138481701312
 20
-138.1557359138117
 10
114.6138481701312
 20
-138.1557359138117
 10
114.5208305920295
 20
-138.1557359138117
 10
114.3368624931172
 20
-138.1600422831683
 10
114.1801106485383
 20
-138.1789903083372
 10
114.1801106485383
 20
-138.1789903083372
 10
114.1801106485383
 20
-137.959020961604
 10
114.1801106485383
 20
-137.959020961604
 10
114.2669270547666
 20
-137.9802082988383
 10
114.5187635347383
 20
-137.9802082988383
 10
114.6179822847135
 20
-137.9802082988383
 10
114.6179822847135
 20
-137.9802082988383
 10
115.0496527490153
 20
-137.9802082988383
 10
115.0496527490153
 20
-137.9802082988383
 10
115.0920274234839
 20
-137.9802082988383
 10
115.3266384260294
 20
-137.9779689867729
 10
115.3648789859157
 20
-137.9717678148994
 10
115.4072536603843
 20
-137.9653943882517
 10
115.4093207176754
 20
-137.9633273309605
 10
115.4706434173129
 20
-137.9230197137831
 10
115.4706434173129
 20
-137.9230197137831
 10
115.6587456308075
 20
-138.0775322462966
 10
115.6587456308075
 20
-138.0775322462966
 10
115.6294623191829
 20
-138.1071600674697
 10
115.6146484085963
 20
-138.138854945934
 10
115.5974229311701
 20
-138.1981105882803
 97
        0
 97
        1
330
EA
 75
     2
 76
     1
 98
        1
 10
0.0
 20
0.0
450
        0
451
        0
460
0.0
461
0.0
452
        0
462
0.0
453
        0
470

  0
ENDBLK
  5
D9
330
D6
100
AcDbEntity
  8
0
100
AcDbBlockEnd
  0
ENDSEC
  0
SECTION
  2
ENTITIES
  0
INSERT
  5
7A
330
70
100
AcDbEntity
  8
レイヤー 1
100
AcDbBlockReference
  2
Block_0
 10
0.0
 20
0.0
 30
0.0
  0
INSERT
  5
CB
330
70
100
AcDbEntity
  8
レイヤー 1
100
AcDbBlockReference
  2
Block_9
 10
0.0
 20
0.0
 30
0.0
  0
ENDSEC
  0
SECTION
  2
OBJECTS
  0
DICTIONARY
  5
C
330
0
100
AcDbDictionary
281
     1
  3
ACAD_COLOR
350
63
  3
ACAD_DETAILVIEWSTYLE
350
6A
  3
ACAD_GROUP
350
D
  3
ACAD_LAYOUT
350
62
  3
ACAD_MATERIAL
350
10
  3
ACAD_MLEADERSTYLE
350
66
  3
ACAD_MLINESTYLE
350
5F
  3
ACAD_PLOTSETTINGS
350
61
  3
ACAD_PLOTSTYLENAME
350
E
  3
ACAD_SCALELIST
350
42
  3
ACAD_SECTIONVIEWSTYLE
350
68
  3
ACAD_TABLESTYLE
350
64
  3
ACAD_VISUALSTYLE
350
29
  3
ACDB_RECOMPOSE_DATA
350
F4
  3
AcDbVariableDictionary
350
EC
  0
DICTIONARY
  5
63
102
{ACAD_REACTORS
330
C
102
}
330
C
100
AcDbDictionary
281
     1
  0
DICTIONARY
  5
6A
102
{ACAD_REACTORS
330
C
102
}
330
C
100
AcDbDictionary
281
     1
  3
Imperial24
350
6B
  0
DICTIONARY
  5
D
102
{ACAD_REACTORS
330
C
102
}
330
C
100
AcDbDictionary
281
     1
  0
DICTIONARY
  5
62
102
{ACAD_REACTORS
330
C
102
}
330
C
100
AcDbDictionary
281
     1
  3
Layout1
350
6F
  3
Layout2
350
77
  3
Model
350
73
  0
DICTIONARY
  5
10
102
{ACAD_REACTORS
330
C
102
}
330
C
100
AcDbDictionary
281
     1
  3
ByBlock
350
19
  3
ByLayer
350
11
  3
Global
350
21
  0
DICTIONARY
  5
66
102
{ACAD_REACTORS
330
C
102
}
330
C
100
AcDbDictionary
281
     1
  3
Standard
350
67
  0
DICTIONARY
  5
5F
102
{ACAD_REACTORS
330
C
102
}
330
C
100
AcDbDictionary
281
     1
  3
Standard
350
60
  0
DICTIONARY
  5
61
102
{ACAD_REACTORS
330
C
102
}
330
C
100
AcDbDictionary
281
     1
  0
ACDBDICTIONARYWDFLT
  5
E
102
{ACAD_REACTORS
330
C
102
}
330
C
100
AcDbDictionary
281
     1
  3
Normal
350
F
100
AcDbDictionaryWithDefault
340
F
  0
DICTIONARY
  5
42
102
{ACAD_REACTORS
330
C
102
}
330
C
100
AcDbDictionary
281
     1
  3
A0
350
43
  3
A1
350
44
  3
A2
350
45
  3
A3
350
46
  3
A4
350
47
  3
A5
350
48
  3
A6
350
49
  3
A7
350
4A
  3
A8
350
4B
  3
A9
350
4C
  3
B0
350
4D
  3
B1
350
4E
  3
B2
350
4F
  3
B3
350
50
  3
B4
350
51
  3
B5
350
52
  3
B6
350
53
  0
DICTIONARY
  5
68
102
{ACAD_REACTORS
330
C
102
}
330
C
100
AcDbDictionary
281
     1
  3
Imperial24
350
69
  0
DICTIONARY
  5
64
102
{ACAD_REACTORS
330
C
102
}
330
C
100
AcDbDictionary
281
     1
  3
Standard
350
65
  0
DICTIONARY
  5
29
102
{ACAD_REACTORS
330
C
102
}
330
C
100
AcDbDictionary
281
     1
  3
2dWireframe
350
2F
  3
Basic
350
2E
  3
Brighten
350
35
  3
ColorChange
350
39
  3
Conceptual
350
32
  3
Dim
350
34
  3
EdgeColorOff
350
41
  3
Facepattern
350
38
  3
Flat
350
2A
  3
FlatWithEdges
350
2B
  3
Gouraud
350
2C
  3
GouraudWithEdges
350
2D
  3
Hidden
350
31
  3
JitterOff
350
3F
  3
Linepattern
350
37
  3
OverhangOff
350
40
  3
Realistic
350
33
  3
Shaded
350
3E
  3
Shaded with edges
350
3D
  3
Shades of Gray
350
3A
  3
Sketchy
350
3B
  3
Thicken
350
36
  3
Wireframe
350
30
  3
X-Ray
350
3C
  0
XRECORD
  5
F4
102
{ACAD_REACTORS
330
C
102
}
330
C
100
AcDbXrecord
280
     1
 90
        1
330
65
  0
DICTIONARY
  5
EC
102
{ACAD_REACTORS
330
C
102
}
330
C
100
AcDbDictionary
281
     1
  3
CANNOSCALE
350
F1
  3
CMLEADERSTYLE
350
EE
  3
CTABLESTYLE
350
ED
  3
CVIEWDETAILSTYLE
350
EF
  3
CVIEWSECTIONSTYLE
350
F0
  0
ACDBDETAILVIEWSTYLE
  5
6B
102
{ACAD_XDICTIONARY
360
129
102
}
102
{ACAD_REACTORS
330
6A
102
}
330
6A
100
AcDbModelDocViewStyle
 70
     0
  3
Imperial24
290
     0
100
AcDbDetailViewStyle
 70
     0
 71
     0
 90
        3
 71
     1
340
55
 62
   256
 40
0.24
340
0
 62
   256
 40
0.24
300

 40
0.36
280
     3
 71
     2
340
5D
 90
       25
 62
   256
 71
     3
340
55
 62
   256
 40
0.24
 90
        1
 40
0.75
 90
        1
300
%<\AcVar ViewType \f "%tc1">% %<\AcVar ViewDetailId>%\PSCALE %<\AcVar ViewScale \f "%sn">%
 71
     4
340
5D
 90
       25
 62
   256
340
5D
 90
       25
 62
   256
280
     0
  0
LAYOUT
  5
6F
102
{ACAD_REACTORS
330
62
102
}
330
62
100
AcDbPlotSettings
  1

  2

  4

  6

 40
0.0
 41
0.0
 42
0.0
 43
0.0
 44
0.0
 45
0.0
 46
0.0
 47
0.0
 48
0.0
 49
0.0
140
0.0
141
0.0
142
1.0
143
1.0
 70
   688
 72
     0
 73
     0
 74
     5
  7

 75
    16
147
1.0
 76
     0
 77
     2
 78
   300
148
0.0
149
0.0
100
AcDbLayout
  1
Layout1
 70
     1
 71
     1
 10
0.0
 20
0.0
 11
12.0
 21
9.0
 12
0.0
 22
0.0
 32
0.0
 14
0.0
 24
0.0
 34
0.0
 15
0.0
 25
0.0
 35
0.0
146
0.0
 13
0.0
 23
0.0
 33
0.0
 16
1.0
 26
0.0
 36
0.0
 17
0.0
 27
1.0
 37
0.0
 76
     0
330
6C
  0
LAYOUT
  5
77
102
{ACAD_REACTORS
330
62
102
}
330
62
100
AcDbPlotSettings
  1

  2

  4

  6

 40
0.0
 41
0.0
 42
0.0
 43
0.0
 44
0.0
 45
0.0
 46
0.0
 47
0.0
 48
0.0
 49
0.0
140
0.0
141
0.0
142
1.0
143
1.0
 70
   688
 72
     0
 73
     0
 74
     5
  7

 75
    16
147
1.0
 76
     0
 77
     2
 78
   300
148
0.0
149
0.0
100
AcDbLayout
  1
Layout2
 70
     1
 71
     2
 10
0.0
 20
0.0
 11
12.0
 21
9.0
 12
0.0
 22
0.0
 32
0.0
 14
0.0
 24
0.0
 34
0.0
 15
0.0
 25
0.0
 35
0.0
146
0.0
 13
0.0
 23
0.0
 33
0.0
 16
1.0
 26
0.0
 36
0.0
 17
0.0
 27
1.0
 37
0.0
 76
     0
330
74
  0
LAYOUT
  5
73
102
{ACAD_REACTORS
330
62
102
}
330
62
100
AcDbPlotSettings
  1

  2

  4

  6

 40
0.0
 41
0.0
 42
0.0
 43
0.0
 44
0.0
 45
0.0
 46
0.0
 47
0.0
 48
0.0
 49
0.0
140
0.0
141
0.0
142
1.0
143
1.0
 70
  1712
 72
     0
 73
     0
 74
     0
  7

 75
     0
147
1.0
 76
     0
 77
     2
 78
   300
148
0.0
149
0.0
100
AcDbLayout
  1
Model
 70
     1
 71
     0
 10
0.0
 20
0.0
 11
12.0
 21
9.0
 12
0.0
 22
0.0
 32
0.0
 14
0.0
 24
0.0
 34
0.0
 15
0.0
 25
0.0
 35
0.0
146
0.0
 13
0.0
 23
0.0
 33
0.0
 16
1.0
 26
0.0
 36
0.0
 17
0.0
 27
1.0
 37
0.0
 76
     0
330
70
  0
MATERIAL
  5
19
102
{ACAD_XDICTIONARY
360
1A
102
}
102
{ACAD_REACTORS
330
10
102
}
330
10
100
AcDbMaterial
  1
ByBlock
 72
     0
 43
0.0208333333333333
 43
0.0
 43
0.0
 43
0.0
 43
0.0
 43
0.0208333333333333
 43
0.0
 43
0.0
 43
0.0
 43
0.0
 43
1.0
 43
0.0
 43
0.0
 43
0.0
 43
0.0
 43
1.0
 77
     0
 47
0.0208333333333333
 47
0.0
 47
0.0
 47
0.0
 47
0.0
 47
0.0208333333333333
 47
0.0
 47
0.0
 47
0.0
 47
0.0
 47
1.0
 47
0.0
 47
0.0
 47
0.0
 47
0.0
 47
1.0
171
     0
 49
0.0208333333333333
 49
0.0
 49
0.0
 49
0.0
 49
0.0
 49
0.0208333333333333
 49
0.0
 49
0.0
 49
0.0
 49
0.0
 49
1.0
 49
0.0
 49
0.0
 49
0.0
 49
0.0
 49
1.0
175
     0
142
0.0208333333333333
142
0.0
142
0.0
142
0.0
142
0.0
142
0.0208333333333333
142
0.0
142
0.0
142
0.0
142
0.0
142
1.0
142
0.0
142
0.0
142
0.0
142
0.0
142
1.0
179
     0
144
0.0208333333333333
144
0.0
144
0.0
144
0.0
144
0.0
144
0.0208333333333333
144
0.0
144
0.0
144
0.0
144
0.0
144
1.0
144
0.0
144
0.0
144
0.0
144
0.0
144
1.0
147
0.0208333333333333
147
0.0
147
0.0
147
0.0
147
0.0
147
0.0208333333333333
147
0.0
147
0.0
147
0.0
147
0.0
147
1.0
147
0.0
147
0.0
147
0.0
147
0.0
147
1.0
  0
MATERIAL
  5
11
102
{ACAD_XDICTIONARY
360
12
102
}
102
{ACAD_REACTORS
330
10
102
}
330
10
100
AcDbMaterial
  1
ByLayer
 72
     0
 43
0.0208333333333333
 43
0.0
 43
0.0
 43
0.0
 43
0.0
 43
0.0208333333333333
 43
0.0
 43
0.0
 43
0.0
 43
0.0
 43
1.0
 43
0.0
 43
0.0
 43
0.0
 43
0.0
 43
1.0
 77
     0
 47
0.0208333333333333
 47
0.0
 47
0.0
 47
0.0
 47
0.0
 47
0.0208333333333333
 47
0.0
 47
0.0
 47
0.0
 47
0.0
 47
1.0
 47
0.0
 47
0.0
 47
0.0
 47
0.0
 47
1.0
171
     0
 49
0.0208333333333333
 49
0.0
 49
0.0
 49
0.0
 49
0.0
 49
0.0208333333333333
 49
0.0
 49
0.0
 49
0.0
 49
0.0
 49
1.0
 49
0.0
 49
0.0
 49
0.0
 49
0.0
 49
1.0
175
     0
142
0.0208333333333333
142
0.0
142
0.0
142
0.0
142
0.0
142
0.0208333333333333
142
0.0
142
0.0
142
0.0
142
0.0
142
1.0
142
0.0
142
0.0
142
0.0
142
0.0
142
1.0
179
     0
144
0.0208333333333333
144
0.0
144
0.0
144
0.0
144
0.0
144
0.0208333333333333
144
0.0
144
0.0
144
0.0
144
0.0
144
1.0
144
0.0
144
0.0
144
0.0
144
0.0
144
1.0
147
0.0208333333333333
147
0.0
147
0.0
147
0.0
147
0.0
147
0.0208333333333333
147
0.0
147
0.0
147
0.0
147
0.0
147
1.0
147
0.0
147
0.0
147
0.0
147
0.0
147
1.0
  0
MATERIAL
  5
21
102
{ACAD_XDICTIONARY
360
22
102
}
102
{ACAD_REACTORS
330
10
102
}
330
10
100
AcDbMaterial
  1
Global
 72
     0
 43
0.0208333333333333
 43
0.0
 43
0.0
 43
0.0
 43
0.0
 43
0.0208333333333333
 43
0.0
 43
0.0
 43
0.0
 43
0.0
 43
1.0
 43
0.0
 43
0.0
 43
0.0
 43
0.0
 43
1.0
 77
     0
 47
0.0208333333333333
 47
0.0
 47
0.0
 47
0.0
 47
0.0
 47
0.0208333333333333
 47
0.0
 47
0.0
 47
0.0
 47
0.0
 47
1.0
 47
0.0
 47
0.0
 47
0.0
 47
0.0
 47
1.0
171
     0
 49
0.0208333333333333
 49
0.0
 49
0.0
 49
0.0
 49
0.0
 49
0.0208333333333333
 49
0.0
 49
0.0
 49
0.0
 49
0.0
 49
1.0
 49
0.0
 49
0.0
 49
0.0
 49
0.0
 49
1.0
175
     0
142
0.0208333333333333
142
0.0
142
0.0
142
0.0
142
0.0
142
0.0208333333333333
142
0.0
142
0.0
142
0.0
142
0.0
142
1.0
142
0.0
142
0.0
142
0.0
142
0.0
142
1.0
179
     0
144
0.0208333333333333
144
0.0
144
0.0
144
0.0
144
0.0
144
0.0208333333333333
144
0.0
144
0.0
144
0.0
144
0.0
144
1.0
144
0.0
144
0.0
144
0.0
144
0.0
144
1.0
147
0.0208333333333333
147
0.0
147
0.0
147
0.0
147
0.0
147
0.0208333333333333
147
0.0
147
0.0
147
0.0
147
0.0
147
1.0
147
0.0
147
0.0
147
0.0
147
0.0
147
1.0
  0
MLEADERSTYLE
  5
67
102
{ACAD_XDICTIONARY
360
125
102
}
102
{ACAD_REACTORS
330
66
102
}
330
66
100
AcDbMLeaderStyle
179
     2
170
     2
171
     1
172
     0
 90
        2
 40
0.0
 41
0.0
173
     1
 91
-1056964608
340
5B
 92
       -2
290
     1
 42
0.09
291
     1
 43
0.36
  3
Standard
 44
0.18
300

342
55
174
     1
178
     6
175
     1
176
     0
 93
-1056964608
 45
0.18
292
     0
297
     0
 46
0.18
 94
-1056964608
 47
1.0
 49
1.0
140
1.0
293
     1
141
0.0
294
     1
177
     0
142
1.0
295
     0
296
     0
143
0.125
271
     0
272
     9
273
     9
  0
MLINESTYLE
  5
60
102
{ACAD_REACTORS
330
5F
102
}
330
5F
100
AcDbMlineStyle
  2
STANDARD
 70
     0
  3

 62
   256
 51
90.0
 52
90.0
 71
     2
 49
0.5
 62
   256
  6
BYLAYER
 49
-0.5
 62
   256
  6
BYLAYER
  0
ACDBPLACEHOLDER
  5
F
102
{ACAD_REACTORS
330
E
102
}
330
E
  0
SCALE
  5
43
102
{ACAD_REACTORS
330
42
102
}
330
42
100
AcDbScale
 70
     0
300
1:1
140
1.0
141
1.0
290
     1
  0
SCALE
  5
44
102
{ACAD_REACTORS
330
42
102
}
330
42
100
AcDbScale
 70
     0
300
1/128" = 1'-0"
140
0.0078125
141
12.0
290
     0
  0
SCALE
  5
45
102
{ACAD_REACTORS
330
42
102
}
330
42
100
AcDbScale
 70
     0
300
1/64" = 1'-0"
140
0.015625
141
12.0
290
     0
  0
SCALE
  5
46
102
{ACAD_REACTORS
330
42
102
}
330
42
100
AcDbScale
 70
     0
300
1/32" = 1'-0"
140
0.03125
141
12.0
290
     0
  0
SCALE
  5
47
102
{ACAD_REACTORS
330
42
102
}
330
42
100
AcDbScale
 70
     0
300
1/16" = 1'-0"
140
0.0625
141
12.0
290
     0
  0
SCALE
  5
48
102
{ACAD_REACTORS
330
42
102
}
330
42
100
AcDbScale
 70
     0
300
3/32" = 1'-0"
140
0.09375
141
12.0
290
     0
  0
SCALE
  5
49
102
{ACAD_REACTORS
330
42
102
}
330
42
100
AcDbScale
 70
     0
300
1/8" = 1'-0"
140
0.125
141
12.0
290
     0
  0
SCALE
  5
4A
102
{ACAD_REACTORS
330
42
102
}
330
42
100
AcDbScale
 70
     0
300
3/16" = 1'-0"
140
0.1875
141
12.0
290
     0
  0
SCALE
  5
4B
102
{ACAD_REACTORS
330
42
102
}
330
42
100
AcDbScale
 70
     0
300
1/4" = 1'-0"
140
0.25
141
12.0
290
     0
  0
SCALE
  5
4C
102
{ACAD_REACTORS
330
42
102
}
330
42
100
AcDbScale
 70
     0
300
3/8" = 1'-0"
140
0.375
141
12.0
290
     0
  0
SCALE
  5
4D
102
{ACAD_REACTORS
330
42
102
}
330
42
100
AcDbScale
 70
     0
300
1/2" = 1'-0"
140
0.5
141
12.0
290
     0
  0
SCALE
  5
4E
102
{ACAD_REACTORS
330
42
102
}
330
42
100
AcDbScale
 70
     0
300
3/4" = 1'-0"
140
0.75
141
12.0
290
     0
  0
SCALE
  5
4F
102
{ACAD_REACTORS
330
42
102
}
330
42
100
AcDbScale
 70
     0
300
1" = 1'-0"
140
1.0
141
12.0
290
     0
  0
SCALE
  5
50
102
{ACAD_REACTORS
330
42
102
}
330
42
100
AcDbScale
 70
     0
300
1-1/2" = 1'-0"
140
1.5
141
12.0
290
     0
  0
SCALE
  5
51
102
{ACAD_REACTORS
330
42
102
}
330
42
100
AcDbScale
 70
     0
300
3" = 1'-0"
140
3.0
141
12.0
290
     0
  0
SCALE
  5
52
102
{ACAD_REACTORS
330
42
102
}
330
42
100
AcDbScale
 70
     0
300
6" = 1'-0"
140
6.0
141
12.0
290
     0
  0
SCALE
  5
53
102
{ACAD_REACTORS
330
42
102
}
330
42
100
AcDbScale
 70
     0
300
1'-0" = 1'-0"
140
12.0
141
12.0
290
     0
  0
ACDBSECTIONVIEWSTYLE
  5
69
102
{ACAD_XDICTIONARY
360
127
102
}
102
{ACAD_REACTORS
330
68
102
}
330
68
100
AcDbModelDocViewStyle
 70
     0
  3
Imperial24
290
     0
100
AcDbSectionViewStyle
 70
     0
 71
     0
 90
       78
 71
     1
340
55
 62
   256
 40
0.24
340
0
340
0
 62
   256
 40
0.24
300
I, O, Q, S, X, Z
 40
0.48
 90
        3
 40
0.18
 90
        1
 71
     2
340
5D
 90
       25
 62
   256
340
5D
 90
       50
 62
   256
 40
0.24
 40
0.0
 40
0.24
 71
     3
340
55
 62
   256
 40
0.24
 90
        1
 40
0.75
 90
        1
300
%<\AcVar ViewType \f "%tc1">% %<\AcVar ViewSectionStartId>%-%<\AcVar ViewSectionEndId>%\PSCALE %<\AcVar ViewScale \f "%sn">%
 71
     4
 62
   256
 62
   257
300
ANSI31
 40
1.0
 90
        0
290
     0
290
     0
 90
        6
 40
0.0
 40
1.570796326794896
 40
0.2617993877991494
 40
1.308996938995747
 40
-0.2617993877991494
 40
1.832595714594046
  0
TABLESTYLE
  5
65
102
{ACAD_XDICTIONARY
360
F2
102
}
102
{ACAD_REACTORS
330
64
102
}
330
64
100
AcDbTableStyle
280
     0
  3
Standard
 70
     0
 71
     0
 40
0.06
 41
0.06
280
     0
281
     0
  7
Standard
140
0.18
170
     2
 62
     0
 63
     7
283
     0
 90
      512
 91
        0
  1

274
    -2
284
     1
 64
     0
275
    -2
285
     1
 65
     0
276
    -2
286
     1
 66
     0
277
    -2
287
     1
 67
     0
278
    -2
288
     1
 68
     0
279
    -2
289
     1
 69
     0
  7
Standard
140
0.25
170
     5
 62
     0
 63
     7
283
     0
 90
      512
 91
        0
  1

274
    -2
284
     1
 64
     0
275
    -2
285
     1
 65
     0
276
    -2
286
     1
 66
     0
277
    -2
287
     1
 67
     0
278
    -2
288
     1
 68
     0
279
    -2
289
     1
 69
     0
  7
Standard
140
0.18
170
     5
 62
     0
 63
     7
283
     0
 90
      512
 91
        0
  1

274
    -2
284
     1
 64
     0
275
    -2
285
     1
 65
     0
276
    -2
286
     1
 66
     0
277
    -2
287
     1
 67
     0
278
    -2
288
     1
 68
     0
279
    -2
289
     1
 69
     0
  0
VISUALSTYLE
  5
2F
102
{ACAD_XDICTIONARY
360
FF
102
}
102
{ACAD_REACTORS
330
29
102
}
330
29
100
AcDbVisualStyle
  2
2dWireframe
 70
     4
177
     2
291
     0
 71
     0
176
     1
 72
     2
176
     1
 73
     0
176
     1
 90
        0
176
     1
 40
0.6
176
     1
 41
30.0
176
     1
 63
     7
421
 16777215
176
     1
 74
     1
176
     1
 91
        4
176
     1
 64
     7
176
     1
 65
   257
176
     1
 75
     1
176
     1
175
     1
176
     1
 42
1.0
176
     1
 92
        0
176
     1
 66
   257
176
     1
 43
1.0
176
     1
 76
     1
176
     1
 77
     6
176
     1
 78
     2
176
     1
 67
     7
176
     1
 79
     5
176
     1
170
     0
176
     1
171
     0
176
     1
290
     0
176
     1
 93
        1
176
     1
 44
0.0
176
     1
173
     0
176
     1
1001
ACAD
1000
AcDbSavedByObjectVersion
1070
     0
  0
VISUALSTYLE
  5
2E
102
{ACAD_XDICTIONARY
360
FD
102
}
102
{ACAD_REACTORS
330
29
102
}
330
29
100
AcDbVisualStyle
  2
Basic
 70
     7
177
     2
291
     1
 71
     1
176
     1
 72
     0
176
     1
 73
     1
176
     1
 90
        0
176
     1
 40
0.6
176
     1
 41
30.0
176
     1
 63
     7
421
 16777215
176
     1
 74
     0
176
     1
 91
        4
176
     1
 64
     7
176
     1
 65
   257
176
     1
 75
     1
176
     1
175
     1
176
     1
 42
1.0
176
     1
 92
        8
176
     1
 66
     7
176
     1
 43
1.0
176
     1
 76
     1
176
     1
 77
     6
176
     1
 78
     2
176
     1
 67
     7
176
     1
 79
     5
176
     1
170
     0
176
     1
171
     0
176
     1
290
     0
176
     1
 93
        1
176
     1
 44
0.0
176
     1
173
     0
176
     1
1001
ACAD
1000
AcDbSavedByObjectVersion
1070
     0
  0
VISUALSTYLE
  5
35
102
{ACAD_XDICTIONARY
360
10B
102
}
102
{ACAD_REACTORS
330
29
102
}
330
29
100
AcDbVisualStyle
  2
Brighten
 70
    12
177
     2
291
     1
 71
     2
176
     1
 72
     2
176
     1
 73
     0
176
     1
 90
        0
176
     1
 40
0.6
176
     1
 41
30.0
176
     1
 63
     7
421
 16777215
176
     1
 74
     1
176
     1
 91
        4
176
     1
 64
     7
176
     1
 65
   257
176
     1
 75
     1
176
     1
175
     1
176
     1
 42
1.0
176
     1
 92
        8
176
     1
 66
     7
176
     1
 43
1.0
176
     1
 76
     1
176
     1
 77
     6
176
     1
 78
     2
176
     1
 67
     7
176
     1
 79
     5
176
     1
170
     0
176
     1
171
     0
176
     1
290
     0
176
     1
 93
        1
176
     1
 44
50.0
176
     1
173
     0
176
     1
1001
ACAD
1000
AcDbSavedByObjectVersion
1070
     0
  0
VISUALSTYLE
  5
39
102
{ACAD_XDICTIONARY
360
113
102
}
102
{ACAD_REACTORS
330
29
102
}
330
29
100
AcDbVisualStyle
  2
ColorChange
 70
    16
177
     2
291
     1
 71
     2
176
     1
 72
     2
176
     1
 73
     3
176
     1
 90
        0
176
     1
 40
0.6
176
     1
 41
30.0
176
     1
 63
     8
421
  8421504
176
     1
 74
     1
176
     1
 91
        4
176
     1
 64
     7
176
     1
 65
   257
176
     1
 75
     1
176
     1
175
     1
176
     1
 42
1.0
176
     1
 92
        8
176
     1
 66
     8
424
  8421504
176
     1
 43
1.0
176
     1
 76
     1
176
     1
 77
     6
176
     1
 78
     2
176
     1
 67
     7
176
     1
 79
     5
176
     1
170
     0
176
     1
171
     0
176
     1
290
     0
176
     1
 93
        1
176
     1
 44
0.0
176
     1
173
     0
176
     1
1001
ACAD
1000
AcDbSavedByObjectVersion
1070
     0
  0
VISUALSTYLE
  5
32
102
{ACAD_XDICTIONARY
360
105
102
}
102
{ACAD_REACTORS
330
29
102
}
330
29
100
AcDbVisualStyle
  2
Conceptual
 70
     9
177
     2
291
     0
 71
     3
176
     1
 72
     2
176
     1
 73
     0
176
     1
 90
        0
176
     1
 40
0.6
176
     1
 41
30.0
176
     1
 63
     7
421
 16777215
176
     1
 74
     2
176
     1
 91
        2
176
     1
 64
     7
176
     1
 65
   257
176
     1
 75
     1
176
     1
175
     1
176
     1
 42
179.0
176
     1
 92
        8
176
     1
 66
     7
176
     1
 43
1.0
176
     1
 76
     1
176
     1
 77
     6
176
     1
 78
     2
176
     1
 67
     7
176
     1
 79
     3
176
     1
170
     0
176
     1
171
     0
176
     1
290
     0
176
     1
 93
        1
176
     1
 44
0.0
176
     1
173
     0
176
     1
1001
ACAD
1000
AcDbSavedByObjectVersion
1070
     0
  0
VISUALSTYLE
  5
34
102
{ACAD_XDICTIONARY
360
109
102
}
102
{ACAD_REACTORS
330
29
102
}
330
29
100
AcDbVisualStyle
  2
Dim
 70
    11
177
     2
291
     1
 71
     2
176
     1
 72
     2
176
     1
 73
     0
176
     1
 90
        0
176
     1
 40
0.6
176
     1
 41
30.0
176
     1
 63
     7
421
 16777215
176
     1
 74
     1
176
     1
 91
        4
176
     1
 64
     7
176
     1
 65
   257
176
     1
 75
     1
176
     1
175
     1
176
     1
 42
1.0
176
     1
 92
        8
176
     1
 66
     7
176
     1
 43
1.0
176
     1
 76
     1
176
     1
 77
     6
176
     1
 78
     2
176
     1
 67
     7
176
     1
 79
     5
176
     1
170
     0
176
     1
171
     0
176
     1
290
     0
176
     1
 93
        1
176
     1
 44
-50.0
176
     1
173
     0
176
     1
1001
ACAD
1000
AcDbSavedByObjectVersion
1070
     0
  0
VISUALSTYLE
  5
41
102
{ACAD_XDICTIONARY
360
123
102
}
102
{ACAD_REACTORS
330
29
102
}
330
29
100
AcDbVisualStyle
  2
EdgeColorOff
 70
    22
177
     2
291
     1
 71
     2
176
     0
 72
     2
176
     0
 73
     0
176
     0
 90
        0
176
     0
 40
0.6
176
     0
 41
30.0
176
     0
 63
     7
421
 16777215
176
     0
 74
     1
176
     0
 91
        4
176
     0
 64
     7
176
     0
 65
   257
176
     0
 75
     1
176
     0
175
     1
176
     0
 42
1.0
176
     0
 92
        8
176
     2
 66
     7
176
     0
 43
1.0
176
     0
 76
     1
176
     0
 77
     6
176
     0
 78
     2
176
     0
 67
     7
176
     0
 79
     5
176
     0
170
     0
176
     0
171
     0
176
     0
290
     0
176
     0
 93
        1
176
     0
 44
0.0
176
     0
173
     0
176
     0
1001
ACAD
1000
AcDbSavedByObjectVersion
1070
     0
  0
VISUALSTYLE
  5
38
102
{ACAD_XDICTIONARY
360
111
102
}
102
{ACAD_REACTORS
330
29
102
}
330
29
100
AcDbVisualStyle
  2
Facepattern
 70
    15
177
     2
291
     1
 71
     2
176
     1
 72
     2
176
     1
 73
     0
176
     1
 90
        0
176
     1
 40
0.6
176
     1
 41
30.0
176
     1
 63
     7
421
 16777215
176
     1
 74
     1
176
     1
 91
        4
176
     1
 64
     7
176
     1
 65
   257
176
     1
 75
     1
176
     1
175
     1
176
     1
 42
1.0
176
     1
 92
        8
176
     1
 66
     7
176
     1
 43
1.0
176
     1
 76
     1
176
     1
 77
     6
176
     1
 78
     2
176
     1
 67
     7
176
     1
 79
     5
176
     1
170
     0
176
     1
171
     0
176
     1
290
     0
176
     1
 93
        1
176
     1
 44
0.0
176
     1
173
     0
176
     1
1001
ACAD
1000
AcDbSavedByObjectVersion
1070
     0
  0
VISUALSTYLE
  5
2A
102
{ACAD_XDICTIONARY
360
F5
102
}
102
{ACAD_REACTORS
330
29
102
}
330
29
100
AcDbVisualStyle
  2
Flat
 70
     0
177
     2
291
     1
 71
     2
176
     1
 72
     1
176
     1
 73
     1
176
     1
 90
        2
176
     1
 40
0.6
176
     1
 41
30.0
176
     1
 63
     7
421
 16777215
176
     1
 74
     0
176
     1
 91
        0
176
     1
 64
     7
176
     1
 65
   257
176
     1
 75
     1
176
     1
175
     1
176
     1
 42
1.0
176
     1
 92
        8
176
     1
 66
     7
176
     1
 43
1.0
176
     1
 76
     1
176
     1
 77
     6
176
     1
 78
     2
176
     1
 67
     7
176
     1
 79
     5
176
     1
170
     0
176
     1
171
     0
176
     1
290
     0
176
     1
 93
       13
176
     1
 44
0.0
176
     1
173
     0
176
     1
1001
ACAD
1000
AcDbSavedByObjectVersion
1070
     0
  0
VISUALSTYLE
  5
2B
102
{ACAD_XDICTIONARY
360
F7
102
}
102
{ACAD_REACTORS
330
29
102
}
330
29
100
AcDbVisualStyle
  2
FlatWithEdges
 70
     1
177
     2
291
     1
 71
     2
176
     1
 72
     1
176
     1
 73
     1
176
     1
 90
        2
176
     1
 40
0.6
176
     1
 41
30.0
176
     1
 63
     7
421
 16777215
176
     1
 74
     1
176
     1
 91
        0
176
     1
 64
     7
176
     1
 65
   257
176
     1
 75
     1
176
     1
175
     1
176
     1
 42
1.0
176
     1
 92
        0
176
     1
 66
   257
176
     1
 43
1.0
176
     1
 76
     1
176
     1
 77
     6
176
     1
 78
     2
176
     1
 67
     7
176
     1
 79
     5
176
     1
170
     0
176
     1
171
     0
176
     1
290
     0
176
     1
 93
       13
176
     1
 44
0.0
176
     1
173
     0
176
     1
1001
ACAD
1000
AcDbSavedByObjectVersion
1070
     0
  0
VISUALSTYLE
  5
2C
102
{ACAD_XDICTIONARY
360
F9
102
}
102
{ACAD_REACTORS
330
29
102
}
330
29
100
AcDbVisualStyle
  2
Gouraud
 70
     2
177
     2
291
     1
 71
     2
176
     1
 72
     2
176
     1
 73
     1
176
     1
 90
        2
176
     1
 40
0.6
176
     1
 41
30.0
176
     1
 63
     7
421
 16777215
176
     1
 74
     0
176
     1
 91
        0
176
     1
 64
     7
176
     1
 65
   257
176
     1
 75
     1
176
     1
175
     1
176
     1
 42
1.0
176
     1
 92
        0
176
     1
 66
     7
176
     1
 43
1.0
176
     1
 76
     1
176
     1
 77
     6
176
     1
 78
     2
176
     1
 67
     7
176
     1
 79
     5
176
     1
170
     0
176
     1
171
     0
176
     1
290
     0
176
     1
 93
       13
176
     1
 44
0.0
176
     1
173
     0
176
     1
1001
ACAD
1000
AcDbSavedByObjectVersion
1070
     0
  0
VISUALSTYLE
  5
2D
102
{ACAD_XDICTIONARY
360
FB
102
}
102
{ACAD_REACTORS
330
29
102
}
330
29
100
AcDbVisualStyle
  2
GouraudWithEdges
 70
     3
177
     2
291
     1
 71
     2
176
     1
 72
     2
176
     1
 73
     1
176
     1
 90
        2
176
     1
 40
0.6
176
     1
 41
30.0
176
     1
 63
     7
421
 16777215
176
     1
 74
     1
176
     1
 91
        0
176
     1
 64
     7
176
     1
 65
   257
176
     1
 75
     1
176
     1
175
     1
176
     1
 42
1.0
176
     1
 92
        0
176
     1
 66
   257
176
     1
 43
1.0
176
     1
 76
     1
176
     1
 77
     6
176
     1
 78
     2
176
     1
 67
     7
176
     1
 79
     5
176
     1
170
     0
176
     1
171
     0
176
     1
290
     0
176
     1
 93
       13
176
     1
 44
0.0
176
     1
173
     0
176
     1
1001
ACAD
1000
AcDbSavedByObjectVersion
1070
     0
  0
VISUALSTYLE
  5
31
102
{ACAD_XDICTIONARY
360
103
102
}
102
{ACAD_REACTORS
330
29
102
}
330
29
100
AcDbVisualStyle
  2
Hidden
 70
     6
177
     2
291
     0
 71
     1
176
     1
 72
     2
176
     1
 73
     2
176
     1
 90
        0
176
     1
 40
0.6
176
     1
 41
30.0
176
     1
 63
     7
421
 16777215
176
     1
 74
     2
176
     1
 91
        2
176
     1
 64
     7
176
     1
 65
   257
176
     1
 75
     2
176
     1
175
     1
176
     1
 42
40.0
176
     1
 92
        0
176
     1
 66
   257
176
     1
 43
1.0
176
     1
 76
     1
176
     1
 77
     6
176
     1
 78
     2
176
     1
 67
     7
176
     1
 79
     3
176
     1
170
     0
176
     1
171
     0
176
     1
290
     0
176
     1
 93
        1
176
     1
 44
0.0
176
     1
173
     0
176
     1
1001
ACAD
1000
AcDbSavedByObjectVersion
1070
     0
  0
VISUALSTYLE
  5
3F
102
{ACAD_XDICTIONARY
360
11F
102
}
102
{ACAD_REACTORS
330
29
102
}
330
29
100
AcDbVisualStyle
  2
JitterOff
 70
    20
177
     2
291
     1
 71
     2
176
     0
 72
     2
176
     0
 73
     0
176
     0
 90
        0
176
     0
 40
0.6
176
     0
 41
30.0
176
     0
 63
     7
421
 16777215
176
     0
 74
     1
176
     0
 91
        4
176
     0
 64
     7
176
     0
 65
   257
176
     0
 75
     1
176
     0
175
     1
176
     0
 42
1.0
176
     0
 92
       10
176
     2
 66
     7
176
     0
 43
1.0
176
     0
 76
     1
176
     0
 77
     6
176
     0
 78
     2
176
     0
 67
     7
176
     0
 79
     5
176
     0
170
     0
176
     0
171
     0
176
     0
290
     0
176
     0
 93
        1
176
     0
 44
0.0
176
     0
173
     0
176
     0
1001
ACAD
1000
AcDbSavedByObjectVersion
1070
     0
  0
VISUALSTYLE
  5
37
102
{ACAD_XDICTIONARY
360
10F
102
}
102
{ACAD_REACTORS
330
29
102
}
330
29
100
AcDbVisualStyle
  2
Linepattern
 70
    14
177
     2
291
     1
 71
     2
176
     1
 72
     2
176
     1
 73
     0
176
     1
 90
        0
176
     1
 40
0.6
176
     1
 41
30.0
176
     1
 63
     7
421
 16777215
176
     1
 74
     1
176
     1
 91
        4
176
     1
 64
     7
176
     1
 65
   257
176
     1
 75
     7
176
     1
175
     7
176
     1
 42
1.0
176
     1
 92
        8
176
     1
 66
     7
176
     1
 43
1.0
176
     1
 76
     1
176
     1
 77
     6
176
     1
 78
     2
176
     1
 67
     7
176
     1
 79
     5
176
     1
170
     0
176
     1
171
     0
176
     1
290
     0
176
     1
 93
        1
176
     1
 44
0.0
176
     1
173
     0
176
     1
1001
ACAD
1000
AcDbSavedByObjectVersion
1070
     0
  0
VISUALSTYLE
  5
40
102
{ACAD_XDICTIONARY
360
121
102
}
102
{ACAD_REACTORS
330
29
102
}
330
29
100
AcDbVisualStyle
  2
OverhangOff
 70
    21
177
     2
291
     1
 71
     2
176
     0
 72
     2
176
     0
 73
     0
176
     0
 90
        0
176
     0
 40
0.6
176
     0
 41
30.0
176
     0
 63
     7
421
 16777215
176
     0
 74
     1
176
     0
 91
        4
176
     0
 64
     7
176
     0
 65
   257
176
     0
 75
     1
176
     0
175
     1
176
     0
 42
1.0
176
     0
 92
        9
176
     2
 66
     7
176
     0
 43
1.0
176
     0
 76
     1
176
     0
 77
     6
176
     0
 78
     2
176
     0
 67
     7
176
     0
 79
     5
176
     0
170
     0
176
     0
171
     0
176
     0
290
     0
176
     0
 93
        1
176
     0
 44
0.0
176
     0
173
     0
176
     0
1001
ACAD
1000
AcDbSavedByObjectVersion
1070
     0
  0
VISUALSTYLE
  5
33
102
{ACAD_XDICTIONARY
360
107
102
}
102
{ACAD_REACTORS
330
29
102
}
330
29
100
AcDbVisualStyle
  2
Realistic
 70
     8
177
     2
291
     0
 71
     2
176
     1
 72
     3
176
     1
 73
     0
176
     1
 90
        2
176
     1
 40
0.6
176
     1
 41
30.0
176
     1
 63
     7
421
 16777215
176
     1
 74
     0
176
     1
 91
        0
176
     1
 64
     7
176
     1
 65
   257
176
     1
 75
     1
176
     1
175
     1
176
     1
 42
1.0
176
     1
 92
        8
176
     1
 66
   257
176
     1
 43
1.0
176
     1
 76
     1
176
     1
 77
     6
176
     1
 78
     2
176
     1
 67
     7
176
     1
 79
     3
176
     1
170
     0
176
     1
171
     0
176
     1
290
     0
176
     1
 93
       13
176
     1
 44
0.0
176
     1
173
     0
176
     1
1001
ACAD
1000
AcDbSavedByObjectVersion
1070
     0
  0
VISUALSTYLE
  5
3E
102
{ACAD_XDICTIONARY
360
11D
102
}
102
{ACAD_REACTORS
330
29
102
}
330
29
100
AcDbVisualStyle
  2
Shaded
 70
    27
177
     2
291
     0
 71
     2
176
     1
 72
     2
176
     1
 73
     1
176
     1
 90
        2
176
     1
 40
0.6
176
     1
 41
30.0
176
     1
 63
     7
421
 16777215
176
     1
 74
     0
176
     1
 91
        4
176
     1
 64
     7
176
     1
 65
   257
176
     1
 75
     1
176
     1
175
     1
176
     1
 42
1.0
176
     1
 92
        8
176
     1
 66
   257
176
     1
 43
1.0
176
     1
 76
     1
176
     1
 77
     6
176
     1
 78
     2
176
     1
 67
     8
425
  7895160
176
     1
 79
     3
176
     1
170
     0
176
     1
171
     0
176
     1
290
     0
176
     1
 93
        5
176
     1
 44
0.0
176
     1
173
     0
176
     1
1001
ACAD
1000
AcDbSavedByObjectVersion
1070
     0
  0
VISUALSTYLE
  5
3D
102
{ACAD_XDICTIONARY
360
11B
102
}
102
{ACAD_REACTORS
330
29
102
}
330
29
100
AcDbVisualStyle
  2
Shaded with edges
 70
    26
177
     2
291
     0
 71
     2
176
     1
 72
     2
176
     1
 73
     1
176
     1
 90
        2
176
     1
 40
0.6
176
     1
 41
30.0
176
     1
 63
     7
421
 16777215
176
     1
 74
     1
176
     1
 91
        2
176
     1
 64
     7
176
     1
 65
   257
176
     1
 75
     2
176
     1
175
     1
176
     1
 42
1.0
176
     1
 92
        8
176
     1
 66
   257
176
     1
 43
1.0
176
     1
 76
     1
176
     1
 77
     6
176
     1
 78
     2
176
     1
 67
     7
176
     1
 79
     3
176
     1
170
     0
176
     1
171
     0
176
     1
290
     0
176
     1
 93
        5
176
     1
 44
0.0
176
     1
173
     0
176
     1
1001
ACAD
1000
AcDbSavedByObjectVersion
1070
     0
  0
VISUALSTYLE
  5
3A
102
{ACAD_XDICTIONARY
360
115
102
}
102
{ACAD_REACTORS
330
29
102
}
330
29
100
AcDbVisualStyle
  2
Shades of Gray
 70
    23
177
     2
291
     0
 71
     2
176
     1
 72
     2
176
     1
 73
     3
176
     1
 90
        0
176
     1
 40
0.6
176
     1
 41
30.0
176
     1
 63
     7
421
 16777215
176
     1
 74
     2
176
     1
 91
        2
176
     1
 64
     7
176
     1
 65
     7
176
     1
 75
     1
176
     1
175
     1
176
     1
 42
40.0
176
     1
 92
        8
176
     1
 66
     7
176
     1
 43
1.0
176
     1
 76
     1
176
     1
 77
     6
176
     1
 78
     2
176
     1
 67
     7
176
     1
 79
     3
176
     1
170
     0
176
     1
171
     0
176
     1
290
     0
176
     1
 93
        1
176
     1
 44
0.0
176
     1
173
     0
176
     1
1001
ACAD
1000
AcDbSavedByObjectVersion
1070
     0
  0
VISUALSTYLE
  5
3B
102
{ACAD_XDICTIONARY
360
117
102
}
102
{ACAD_REACTORS
330
29
102
}
330
29
100
AcDbVisualStyle
  2
Sketchy
 70
    24
177
     2
291
     0
 71
     1
176
     1
 72
     2
176
     1
 73
     2
176
     1
 90
        0
176
     1
 40
0.6
176
     1
 41
30.0
176
     1
 63
     7
421
 16777215
176
     1
 74
     2
176
     1
 91
        2
176
     1
 64
     7
176
     1
 65
     7
176
     1
 75
     1
176
     1
175
     1
176
     1
 42
40.0
176
     1
 92
       11
176
     1
 66
     7
176
     1
 43
1.0
176
     1
 76
     1
176
     1
 77
     6
176
     1
 78
     2
176
     1
 67
     7
176
     1
 79
     6
176
     1
170
     0
176
     1
171
     0
176
     1
290
     0
176
     1
 93
        1
176
     1
 44
0.0
176
     1
173
     0
176
     1
1001
ACAD
1000
AcDbSavedByObjectVersion
1070
     0
  0
VISUALSTYLE
  5
36
102
{ACAD_XDICTIONARY
360
10D
102
}
102
{ACAD_REACTORS
330
29
102
}
330
29
100
AcDbVisualStyle
  2
Thicken
 70
    13
177
     2
291
     1
 71
     2
176
     1
 72
     2
176
     1
 73
     0
176
     1
 90
        0
176
     1
 40
0.6
176
     1
 41
30.0
176
     1
 63
     7
421
 16777215
176
     1
 74
     1
176
     1
 91
        4
176
     1
 64
     7
176
     1
 65
   257
176
     1
 75
     1
176
     1
175
     1
176
     1
 42
1.0
176
     1
 92
       12
176
     1
 66
     7
176
     1
 43
1.0
176
     1
 76
     1
176
     1
 77
     6
176
     1
 78
     2
176
     1
 67
     7
176
     1
 79
     5
176
     1
170
     0
176
     1
171
     0
176
     1
290
     0
176
     1
 93
        1
176
     1
 44
0.0
176
     1
173
     0
176
     1
1001
ACAD
1000
AcDbSavedByObjectVersion
1070
     0
  0
VISUALSTYLE
  5
30
102
{ACAD_XDICTIONARY
360
101
102
}
102
{ACAD_REACTORS
330
29
102
}
330
29
100
AcDbVisualStyle
  2
Wireframe
 70
     5
177
     2
291
     0
 71
     0
176
     1
 72
     2
176
     1
 73
     0
176
     1
 90
        0
176
     1
 40
0.6
176
     1
 41
30.0
176
     1
 63
     7
421
 16777215
176
     1
 74
     1
176
     1
 91
        4
176
     1
 64
     7
176
     1
 65
   257
176
     1
 75
     1
176
     1
175
     1
176
     1
 42
1.0
176
     1
 92
        0
176
     1
 66
   257
176
     1
 43
1.0
176
     1
 76
     1
176
     1
 77
     6
176
     1
 78
     2
176
     1
 67
     7
176
     1
 79
     3
176
     1
170
     0
176
     1
171
     0
176
     1
290
     0
176
     1
 93
        1
176
     1
 44
0.0
176
     1
173
     0
176
     1
1001
ACAD
1000
AcDbSavedByObjectVersion
1070
     0
  0
VISUALSTYLE
  5
3C
102
{ACAD_XDICTIONARY
360
119
102
}
102
{ACAD_REACTORS
330
29
102
}
330
29
100
AcDbVisualStyle
  2
X-Ray
 70
    25
177
     2
291
     0
 71
     2
176
     1
 72
     2
176
     1
 73
     1
176
     1
 90
        1
176
     1
 40
0.5
176
     1
 41
30.0
176
     1
 63
     7
421
 16777215
176
     1
 74
     1
176
     1
 91
        0
176
     1
 64
     7
176
     1
 65
   257
176
     1
 75
     1
176
     1
175
     1
176
     1
 42
1.0
176
     1
 92
        8
176
     1
 66
     7
176
     1
 43
1.0
176
     1
 76
     1
176
     1
 77
     6
176
     1
 78
     2
176
     1
 67
     7
176
     1
 79
     3
176
     1
170
     0
176
     1
171
     0
176
     1
290
     0
176
     1
 93
       13
176
     1
 44
0.0
176
     1
173
     0
176
     1
1001
ACAD
1000
AcDbSavedByObjectVersion
1070
     0
  0
DICTIONARYVAR
  5
F1
102
{ACAD_REACTORS
330
EC
102
}
330
EC
100
DictionaryVariables
280
     0
  1
1:1
  0
DICTIONARYVAR
  5
EE
102
{ACAD_REACTORS
330
EC
102
}
330
EC
100
DictionaryVariables
280
     0
  1
STANDARD
  0
DICTIONARYVAR
  5
ED
102
{ACAD_REACTORS
330
EC
102
}
330
EC
100
DictionaryVariables
280
     0
  1
STANDARD
  0
DICTIONARYVAR
  5
EF
102
{ACAD_REACTORS
330
EC
102
}
330
EC
100
DictionaryVariables
280
     0
  1
Imperial24
  0
DICTIONARYVAR
  5
F0
102
{ACAD_REACTORS
330
EC
102
}
330
EC
100
DictionaryVariables
280
     0
  1
Imperial24
  0
DICTIONARY
  5
129
330
6B
100
AcDbDictionary
280
     1
281
     1
  3
ACAD_XREC_ROUNDTRIP
360
12A
  0
DICTIONARY
  5
1A
330
19
100
AcDbDictionary
280
     1
281
     1
  3
BUMPTILE
360
1C
  3
DIFFUSETILE
360
1B
  3
OPACITYTILE
360
1F
  3
REFLECTIONTILE
360
1E
  3
REFRACTIONTILE
360
20
  3
SPECULARTILE
360
1D
  0
DICTIONARY
  5
12
330
11
100
AcDbDictionary
280
     1
281
     1
  3
BUMPTILE
360
14
  3
DIFFUSETILE
360
13
  3
OPACITYTILE
360
17
  3
REFLECTIONTILE
360
16
  3
REFRACTIONTILE
360
18
  3
SPECULARTILE
360
15
  0
DICTIONARY
  5
22
330
21
100
AcDbDictionary
280
     1
281
     1
  3
BUMPTILE
360
24
  3
DIFFUSETILE
360
23
  3
OPACITYTILE
360
27
  3
REFLECTIONTILE
360
26
  3
REFRACTIONTILE
360
28
  3
SPECULARTILE
360
25
  0
DICTIONARY
  5
125
330
67
100
AcDbDictionary
280
     1
281
     1
  3
ACAD_XREC_ROUNDTRIP
360
126
  0
DICTIONARY
  5
127
330
69
100
AcDbDictionary
280
     1
281
     1
  3
ACAD_XREC_ROUNDTRIP
360
128
  0
DICTIONARY
  5
F2
330
65
100
AcDbDictionary
280
     1
281
     1
  3
ACAD_ROUNDTRIP_2008_TABLESTYLE_CELLSTYLEMAP
360
F3
  0
DICTIONARY
  5
FF
330
2F
100
AcDbDictionary
280
     1
281
     1
  3
ACAD_XREC_ROUNDTRIP
360
100
  0
DICTIONARY
  5
FD
330
2E
100
AcDbDictionary
280
     1
281
     1
  3
ACAD_XREC_ROUNDTRIP
360
FE
  0
DICTIONARY
  5
10B
330
35
100
AcDbDictionary
280
     1
281
     1
  3
ACAD_XREC_ROUNDTRIP
360
10C
  0
DICTIONARY
  5
113
330
39
100
AcDbDictionary
280
     1
281
     1
  3
ACAD_XREC_ROUNDTRIP
360
114
  0
DICTIONARY
  5
105
330
32
100
AcDbDictionary
280
     1
281
     1
  3
ACAD_XREC_ROUNDTRIP
360
106
  0
DICTIONARY
  5
109
330
34
100
AcDbDictionary
280
     1
281
     1
  3
ACAD_XREC_ROUNDTRIP
360
10A
  0
DICTIONARY
  5
123
330
41
100
AcDbDictionary
280
     1
281
     1
  3
ACAD_XREC_ROUNDTRIP
360
124
  0
DICTIONARY
  5
111
330
38
100
AcDbDictionary
280
     1
281
     1
  3
ACAD_XREC_ROUNDTRIP
360
112
  0
DICTIONARY
  5
F5
330
2A
100
AcDbDictionary
280
     1
281
     1
  3
ACAD_XREC_ROUNDTRIP
360
F6
  0
DICTIONARY
  5
F7
330
2B
100
AcDbDictionary
280
     1
281
     1
  3
ACAD_XREC_ROUNDTRIP
360
F8
  0
DICTIONARY
  5
F9
330
2C
100
AcDbDictionary
280
     1
281
     1
  3
ACAD_XREC_ROUNDTRIP
360
FA
  0
DICTIONARY
  5
FB
330
2D
100
AcDbDictionary
280
     1
281
     1
  3
ACAD_XREC_ROUNDTRIP
360
FC
  0
DICTIONARY
  5
103
330
31
100
AcDbDictionary
280
     1
281
     1
  3
ACAD_XREC_ROUNDTRIP
360
104
  0
DICTIONARY
  5
11F
330
3F
100
AcDbDictionary
280
     1
281
     1
  3
ACAD_XREC_ROUNDTRIP
360
120
  0
DICTIONARY
  5
10F
330
37
100
AcDbDictionary
280
     1
281
     1
  3
ACAD_XREC_ROUNDTRIP
360
110
  0
DICTIONARY
  5
121
330
40
100
AcDbDictionary
280
     1
281
     1
  3
ACAD_XREC_ROUNDTRIP
360
122
  0
DICTIONARY
  5
107
330
33
100
AcDbDictionary
280
     1
281
     1
  3
ACAD_XREC_ROUNDTRIP
360
108
  0
DICTIONARY
  5
11D
330
3E
100
AcDbDictionary
280
     1
281
     1
  3
ACAD_XREC_ROUNDTRIP
360
11E
  0
DICTIONARY
  5
11B
330
3D
100
AcDbDictionary
280
     1
281
     1
  3
ACAD_XREC_ROUNDTRIP
360
11C
  0
DICTIONARY
  5
115
330
3A
100
AcDbDictionary
280
     1
281
     1
  3
ACAD_XREC_ROUNDTRIP
360
116
  0
DICTIONARY
  5
117
330
3B
100
AcDbDictionary
280
     1
281
     1
  3
ACAD_XREC_ROUNDTRIP
360
118
  0
DICTIONARY
  5
10D
330
36
100
AcDbDictionary
280
     1
281
     1
  3
ACAD_XREC_ROUNDTRIP
360
10E
  0
DICTIONARY
  5
101
330
30
100
AcDbDictionary
280
     1
281
     1
  3
ACAD_XREC_ROUNDTRIP
360
102
  0
DICTIONARY
  5
119
330
3C
100
AcDbDictionary
280
     1
281
     1
  3
ACAD_XREC_ROUNDTRIP
360
11A
  0
XRECORD
  5
12A
102
{ACAD_REACTORS
330
129
102
}
330
129
100
AcDbXrecord
280
     1
102
DISPLAYNAME
  1
Imperial24
102
FLAGS
 90
        0
  0
XRECORD
  5
1C
102
{ACAD_REACTORS
330
1A
102
}
330
1A
100
AcDbXrecord
280
     1
270
     1
271
     1
  0
XRECORD
  5
1B
102
{ACAD_REACTORS
330
1A
102
}
330
1A
100
AcDbXrecord
280
     1
270
     1
271
     1
  0
XRECORD
  5
1F
102
{ACAD_REACTORS
330
1A
102
}
330
1A
100
AcDbXrecord
280
     1
270
     1
271
     1
  0
XRECORD
  5
1E
102
{ACAD_REACTORS
330
1A
102
}
330
1A
100
AcDbXrecord
280
     1
270
     1
271
     1
  0
XRECORD
  5
20
102
{ACAD_REACTORS
330
1A
102
}
330
1A
100
AcDbXrecord
280
     1
270
     1
271
     1
  0
XRECORD
  5
1D
102
{ACAD_REACTORS
330
1A
102
}
330
1A
100
AcDbXrecord
280
     1
270
     1
271
     1
  0
XRECORD
  5
14
102
{ACAD_REACTORS
330
12
102
}
330
12
100
AcDbXrecord
280
     1
270
     1
271
     1
  0
XRECORD
  5
13
102
{ACAD_REACTORS
330
12
102
}
330
12
100
AcDbXrecord
280
     1
270
     1
271
     1
  0
XRECORD
  5
17
102
{ACAD_REACTORS
330
12
102
}
330
12
100
AcDbXrecord
280
     1
270
     1
271
     1
  0
XRECORD
  5
16
102
{ACAD_REACTORS
330
12
102
}
330
12
100
AcDbXrecord
280
     1
270
     1
271
     1
  0
XRECORD
  5
18
102
{ACAD_REACTORS
330
12
102
}
330
12
100
AcDbXrecord
280
     1
270
     1
271
     1
  0
XRECORD
  5
15
102
{ACAD_REACTORS
330
12
102
}
330
12
100
AcDbXrecord
280
     1
270
     1
271
     1
  0
XRECORD
  5
24
102
{ACAD_REACTORS
330
22
102
}
330
22
100
AcDbXrecord
280
     1
270
     1
271
     1
  0
XRECORD
  5
23
102
{ACAD_REACTORS
330
22
102
}
330
22
100
AcDbXrecord
280
     1
270
     1
271
     1
  0
XRECORD
  5
27
102
{ACAD_REACTORS
330
22
102
}
330
22
100
AcDbXrecord
280
     1
270
     1
271
     1
  0
XRECORD
  5
26
102
{ACAD_REACTORS
330
22
102
}
330
22
100
AcDbXrecord
280
     1
270
     1
271
     1
  0
XRECORD
  5
28
102
{ACAD_REACTORS
330
22
102
}
330
22
100
AcDbXrecord
280
     1
270
     1
271
     1
  0
XRECORD
  5
25
102
{ACAD_REACTORS
330
22
102
}
330
22
100
AcDbXrecord
280
     1
270
     1
271
     1
  0
XRECORD
  5
126
102
{ACAD_REACTORS
330
125
102
}
330
125
100
AcDbXrecord
280
     1
102
ACAD_ROUNDTRIP_2012_MLEADER_STYLE
298
     1
  0
XRECORD
  5
128
102
{ACAD_REACTORS
330
127
102
}
330
127
100
AcDbXrecord
280
     1
102
DISPLAYNAME
  1
Imperial24
102
FLAGS
 90
        0
  0
CELLSTYLEMAP
  5
F3
102
{ACAD_REACTORS
330
F2
102
}
330
F2
100
AcDbCellStyleMap
 90
        3
300
CELLSTYLE
  1
TABLEFORMAT_BEGIN
 90
        5
170
     1
 91
        0
 92
    32768
 62
   257
 93
        1
300
CONTENTFORMAT
  1
CONTENTFORMAT_BEGIN
 90
        0
 91
        0
 92
      512
 93
        0
300

 40
0.0
140
1.0
 94
        5
 62
     0
340
55
144
0.25
309
CONTENTFORMAT_END
171
     0
 94
        0
309
TABLEFORMAT_END
  1
CELLSTYLE_BEGIN
 90
        1
 91
        1
300
_TITLE
309
CELLSTYLE_END
300
CELLSTYLE
  1
TABLEFORMAT_BEGIN
 90
        5
170
     1
 91
        0
 92
        0
 62
   257
 93
        1
300
CONTENTFORMAT
  1
CONTENTFORMAT_BEGIN
 90
        0
 91
        0
 92
      512
 93
        0
300

 40
0.0
140
1.0
 94
        5
 62
     0
340
55
144
0.18
309
CONTENTFORMAT_END
171
     0
 94
        0
309
TABLEFORMAT_END
  1
CELLSTYLE_BEGIN
 90
        2
 91
        1
300
_HEADER
309
CELLSTYLE_END
300
CELLSTYLE
  1
TABLEFORMAT_BEGIN
 90
        5
170
     1
 91
        0
 92
        0
 62
   257
 93
        1
300
CONTENTFORMAT
  1
CONTENTFORMAT_BEGIN
 90
        0
 91
        0
 92
      512
 93
        0
300

 40
0.0
140
1.0
 94
        2
 62
     0
340
55
144
0.18
309
CONTENTFORMAT_END
171
     0
 94
        0
309
TABLEFORMAT_END
  1
CELLSTYLE_BEGIN
 90
        3
 91
        2
300
_DATA
309
CELLSTYLE_END
  0
XRECORD
  5
100
102
{ACAD_REACTORS
330
FF
102
}
330
FF
100
AcDbXrecord
280
     1
102
RTVSPost2010Prop28
280
     1
102
RTVSPost2010PropOp28
 70
     1
102
RTVSPost2010Prop29
280
     1
102
RTVSPost2010PropOp29
 70
     1
102
RTVSPost2010Prop30
280
     0
102
RTVSPost2010PropOp30
 70
     1
102
RTVSPost2010Prop31
280
     0
102
RTVSPost2010PropOp31
 70
     1
102
RTVSPost2010Prop32
280
     0
102
RTVSPost2010PropOp32
 70
     1
102
RTVSPost2010Prop33
280
     0
102
RTVSPost2010PropOp33
 70
     1
102
RTVSPost2010Prop34
280
     0
102
RTVSPost2010PropOp34
 70
     1
102
RTVSPost2010Prop35
280
     0
102
RTVSPost2010PropOp35
 70
     1
102
RTVSPost2010Prop36
280
     0
102
RTVSPost2010PropOp36
 70
     1
102
RTVSPost2010Prop37
 90
       50
102
RTVSPost2010PropOp37
 70
     1
102
RTVSPost2010Prop38
140
0.0
102
RTVSPost2010PropOp38
 70
     1
102
RTVSPost2010Prop39
140
1.0
102
RTVSPost2010PropOp39
 70
     1
102
RTVSPost2010Prop40
 90
        0
102
RTVSPost2010PropOp40
 70
     1
102
RTVSPost2010Prop41ColorIndex
 90
       18
102
RTVSPost2010Prop41ColorRGB
 90
        0
102
RTVSPost2010PropOp41
 70
     1
102
RTVSPost2010Prop42
 90
       50
102
RTVSPost2010PropOp42
 70
     1
102
RTVSPost2010Prop43
 90
        3
102
RTVSPost2010PropOp43
 70
     1
102
RTVSPost2010Prop44ColorIndex
 90
        5
102
RTVSPost2010Prop44ColorRGB
 90
      255
102
RTVSPost2010PropOp44
 70
     1
102
RTVSPost2010Prop45
280
     0
102
RTVSPost2010PropOp45
 70
     1
102
RTVSPost2010Prop46
 90
       50
102
RTVSPost2010PropOp46
 70
     1
102
RTVSPost2010Prop47
 90
       50
102
RTVSPost2010PropOp47
 70
     1
102
RTVSPost2010Prop48
 90
       50
102
RTVSPost2010PropOp48
 70
     1
102
RTVSPost2010Prop49
280
     0
102
RTVSPost2010PropOp49
 70
     1
102
RTVSPost2010Prop50
 90
       50
102
RTVSPost2010PropOp50
 70
     1
102
RTVSPost2010Prop51ColorIndex
 90
      256
102
RTVSPost2010Prop51ColorRGB
 90
-16777216
102
RTVSPost2010PropOp51
 70
     0
102
RTVSPost2010Prop52
140
1.0
102
RTVSPost2010PropOp52
 70
     0
102
RTVSPost2010Prop53
 90
        2
102
RTVSPost2010PropOp53
 70
     1
102
RTVSPost2010Prop54
  1
strokes_ogs.tif
102
RTVSPost2010PropOp54
 70
     1
102
RTVSPost2010Prop55
280
     0
102
RTVSPost2010PropOp55
 70
     1
102
RTVSPost2010Prop56
140
1.0
102
RTVSPost2010PropOp56
 70
     1
102
RTVSPost2010Prop57
140
1.0
102
RTVSPost2010PropOp57
 70
     1
  0
XRECORD
  5
FE
102
{ACAD_REACTORS
330
FD
102
}
330
FD
100
AcDbXrecord
280
     1
102
RTVSPost2010Prop28
280
     0
102
RTVSPost2010PropOp28
 70
     1
102
RTVSPost2010Prop29
280
     1
102
RTVSPost2010PropOp29
 70
     1
102
RTVSPost2010Prop30
280
     1
102
RTVSPost2010PropOp30
 70
     1
102
RTVSPost2010Prop31
280
     0
102
RTVSPost2010PropOp31
 70
     1
102
RTVSPost2010Prop32
280
     0
102
RTVSPost2010PropOp32
 70
     1
102
RTVSPost2010Prop33
280
     0
102
RTVSPost2010PropOp33
 70
     1
102
RTVSPost2010Prop34
280
     0
102
RTVSPost2010PropOp34
 70
     1
102
RTVSPost2010Prop35
280
     0
102
RTVSPost2010PropOp35
 70
     1
102
RTVSPost2010Prop36
280
     0
102
RTVSPost2010PropOp36
 70
     1
102
RTVSPost2010Prop37
 90
       50
102
RTVSPost2010PropOp37
 70
     1
102
RTVSPost2010Prop38
140
0.0
102
RTVSPost2010PropOp38
 70
     1
102
RTVSPost2010Prop39
140
1.0
102
RTVSPost2010PropOp39
 70
     1
102
RTVSPost2010Prop40
 90
        0
102
RTVSPost2010PropOp40
 70
     1
102
RTVSPost2010Prop41ColorIndex
 90
       18
102
RTVSPost2010Prop41ColorRGB
 90
        0
102
RTVSPost2010PropOp41
 70
     1
102
RTVSPost2010Prop42
 90
       50
102
RTVSPost2010PropOp42
 70
     1
102
RTVSPost2010Prop43
 90
        3
102
RTVSPost2010PropOp43
 70
     1
102
RTVSPost2010Prop44ColorIndex
 90
        5
102
RTVSPost2010Prop44ColorRGB
 90
      255
102
RTVSPost2010PropOp44
 70
     1
102
RTVSPost2010Prop45
280
     0
102
RTVSPost2010PropOp45
 70
     1
102
RTVSPost2010Prop46
 90
       50
102
RTVSPost2010PropOp46
 70
     1
102
RTVSPost2010Prop47
 90
       50
102
RTVSPost2010PropOp47
 70
     1
102
RTVSPost2010Prop48
 90
       50
102
RTVSPost2010PropOp48
 70
     1
102
RTVSPost2010Prop49
280
     0
102
RTVSPost2010PropOp49
 70
     1
102
RTVSPost2010Prop50
 90
       50
102
RTVSPost2010PropOp50
 70
     1
102
RTVSPost2010Prop51ColorIndex
 90
      256
102
RTVSPost2010Prop51ColorRGB
 90
-16777216
102
RTVSPost2010PropOp51
 70
     0
102
RTVSPost2010Prop52
140
1.0
102
RTVSPost2010PropOp52
 70
     0
102
RTVSPost2010Prop53
 90
        2
102
RTVSPost2010PropOp53
 70
     1
102
RTVSPost2010Prop54
  1
strokes_ogs.tif
102
RTVSPost2010PropOp54
 70
     1
102
RTVSPost2010Prop55
280
     0
102
RTVSPost2010PropOp55
 70
     1
102
RTVSPost2010Prop56
140
1.0
102
RTVSPost2010PropOp56
 70
     1
102
RTVSPost2010Prop57
140
1.0
102
RTVSPost2010PropOp57
 70
     1
  0
XRECORD
  5
10C
102
{ACAD_REACTORS
330
10B
102
}
330
10B
100
AcDbXrecord
280
     1
102
RTVSPost2010Prop28
280
     0
102
RTVSPost2010PropOp28
 70
     1
102
RTVSPost2010Prop29
280
     1
102
RTVSPost2010PropOp29
 70
     1
102
RTVSPost2010Prop30
280
     1
102
RTVSPost2010PropOp30
 70
     1
102
RTVSPost2010Prop31
280
     0
102
RTVSPost2010PropOp31
 70
     1
102
RTVSPost2010Prop32
280
     0
102
RTVSPost2010PropOp32
 70
     1
102
RTVSPost2010Prop33
280
     0
102
RTVSPost2010PropOp33
 70
     1
102
RTVSPost2010Prop34
280
     0
102
RTVSPost2010PropOp34
 70
     1
102
RTVSPost2010Prop35
280
     0
102
RTVSPost2010PropOp35
 70
     1
102
RTVSPost2010Prop36
280
     0
102
RTVSPost2010PropOp36
 70
     1
102
RTVSPost2010Prop37
 90
       50
102
RTVSPost2010PropOp37
 70
     1
102
RTVSPost2010Prop38
140
0.0
102
RTVSPost2010PropOp38
 70
     1
102
RTVSPost2010Prop39
140
1.0
102
RTVSPost2010PropOp39
 70
     1
102
RTVSPost2010Prop40
 90
        0
102
RTVSPost2010PropOp40
 70
     1
102
RTVSPost2010Prop41ColorIndex
 90
       18
102
RTVSPost2010Prop41ColorRGB
 90
        0
102
RTVSPost2010PropOp41
 70
     1
102
RTVSPost2010Prop42
 90
       50
102
RTVSPost2010PropOp42
 70
     1
102
RTVSPost2010Prop43
 90
        3
102
RTVSPost2010PropOp43
 70
     1
102
RTVSPost2010Prop44ColorIndex
 90
        5
102
RTVSPost2010Prop44ColorRGB
 90
      255
102
RTVSPost2010PropOp44
 70
     1
102
RTVSPost2010Prop45
280
     0
102
RTVSPost2010PropOp45
 70
     1
102
RTVSPost2010Prop46
 90
       50
102
RTVSPost2010PropOp46
 70
     1
102
RTVSPost2010Prop47
 90
       50
102
RTVSPost2010PropOp47
 70
     1
102
RTVSPost2010Prop48
 90
       50
102
RTVSPost2010PropOp48
 70
     1
102
RTVSPost2010Prop49
280
     0
102
RTVSPost2010PropOp49
 70
     1
102
RTVSPost2010Prop50
 90
       50
102
RTVSPost2010PropOp50
 70
     1
102
RTVSPost2010Prop51ColorIndex
 90
      256
102
RTVSPost2010Prop51ColorRGB
 90
-16777216
102
RTVSPost2010PropOp51
 70
     0
102
RTVSPost2010Prop52
140
1.0
102
RTVSPost2010PropOp52
 70
     0
102
RTVSPost2010Prop53
 90
        2
102
RTVSPost2010PropOp53
 70
     1
102
RTVSPost2010Prop54
  1
strokes_ogs.tif
102
RTVSPost2010PropOp54
 70
     1
102
RTVSPost2010Prop55
280
     0
102
RTVSPost2010PropOp55
 70
     1
102
RTVSPost2010Prop56
140
1.0
102
RTVSPost2010PropOp56
 70
     1
102
RTVSPost2010Prop57
140
1.0
102
RTVSPost2010PropOp57
 70
     1
  0
XRECORD
  5
114
102
{ACAD_REACTORS
330
113
102
}
330
113
100
AcDbXrecord
280
     1
102
RTVSPost2010Prop28
280
     0
102
RTVSPost2010PropOp28
 70
     1
102
RTVSPost2010Prop29
280
     1
102
RTVSPost2010PropOp29
 70
     1
102
RTVSPost2010Prop30
280
     1
102
RTVSPost2010PropOp30
 70
     1
102
RTVSPost2010Prop31
280
     0
102
RTVSPost2010PropOp31
 70
     1
102
RTVSPost2010Prop32
280
     0
102
RTVSPost2010PropOp32
 70
     1
102
RTVSPost2010Prop33
280
     0
102
RTVSPost2010PropOp33
 70
     1
102
RTVSPost2010Prop34
280
     0
102
RTVSPost2010PropOp34
 70
     1
102
RTVSPost2010Prop35
280
     0
102
RTVSPost2010PropOp35
 70
     1
102
RTVSPost2010Prop36
280
     0
102
RTVSPost2010PropOp36
 70
     1
102
RTVSPost2010Prop37
 90
       50
102
RTVSPost2010PropOp37
 70
     1
102
RTVSPost2010Prop38
140
0.0
102
RTVSPost2010PropOp38
 70
     1
102
RTVSPost2010Prop39
140
1.0
102
RTVSPost2010PropOp39
 70
     1
102
RTVSPost2010Prop40
 90
        0
102
RTVSPost2010PropOp40
 70
     1
102
RTVSPost2010Prop41ColorIndex
 90
       18
102
RTVSPost2010Prop41ColorRGB
 90
        0
102
RTVSPost2010PropOp41
 70
     1
102
RTVSPost2010Prop42
 90
       50
102
RTVSPost2010PropOp42
 70
     1
102
RTVSPost2010Prop43
 90
        3
102
RTVSPost2010PropOp43
 70
     1
102
RTVSPost2010Prop44ColorIndex
 90
        5
102
RTVSPost2010Prop44ColorRGB
 90
      255
102
RTVSPost2010PropOp44
 70
     1
102
RTVSPost2010Prop45
280
     0
102
RTVSPost2010PropOp45
 70
     1
102
RTVSPost2010Prop46
 90
       50
102
RTVSPost2010PropOp46
 70
     1
102
RTVSPost2010Prop47
 90
       50
102
RTVSPost2010PropOp47
 70
     1
102
RTVSPost2010Prop48
 90
       50
102
RTVSPost2010PropOp48
 70
     1
102
RTVSPost2010Prop49
280
     0
102
RTVSPost2010PropOp49
 70
     1
102
RTVSPost2010Prop50
 90
       50
102
RTVSPost2010PropOp50
 70
     1
102
RTVSPost2010Prop51ColorIndex
 90
      256
102
RTVSPost2010Prop51ColorRGB
 90
-16777216
102
RTVSPost2010PropOp51
 70
     0
102
RTVSPost2010Prop52
140
1.0
102
RTVSPost2010PropOp52
 70
     0
102
RTVSPost2010Prop53
 90
        2
102
RTVSPost2010PropOp53
 70
     1
102
RTVSPost2010Prop54
  1
strokes_ogs.tif
102
RTVSPost2010PropOp54
 70
     1
102
RTVSPost2010Prop55
280
     0
102
RTVSPost2010PropOp55
 70
     1
102
RTVSPost2010Prop56
140
1.0
102
RTVSPost2010PropOp56
 70
     1
102
RTVSPost2010Prop57
140
1.0
102
RTVSPost2010PropOp57
 70
     1
  0
XRECORD
  5
106
102
{ACAD_REACTORS
330
105
102
}
330
105
100
AcDbXrecord
280
     1
102
RTVSPost2010Prop28
280
     0
102
RTVSPost2010PropOp28
 70
     1
102
RTVSPost2010Prop29
280
     1
102
RTVSPost2010PropOp29
 70
     1
102
RTVSPost2010Prop30
280
     1
102
RTVSPost2010PropOp30
 70
     1
102
RTVSPost2010Prop31
280
     0
102
RTVSPost2010PropOp31
 70
     1
102
RTVSPost2010Prop32
280
     0
102
RTVSPost2010PropOp32
 70
     1
102
RTVSPost2010Prop33
280
     0
102
RTVSPost2010PropOp33
 70
     1
102
RTVSPost2010Prop34
280
     0
102
RTVSPost2010PropOp34
 70
     1
102
RTVSPost2010Prop35
280
     0
102
RTVSPost2010PropOp35
 70
     1
102
RTVSPost2010Prop36
280
     0
102
RTVSPost2010PropOp36
 70
     1
102
RTVSPost2010Prop37
 90
       50
102
RTVSPost2010PropOp37
 70
     1
102
RTVSPost2010Prop38
140
0.0
102
RTVSPost2010PropOp38
 70
     1
102
RTVSPost2010Prop39
140
1.0
102
RTVSPost2010PropOp39
 70
     1
102
RTVSPost2010Prop40
 90
        0
102
RTVSPost2010PropOp40
 70
     1
102
RTVSPost2010Prop41ColorIndex
 90
       18
102
RTVSPost2010Prop41ColorRGB
 90
        0
102
RTVSPost2010PropOp41
 70
     1
102
RTVSPost2010Prop42
 90
       50
102
RTVSPost2010PropOp42
 70
     1
102
RTVSPost2010Prop43
 90
        3
102
RTVSPost2010PropOp43
 70
     1
102
RTVSPost2010Prop44ColorIndex
 90
        5
102
RTVSPost2010Prop44ColorRGB
 90
      255
102
RTVSPost2010PropOp44
 70
     1
102
RTVSPost2010Prop45
280
     0
102
RTVSPost2010PropOp45
 70
     1
102
RTVSPost2010Prop46
 90
       50
102
RTVSPost2010PropOp46
 70
     1
102
RTVSPost2010Prop47
 90
       50
102
RTVSPost2010PropOp47
 70
     1
102
RTVSPost2010Prop48
 90
       50
102
RTVSPost2010PropOp48
 70
     1
102
RTVSPost2010Prop49
280
     0
102
RTVSPost2010PropOp49
 70
     1
102
RTVSPost2010Prop50
 90
       50
102
RTVSPost2010PropOp50
 70
     1
102
RTVSPost2010Prop51ColorIndex
 90
      256
102
RTVSPost2010Prop51ColorRGB
 90
-16777216
102
RTVSPost2010PropOp51
 70
     0
102
RTVSPost2010Prop52
140
1.0
102
RTVSPost2010PropOp52
 70
     0
102
RTVSPost2010Prop53
 90
        2
102
RTVSPost2010PropOp53
 70
     1
102
RTVSPost2010Prop54
  1
strokes_ogs.tif
102
RTVSPost2010PropOp54
 70
     1
102
RTVSPost2010Prop55
280
     0
102
RTVSPost2010PropOp55
 70
     1
102
RTVSPost2010Prop56
140
1.0
102
RTVSPost2010PropOp56
 70
     1
102
RTVSPost2010Prop57
140
1.0
102
RTVSPost2010PropOp57
 70
     1
  0
XRECORD
  5
10A
102
{ACAD_REACTORS
330
109
102
}
330
109
100
AcDbXrecord
280
     1
102
RTVSPost2010Prop28
280
     0
102
RTVSPost2010PropOp28
 70
     1
102
RTVSPost2010Prop29
280
     1
102
RTVSPost2010PropOp29
 70
     1
102
RTVSPost2010Prop30
280
     1
102
RTVSPost2010PropOp30
 70
     1
102
RTVSPost2010Prop31
280
     0
102
RTVSPost2010PropOp31
 70
     1
102
RTVSPost2010Prop32
280
     0
102
RTVSPost2010PropOp32
 70
     1
102
RTVSPost2010Prop33
280
     0
102
RTVSPost2010PropOp33
 70
     1
102
RTVSPost2010Prop34
280
     0
102
RTVSPost2010PropOp34
 70
     1
102
RTVSPost2010Prop35
280
     0
102
RTVSPost2010PropOp35
 70
     1
102
RTVSPost2010Prop36
280
     0
102
RTVSPost2010PropOp36
 70
     1
102
RTVSPost2010Prop37
 90
       50
102
RTVSPost2010PropOp37
 70
     1
102
RTVSPost2010Prop38
140
0.0
102
RTVSPost2010PropOp38
 70
     1
102
RTVSPost2010Prop39
140
1.0
102
RTVSPost2010PropOp39
 70
     1
102
RTVSPost2010Prop40
 90
        0
102
RTVSPost2010PropOp40
 70
     1
102
RTVSPost2010Prop41ColorIndex
 90
       18
102
RTVSPost2010Prop41ColorRGB
 90
        0
102
RTVSPost2010PropOp41
 70
     1
102
RTVSPost2010Prop42
 90
       50
102
RTVSPost2010PropOp42
 70
     1
102
RTVSPost2010Prop43
 90
        3
102
RTVSPost2010PropOp43
 70
     1
102
RTVSPost2010Prop44ColorIndex
 90
        5
102
RTVSPost2010Prop44ColorRGB
 90
      255
102
RTVSPost2010PropOp44
 70
     1
102
RTVSPost2010Prop45
280
     0
102
RTVSPost2010PropOp45
 70
     1
102
RTVSPost2010Prop46
 90
       50
102
RTVSPost2010PropOp46
 70
     1
102
RTVSPost2010Prop47
 90
       50
102
RTVSPost2010PropOp47
 70
     1
102
RTVSPost2010Prop48
 90
       50
102
RTVSPost2010PropOp48
 70
     1
102
RTVSPost2010Prop49
280
     0
102
RTVSPost2010PropOp49
 70
     1
102
RTVSPost2010Prop50
 90
       50
102
RTVSPost2010PropOp50
 70
     1
102
RTVSPost2010Prop51ColorIndex
 90
      256
102
RTVSPost2010Prop51ColorRGB
 90
-16777216
102
RTVSPost2010PropOp51
 70
     0
102
RTVSPost2010Prop52
140
1.0
102
RTVSPost2010PropOp52
 70
     0
102
RTVSPost2010Prop53
 90
        2
102
RTVSPost2010PropOp53
 70
     1
102
RTVSPost2010Prop54
  1
strokes_ogs.tif
102
RTVSPost2010PropOp54
 70
     1
102
RTVSPost2010Prop55
280
     0
102
RTVSPost2010PropOp55
 70
     1
102
RTVSPost2010Prop56
140
1.0
102
RTVSPost2010PropOp56
 70
     1
102
RTVSPost2010Prop57
140
1.0
102
RTVSPost2010PropOp57
 70
     1
  0
XRECORD
  5
124
102
{ACAD_REACTORS
330
123
102
}
330
123
100
AcDbXrecord
280
     1
102
RTVSPost2010Prop28
280
     0
102
RTVSPost2010PropOp28
 70
     0
102
RTVSPost2010Prop29
280
     1
102
RTVSPost2010PropOp29
 70
     0
102
RTVSPost2010Prop30
280
     1
102
RTVSPost2010PropOp30
 70
     0
102
RTVSPost2010Prop31
280
     0
102
RTVSPost2010PropOp31
 70
     0
102
RTVSPost2010Prop32
280
     0
102
RTVSPost2010PropOp32
 70
     0
102
RTVSPost2010Prop33
280
     0
102
RTVSPost2010PropOp33
 70
     0
102
RTVSPost2010Prop34
280
     0
102
RTVSPost2010PropOp34
 70
     0
102
RTVSPost2010Prop35
280
     0
102
RTVSPost2010PropOp35
 70
     0
102
RTVSPost2010Prop36
280
     0
102
RTVSPost2010PropOp36
 70
     0
102
RTVSPost2010Prop37
 90
       50
102
RTVSPost2010PropOp37
 70
     0
102
RTVSPost2010Prop38
140
0.0
102
RTVSPost2010PropOp38
 70
     0
102
RTVSPost2010Prop39
140
1.0
102
RTVSPost2010PropOp39
 70
     0
102
RTVSPost2010Prop40
 90
        0
102
RTVSPost2010PropOp40
 70
     0
102
RTVSPost2010Prop41ColorIndex
 90
       18
102
RTVSPost2010Prop41ColorRGB
 90
        0
102
RTVSPost2010PropOp41
 70
     0
102
RTVSPost2010Prop42
 90
       50
102
RTVSPost2010PropOp42
 70
     0
102
RTVSPost2010Prop43
 90
        3
102
RTVSPost2010PropOp43
 70
     0
102
RTVSPost2010Prop44ColorIndex
 90
        5
102
RTVSPost2010Prop44ColorRGB
 90
      255
102
RTVSPost2010PropOp44
 70
     0
102
RTVSPost2010Prop45
280
     0
102
RTVSPost2010PropOp45
 70
     0
102
RTVSPost2010Prop46
 90
       50
102
RTVSPost2010PropOp46
 70
     0
102
RTVSPost2010Prop47
 90
       50
102
RTVSPost2010PropOp47
 70
     0
102
RTVSPost2010Prop48
 90
       50
102
RTVSPost2010PropOp48
 70
     0
102
RTVSPost2010Prop49
280
     0
102
RTVSPost2010PropOp49
 70
     0
102
RTVSPost2010Prop50
 90
       50
102
RTVSPost2010PropOp50
 70
     0
102
RTVSPost2010Prop51ColorIndex
 90
      256
102
RTVSPost2010Prop51ColorRGB
 90
-16777216
102
RTVSPost2010PropOp51
 70
     0
102
RTVSPost2010Prop52
140
1.0
102
RTVSPost2010PropOp52
 70
     0
102
RTVSPost2010Prop53
 90
        2
102
RTVSPost2010PropOp53
 70
     0
102
RTVSPost2010Prop54
  1
strokes_ogs.tif
102
RTVSPost2010PropOp54
 70
     0
102
RTVSPost2010Prop55
280
     0
102
RTVSPost2010PropOp55
 70
     0
102
RTVSPost2010Prop56
140
1.0
102
RTVSPost2010PropOp56
 70
     0
102
RTVSPost2010Prop57
140
1.0
102
RTVSPost2010PropOp57
 70
     0
  0
XRECORD
  5
112
102
{ACAD_REACTORS
330
111
102
}
330
111
100
AcDbXrecord
280
     1
102
RTVSPost2010Prop28
280
     0
102
RTVSPost2010PropOp28
 70
     1
102
RTVSPost2010Prop29
280
     1
102
RTVSPost2010PropOp29
 70
     1
102
RTVSPost2010Prop30
280
     1
102
RTVSPost2010PropOp30
 70
     1
102
RTVSPost2010Prop31
280
     0
102
RTVSPost2010PropOp31
 70
     1
102
RTVSPost2010Prop32
280
     0
102
RTVSPost2010PropOp32
 70
     1
102
RTVSPost2010Prop33
280
     0
102
RTVSPost2010PropOp33
 70
     1
102
RTVSPost2010Prop34
280
     0
102
RTVSPost2010PropOp34
 70
     1
102
RTVSPost2010Prop35
280
     0
102
RTVSPost2010PropOp35
 70
     1
102
RTVSPost2010Prop36
280
     0
102
RTVSPost2010PropOp36
 70
     1
102
RTVSPost2010Prop37
 90
       50
102
RTVSPost2010PropOp37
 70
     1
102
RTVSPost2010Prop38
140
0.0
102
RTVSPost2010PropOp38
 70
     1
102
RTVSPost2010Prop39
140
1.0
102
RTVSPost2010PropOp39
 70
     1
102
RTVSPost2010Prop40
 90
        0
102
RTVSPost2010PropOp40
 70
     1
102
RTVSPost2010Prop41ColorIndex
 90
       18
102
RTVSPost2010Prop41ColorRGB
 90
        0
102
RTVSPost2010PropOp41
 70
     1
102
RTVSPost2010Prop42
 90
       50
102
RTVSPost2010PropOp42
 70
     1
102
RTVSPost2010Prop43
 90
        3
102
RTVSPost2010PropOp43
 70
     1
102
RTVSPost2010Prop44ColorIndex
 90
        5
102
RTVSPost2010Prop44ColorRGB
 90
      255
102
RTVSPost2010PropOp44
 70
     1
102
RTVSPost2010Prop45
280
     0
102
RTVSPost2010PropOp45
 70
     1
102
RTVSPost2010Prop46
 90
       50
102
RTVSPost2010PropOp46
 70
     1
102
RTVSPost2010Prop47
 90
       50
102
RTVSPost2010PropOp47
 70
     1
102
RTVSPost2010Prop48
 90
       50
102
RTVSPost2010PropOp48
 70
     1
102
RTVSPost2010Prop49
280
     0
102
RTVSPost2010PropOp49
 70
     1
102
RTVSPost2010Prop50
 90
       50
102
RTVSPost2010PropOp50
 70
     1
102
RTVSPost2010Prop51ColorIndex
 90
      256
102
RTVSPost2010Prop51ColorRGB
 90
-16777216
102
RTVSPost2010PropOp51
 70
     0
102
RTVSPost2010Prop52
140
1.0
102
RTVSPost2010PropOp52
 70
     0
102
RTVSPost2010Prop53
 90
        2
102
RTVSPost2010PropOp53
 70
     1
102
RTVSPost2010Prop54
  1
strokes_ogs.tif
102
RTVSPost2010PropOp54
 70
     1
102
RTVSPost2010Prop55
280
     0
102
RTVSPost2010PropOp55
 70
     1
102
RTVSPost2010Prop56
140
1.0
102
RTVSPost2010PropOp56
 70
     1
102
RTVSPost2010Prop57
140
1.0
102
RTVSPost2010PropOp57
 70
     1
  0
XRECORD
  5
F6
102
{ACAD_REACTORS
330
F5
102
}
330
F5
100
AcDbXrecord
280
     1
102
RTVSPost2010Prop28
280
     0
102
RTVSPost2010PropOp28
 70
     1
102
RTVSPost2010Prop29
280
     1
102
RTVSPost2010PropOp29
 70
     1
102
RTVSPost2010Prop30
280
     1
102
RTVSPost2010PropOp30
 70
     1
102
RTVSPost2010Prop31
280
     0
102
RTVSPost2010PropOp31
 70
     1
102
RTVSPost2010Prop32
280
     0
102
RTVSPost2010PropOp32
 70
     1
102
RTVSPost2010Prop33
280
     0
102
RTVSPost2010PropOp33
 70
     1
102
RTVSPost2010Prop34
280
     0
102
RTVSPost2010PropOp34
 70
     1
102
RTVSPost2010Prop35
280
     0
102
RTVSPost2010PropOp35
 70
     1
102
RTVSPost2010Prop36
280
     0
102
RTVSPost2010PropOp36
 70
     1
102
RTVSPost2010Prop37
 90
       50
102
RTVSPost2010PropOp37
 70
     1
102
RTVSPost2010Prop38
140
0.0
102
RTVSPost2010PropOp38
 70
     1
102
RTVSPost2010Prop39
140
1.0
102
RTVSPost2010PropOp39
 70
     1
102
RTVSPost2010Prop40
 90
        0
102
RTVSPost2010PropOp40
 70
     1
102
RTVSPost2010Prop41ColorIndex
 90
       18
102
RTVSPost2010Prop41ColorRGB
 90
        0
102
RTVSPost2010PropOp41
 70
     1
102
RTVSPost2010Prop42
 90
       50
102
RTVSPost2010PropOp42
 70
     1
102
RTVSPost2010Prop43
 90
        3
102
RTVSPost2010PropOp43
 70
     1
102
RTVSPost2010Prop44ColorIndex
 90
        5
102
RTVSPost2010Prop44ColorRGB
 90
      255
102
RTVSPost2010PropOp44
 70
     1
102
RTVSPost2010Prop45
280
     0
102
RTVSPost2010PropOp45
 70
     1
102
RTVSPost2010Prop46
 90
       50
102
RTVSPost2010PropOp46
 70
     1
102
RTVSPost2010Prop47
 90
       50
102
RTVSPost2010PropOp47
 70
     1
102
RTVSPost2010Prop48
 90
       50
102
RTVSPost2010PropOp48
 70
     1
102
RTVSPost2010Prop49
280
     0
102
RTVSPost2010PropOp49
 70
     1
102
RTVSPost2010Prop50
 90
       50
102
RTVSPost2010PropOp50
 70
     1
102
RTVSPost2010Prop51ColorIndex
 90
      256
102
RTVSPost2010Prop51ColorRGB
 90
-16777216
102
RTVSPost2010PropOp51
 70
     0
102
RTVSPost2010Prop52
140
1.0
102
RTVSPost2010PropOp52
 70
     0
102
RTVSPost2010Prop53
 90
        2
102
RTVSPost2010PropOp53
 70
     1
102
RTVSPost2010Prop54
  1
strokes_ogs.tif
102
RTVSPost2010PropOp54
 70
     1
102
RTVSPost2010Prop55
280
     0
102
RTVSPost2010PropOp55
 70
     1
102
RTVSPost2010Prop56
140
1.0
102
RTVSPost2010PropOp56
 70
     1
102
RTVSPost2010Prop57
140
1.0
102
RTVSPost2010PropOp57
 70
     1
  0
XRECORD
  5
F8
102
{ACAD_REACTORS
330
F7
102
}
330
F7
100
AcDbXrecord
280
     1
102
RTVSPost2010Prop28
280
     0
102
RTVSPost2010PropOp28
 70
     1
102
RTVSPost2010Prop29
280
     1
102
RTVSPost2010PropOp29
 70
     1
102
RTVSPost2010Prop30
280
     1
102
RTVSPost2010PropOp30
 70
     1
102
RTVSPost2010Prop31
280
     0
102
RTVSPost2010PropOp31
 70
     1
102
RTVSPost2010Prop32
280
     0
102
RTVSPost2010PropOp32
 70
     1
102
RTVSPost2010Prop33
280
     0
102
RTVSPost2010PropOp33
 70
     1
102
RTVSPost2010Prop34
280
     0
102
RTVSPost2010PropOp34
 70
     1
102
RTVSPost2010Prop35
280
     0
102
RTVSPost2010PropOp35
 70
     1
102
RTVSPost2010Prop36
280
     0
102
RTVSPost2010PropOp36
 70
     1
102
RTVSPost2010Prop37
 90
       50
102
RTVSPost2010PropOp37
 70
     1
102
RTVSPost2010Prop38
140
0.0
102
RTVSPost2010PropOp38
 70
     1
102
RTVSPost2010Prop39
140
1.0
102
RTVSPost2010PropOp39
 70
     1
102
RTVSPost2010Prop40
 90
        0
102
RTVSPost2010PropOp40
 70
     1
102
RTVSPost2010Prop41ColorIndex
 90
       18
102
RTVSPost2010Prop41ColorRGB
 90
        0
102
RTVSPost2010PropOp41
 70
     1
102
RTVSPost2010Prop42
 90
       50
102
RTVSPost2010PropOp42
 70
     1
102
RTVSPost2010Prop43
 90
        3
102
RTVSPost2010PropOp43
 70
     1
102
RTVSPost2010Prop44ColorIndex
 90
        5
102
RTVSPost2010Prop44ColorRGB
 90
      255
102
RTVSPost2010PropOp44
 70
     1
102
RTVSPost2010Prop45
280
     0
102
RTVSPost2010PropOp45
 70
     1
102
RTVSPost2010Prop46
 90
       50
102
RTVSPost2010PropOp46
 70
     1
102
RTVSPost2010Prop47
 90
       50
102
RTVSPost2010PropOp47
 70
     1
102
RTVSPost2010Prop48
 90
       50
102
RTVSPost2010PropOp48
 70
     1
102
RTVSPost2010Prop49
280
     0
102
RTVSPost2010PropOp49
 70
     1
102
RTVSPost2010Prop50
 90
       50
102
RTVSPost2010PropOp50
 70
     1
102
RTVSPost2010Prop51ColorIndex
 90
      256
102
RTVSPost2010Prop51ColorRGB
 90
-16777216
102
RTVSPost2010PropOp51
 70
     0
102
RTVSPost2010Prop52
140
1.0
102
RTVSPost2010PropOp52
 70
     0
102
RTVSPost2010Prop53
 90
        2
102
RTVSPost2010PropOp53
 70
     1
102
RTVSPost2010Prop54
  1
strokes_ogs.tif
102
RTVSPost2010PropOp54
 70
     1
102
RTVSPost2010Prop55
280
     0
102
RTVSPost2010PropOp55
 70
     1
102
RTVSPost2010Prop56
140
1.0
102
RTVSPost2010PropOp56
 70
     1
102
RTVSPost2010Prop57
140
1.0
102
RTVSPost2010PropOp57
 70
     1
  0
XRECORD
  5
FA
102
{ACAD_REACTORS
330
F9
102
}
330
F9
100
AcDbXrecord
280
     1
102
RTVSPost2010Prop28
280
     0
102
RTVSPost2010PropOp28
 70
     1
102
RTVSPost2010Prop29
280
     1
102
RTVSPost2010PropOp29
 70
     1
102
RTVSPost2010Prop30
280
     1
102
RTVSPost2010PropOp30
 70
     1
102
RTVSPost2010Prop31
280
     0
102
RTVSPost2010PropOp31
 70
     1
102
RTVSPost2010Prop32
280
     0
102
RTVSPost2010PropOp32
 70
     1
102
RTVSPost2010Prop33
280
     0
102
RTVSPost2010PropOp33
 70
     1
102
RTVSPost2010Prop34
280
     0
102
RTVSPost2010PropOp34
 70
     1
102
RTVSPost2010Prop35
280
     0
102
RTVSPost2010PropOp35
 70
     1
102
RTVSPost2010Prop36
280
     0
102
RTVSPost2010PropOp36
 70
     1
102
RTVSPost2010Prop37
 90
       50
102
RTVSPost2010PropOp37
 70
     1
102
RTVSPost2010Prop38
140
0.0
102
RTVSPost2010PropOp38
 70
     1
102
RTVSPost2010Prop39
140
1.0
102
RTVSPost2010PropOp39
 70
     1
102
RTVSPost2010Prop40
 90
        0
102
RTVSPost2010PropOp40
 70
     1
102
RTVSPost2010Prop41ColorIndex
 90
       18
102
RTVSPost2010Prop41ColorRGB
 90
        0
102
RTVSPost2010PropOp41
 70
     1
102
RTVSPost2010Prop42
 90
       50
102
RTVSPost2010PropOp42
 70
     1
102
RTVSPost2010Prop43
 90
        3
102
RTVSPost2010PropOp43
 70
     1
102
RTVSPost2010Prop44ColorIndex
 90
        5
102
RTVSPost2010Prop44ColorRGB
 90
      255
102
RTVSPost2010PropOp44
 70
     1
102
RTVSPost2010Prop45
280
     0
102
RTVSPost2010PropOp45
 70
     1
102
RTVSPost2010Prop46
 90
       50
102
RTVSPost2010PropOp46
 70
     1
102
RTVSPost2010Prop47
 90
       50
102
RTVSPost2010PropOp47
 70
     1
102
RTVSPost2010Prop48
 90
       50
102
RTVSPost2010PropOp48
 70
     1
102
RTVSPost2010Prop49
280
     0
102
RTVSPost2010PropOp49
 70
     1
102
RTVSPost2010Prop50
 90
       50
102
RTVSPost2010PropOp50
 70
     1
102
RTVSPost2010Prop51ColorIndex
 90
      256
102
RTVSPost2010Prop51ColorRGB
 90
-16777216
102
RTVSPost2010PropOp51
 70
     0
102
RTVSPost2010Prop52
140
1.0
102
RTVSPost2010PropOp52
 70
     0
102
RTVSPost2010Prop53
 90
        2
102
RTVSPost2010PropOp53
 70
     1
102
RTVSPost2010Prop54
  1
strokes_ogs.tif
102
RTVSPost2010PropOp54
 70
     1
102
RTVSPost2010Prop55
280
     0
102
RTVSPost2010PropOp55
 70
     1
102
RTVSPost2010Prop56
140
1.0
102
RTVSPost2010PropOp56
 70
     1
102
RTVSPost2010Prop57
140
1.0
102
RTVSPost2010PropOp57
 70
     1
  0
XRECORD
  5
FC
102
{ACAD_REACTORS
330
FB
102
}
330
FB
100
AcDbXrecord
280
     1
102
RTVSPost2010Prop28
280
     0
102
RTVSPost2010PropOp28
 70
     1
102
RTVSPost2010Prop29
280
     1
102
RTVSPost2010PropOp29
 70
     1
102
RTVSPost2010Prop30
280
     1
102
RTVSPost2010PropOp30
 70
     1
102
RTVSPost2010Prop31
280
     0
102
RTVSPost2010PropOp31
 70
     1
102
RTVSPost2010Prop32
280
     0
102
RTVSPost2010PropOp32
 70
     1
102
RTVSPost2010Prop33
280
     0
102
RTVSPost2010PropOp33
 70
     1
102
RTVSPost2010Prop34
280
     0
102
RTVSPost2010PropOp34
 70
     1
102
RTVSPost2010Prop35
280
     0
102
RTVSPost2010PropOp35
 70
     1
102
RTVSPost2010Prop36
280
     0
102
RTVSPost2010PropOp36
 70
     1
102
RTVSPost2010Prop37
 90
       50
102
RTVSPost2010PropOp37
 70
     1
102
RTVSPost2010Prop38
140
0.0
102
RTVSPost2010PropOp38
 70
     1
102
RTVSPost2010Prop39
140
1.0
102
RTVSPost2010PropOp39
 70
     1
102
RTVSPost2010Prop40
 90
        0
102
RTVSPost2010PropOp40
 70
     1
102
RTVSPost2010Prop41ColorIndex
 90
       18
102
RTVSPost2010Prop41ColorRGB
 90
        0
102
RTVSPost2010PropOp41
 70
     1
102
RTVSPost2010Prop42
 90
       50
102
RTVSPost2010PropOp42
 70
     1
102
RTVSPost2010Prop43
 90
        3
102
RTVSPost2010PropOp43
 70
     1
102
RTVSPost2010Prop44ColorIndex
 90
        5
102
RTVSPost2010Prop44ColorRGB
 90
      255
102
RTVSPost2010PropOp44
 70
     1
102
RTVSPost2010Prop45
280
     0
102
RTVSPost2010PropOp45
 70
     1
102
RTVSPost2010Prop46
 90
       50
102
RTVSPost2010PropOp46
 70
     1
102
RTVSPost2010Prop47
 90
       50
102
RTVSPost2010PropOp47
 70
     1
102
RTVSPost2010Prop48
 90
       50
102
RTVSPost2010PropOp48
 70
     1
102
RTVSPost2010Prop49
280
     0
102
RTVSPost2010PropOp49
 70
     1
102
RTVSPost2010Prop50
 90
       50
102
RTVSPost2010PropOp50
 70
     1
102
RTVSPost2010Prop51ColorIndex
 90
      256
102
RTVSPost2010Prop51ColorRGB
 90
-16777216
102
RTVSPost2010PropOp51
 70
     0
102
RTVSPost2010Prop52
140
1.0
102
RTVSPost2010PropOp52
 70
     0
102
RTVSPost2010Prop53
 90
        2
102
RTVSPost2010PropOp53
 70
     1
102
RTVSPost2010Prop54
  1
strokes_ogs.tif
102
RTVSPost2010PropOp54
 70
     1
102
RTVSPost2010Prop55
280
     0
102
RTVSPost2010PropOp55
 70
     1
102
RTVSPost2010Prop56
140
1.0
102
RTVSPost2010PropOp56
 70
     1
102
RTVSPost2010Prop57
140
1.0
102
RTVSPost2010PropOp57
 70
     1
  0
XRECORD
  5
104
102
{ACAD_REACTORS
330
103
102
}
330
103
100
AcDbXrecord
280
     1
102
RTVSPost2010Prop28
280
     0
102
RTVSPost2010PropOp28
 70
     1
102
RTVSPost2010Prop29
280
     1
102
RTVSPost2010PropOp29
 70
     1
102
RTVSPost2010Prop30
280
     1
102
RTVSPost2010PropOp30
 70
     1
102
RTVSPost2010Prop31
280
     0
102
RTVSPost2010PropOp31
 70
     1
102
RTVSPost2010Prop32
280
     0
102
RTVSPost2010PropOp32
 70
     1
102
RTVSPost2010Prop33
280
     0
102
RTVSPost2010PropOp33
 70
     1
102
RTVSPost2010Prop34
280
     0
102
RTVSPost2010PropOp34
 70
     1
102
RTVSPost2010Prop35
280
     0
102
RTVSPost2010PropOp35
 70
     1
102
RTVSPost2010Prop36
280
     0
102
RTVSPost2010PropOp36
 70
     1
102
RTVSPost2010Prop37
 90
       50
102
RTVSPost2010PropOp37
 70
     1
102
RTVSPost2010Prop38
140
0.0
102
RTVSPost2010PropOp38
 70
     1
102
RTVSPost2010Prop39
140
1.0
102
RTVSPost2010PropOp39
 70
     1
102
RTVSPost2010Prop40
 90
        0
102
RTVSPost2010PropOp40
 70
     1
102
RTVSPost2010Prop41ColorIndex
 90
       18
102
RTVSPost2010Prop41ColorRGB
 90
        0
102
RTVSPost2010PropOp41
 70
     1
102
RTVSPost2010Prop42
 90
       50
102
RTVSPost2010PropOp42
 70
     1
102
RTVSPost2010Prop43
 90
        3
102
RTVSPost2010PropOp43
 70
     1
102
RTVSPost2010Prop44ColorIndex
 90
        5
102
RTVSPost2010Prop44ColorRGB
 90
      255
102
RTVSPost2010PropOp44
 70
     1
102
RTVSPost2010Prop45
280
     0
102
RTVSPost2010PropOp45
 70
     1
102
RTVSPost2010Prop46
 90
       50
102
RTVSPost2010PropOp46
 70
     1
102
RTVSPost2010Prop47
 90
       50
102
RTVSPost2010PropOp47
 70
     1
102
RTVSPost2010Prop48
 90
       50
102
RTVSPost2010PropOp48
 70
     1
102
RTVSPost2010Prop49
280
     0
102
RTVSPost2010PropOp49
 70
     1
102
RTVSPost2010Prop50
 90
       50
102
RTVSPost2010PropOp50
 70
     1
102
RTVSPost2010Prop51ColorIndex
 90
      256
102
RTVSPost2010Prop51ColorRGB
 90
-16777216
102
RTVSPost2010PropOp51
 70
     0
102
RTVSPost2010Prop52
140
1.0
102
RTVSPost2010PropOp52
 70
     0
102
RTVSPost2010Prop53
 90
        2
102
RTVSPost2010PropOp53
 70
     1
102
RTVSPost2010Prop54
  1
strokes_ogs.tif
102
RTVSPost2010PropOp54
 70
     1
102
RTVSPost2010Prop55
280
     0
102
RTVSPost2010PropOp55
 70
     1
102
RTVSPost2010Prop56
140
1.0
102
RTVSPost2010PropOp56
 70
     1
102
RTVSPost2010Prop57
140
1.0
102
RTVSPost2010PropOp57
 70
     1
  0
XRECORD
  5
120
102
{ACAD_REACTORS
330
11F
102
}
330
11F
100
AcDbXrecord
280
     1
102
RTVSPost2010Prop28
280
     0
102
RTVSPost2010PropOp28
 70
     0
102
RTVSPost2010Prop29
280
     1
102
RTVSPost2010PropOp29
 70
     0
102
RTVSPost2010Prop30
280
     1
102
RTVSPost2010PropOp30
 70
     0
102
RTVSPost2010Prop31
280
     0
102
RTVSPost2010PropOp31
 70
     0
102
RTVSPost2010Prop32
280
     0
102
RTVSPost2010PropOp32
 70
     0
102
RTVSPost2010Prop33
280
     0
102
RTVSPost2010PropOp33
 70
     0
102
RTVSPost2010Prop34
280
     0
102
RTVSPost2010PropOp34
 70
     0
102
RTVSPost2010Prop35
280
     0
102
RTVSPost2010PropOp35
 70
     0
102
RTVSPost2010Prop36
280
     0
102
RTVSPost2010PropOp36
 70
     0
102
RTVSPost2010Prop37
 90
       50
102
RTVSPost2010PropOp37
 70
     0
102
RTVSPost2010Prop38
140
0.0
102
RTVSPost2010PropOp38
 70
     0
102
RTVSPost2010Prop39
140
1.0
102
RTVSPost2010PropOp39
 70
     0
102
RTVSPost2010Prop40
 90
        0
102
RTVSPost2010PropOp40
 70
     0
102
RTVSPost2010Prop41ColorIndex
 90
       18
102
RTVSPost2010Prop41ColorRGB
 90
        0
102
RTVSPost2010PropOp41
 70
     0
102
RTVSPost2010Prop42
 90
       50
102
RTVSPost2010PropOp42
 70
     0
102
RTVSPost2010Prop43
 90
        3
102
RTVSPost2010PropOp43
 70
     0
102
RTVSPost2010Prop44ColorIndex
 90
        5
102
RTVSPost2010Prop44ColorRGB
 90
      255
102
RTVSPost2010PropOp44
 70
     0
102
RTVSPost2010Prop45
280
     0
102
RTVSPost2010PropOp45
 70
     0
102
RTVSPost2010Prop46
 90
       50
102
RTVSPost2010PropOp46
 70
     0
102
RTVSPost2010Prop47
 90
       50
102
RTVSPost2010PropOp47
 70
     0
102
RTVSPost2010Prop48
 90
       50
102
RTVSPost2010PropOp48
 70
     0
102
RTVSPost2010Prop49
280
     0
102
RTVSPost2010PropOp49
 70
     0
102
RTVSPost2010Prop50
 90
       50
102
RTVSPost2010PropOp50
 70
     0
102
RTVSPost2010Prop51ColorIndex
 90
      256
102
RTVSPost2010Prop51ColorRGB
 90
-16777216
102
RTVSPost2010PropOp51
 70
     0
102
RTVSPost2010Prop52
140
1.0
102
RTVSPost2010PropOp52
 70
     0
102
RTVSPost2010Prop53
 90
        2
102
RTVSPost2010PropOp53
 70
     0
102
RTVSPost2010Prop54
  1
strokes_ogs.tif
102
RTVSPost2010PropOp54
 70
     0
102
RTVSPost2010Prop55
280
     0
102
RTVSPost2010PropOp55
 70
     0
102
RTVSPost2010Prop56
140
1.0
102
RTVSPost2010PropOp56
 70
     0
102
RTVSPost2010Prop57
140
1.0
102
RTVSPost2010PropOp57
 70
     0
  0
XRECORD
  5
110
102
{ACAD_REACTORS
330
10F
102
}
330
10F
100
AcDbXrecord
280
     1
102
RTVSPost2010Prop28
280
     0
102
RTVSPost2010PropOp28
 70
     1
102
RTVSPost2010Prop29
280
     1
102
RTVSPost2010PropOp29
 70
     1
102
RTVSPost2010Prop30
280
     1
102
RTVSPost2010PropOp30
 70
     1
102
RTVSPost2010Prop31
280
     0
102
RTVSPost2010PropOp31
 70
     1
102
RTVSPost2010Prop32
280
     0
102
RTVSPost2010PropOp32
 70
     1
102
RTVSPost2010Prop33
280
     0
102
RTVSPost2010PropOp33
 70
     1
102
RTVSPost2010Prop34
280
     0
102
RTVSPost2010PropOp34
 70
     1
102
RTVSPost2010Prop35
280
     0
102
RTVSPost2010PropOp35
 70
     1
102
RTVSPost2010Prop36
280
     0
102
RTVSPost2010PropOp36
 70
     1
102
RTVSPost2010Prop37
 90
       50
102
RTVSPost2010PropOp37
 70
     1
102
RTVSPost2010Prop38
140
0.0
102
RTVSPost2010PropOp38
 70
     1
102
RTVSPost2010Prop39
140
1.0
102
RTVSPost2010PropOp39
 70
     1
102
RTVSPost2010Prop40
 90
        0
102
RTVSPost2010PropOp40
 70
     1
102
RTVSPost2010Prop41ColorIndex
 90
       18
102
RTVSPost2010Prop41ColorRGB
 90
        0
102
RTVSPost2010PropOp41
 70
     1
102
RTVSPost2010Prop42
 90
       50
102
RTVSPost2010PropOp42
 70
     1
102
RTVSPost2010Prop43
 90
        3
102
RTVSPost2010PropOp43
 70
     1
102
RTVSPost2010Prop44ColorIndex
 90
        5
102
RTVSPost2010Prop44ColorRGB
 90
      255
102
RTVSPost2010PropOp44
 70
     1
102
RTVSPost2010Prop45
280
     0
102
RTVSPost2010PropOp45
 70
     1
102
RTVSPost2010Prop46
 90
       50
102
RTVSPost2010PropOp46
 70
     1
102
RTVSPost2010Prop47
 90
       50
102
RTVSPost2010PropOp47
 70
     1
102
RTVSPost2010Prop48
 90
       50
102
RTVSPost2010PropOp48
 70
     1
102
RTVSPost2010Prop49
280
     0
102
RTVSPost2010PropOp49
 70
     1
102
RTVSPost2010Prop50
 90
       50
102
RTVSPost2010PropOp50
 70
     1
102
RTVSPost2010Prop51ColorIndex
 90
      256
102
RTVSPost2010Prop51ColorRGB
 90
-16777216
102
RTVSPost2010PropOp51
 70
     0
102
RTVSPost2010Prop52
140
1.0
102
RTVSPost2010PropOp52
 70
     0
102
RTVSPost2010Prop53
 90
        2
102
RTVSPost2010PropOp53
 70
     1
102
RTVSPost2010Prop54
  1
strokes_ogs.tif
102
RTVSPost2010PropOp54
 70
     1
102
RTVSPost2010Prop55
280
     0
102
RTVSPost2010PropOp55
 70
     1
102
RTVSPost2010Prop56
140
1.0
102
RTVSPost2010PropOp56
 70
     1
102
RTVSPost2010Prop57
140
1.0
102
RTVSPost2010PropOp57
 70
     1
  0
XRECORD
  5
122
102
{ACAD_REACTORS
330
121
102
}
330
121
100
AcDbXrecord
280
     1
102
RTVSPost2010Prop28
280
     0
102
RTVSPost2010PropOp28
 70
     0
102
RTVSPost2010Prop29
280
     1
102
RTVSPost2010PropOp29
 70
     0
102
RTVSPost2010Prop30
280
     1
102
RTVSPost2010PropOp30
 70
     0
102
RTVSPost2010Prop31
280
     0
102
RTVSPost2010PropOp31
 70
     0
102
RTVSPost2010Prop32
280
     0
102
RTVSPost2010PropOp32
 70
     0
102
RTVSPost2010Prop33
280
     0
102
RTVSPost2010PropOp33
 70
     0
102
RTVSPost2010Prop34
280
     0
102
RTVSPost2010PropOp34
 70
     0
102
RTVSPost2010Prop35
280
     0
102
RTVSPost2010PropOp35
 70
     0
102
RTVSPost2010Prop36
280
     0
102
RTVSPost2010PropOp36
 70
     0
102
RTVSPost2010Prop37
 90
       50
102
RTVSPost2010PropOp37
 70
     0
102
RTVSPost2010Prop38
140
0.0
102
RTVSPost2010PropOp38
 70
     0
102
RTVSPost2010Prop39
140
1.0
102
RTVSPost2010PropOp39
 70
     0
102
RTVSPost2010Prop40
 90
        0
102
RTVSPost2010PropOp40
 70
     0
102
RTVSPost2010Prop41ColorIndex
 90
       18
102
RTVSPost2010Prop41ColorRGB
 90
        0
102
RTVSPost2010PropOp41
 70
     0
102
RTVSPost2010Prop42
 90
       50
102
RTVSPost2010PropOp42
 70
     0
102
RTVSPost2010Prop43
 90
        3
102
RTVSPost2010PropOp43
 70
     0
102
RTVSPost2010Prop44ColorIndex
 90
        5
102
RTVSPost2010Prop44ColorRGB
 90
      255
102
RTVSPost2010PropOp44
 70
     0
102
RTVSPost2010Prop45
280
     0
102
RTVSPost2010PropOp45
 70
     0
102
RTVSPost2010Prop46
 90
       50
102
RTVSPost2010PropOp46
 70
     0
102
RTVSPost2010Prop47
 90
       50
102
RTVSPost2010PropOp47
 70
     0
102
RTVSPost2010Prop48
 90
       50
102
RTVSPost2010PropOp48
 70
     0
102
RTVSPost2010Prop49
280
     0
102
RTVSPost2010PropOp49
 70
     0
102
RTVSPost2010Prop50
 90
       50
102
RTVSPost2010PropOp50
 70
     0
102
RTVSPost2010Prop51ColorIndex
 90
      256
102
RTVSPost2010Prop51ColorRGB
 90
-16777216
102
RTVSPost2010PropOp51
 70
     0
102
RTVSPost2010Prop52
140
1.0
102
RTVSPost2010PropOp52
 70
     0
102
RTVSPost2010Prop53
 90
        2
102
RTVSPost2010PropOp53
 70
     0
102
RTVSPost2010Prop54
  1
strokes_ogs.tif
102
RTVSPost2010PropOp54
 70
     0
102
RTVSPost2010Prop55
280
     0
102
RTVSPost2010PropOp55
 70
     0
102
RTVSPost2010Prop56
140
1.0
102
RTVSPost2010PropOp56
 70
     0
102
RTVSPost2010Prop57
140
1.0
102
RTVSPost2010PropOp57
 70
     0
  0
XRECORD
  5
108
102
{ACAD_REACTORS
330
107
102
}
330
107
100
AcDbXrecord
280
     1
102
RTVSPost2010Prop28
280
     0
102
RTVSPost2010PropOp28
 70
     1
102
RTVSPost2010Prop29
280
     1
102
RTVSPost2010PropOp29
 70
     1
102
RTVSPost2010Prop30
280
     1
102
RTVSPost2010PropOp30
 70
     1
102
RTVSPost2010Prop31
280
     0
102
RTVSPost2010PropOp31
 70
     1
102
RTVSPost2010Prop32
280
     0
102
RTVSPost2010PropOp32
 70
     1
102
RTVSPost2010Prop33
280
     0
102
RTVSPost2010PropOp33
 70
     1
102
RTVSPost2010Prop34
280
     0
102
RTVSPost2010PropOp34
 70
     1
102
RTVSPost2010Prop35
280
     0
102
RTVSPost2010PropOp35
 70
     1
102
RTVSPost2010Prop36
280
     0
102
RTVSPost2010PropOp36
 70
     1
102
RTVSPost2010Prop37
 90
       50
102
RTVSPost2010PropOp37
 70
     1
102
RTVSPost2010Prop38
140
0.0
102
RTVSPost2010PropOp38
 70
     1
102
RTVSPost2010Prop39
140
1.0
102
RTVSPost2010PropOp39
 70
     1
102
RTVSPost2010Prop40
 90
        0
102
RTVSPost2010PropOp40
 70
     1
102
RTVSPost2010Prop41ColorIndex
 90
       18
102
RTVSPost2010Prop41ColorRGB
 90
        0
102
RTVSPost2010PropOp41
 70
     1
102
RTVSPost2010Prop42
 90
       50
102
RTVSPost2010PropOp42
 70
     1
102
RTVSPost2010Prop43
 90
        3
102
RTVSPost2010PropOp43
 70
     1
102
RTVSPost2010Prop44ColorIndex
 90
        5
102
RTVSPost2010Prop44ColorRGB
 90
      255
102
RTVSPost2010PropOp44
 70
     1
102
RTVSPost2010Prop45
280
     0
102
RTVSPost2010PropOp45
 70
     1
102
RTVSPost2010Prop46
 90
       50
102
RTVSPost2010PropOp46
 70
     1
102
RTVSPost2010Prop47
 90
       50
102
RTVSPost2010PropOp47
 70
     1
102
RTVSPost2010Prop48
 90
       50
102
RTVSPost2010PropOp48
 70
     1
102
RTVSPost2010Prop49
280
     0
102
RTVSPost2010PropOp49
 70
     1
102
RTVSPost2010Prop50
 90
       50
102
RTVSPost2010PropOp50
 70
     1
102
RTVSPost2010Prop51ColorIndex
 90
      256
102
RTVSPost2010Prop51ColorRGB
 90
-16777216
102
RTVSPost2010PropOp51
 70
     0
102
RTVSPost2010Prop52
140
1.0
102
RTVSPost2010PropOp52
 70
     0
102
RTVSPost2010Prop53
 90
        2
102
RTVSPost2010PropOp53
 70
     1
102
RTVSPost2010Prop54
  1
strokes_ogs.tif
102
RTVSPost2010PropOp54
 70
     1
102
RTVSPost2010Prop55
280
     0
102
RTVSPost2010PropOp55
 70
     1
102
RTVSPost2010Prop56
140
1.0
102
RTVSPost2010PropOp56
 70
     1
102
RTVSPost2010Prop57
140
1.0
102
RTVSPost2010PropOp57
 70
     1
  0
XRECORD
  5
11E
102
{ACAD_REACTORS
330
11D
102
}
330
11D
100
AcDbXrecord
280
     1
102
RTVSPost2010Prop28
280
     0
102
RTVSPost2010PropOp28
 70
     1
102
RTVSPost2010Prop29
280
     1
102
RTVSPost2010PropOp29
 70
     1
102
RTVSPost2010Prop30
280
     1
102
RTVSPost2010PropOp30
 70
     1
102
RTVSPost2010Prop31
280
     0
102
RTVSPost2010PropOp31
 70
     1
102
RTVSPost2010Prop32
280
     0
102
RTVSPost2010PropOp32
 70
     1
102
RTVSPost2010Prop33
280
     0
102
RTVSPost2010PropOp33
 70
     1
102
RTVSPost2010Prop34
280
     0
102
RTVSPost2010PropOp34
 70
     1
102
RTVSPost2010Prop35
280
     0
102
RTVSPost2010PropOp35
 70
     1
102
RTVSPost2010Prop36
280
     0
102
RTVSPost2010PropOp36
 70
     1
102
RTVSPost2010Prop37
 90
       50
102
RTVSPost2010PropOp37
 70
     1
102
RTVSPost2010Prop38
140
0.0
102
RTVSPost2010PropOp38
 70
     1
102
RTVSPost2010Prop39
140
1.0
102
RTVSPost2010PropOp39
 70
     1
102
RTVSPost2010Prop40
 90
        0
102
RTVSPost2010PropOp40
 70
     1
102
RTVSPost2010Prop41ColorIndex
 90
       18
102
RTVSPost2010Prop41ColorRGB
 90
        0
102
RTVSPost2010PropOp41
 70
     1
102
RTVSPost2010Prop42
 90
       50
102
RTVSPost2010PropOp42
 70
     1
102
RTVSPost2010Prop43
 90
        3
102
RTVSPost2010PropOp43
 70
     1
102
RTVSPost2010Prop44ColorIndex
 90
        5
102
RTVSPost2010Prop44ColorRGB
 90
      255
102
RTVSPost2010PropOp44
 70
     1
102
RTVSPost2010Prop45
280
     0
102
RTVSPost2010PropOp45
 70
     1
102
RTVSPost2010Prop46
 90
       50
102
RTVSPost2010PropOp46
 70
     1
102
RTVSPost2010Prop47
 90
       50
102
RTVSPost2010PropOp47
 70
     1
102
RTVSPost2010Prop48
 90
       50
102
RTVSPost2010PropOp48
 70
     1
102
RTVSPost2010Prop49
280
     0
102
RTVSPost2010PropOp49
 70
     1
102
RTVSPost2010Prop50
 90
       50
102
RTVSPost2010PropOp50
 70
     1
102
RTVSPost2010Prop51ColorIndex
 90
      256
102
RTVSPost2010Prop51ColorRGB
 90
-16777216
102
RTVSPost2010PropOp51
 70
     0
102
RTVSPost2010Prop52
140
1.0
102
RTVSPost2010PropOp52
 70
     0
102
RTVSPost2010Prop53
 90
        2
102
RTVSPost2010PropOp53
 70
     1
102
RTVSPost2010Prop54
  1
strokes_ogs.tif
102
RTVSPost2010PropOp54
 70
     1
102
RTVSPost2010Prop55
280
     0
102
RTVSPost2010PropOp55
 70
     1
102
RTVSPost2010Prop56
140
1.0
102
RTVSPost2010PropOp56
 70
     1
102
RTVSPost2010Prop57
140
1.0
102
RTVSPost2010PropOp57
 70
     1
  0
XRECORD
  5
11C
102
{ACAD_REACTORS
330
11B
102
}
330
11B
100
AcDbXrecord
280
     1
102
RTVSPost2010Prop28
280
     0
102
RTVSPost2010PropOp28
 70
     1
102
RTVSPost2010Prop29
280
     1
102
RTVSPost2010PropOp29
 70
     1
102
RTVSPost2010Prop30
280
     1
102
RTVSPost2010PropOp30
 70
     1
102
RTVSPost2010Prop31
280
     0
102
RTVSPost2010PropOp31
 70
     1
102
RTVSPost2010Prop32
280
     0
102
RTVSPost2010PropOp32
 70
     1
102
RTVSPost2010Prop33
280
     0
102
RTVSPost2010PropOp33
 70
     1
102
RTVSPost2010Prop34
280
     0
102
RTVSPost2010PropOp34
 70
     1
102
RTVSPost2010Prop35
280
     0
102
RTVSPost2010PropOp35
 70
     1
102
RTVSPost2010Prop36
280
     0
102
RTVSPost2010PropOp36
 70
     1
102
RTVSPost2010Prop37
 90
       50
102
RTVSPost2010PropOp37
 70
     1
102
RTVSPost2010Prop38
140
0.0
102
RTVSPost2010PropOp38
 70
     1
102
RTVSPost2010Prop39
140
1.0
102
RTVSPost2010PropOp39
 70
     1
102
RTVSPost2010Prop40
 90
        0
102
RTVSPost2010PropOp40
 70
     1
102
RTVSPost2010Prop41ColorIndex
 90
       18
102
RTVSPost2010Prop41ColorRGB
 90
        0
102
RTVSPost2010PropOp41
 70
     1
102
RTVSPost2010Prop42
 90
       50
102
RTVSPost2010PropOp42
 70
     1
102
RTVSPost2010Prop43
 90
        3
102
RTVSPost2010PropOp43
 70
     1
102
RTVSPost2010Prop44ColorIndex
 90
        5
102
RTVSPost2010Prop44ColorRGB
 90
      255
102
RTVSPost2010PropOp44
 70
     1
102
RTVSPost2010Prop45
280
     0
102
RTVSPost2010PropOp45
 70
     1
102
RTVSPost2010Prop46
 90
       50
102
RTVSPost2010PropOp46
 70
     1
102
RTVSPost2010Prop47
 90
       50
102
RTVSPost2010PropOp47
 70
     1
102
RTVSPost2010Prop48
 90
       50
102
RTVSPost2010PropOp48
 70
     1
102
RTVSPost2010Prop49
280
     0
102
RTVSPost2010PropOp49
 70
     1
102
RTVSPost2010Prop50
 90
       50
102
RTVSPost2010PropOp50
 70
     1
102
RTVSPost2010Prop51ColorIndex
 90
      256
102
RTVSPost2010Prop51ColorRGB
 90
-16777216
102
RTVSPost2010PropOp51
 70
     0
102
RTVSPost2010Prop52
140
1.0
102
RTVSPost2010PropOp52
 70
     0
102
RTVSPost2010Prop53
 90
        2
102
RTVSPost2010PropOp53
 70
     1
102
RTVSPost2010Prop54
  1
strokes_ogs.tif
102
RTVSPost2010PropOp54
 70
     1
102
RTVSPost2010Prop55
280
     0
102
RTVSPost2010PropOp55
 70
     1
102
RTVSPost2010Prop56
140
1.0
102
RTVSPost2010PropOp56
 70
     1
102
RTVSPost2010Prop57
140
1.0
102
RTVSPost2010PropOp57
 70
     1
  0
XRECORD
  5
116
102
{ACAD_REACTORS
330
115
102
}
330
115
100
AcDbXrecord
280
     1
102
RTVSPost2010Prop28
280
     0
102
RTVSPost2010PropOp28
 70
     1
102
RTVSPost2010Prop29
280
     1
102
RTVSPost2010PropOp29
 70
     1
102
RTVSPost2010Prop30
280
     1
102
RTVSPost2010PropOp30
 70
     1
102
RTVSPost2010Prop31
280
     0
102
RTVSPost2010PropOp31
 70
     1
102
RTVSPost2010Prop32
280
     0
102
RTVSPost2010PropOp32
 70
     1
102
RTVSPost2010Prop33
280
     0
102
RTVSPost2010PropOp33
 70
     1
102
RTVSPost2010Prop34
280
     0
102
RTVSPost2010PropOp34
 70
     1
102
RTVSPost2010Prop35
280
     0
102
RTVSPost2010PropOp35
 70
     1
102
RTVSPost2010Prop36
280
     0
102
RTVSPost2010PropOp36
 70
     1
102
RTVSPost2010Prop37
 90
       50
102
RTVSPost2010PropOp37
 70
     1
102
RTVSPost2010Prop38
140
0.0
102
RTVSPost2010PropOp38
 70
     1
102
RTVSPost2010Prop39
140
1.0
102
RTVSPost2010PropOp39
 70
     1
102
RTVSPost2010Prop40
 90
        0
102
RTVSPost2010PropOp40
 70
     1
102
RTVSPost2010Prop41ColorIndex
 90
       18
102
RTVSPost2010Prop41ColorRGB
 90
        0
102
RTVSPost2010PropOp41
 70
     1
102
RTVSPost2010Prop42
 90
       50
102
RTVSPost2010PropOp42
 70
     1
102
RTVSPost2010Prop43
 90
        3
102
RTVSPost2010PropOp43
 70
     1
102
RTVSPost2010Prop44ColorIndex
 90
        5
102
RTVSPost2010Prop44ColorRGB
 90
      255
102
RTVSPost2010PropOp44
 70
     1
102
RTVSPost2010Prop45
280
     0
102
RTVSPost2010PropOp45
 70
     1
102
RTVSPost2010Prop46
 90
       50
102
RTVSPost2010PropOp46
 70
     1
102
RTVSPost2010Prop47
 90
       50
102
RTVSPost2010PropOp47
 70
     1
102
RTVSPost2010Prop48
 90
       50
102
RTVSPost2010PropOp48
 70
     1
102
RTVSPost2010Prop49
280
     0
102
RTVSPost2010PropOp49
 70
     1
102
RTVSPost2010Prop50
 90
       50
102
RTVSPost2010PropOp50
 70
     1
102
RTVSPost2010Prop51ColorIndex
 90
      256
102
RTVSPost2010Prop51ColorRGB
 90
-16777216
102
RTVSPost2010PropOp51
 70
     0
102
RTVSPost2010Prop52
140
1.0
102
RTVSPost2010PropOp52
 70
     0
102
RTVSPost2010Prop53
 90
        2
102
RTVSPost2010PropOp53
 70
     1
102
RTVSPost2010Prop54
  1
strokes_ogs.tif
102
RTVSPost2010PropOp54
 70
     1
102
RTVSPost2010Prop55
280
     0
102
RTVSPost2010PropOp55
 70
     1
102
RTVSPost2010Prop56
140
1.0
102
RTVSPost2010PropOp56
 70
     1
102
RTVSPost2010Prop57
140
1.0
102
RTVSPost2010PropOp57
 70
     1
  0
XRECORD
  5
118
102
{ACAD_REACTORS
330
117
102
}
330
117
100
AcDbXrecord
280
     1
102
RTVSPost2010Prop28
280
     0
102
RTVSPost2010PropOp28
 70
     1
102
RTVSPost2010Prop29
280
     1
102
RTVSPost2010PropOp29
 70
     1
102
RTVSPost2010Prop30
280
     1
102
RTVSPost2010PropOp30
 70
     1
102
RTVSPost2010Prop31
280
     0
102
RTVSPost2010PropOp31
 70
     1
102
RTVSPost2010Prop32
280
     0
102
RTVSPost2010PropOp32
 70
     1
102
RTVSPost2010Prop33
280
     0
102
RTVSPost2010PropOp33
 70
     1
102
RTVSPost2010Prop34
280
     0
102
RTVSPost2010PropOp34
 70
     1
102
RTVSPost2010Prop35
280
     0
102
RTVSPost2010PropOp35
 70
     1
102
RTVSPost2010Prop36
280
     0
102
RTVSPost2010PropOp36
 70
     1
102
RTVSPost2010Prop37
 90
       50
102
RTVSPost2010PropOp37
 70
     1
102
RTVSPost2010Prop38
140
0.0
102
RTVSPost2010PropOp38
 70
     1
102
RTVSPost2010Prop39
140
1.0
102
RTVSPost2010PropOp39
 70
     1
102
RTVSPost2010Prop40
 90
        0
102
RTVSPost2010PropOp40
 70
     1
102
RTVSPost2010Prop41ColorIndex
 90
       18
102
RTVSPost2010Prop41ColorRGB
 90
        0
102
RTVSPost2010PropOp41
 70
     1
102
RTVSPost2010Prop42
 90
       50
102
RTVSPost2010PropOp42
 70
     1
102
RTVSPost2010Prop43
 90
        3
102
RTVSPost2010PropOp43
 70
     1
102
RTVSPost2010Prop44ColorIndex
 90
        5
102
RTVSPost2010Prop44ColorRGB
 90
      255
102
RTVSPost2010PropOp44
 70
     1
102
RTVSPost2010Prop45
280
     0
102
RTVSPost2010PropOp45
 70
     1
102
RTVSPost2010Prop46
 90
       50
102
RTVSPost2010PropOp46
 70
     1
102
RTVSPost2010Prop47
 90
       50
102
RTVSPost2010PropOp47
 70
     1
102
RTVSPost2010Prop48
 90
       50
102
RTVSPost2010PropOp48
 70
     1
102
RTVSPost2010Prop49
280
     0
102
RTVSPost2010PropOp49
 70
     1
102
RTVSPost2010Prop50
 90
       50
102
RTVSPost2010PropOp50
 70
     1
102
RTVSPost2010Prop51ColorIndex
 90
      256
102
RTVSPost2010Prop51ColorRGB
 90
-16777216
102
RTVSPost2010PropOp51
 70
     0
102
RTVSPost2010Prop52
140
1.0
102
RTVSPost2010PropOp52
 70
     0
102
RTVSPost2010Prop53
 90
        2
102
RTVSPost2010PropOp53
 70
     1
102
RTVSPost2010Prop54
  1
strokes_ogs.tif
102
RTVSPost2010PropOp54
 70
     1
102
RTVSPost2010Prop55
280
     0
102
RTVSPost2010PropOp55
 70
     1
102
RTVSPost2010Prop56
140
1.0
102
RTVSPost2010PropOp56
 70
     1
102
RTVSPost2010Prop57
140
1.0
102
RTVSPost2010PropOp57
 70
     1
  0
XRECORD
  5
10E
102
{ACAD_REACTORS
330
10D
102
}
330
10D
100
AcDbXrecord
280
     1
102
RTVSPost2010Prop28
280
     0
102
RTVSPost2010PropOp28
 70
     1
102
RTVSPost2010Prop29
280
     1
102
RTVSPost2010PropOp29
 70
     1
102
RTVSPost2010Prop30
280
     1
102
RTVSPost2010PropOp30
 70
     1
102
RTVSPost2010Prop31
280
     0
102
RTVSPost2010PropOp31
 70
     1
102
RTVSPost2010Prop32
280
     0
102
RTVSPost2010PropOp32
 70
     1
102
RTVSPost2010Prop33
280
     0
102
RTVSPost2010PropOp33
 70
     1
102
RTVSPost2010Prop34
280
     0
102
RTVSPost2010PropOp34
 70
     1
102
RTVSPost2010Prop35
280
     0
102
RTVSPost2010PropOp35
 70
     1
102
RTVSPost2010Prop36
280
     0
102
RTVSPost2010PropOp36
 70
     1
102
RTVSPost2010Prop37
 90
       50
102
RTVSPost2010PropOp37
 70
     1
102
RTVSPost2010Prop38
140
0.0
102
RTVSPost2010PropOp38
 70
     1
102
RTVSPost2010Prop39
140
1.0
102
RTVSPost2010PropOp39
 70
     1
102
RTVSPost2010Prop40
 90
        0
102
RTVSPost2010PropOp40
 70
     1
102
RTVSPost2010Prop41ColorIndex
 90
       18
102
RTVSPost2010Prop41ColorRGB
 90
        0
102
RTVSPost2010PropOp41
 70
     1
102
RTVSPost2010Prop42
 90
       50
102
RTVSPost2010PropOp42
 70
     1
102
RTVSPost2010Prop43
 90
        3
102
RTVSPost2010PropOp43
 70
     1
102
RTVSPost2010Prop44ColorIndex
 90
        5
102
RTVSPost2010Prop44ColorRGB
 90
      255
102
RTVSPost2010PropOp44
 70
     1
102
RTVSPost2010Prop45
280
     0
102
RTVSPost2010PropOp45
 70
     1
102
RTVSPost2010Prop46
 90
       50
102
RTVSPost2010PropOp46
 70
     1
102
RTVSPost2010Prop47
 90
       50
102
RTVSPost2010PropOp47
 70
     1
102
RTVSPost2010Prop48
 90
       50
102
RTVSPost2010PropOp48
 70
     1
102
RTVSPost2010Prop49
280
     0
102
RTVSPost2010PropOp49
 70
     1
102
RTVSPost2010Prop50
 90
       50
102
RTVSPost2010PropOp50
 70
     1
102
RTVSPost2010Prop51ColorIndex
 90
      256
102
RTVSPost2010Prop51ColorRGB
 90
-16777216
102
RTVSPost2010PropOp51
 70
     0
102
RTVSPost2010Prop52
140
1.0
102
RTVSPost2010PropOp52
 70
     0
102
RTVSPost2010Prop53
 90
        2
102
RTVSPost2010PropOp53
 70
     1
102
RTVSPost2010Prop54
  1
strokes_ogs.tif
102
RTVSPost2010PropOp54
 70
     1
102
RTVSPost2010Prop55
280
     0
102
RTVSPost2010PropOp55
 70
     1
102
RTVSPost2010Prop56
140
1.0
102
RTVSPost2010PropOp56
 70
     1
102
RTVSPost2010Prop57
140
1.0
102
RTVSPost2010PropOp57
 70
     1
  0
XRECORD
  5
102
102
{ACAD_REACTORS
330
101
102
}
330
101
100
AcDbXrecord
280
     1
102
RTVSPost2010Prop28
280
     0
102
RTVSPost2010PropOp28
 70
     1
102
RTVSPost2010Prop29
280
     1
102
RTVSPost2010PropOp29
 70
     1
102
RTVSPost2010Prop30
280
     1
102
RTVSPost2010PropOp30
 70
     1
102
RTVSPost2010Prop31
280
     0
102
RTVSPost2010PropOp31
 70
     1
102
RTVSPost2010Prop32
280
     0
102
RTVSPost2010PropOp32
 70
     1
102
RTVSPost2010Prop33
280
     0
102
RTVSPost2010PropOp33
 70
     1
102
RTVSPost2010Prop34
280
     0
102
RTVSPost2010PropOp34
 70
     1
102
RTVSPost2010Prop35
280
     0
102
RTVSPost2010PropOp35
 70
     1
102
RTVSPost2010Prop36
280
     0
102
RTVSPost2010PropOp36
 70
     1
102
RTVSPost2010Prop37
 90
       50
102
RTVSPost2010PropOp37
 70
     1
102
RTVSPost2010Prop38
140
0.0
102
RTVSPost2010PropOp38
 70
     1
102
RTVSPost2010Prop39
140
1.0
102
RTVSPost2010PropOp39
 70
     1
102
RTVSPost2010Prop40
 90
        0
102
RTVSPost2010PropOp40
 70
     1
102
RTVSPost2010Prop41ColorIndex
 90
       18
102
RTVSPost2010Prop41ColorRGB
 90
        0
102
RTVSPost2010PropOp41
 70
     1
102
RTVSPost2010Prop42
 90
       50
102
RTVSPost2010PropOp42
 70
     1
102
RTVSPost2010Prop43
 90
        3
102
RTVSPost2010PropOp43
 70
     1
102
RTVSPost2010Prop44ColorIndex
 90
        5
102
RTVSPost2010Prop44ColorRGB
 90
      255
102
RTVSPost2010PropOp44
 70
     1
102
RTVSPost2010Prop45
280
     0
102
RTVSPost2010PropOp45
 70
     1
102
RTVSPost2010Prop46
 90
       50
102
RTVSPost2010PropOp46
 70
     1
102
RTVSPost2010Prop47
 90
       50
102
RTVSPost2010PropOp47
 70
     1
102
RTVSPost2010Prop48
 90
       50
102
RTVSPost2010PropOp48
 70
     1
102
RTVSPost2010Prop49
280
     0
102
RTVSPost2010PropOp49
 70
     1
102
RTVSPost2010Prop50
 90
       50
102
RTVSPost2010PropOp50
 70
     1
102
RTVSPost2010Prop51ColorIndex
 90
      256
102
RTVSPost2010Prop51ColorRGB
 90
-16777216
102
RTVSPost2010PropOp51
 70
     0
102
RTVSPost2010Prop52
140
1.0
102
RTVSPost2010PropOp52
 70
     0
102
RTVSPost2010Prop53
 90
        2
102
RTVSPost2010PropOp53
 70
     1
102
RTVSPost2010Prop54
  1
strokes_ogs.tif
102
RTVSPost2010PropOp54
 70
     1
102
RTVSPost2010Prop55
280
     0
102
RTVSPost2010PropOp55
 70
     1
102
RTVSPost2010Prop56
140
1.0
102
RTVSPost2010PropOp56
 70
     1
102
RTVSPost2010Prop57
140
1.0
102
RTVSPost2010PropOp57
 70
     1
  0
XRECORD
  5
11A
102
{ACAD_REACTORS
330
119
102
}
330
119
100
AcDbXrecord
280
     1
102
RTVSPost2010Prop28
280
     0
102
RTVSPost2010PropOp28
 70
     1
102
RTVSPost2010Prop29
280
     1
102
RTVSPost2010PropOp29
 70
     1
102
RTVSPost2010Prop30
280
     1
102
RTVSPost2010PropOp30
 70
     1
102
RTVSPost2010Prop31
280
     0
102
RTVSPost2010PropOp31
 70
     1
102
RTVSPost2010Prop32
280
     0
102
RTVSPost2010PropOp32
 70
     1
102
RTVSPost2010Prop33
280
     0
102
RTVSPost2010PropOp33
 70
     1
102
RTVSPost2010Prop34
280
     0
102
RTVSPost2010PropOp34
 70
     1
102
RTVSPost2010Prop35
280
     0
102
RTVSPost2010PropOp35
 70
     1
102
RTVSPost2010Prop36
280
     0
102
RTVSPost2010PropOp36
 70
     1
102
RTVSPost2010Prop37
 90
       50
102
RTVSPost2010PropOp37
 70
     1
102
RTVSPost2010Prop38
140
0.0
102
RTVSPost2010PropOp38
 70
     1
102
RTVSPost2010Prop39
140
1.0
102
RTVSPost2010PropOp39
 70
     1
102
RTVSPost2010Prop40
 90
        0
102
RTVSPost2010PropOp40
 70
     1
102
RTVSPost2010Prop41ColorIndex
 90
       18
102
RTVSPost2010Prop41ColorRGB
 90
        0
102
RTVSPost2010PropOp41
 70
     1
102
RTVSPost2010Prop42
 90
       50
102
RTVSPost2010PropOp42
 70
     1
102
RTVSPost2010Prop43
 90
        3
102
RTVSPost2010PropOp43
 70
     1
102
RTVSPost2010Prop44ColorIndex
 90
        5
102
RTVSPost2010Prop44ColorRGB
 90
      255
102
RTVSPost2010PropOp44
 70
     1
102
RTVSPost2010Prop45
280
     0
102
RTVSPost2010PropOp45
 70
     1
102
RTVSPost2010Prop46
 90
       50
102
RTVSPost2010PropOp46
 70
     1
102
RTVSPost2010Prop47
 90
       50
102
RTVSPost2010PropOp47
 70
     1
102
RTVSPost2010Prop48
 90
       50
102
RTVSPost2010PropOp48
 70
     1
102
RTVSPost2010Prop49
280
     0
102
RTVSPost2010PropOp49
 70
     1
102
RTVSPost2010Prop50
 90
       50
102
RTVSPost2010PropOp50
 70
     1
102
RTVSPost2010Prop51ColorIndex
 90
      256
102
RTVSPost2010Prop51ColorRGB
 90
-16777216
102
RTVSPost2010PropOp51
 70
     0
102
RTVSPost2010Prop52
140
1.0
102
RTVSPost2010PropOp52
 70
     0
102
RTVSPost2010Prop53
 90
        2
102
RTVSPost2010PropOp53
 70
     1
102
RTVSPost2010Prop54
  1
strokes_ogs.tif
102
RTVSPost2010PropOp54
 70
     1
102
RTVSPost2010Prop55
280
     0
102
RTVSPost2010PropOp55
 70
     1
102
RTVSPost2010Prop56
140
1.0
102
RTVSPost2010PropOp56
 70
     1
102
RTVSPost2010Prop57
140
1.0
102
RTVSPost2010PropOp57
 70
     1
  0
ENDSEC
  0
EOF
