  0
SECTION
  2
HEADER
  9
$ACADVER
  1
AC1024
  9
$ACADMAINTVER
 70
     6
  9
$DWGCODEPAGE
  3
UNDEFINED
  9
$INSBASE
 10
0.0
 20
0.0
 30
0.0
  9
$EXTMIN
 10
1.000000000000000E+20
 20
1.000000000000000E+20
 30
1.000000000000000E+20
  9
$EXTMAX
 10
-1.000000000000000E+20
 20
-1.000000000000000E+20
 30
-1.000000000000000E+20
  9
$LIMMIN
 10
0.0
 20
0.0
  9
$LIMMAX
 10
12.0
 20
9.0
  9
$ORTHOMODE
 70
     0
  9
$REGENMODE
 70
     1
  9
$FILLMODE
 70
     1
  9
$QTEXTMODE
 70
     0
  9
$MIRRTEXT
 70
     1
  9
$LTSCALE
 40
1.0
  9
$ATTMODE
 70
     1
  9
$TEXTSIZE
 40
0.2
  9
$TRACEWID
 40
0.05
  9
$TEXTSTYLE
  7
Standard
  9
$CLAYER
  8
0
  9
$CELTYPE
  6
ByLayer
  9
$CECOLOR
 62
   256
  9
$CELTSCALE
 40
1.0
  9
$DISPSILH
 70
     0
  9
$DIMSCALE
 40
1.0
  9
$DIMASZ
 40
0.18
  9
$DIMEXO
 40
0.0625
  9
$DIMDLI
 40
0.38
  9
$DIMRND
 40
0.0
  9
$DIMDLE
 40
0.0
  9
$DIMEXE
 40
0.18
  9
$DIMTP
 40
0.0
  9
$DIMTM
 40
0.0
  9
$DIMTXT
 40
0.18
  9
$DIMCEN
 40
0.09
  9
$DIMTSZ
 40
0.0
  9
$DIMTOL
 70
     0
  9
$DIMLIM
 70
     0
  9
$DIMTIH
 70
     1
  9
$DIMTOH
 70
     1
  9
$DIMSE1
 70
     0
  9
$DIMSE2
 70
     0
  9
$DIMTAD
 70
     0
  9
$DIMZIN
 70
     0
  9
$DIMBLK
  1

  9
$DIMASO
 70
     1
  9
$DIMSHO
 70
     1
  9
$DIMPOST
  1

  9
$DIMAPOST
  1

  9
$DIMALT
 70
     0
  9
$DIMALTD
 70
     2
  9
$DIMALTF
 40
25.4
  9
$DIMLFAC
 40
1.0
  9
$DIMTOFL
 70
     0
  9
$DIMTVP
 40
0.0
  9
$DIMTIX
 70
     0
  9
$DIMSOXD
 70
     0
  9
$DIMSAH
 70
     0
  9
$DIMBLK1
  1

  9
$DIMBLK2
  1

  9
$DIMSTYLE
  2
Standard
  9
$DIMCLRD
 70
     0
  9
$DIMCLRE
 70
     0
  9
$DIMCLRT
 70
     0
  9
$DIMTFAC
 40
1.0
  9
$DIMGAP
 40
0.09
  9
$DIMJUST
 70
     0
  9
$DIMSD1
 70
     0
  9
$DIMSD2
 70
     0
  9
$DIMTOLJ
 70
     1
  9
$DIMTZIN
 70
     0
  9
$DIMALTZ
 70
     0
  9
$DIMALTTZ
 70
     0
  9
$DIMUPT
 70
     0
  9
$DIMDEC
 70
     4
  9
$DIMTDEC
 70
     4
  9
$DIMALTU
 70
     2
  9
$DIMALTTD
 70
     2
  9
$DIMTXSTY
  7
Standard
  9
$DIMAUNIT
 70
     0
  9
$DIMADEC
 70
     0
  9
$DIMALTRND
 40
0.0
  9
$DIMAZIN
 70
     0
  9
$DIMDSEP
 70
    46
  9
$DIMATFIT
 70
     3
  9
$DIMFRAC
 70
     0
  9
$DIMLDRBLK
  1

  9
$DIMLUNIT
 70
     2
  9
$DIMLWD
 70
    -2
  9
$DIMLWE
 70
    -2
  9
$DIMTMOVE
 70
     0
  9
$DIMFXL
 40
1.0
  9
$DIMFXLON
 70
     0
  9
$DIMJOGANG
 40
0.7853981633974483
  9
$DIMTFILL
 70
     0
  9
$DIMTFILLCLR
 70
     0
  9
$DIMARCSYM
 70
     0
  9
$DIMLTYPE
  6

  9
$DIMLTEX1
  6

  9
$DIMLTEX2
  6

  9
$DIMTXTDIRECTION
 70
     0
  9
$LUNITS
 70
     2
  9
$LUPREC
 70
     4
  9
$SKETCHINC
 40
0.1
  9
$FILLETRAD
 40
0.5
  9
$AUNITS
 70
     0
  9
$AUPREC
 70
     0
  9
$MENU
  1
.
  9
$ELEVATION
 40
0.0
  9
$PELEVATION
 40
0.0
  9
$THICKNESS
 40
0.0
  9
$LIMCHECK
 70
     0
  9
$CHAMFERA
 40
0.5
  9
$CHAMFERB
 40
0.5
  9
$CHAMFERC
 40
1.0
  9
$CHAMFERD
 40
0.0
  9
$SKPOLY
 70
     0
  9
$TDCREATE
 40
2457917.592048599
  9
$TDUCREATE
 40
2457917.217048611
  9
$TDUPDATE
 40
2457917.592048599
  9
$TDUUPDATE
 40
2457917.217048611
  9
$TDINDWG
 40
0.0000000116
  9
$TDUSRTIMER
 40
0.0000000116
  9
$USRTIMER
 70
     1
  9
$ANGBASE
 50
0.0
  9
$ANGDIR
 70
     0
  9
$PDMODE
 70
     0
  9
$PDSIZE
 40
0.0
  9
$PLINEWID
 40
0.0
  9
$SPLFRAME
 70
     0
  9
$SPLINETYPE
 70
     6
  9
$SPLINESEGS
 70
     8
  9
$HANDSEED
  5
159
  9
$SURFTAB1
 70
     6
  9
$SURFTAB2
 70
     6
  9
$SURFTYPE
 70
     6
  9
$SURFU
 70
     6
  9
$SURFV
 70
     6
  9
$UCSBASE
  2

  9
$UCSNAME
  2

  9
$UCSORG
 10
0.0
 20
0.0
 30
0.0
  9
$UCSXDIR
 10
1.0
 20
0.0
 30
0.0
  9
$UCSYDIR
 10
0.0
 20
1.0
 30
0.0
  9
$UCSORTHOREF
  2

  9
$UCSORTHOVIEW
 70
     0
  9
$UCSORGTOP
 10
0.0
 20
0.0
 30
0.0
  9
$UCSORGBOTTOM
 10
0.0
 20
0.0
 30
0.0
  9
$UCSORGLEFT
 10
0.0
 20
0.0
 30
0.0
  9
$UCSORGRIGHT
 10
0.0
 20
0.0
 30
0.0
  9
$UCSORGFRONT
 10
0.0
 20
0.0
 30
0.0
  9
$UCSORGBACK
 10
0.0
 20
0.0
 30
0.0
  9
$PUCSBASE
  2

  9
$PUCSNAME
  2

  9
$PUCSORG
 10
0.0
 20
0.0
 30
0.0
  9
$PUCSXDIR
 10
1.0
 20
0.0
 30
0.0
  9
$PUCSYDIR
 10
0.0
 20
1.0
 30
0.0
  9
$PUCSORTHOREF
  2

  9
$PUCSORTHOVIEW
 70
     0
  9
$PUCSORGTOP
 10
0.0
 20
0.0
 30
0.0
  9
$PUCSORGBOTTOM
 10
0.0
 20
0.0
 30
0.0
  9
$PUCSORGLEFT
 10
0.0
 20
0.0
 30
0.0
  9
$PUCSORGRIGHT
 10
0.0
 20
0.0
 30
0.0
  9
$PUCSORGFRONT
 10
0.0
 20
0.0
 30
0.0
  9
$PUCSORGBACK
 10
0.0
 20
0.0
 30
0.0
  9
$USERI1
 70
     0
  9
$USERI2
 70
     0
  9
$USERI3
 70
     0
  9
$USERI4
 70
     0
  9
$USERI5
 70
     0
  9
$USERR1
 40
0.0
  9
$USERR2
 40
0.0
  9
$USERR3
 40
0.0
  9
$USERR4
 40
0.0
  9
$USERR5
 40
0.0
  9
$WORLDVIEW
 70
     1
  9
$SHADEDGE
 70
     3
  9
$SHADEDIF
 70
    70
  9
$TILEMODE
 70
     1
  9
$MAXACTVP
 70
    64
  9
$PINSBASE
 10
0.0
 20
0.0
 30
0.0
  9
$PLIMCHECK
 70
     0
  9
$PEXTMIN
 10
1.000000000000000E+20
 20
1.000000000000000E+20
 30
1.000000000000000E+20
  9
$PEXTMAX
 10
-1.000000000000000E+20
 20
-1.000000000000000E+20
 30
-1.000000000000000E+20
  9
$PLIMMIN
 10
0.0
 20
0.0
  9
$PLIMMAX
 10
12.0
 20
9.0
  9
$UNITMODE
 70
     0
  9
$VISRETAIN
 70
     1
  9
$PLINEGEN
 70
     0
  9
$PSLTSCALE
 70
     1
  9
$TREEDEPTH
 70
  3020
  9
$CMLSTYLE
  2
Standard
  9
$CMLJUST
 70
     0
  9
$CMLSCALE
 40
1.0
  9
$PROXYGRAPHICS
 70
     1
  9
$MEASUREMENT
 70
     0
  9
$CELWEIGHT
370
    -1
  9
$ENDCAPS
280
     0
  9
$JOINSTYLE
280
     0
  9
$LWDISPLAY
290
     1
  9
$INSUNITS
 70
     1
  9
$HYPERLINKBASE
  1

  9
$STYLESHEET
  1

  9
$XEDIT
290
     1
  9
$CEPSNTYPE
380
     0
  9
$PSTYLEMODE
290
     1
  9
$FINGERPRINTGUID
  2
{45333A5F-9DC1-976D-9FC9-D31A9ACF0949}
  9
$VERSIONGUID
  2
{FAEB1C32-E019-11D5-929B-00C0DF256EC4}
  9
$EXTNAMES
290
     1
  9
$PSVPSCALE
 40
0.0
  9
$OLESTARTUP
290
     0
  9
$SORTENTS
280
   127
  9
$INDEXCTL
280
     0
  9
$HIDETEXT
280
     1
  9
$XCLIPFRAME
280
     2
  9
$HALOGAP
280
     0
  9
$OBSCOLOR
 70
   257
  9
$OBSLTYPE
280
     0
  9
$INTERSECTIONDISPLAY
280
     0
  9
$INTERSECTIONCOLOR
 70
   257
  9
$DIMASSOC
280
     2
  9
$PROJECTNAME
  1

  9
$CAMERADISPLAY
290
     0
  9
$LENSLENGTH
 40
50.0
  9
$CAMERAHEIGHT
 40
0.0
  9
$STEPSPERSEC
 40
2.0
  9
$STEPSIZE
 40
6.0
  9
$3DDWFPREC
 40
2.0
  9
$PSOLWIDTH
 40
0.25
  9
$PSOLHEIGHT
 40
4.0
  9
$LOFTANG1
 40
1.570796326794897
  9
$LOFTANG2
 40
1.570796326794897
  9
$LOFTMAG1
 40
0.0
  9
$LOFTMAG2
 40
0.0
  9
$LOFTPARAM
 70
     7
  9
$LOFTNORMALS
280
     1
  9
$LATITUDE
 40
37.795
  9
$LONGITUDE
 40
-122.394
  9
$NORTHDIRECTION
 40
0.0
  9
$TIMEZONE
 70
 -8000
  9
$LIGHTGLYPHDISPLAY
280
     1
  9
$TILEMODELIGHTSYNCH
280
     1
  9
$CMATERIAL
347
3C
  9
$SOLIDHIST
280
     1
  9
$SHOWHIST
280
     1
  9
$DWFFRAME
280
     2
  9
$DGNFRAME
280
     2
  9
$REALWORLDSCALE
290
     1
  9
$INTERFERECOLOR
 62
   256
  9
$CSHADOW
280
     0
  9
$SHADOWPLANELOCATION
 40
0.0
  0
ENDSEC
  0
SECTION
  2
CLASSES
  0
CLASS
  1
ACDBDICTIONARYWDFLT
  2
AcDbDictionaryWithDefault
  3
ObjectDBX Classes
 90
        0
 91
        4
280
     0
281
     0
  0
CLASS
  1
VISUALSTYLE
  2
AcDbVisualStyle
  3
ObjectDBX Classes
 90
     4095
 91
        4
280
     0
281
     0
  0
CLASS
  1
MATERIAL
  2
AcDbMaterial
  3
ObjectDBX Classes
 90
     1153
 91
        4
280
     0
281
     0
  0
CLASS
  1
SUN
  2
AcDbSun
  3
SCENEOE
 90
     1024
 91
        4
280
     0
281
     0
  0
ENDSEC
  0
SECTION
  2
TABLES
  0
TABLE
  2
VPORT
  5
8
330
0
100
AcDbSymbolTable
 70
     1
  0
VPORT
  5
29
330
8
100
AcDbSymbolTableRecord
100
AcDbViewportTableRecord
  2
*Active
 70
     0
 10
0.0
 20
0.0
 11
1.0
 21
1.0
 12
0.0
 22
0.0
 13
0.0
 23
0.0
 14
0.5
 24
0.5
 15
0.5
 25
0.5
 16
0.0
 26
0.0
 36
1.0
 17
91.00082462281999
 27
-128.4993055234307
 37
0.0
 40
256.9986110468615
 41
0.7081814508812795
 42
50.0
 43
0.0
 44
0.0
 50
0.0
 51
0.0
 71
     0
 72
   100
 73
     1
 74
     3
 75
     0
 76
     0
 77
     0
 78
     0
281
     0
 65
     1
110
0.0
120
0.0
130
0.0
111
1.0
121
0.0
131
0.0
112
0.0
122
1.0
132
0.0
 79
     0
146
0.0
 60
     3
 61
     5
292
     1
282
     1
141
0.0
142
0.0
 63
   250
361
3F
  0
ENDTAB
  0
TABLE
  2
LTYPE
  5
5
330
0
100
AcDbSymbolTable
 70
     1
  0
LTYPE
  5
14
330
5
100
AcDbSymbolTableRecord
100
AcDbLinetypeTableRecord
  2
ByBlock
 70
     0
  3

 72
    65
 73
     0
 40
0.0
  0
LTYPE
  5
15
330
5
100
AcDbSymbolTableRecord
100
AcDbLinetypeTableRecord
  2
ByLayer
 70
     0
  3

 72
    65
 73
     0
 40
0.0
  0
LTYPE
  5
16
330
5
100
AcDbSymbolTableRecord
100
AcDbLinetypeTableRecord
  2
Continuous
 70
     0
  3
Solid line
 72
    65
 73
     0
 40
0.0
  0
ENDTAB
  0
TABLE
  2
LAYER
  5
2
330
0
100
AcDbSymbolTable
 70
     2
  0
LAYER
  5
10
330
2
100
AcDbSymbolTableRecord
100
AcDbLayerTableRecord
  2
0
 70
     0
 62
     7
  6
Continuous
370
    -3
390
F
347
3E
  0
LAYER
  5
40
330
2
100
AcDbSymbolTableRecord
100
AcDbLayerTableRecord
  2
_U+30EC_U+30A4_U+30E4_U+30FC 1
 70
     0
 62
     7
  6
Continuous
370
    -3
390
F
347
3E
  0
ENDTAB
  0
TABLE
  2
STYLE
  5
3
330
0
100
AcDbSymbolTable
 70
     1
  0
STYLE
  5
11
330
3
100
AcDbSymbolTableRecord
100
AcDbTextStyleTableRecord
  2
Standard
 70
     0
 40
0.0
 41
1.0
 50
0.0
 71
     0
 42
0.2
  3
txt
  4

  0
ENDTAB
  0
TABLE
  2
VIEW
  5
6
330
0
100
AcDbSymbolTable
 70
     0
  0
ENDTAB
  0
TABLE
  2
UCS
  5
7
330
0
100
AcDbSymbolTable
 70
     0
  0
ENDTAB
  0
TABLE
  2
APPID
  5
9
330
0
100
AcDbSymbolTable
 70
     1
  0
APPID
  5
12
330
9
100
AcDbSymbolTableRecord
100
AcDbRegAppTableRecord
  2
ACAD
 70
     0
  0
ENDTAB
  0
TABLE
  2
DIMSTYLE
  5
A
330
0
100
AcDbSymbolTable
 70
     1
100
AcDbDimStyleTable
  0
DIMSTYLE
105
27
330
A
100
AcDbSymbolTableRecord
100
AcDbDimStyleTableRecord
  2
Standard
 70
     0
178
     0
340
11
  0
ENDTAB
  0
TABLE
  2
BLOCK_RECORD
  5
1
330
0
100
AcDbSymbolTable
 70
    10
  0
BLOCK_RECORD
  5
1F
330
1
100
AcDbSymbolTableRecord
100
AcDbBlockTableRecord
  2
*Model_Space
340
22
 70
     0
280
     1
281
     0
  0
BLOCK_RECORD
  5
1B
330
1
100
AcDbSymbolTableRecord
100
AcDbBlockTableRecord
  2
*Paper_Space
340
1E
 70
     0
280
     1
281
     0
  0
BLOCK_RECORD
  5
23
330
1
100
AcDbSymbolTableRecord
100
AcDbBlockTableRecord
  2
*Paper_Space0
340
26
 70
     0
280
     1
281
     0
  0
BLOCK_RECORD
  5
9D
330
1
100
AcDbSymbolTableRecord
100
AcDbBlockTableRecord
  2
block 2
340
0
102
{BLKREFS
331
9E
102
}
 70
     0
280
     1
281
     0
  0
BLOCK_RECORD
  5
B2
330
1
100
AcDbSymbolTableRecord
100
AcDbBlockTableRecord
  2
block 3
340
0
102
{BLKREFS
331
B3
102
}
 70
     0
280
     1
281
     0
  0
BLOCK_RECORD
  5
D3
330
1
100
AcDbSymbolTableRecord
100
AcDbBlockTableRecord
  2
block 4
340
0
102
{BLKREFS
331
D4
102
}
 70
     0
280
     1
281
     0
  0
BLOCK_RECORD
  5
E4
330
1
100
AcDbSymbolTableRecord
100
AcDbBlockTableRecord
  2
block 5
340
0
102
{BLKREFS
331
E5
102
}
 70
     0
280
     1
281
     0
  0
BLOCK_RECORD
  5
103
330
1
100
AcDbSymbolTableRecord
100
AcDbBlockTableRecord
  2
block 6
340
0
102
{BLKREFS
331
104
102
}
 70
     0
280
     1
281
     0
  0
BLOCK_RECORD
  5
117
330
1
100
AcDbSymbolTableRecord
100
AcDbBlockTableRecord
  2
block 7
340
0
102
{BLKREFS
331
118
102
}
 70
     0
280
     1
281
     0
  0
BLOCK_RECORD
  5
13C
330
1
100
AcDbSymbolTableRecord
100
AcDbBlockTableRecord
  2
block 8
340
0
102
{BLKREFS
331
13D
102
}
 70
     0
280
     1
281
     0
  0
BLOCK_RECORD
  5
145
330
1
100
AcDbSymbolTableRecord
100
AcDbBlockTableRecord
  2
block 9
340
0
102
{BLKREFS
331
146
102
}
 70
     0
280
     1
281
     0
  0
BLOCK_RECORD
  5
151
330
1
100
AcDbSymbolTableRecord
100
AcDbBlockTableRecord
  2
block 10
340
0
102
{BLKREFS
331
152
102
}
 70
     0
280
     1
281
     0
  0
ENDTAB
  0
ENDSEC
  0
SECTION
  2
BLOCKS
  0
BLOCK
  5
20
330
1F
100
AcDbEntity
  8
0
100
AcDbBlockBegin
  2
*Model_Space
 70
     0
 10
0.0
 20
0.0
 30
0.0
  3
*Model_Space
  1

  0
ENDBLK
  5
21
330
1F
100
AcDbEntity
  8
0
100
AcDbBlockEnd
  0
BLOCK
  5
1C
330
1B
100
AcDbEntity
 67
     1
  8
0
100
AcDbBlockBegin
  2
*Paper_Space
 70
     0
 10
0.0
 20
0.0
 30
0.0
  3
*Paper_Space
  1

  0
ENDBLK
  5
1D
330
1B
100
AcDbEntity
 67
     1
  8
0
100
AcDbBlockEnd
  0
BLOCK
  5
24
330
23
100
AcDbEntity
  8
0
100
AcDbBlockBegin
  2
*Paper_Space0
 70
     0
 10
0.0
 20
0.0
 30
0.0
  3
*Paper_Space0
  1

  0
ENDBLK
  5
25
330
23
100
AcDbEntity
  8
0
100
AcDbBlockEnd
  0
BLOCK
  5
9F
330
9D
100
AcDbEntity
  8
0
100
AcDbBlockBegin
  2
block 2
 70
     0
 10
0.0
 20
0.0
 30
0.0
  3
block 2
  1

  0
SPLINE
  5
A1
330
9D
100
AcDbEntity
  8
_U+30EC_U+30A4_U+30E4_U+30FC 1
370
     0
100
AcDbSpline
210
0.0
220
0.0
230
1.0
 70
    11
 71
     3
 72
    44
 73
    40
 74
     0
 42
0.0000000001
 43
0.0000000001
 12
1.0
 22
0.0
 32
0.0
 13
1.0
 23
0.0
 33
0.0
 40
0.0
 40
0.0
 40
0.0
 40
0.0
 40
1.0
 40
1.0
 40
1.0
 40
2.0
 40
2.0
 40
2.0
 40
3.0
 40
3.0
 40
3.0
 40
4.0
 40
4.0
 40
4.0
 40
5.0
 40
5.0
 40
5.0
 40
6.0
 40
6.0
 40
6.0
 40
7.0
 40
7.0
 40
7.0
 40
8.0
 40
8.0
 40
8.0
 40
9.0
 40
9.0
 40
9.0
 40
10.0
 40
10.0
 40
10.0
 40
11.0
 40
11.0
 40
11.0
 40
12.0
 40
12.0
 40
12.0
 40
13.0
 40
13.0
 40
13.0
 40
13.0
 10
76.14746227479995
 20
-145.1284369211832
 30
0.0
 10
76.3061089218957
 20
-145.3613253759861
 30
0.0
 10
76.38017847482857
 20
-145.4608886355098
 30
0.0
 10
76.52401121133775
 20
-145.5125650677885
 30
0.0
 10
76.52401121133775
 20
-145.5125650677885
 30
0.0
 10
76.52401121133775
 20
-144.6809190176492
 30
0.0
 10
76.52401121133775
 20
-144.6809190176492
 30
0.0
 10
76.52401121133775
 20
-144.6809190176492
 30
0.0
 10
76.72916664748438
 20
-144.6809190176492
 30
0.0
 10
76.72916664748438
 20
-144.6809190176492
 30
0.0
 10
76.72916664748438
 20
-144.6809190176492
 30
0.0
 10
76.72916664748438
 20
-145.7795599678954
 30
0.0
 10
76.72916664748438
 20
-145.7795599678954
 30
0.0
 10
76.37156573611544
 20
-145.7454535225914
 30
0.0
 10
76.29336206860027
 20
-145.6755180842408
 30
0.0
 10
75.99501679957764
 20
-145.264173683302
 30
0.0
 10
75.79623479007873
 20
-144.9906331017732
 30
0.0
 10
75.72853866379356
 20
-144.9203531538741
 30
0.0
 10
75.59107935393209
 20
-144.9203531538741
 30
0.0
 10
75.4725680692395
 20
-144.9203531538741
 30
0.0
 10
75.34148218602574
 20
-144.9971787831952
 30
0.0
 10
75.34148218602574
 20
-145.2076741173439
 30
0.0
 10
75.34148218602574
 20
-145.4856933230036
 30
0.0
 10
75.57195907398896
 20
-145.4946505712652
 30
0.0
 10
75.68840330139041
 20
-145.4991291953961
 30
0.0
 10
75.68840330139041
 20
-145.4991291953961
 30
0.0
 10
75.68840330139041
 20
-145.7389078411694
 30
0.0
 10
75.68840330139041
 20
-145.7389078411694
 30
0.0
 10
75.56145153275895
 20
-145.7296060833593
 30
0.0
 10
75.44931367471406
 20
-145.7185817778065
 30
0.0
 10
75.33080239002147
 20
-145.6324543906752
 30
0.0
 10
75.17008868563457
 20
-145.5149766346282
 30
0.0
 10
75.13615449510485
 20
-145.3161946251293
 30
0.0
 10
75.13615449510485
 20
-145.1918266781118
 30
0.0
 10
75.13615449510485
 20
-144.8955484663803
 30
0.0
 10
75.32029484879146
 20
-144.6740288266787
 30
0.0
 10
75.59314641122324
 20
-144.6740288266787
 30
0.0
 10
75.82155624189531
 20
-144.6740288266787
 30
0.0
 10
75.92111950141903
 20
-144.7983967736963
 30
0.0
 10
76.14746227479995
 20
-145.1284369211832
 30
0.0
  0
HATCH
  5
A2
330
9D
100
AcDbEntity
  8
_U+30EC_U+30A4_U+30E4_U+30FC 1
 62
   179
420
  2234388
100
AcDbHatch
 10
0.0
 20
0.0
 30
0.0
210
0.0
220
0.0
230
1.0
  2
SOLID
 70
     1
 71
     0
 91
        1
 92
        1
 93
        1
 72
     4
 94
        3
 73
     0
 74
     1
 95
       44
 96
       40
 40
0.0
 40
0.0
 40
0.0
 40
0.0
 40
1.0
 40
1.0
 40
1.0
 40
2.0
 40
2.0
 40
2.0
 40
3.0
 40
3.0
 40
3.0
 40
4.0
 40
4.0
 40
4.0
 40
5.0
 40
5.0
 40
5.0
 40
6.0
 40
6.0
 40
6.0
 40
7.0
 40
7.0
 40
7.0
 40
8.0
 40
8.0
 40
8.0
 40
9.0
 40
9.0
 40
9.0
 40
10.0
 40
10.0
 40
10.0
 40
11.0
 40
11.0
 40
11.0
 40
12.0
 40
12.0
 40
12.0
 40
13.0
 40
13.0
 40
13.0
 40
13.0
 10
76.14746227479995
 20
-145.1284369211832
 10
76.3061089218957
 20
-145.3613253759861
 10
76.38017847482857
 20
-145.4608886355098
 10
76.52401121133775
 20
-145.5125650677885
 10
76.52401121133775
 20
-145.5125650677885
 10
76.52401121133775
 20
-144.6809190176492
 10
76.52401121133775
 20
-144.6809190176492
 10
76.52401121133775
 20
-144.6809190176492
 10
76.72916664748438
 20
-144.6809190176492
 10
76.72916664748438
 20
-144.6809190176492
 10
76.72916664748438
 20
-144.6809190176492
 10
76.72916664748438
 20
-145.7795599678954
 10
76.72916664748438
 20
-145.7795599678954
 10
76.37156573611544
 20
-145.7454535225914
 10
76.29336206860027
 20
-145.6755180842408
 10
75.99501679957764
 20
-145.264173683302
 10
75.79623479007873
 20
-144.9906331017732
 10
75.72853866379356
 20
-144.9203531538741
 10
75.59107935393209
 20
-144.9203531538741
 10
75.4725680692395
 20
-144.9203531538741
 10
75.34148218602574
 20
-144.9971787831952
 10
75.34148218602574
 20
-145.2076741173439
 10
75.34148218602574
 20
-145.4856933230036
 10
75.57195907398896
 20
-145.4946505712652
 10
75.68840330139041
 20
-145.4991291953961
 10
75.68840330139041
 20
-145.4991291953961
 10
75.68840330139041
 20
-145.7389078411694
 10
75.68840330139041
 20
-145.7389078411694
 10
75.56145153275895
 20
-145.7296060833593
 10
75.44931367471406
 20
-145.7185817778065
 10
75.33080239002147
 20
-145.6324543906752
 10
75.17008868563457
 20
-145.5149766346282
 10
75.13615449510485
 20
-145.3161946251293
 10
75.13615449510485
 20
-145.1918266781118
 10
75.13615449510485
 20
-144.8955484663803
 10
75.32029484879146
 20
-144.6740288266787
 10
75.59314641122324
 20
-144.6740288266787
 10
75.82155624189531
 20
-144.6740288266787
 10
75.92111950141903
 20
-144.7983967736963
 10
76.14746227479995
 20
-145.1284369211832
 97
        0
 97
        0
 75
     2
 76
     1
 98
        0
  0
SPLINE
  5
A3
330
9D
100
AcDbEntity
  8
_U+30EC_U+30A4_U+30E4_U+30FC 1
370
     0
100
AcDbSpline
210
0.0
220
0.0
230
1.0
 70
    11
 71
     3
 72
    29
 73
    25
 74
     0
 42
0.0000000001
 43
0.0000000001
 12
1.0
 22
0.0
 32
0.0
 13
1.0
 23
0.0
 33
0.0
 40
0.0
 40
0.0
 40
0.0
 40
0.0
 40
1.0
 40
1.0
 40
1.0
 40
2.0
 40
2.0
 40
2.0
 40
3.0
 40
3.0
 40
3.0
 40
4.0
 40
4.0
 40
4.0
 40
5.0
 40
5.0
 40
5.0
 40
6.0
 40
6.0
 40
6.0
 40
7.0
 40
7.0
 40
7.0
 40
8.0
 40
8.0
 40
8.0
 40
8.0
 10
76.55139972044549
 20
-143.5450710361623
 30
0.0
 10
76.76086152594868
 20
-143.6604817349182
 30
0.0
 10
76.77998180589181
 20
-143.8458278720247
 30
0.0
 10
76.77998180589181
 20
-143.9701958190422
 30
0.0
 10
76.77998180589181
 20
-144.1417615742076
 30
0.0
 10
76.73347301684095
 20
-144.2933457755586
 30
0.0
 10
76.55139972044549
 20
-144.3949760923735
 30
0.0
 10
76.35675182552887
 20
-144.5059081669985
 30
0.0
 10
76.11990151091794
 20
-144.5262342303615
 30
0.0
 10
75.95694849446562
 20
-144.5262342303615
 30
0.0
 10
75.81311575795645
 20
-144.5262342303615
 30
0.0
 10
75.56145153275895
 20
-144.5079752242897
 30
0.0
 10
75.36249726848577
 20
-144.3949760923735
 30
0.0
 10
75.15940888963028
 20
-144.2799099031661
 30
0.0
 10
75.13615449510485
 20
-144.1079996384522
 30
0.0
 10
75.13615449510485
 20
-143.9701958190422
 30
0.0
 10
75.13615449510485
 20
-143.8003526116194
 30
0.0
 10
75.18059622686458
 20
-143.6467013529772
 30
0.0
 10
75.36249726848577
 20
-143.5450710361623
 30
0.0
 10
75.55507810611124
 20
-143.4386175856681
 30
0.0
 10
75.7834879367833
 20
-143.4138128981743
 30
0.0
 10
75.95694849446562
 20
-143.4138128981743
 30
0.0
 10
76.12834199485681
 20
-143.4138128981743
 30
0.0
 10
76.35899113759429
 20
-143.436550528377
 30
0.0
 10
76.55139972044549
 20
-143.5450710361623
 30
0.0
  0
SPLINE
  5
A4
330
9D
100
AcDbEntity
  8
_U+30EC_U+30A4_U+30E4_U+30FC 1
370
     0
100
AcDbSpline
210
0.0
220
0.0
230
1.0
 70
    11
 71
     3
 72
    17
 73
    13
 74
     0
 42
0.0000000001
 43
0.0000000001
 12
1.0
 22
0.0
 32
0.0
 13
1.0
 23
0.0
 33
0.0
 40
0.0
 40
0.0
 40
0.0
 40
0.0
 40
1.0
 40
1.0
 40
1.0
 40
2.0
 40
2.0
 40
2.0
 40
3.0
 40
3.0
 40
3.0
 40
4.0
 40
4.0
 40
4.0
 40
4.0
 10
75.32873533273032
 20
-143.9701958190422
 30
0.0
 10
75.32873533273032
 20
-144.2368462096005
 30
0.0
 10
75.61226669116638
 20
-144.2864555845881
 30
0.0
 10
75.95694849446562
 20
-144.2864555845881
 30
0.0
 10
76.27648110072255
 20
-144.2864555845881
 30
0.0
 10
76.5853339109752
 20
-144.2482150247018
 30
0.0
 10
76.5853339109752
 20
-143.9701958190422
 30
0.0
 10
76.5853339109752
 20
-143.705612485775
 30
0.0
 10
76.30386960983029
 20
-143.6535915439477
 30
0.0
 10
75.95694849446562
 20
-143.6535915439477
 30
0.0
 10
75.63758814298296
 20
-143.6535915439477
 30
0.0
 10
75.32873533273032
 20
-143.6942436706737
 30
0.0
 10
75.32873533273032
 20
-143.9701958190422
 30
0.0
  0
HATCH
  5
A5
330
9D
100
AcDbEntity
  8
_U+30EC_U+30A4_U+30E4_U+30FC 1
 62
   179
420
  2234388
100
AcDbHatch
 10
0.0
 20
0.0
 30
0.0
210
0.0
220
0.0
230
1.0
  2
SOLID
 70
     1
 71
     0
 91
        2
 92
        1
 93
        1
 72
     4
 94
        3
 73
     0
 74
     1
 95
       29
 96
       25
 40
0.0
 40
0.0
 40
0.0
 40
0.0
 40
1.0
 40
1.0
 40
1.0
 40
2.0
 40
2.0
 40
2.0
 40
3.0
 40
3.0
 40
3.0
 40
4.0
 40
4.0
 40
4.0
 40
5.0
 40
5.0
 40
5.0
 40
6.0
 40
6.0
 40
6.0
 40
7.0
 40
7.0
 40
7.0
 40
8.0
 40
8.0
 40
8.0
 40
8.0
 10
76.55139972044549
 20
-143.5450710361623
 10
76.76086152594868
 20
-143.6604817349182
 10
76.77998180589181
 20
-143.8458278720247
 10
76.77998180589181
 20
-143.9701958190422
 10
76.77998180589181
 20
-144.1417615742076
 10
76.73347301684095
 20
-144.2933457755586
 10
76.55139972044549
 20
-144.3949760923735
 10
76.35675182552887
 20
-144.5059081669985
 10
76.11990151091794
 20
-144.5262342303615
 10
75.95694849446562
 20
-144.5262342303615
 10
75.81311575795645
 20
-144.5262342303615
 10
75.56145153275895
 20
-144.5079752242897
 10
75.36249726848577
 20
-144.3949760923735
 10
75.15940888963028
 20
-144.2799099031661
 10
75.13615449510485
 20
-144.1079996384522
 10
75.13615449510485
 20
-143.9701958190422
 10
75.13615449510485
 20
-143.8003526116194
 10
75.18059622686458
 20
-143.6467013529772
 10
75.36249726848577
 20
-143.5450710361623
 10
75.55507810611124
 20
-143.4386175856681
 10
75.7834879367833
 20
-143.4138128981743
 10
75.95694849446562
 20
-143.4138128981743
 10
76.12834199485681
 20
-143.4138128981743
 10
76.35899113759429
 20
-143.436550528377
 10
76.55139972044549
 20
-143.5450710361623
 97
        0
 97
        0
 92
        1
 93
        1
 72
     4
 94
        3
 73
     0
 74
     1
 95
       17
 96
       13
 40
0.0
 40
0.0
 40
0.0
 40
0.0
 40
1.0
 40
1.0
 40
1.0
 40
2.0
 40
2.0
 40
2.0
 40
3.0
 40
3.0
 40
3.0
 40
4.0
 40
4.0
 40
4.0
 40
4.0
 10
75.32873533273032
 20
-143.9701958190422
 10
75.32873533273032
 20
-144.2368462096005
 10
75.61226669116638
 20
-144.2864555845881
 10
75.95694849446562
 20
-144.2864555845881
 10
76.27648110072255
 20
-144.2864555845881
 10
76.5853339109752
 20
-144.2482150247018
 10
76.5853339109752
 20
-143.9701958190422
 10
76.5853339109752
 20
-143.705612485775
 10
76.30386960983029
 20
-143.6535915439477
 10
75.95694849446562
 20
-143.6535915439477
 10
75.63758814298296
 20
-143.6535915439477
 10
75.32873533273032
 20
-143.6942436706737
 10
75.32873533273032
 20
-143.9701958190422
 97
        0
 97
        0
 75
     2
 76
     1
 98
        0
  0
ENDBLK
  5
A0
330
9D
100
AcDbEntity
  8
0
100
AcDbBlockEnd
  0
BLOCK
  5
B4
330
B2
100
AcDbEntity
  8
0
100
AcDbBlockBegin
  2
block 3
 70
     0
 10
0.0
 20
0.0
 30
0.0
  3
block 3
  1

  0
POLYLINE
  5
B6
330
B2
100
AcDbEntity
  8
_U+30EC_U+30A4_U+30E4_U+30FC 1
370
     0
100
AcDb2dPolyline
 66
     1
 10
0.0
 20
0.0
 30
0.0
  0
VERTEX
  5
B7
330
B6
100
AcDbEntity
  8
_U+30EC_U+30A4_U+30E4_U+30FC 1
370
     0
100
AcDbVertex
100
AcDb2dVertex
 10
105.3238036846066
 20
-152.8244357256828
 30
0.0
  0
VERTEX
  5
B8
330
B6
100
AcDbEntity
  8
_U+30EC_U+30A4_U+30E4_U+30FC 1
370
     0
100
AcDbVertex
100
AcDb2dVertex
 10
105.6707247999712
 20
-152.8244357256828
 30
0.0
  0
VERTEX
  5
B9
330
B6
100
AcDbEntity
  8
_U+30EC_U+30A4_U+30E4_U+30FC 1
370
     0
100
AcDbVertex
100
AcDb2dVertex
 10
105.6707247999712
 20
-153.0573241804857
 30
0.0
  0
VERTEX
  5
BA
330
B6
100
AcDbEntity
  8
_U+30EC_U+30A4_U+30E4_U+30FC 1
370
     0
100
AcDbVertex
100
AcDb2dVertex
 10
105.3238036846066
 20
-153.0573241804857
 30
0.0
  0
VERTEX
  5
BB
330
B6
100
AcDbEntity
  8
_U+30EC_U+30A4_U+30E4_U+30FC 1
370
     0
100
AcDbVertex
100
AcDb2dVertex
 10
105.3238036846066
 20
-153.758401111734
 30
0.0
  0
VERTEX
  5
BC
330
B6
100
AcDbEntity
  8
_U+30EC_U+30A4_U+30E4_U+30FC 1
370
     0
100
AcDbVertex
100
AcDb2dVertex
 10
105.0995279685168
 20
-153.758401111734
 30
0.0
  0
VERTEX
  5
BD
330
B6
100
AcDbEntity
  8
_U+30EC_U+30A4_U+30E4_U+30FC 1
370
     0
100
AcDbVertex
100
AcDb2dVertex
 10
104.1262884939337
 20
-153.0325194929919
 30
0.0
  0
VERTEX
  5
BE
330
B6
100
AcDbEntity
  8
_U+30EC_U+30A4_U+30E4_U+30FC 1
370
     0
100
AcDbVertex
100
AcDb2dVertex
 10
104.1262884939337
 20
-152.8244357256828
 30
0.0
  0
VERTEX
  5
BF
330
B6
100
AcDbEntity
  8
_U+30EC_U+30A4_U+30E4_U+30FC 1
370
     0
100
AcDbVertex
100
AcDb2dVertex
 10
105.1250216751076
 20
-152.8244357256828
 30
0.0
  0
VERTEX
  5
C0
330
B6
100
AcDbEntity
  8
_U+30EC_U+30A4_U+30E4_U+30FC 1
370
     0
100
AcDbVertex
100
AcDb2dVertex
 10
105.1250216751076
 20
-152.6029160859812
 30
0.0
  0
VERTEX
  5
C1
330
B6
100
AcDbEntity
  8
_U+30EC_U+30A4_U+30E4_U+30FC 1
370
     0
100
AcDbVertex
100
AcDb2dVertex
 10
105.3238036846066
 20
-152.6029160859812
 30
0.0
  0
VERTEX
  5
C2
330
B6
100
AcDbEntity
  8
_U+30EC_U+30A4_U+30E4_U+30FC 1
370
     0
100
AcDbVertex
100
AcDb2dVertex
 10
105.3238036846066
 20
-152.8244357256828
 30
0.0
  0
SEQEND
  5
C3
330
B6
100
AcDbEntity
  8
_U+30EC_U+30A4_U+30E4_U+30FC 1
370
     0
  0
POLYLINE
  5
C4
330
B2
100
AcDbEntity
  8
_U+30EC_U+30A4_U+30E4_U+30FC 1
370
     0
100
AcDb2dPolyline
 66
     1
 10
0.0
 20
0.0
 30
0.0
  0
VERTEX
  5
C5
330
C4
100
AcDbEntity
  8
_U+30EC_U+30A4_U+30E4_U+30FC 1
370
     0
100
AcDbVertex
100
AcDb2dVertex
 10
104.4690754947161
 20
-153.0573241804857
 30
0.0
  0
VERTEX
  5
C6
330
C4
100
AcDbEntity
  8
_U+30EC_U+30A4_U+30E4_U+30FC 1
370
     0
100
AcDbVertex
100
AcDb2dVertex
 10
105.1250216751076
 20
-153.5458387202941
 30
0.0
  0
VERTEX
  5
C7
330
C4
100
AcDbEntity
  8
_U+30EC_U+30A4_U+30E4_U+30FC 1
370
     0
100
AcDbVertex
100
AcDb2dVertex
 10
105.1250216751076
 20
-153.0573241804857
 30
0.0
  0
VERTEX
  5
C8
330
C4
100
AcDbEntity
  8
_U+30EC_U+30A4_U+30E4_U+30FC 1
370
     0
100
AcDbVertex
100
AcDb2dVertex
 10
104.4690754947161
 20
-153.0573241804857
 30
0.0
  0
SEQEND
  5
C9
330
C4
100
AcDbEntity
  8
_U+30EC_U+30A4_U+30E4_U+30FC 1
370
     0
  0
HATCH
  5
CA
330
B2
100
AcDbEntity
  8
_U+30EC_U+30A4_U+30E4_U+30FC 1
 62
   179
420
  2234388
100
AcDbHatch
 10
0.0
 20
0.0
 30
0.0
210
0.0
220
0.0
230
1.0
  2
SOLID
 70
     1
 71
     0
 91
        2
 92
        1
 93
       11
 72
     1
 10
105.3238036846066
 20
-152.8244357256828
 11
105.6707247999712
 21
-152.8244357256828
 72
     1
 10
105.6707247999712
 20
-152.8244357256828
 11
105.6707247999712
 21
-153.0573241804857
 72
     1
 10
105.6707247999712
 20
-153.0573241804857
 11
105.3238036846066
 21
-153.0573241804857
 72
     1
 10
105.3238036846066
 20
-153.0573241804857
 11
105.3238036846066
 21
-153.758401111734
 72
     1
 10
105.3238036846066
 20
-153.758401111734
 11
105.0995279685168
 21
-153.758401111734
 72
     1
 10
105.0995279685168
 20
-153.758401111734
 11
104.1262884939337
 21
-153.0325194929919
 72
     1
 10
104.1262884939337
 20
-153.0325194929919
 11
104.1262884939337
 21
-152.8244357256828
 72
     1
 10
104.1262884939337
 20
-152.8244357256828
 11
105.1250216751076
 21
-152.8244357256828
 72
     1
 10
105.1250216751076
 20
-152.8244357256828
 11
105.1250216751076
 21
-152.6029160859812
 72
     1
 10
105.1250216751076
 20
-152.6029160859812
 11
105.3238036846066
 21
-152.6029160859812
 72
     1
 10
105.3238036846066
 20
-152.6029160859812
 11
105.3238036846066
 21
-152.8244357256828
 97
        0
 92
        1
 93
        3
 72
     1
 10
104.4690754947161
 20
-153.0573241804857
 11
105.1250216751076
 21
-153.5458387202941
 72
     1
 10
105.1250216751076
 20
-153.5458387202941
 11
105.1250216751076
 21
-153.0573241804857
 72
     1
 10
105.1250216751076
 20
-153.0573241804857
 11
104.4690754947161
 21
-153.0573241804857
 97
        0
 75
     2
 76
     1
 98
        0
  0
ENDBLK
  5
B5
330
B2
100
AcDbEntity
  8
0
100
AcDbBlockEnd
  0
BLOCK
  5
D5
330
D3
100
AcDbEntity
  8
0
100
AcDbBlockBegin
  2
block 4
 70
     0
 10
0.0
 20
0.0
 30
0.0
  3
block 4
  1

  0
SPLINE
  5
D7
330
D3
100
AcDbEntity
  8
_U+30EC_U+30A4_U+30E4_U+30FC 1
370
     0
100
AcDbSpline
210
0.0
220
0.0
230
1.0
 70
    11
 71
     3
 72
    26
 73
    22
 74
     0
 42
0.0000000001
 43
0.0000000001
 12
1.0
 22
0.0
 32
0.0
 13
1.0
 23
0.0
 33
0.0
 40
0.0
 40
0.0
 40
0.0
 40
0.0
 40
1.0
 40
1.0
 40
1.0
 40
2.0
 40
2.0
 40
2.0
 40
3.0
 40
3.0
 40
3.0
 40
4.0
 40
4.0
 40
4.0
 40
5.0
 40
5.0
 40
5.0
 40
6.0
 40
6.0
 40
6.0
 40
7.0
 40
7.0
 40
7.0
 40
7.0
 10
105.6703802904227
 20
-147.3970322982202
 30
0.0
 10
105.6703802904227
 20
-147.3970322982202
 30
0.0
 10
104.5662271874001
 20
-147.3970322982202
 30
0.0
 10
104.5662271874001
 20
-147.3970322982202
 30
0.0
 10
104.5662271874001
 20
-147.3970322982202
 30
0.0
 10
104.5662271874001
 20
-147.7494655663612
 30
0.0
 10
104.5662271874001
 20
-147.7494655663612
 30
0.0
 10
104.5662271874001
 20
-147.7494655663612
 30
0.0
 10
104.4180880815344
 20
-147.7494655663612
 30
0.0
 10
104.4180880815344
 20
-147.7494655663612
 30
0.0
 10
104.4032741709478
 20
-147.3946207313805
 30
0.0
 10
104.2403211544955
 20
-147.3450113563929
 30
0.0
 10
104.1259439843852
 20
-147.3133164779286
 30
0.0
 10
104.1259439843852
 20
-147.3133164779286
 30
0.0
 10
104.1259439843852
 20
-147.1572536524468
 30
0.0
 10
104.1259439843852
 20
-147.1572536524468
 30
0.0
 10
104.1259439843852
 20
-147.1572536524468
 30
0.0
 10
105.6703802904227
 20
-147.1572536524468
 30
0.0
 10
105.6703802904227
 20
-147.1572536524468
 30
0.0
 10
105.6703802904227
 20
-147.1572536524468
 30
0.0
 10
105.6703802904227
 20
-147.3970322982202
 30
0.0
 10
105.6703802904227
 20
-147.3970322982202
 30
0.0
  0
HATCH
  5
D8
330
D3
100
AcDbEntity
  8
_U+30EC_U+30A4_U+30E4_U+30FC 1
 62
   179
420
  2234388
100
AcDbHatch
 10
0.0
 20
0.0
 30
0.0
210
0.0
220
0.0
230
1.0
  2
SOLID
 70
     1
 71
     0
 91
        1
 92
        1
 93
        1
 72
     4
 94
        3
 73
     0
 74
     1
 95
       26
 96
       22
 40
0.0
 40
0.0
 40
0.0
 40
0.0
 40
1.0
 40
1.0
 40
1.0
 40
2.0
 40
2.0
 40
2.0
 40
3.0
 40
3.0
 40
3.0
 40
4.0
 40
4.0
 40
4.0
 40
5.0
 40
5.0
 40
5.0
 40
6.0
 40
6.0
 40
6.0
 40
7.0
 40
7.0
 40
7.0
 40
7.0
 10
105.6703802904227
 20
-147.3970322982202
 10
105.6703802904227
 20
-147.3970322982202
 10
104.5662271874001
 20
-147.3970322982202
 10
104.5662271874001
 20
-147.3970322982202
 10
104.5662271874001
 20
-147.3970322982202
 10
104.5662271874001
 20
-147.7494655663612
 10
104.5662271874001
 20
-147.7494655663612
 10
104.5662271874001
 20
-147.7494655663612
 10
104.4180880815344
 20
-147.7494655663612
 10
104.4180880815344
 20
-147.7494655663612
 10
104.4032741709478
 20
-147.3946207313805
 10
104.2403211544955
 20
-147.3450113563929
 10
104.1259439843852
 20
-147.3133164779286
 10
104.1259439843852
 20
-147.3133164779286
 10
104.1259439843852
 20
-147.1572536524468
 10
104.1259439843852
 20
-147.1572536524468
 10
104.1259439843852
 20
-147.1572536524468
 10
105.6703802904227
 20
-147.1572536524468
 10
105.6703802904227
 20
-147.1572536524468
 10
105.6703802904227
 20
-147.1572536524468
 10
105.6703802904227
 20
-147.3970322982202
 10
105.6703802904227
 20
-147.3970322982202
 97
        0
 97
        0
 75
     2
 76
     1
 98
        0
  0
SPLINE
  5
D9
330
D3
100
AcDbEntity
  8
_U+30EC_U+30A4_U+30E4_U+30FC 1
370
     0
100
AcDbSpline
210
0.0
220
0.0
230
1.0
 70
    11
 71
     3
 72
    29
 73
    25
 74
     0
 42
0.0000000001
 43
0.0000000001
 12
1.0
 22
0.0
 32
0.0
 13
1.0
 23
0.0
 33
0.0
 40
0.0
 40
0.0
 40
0.0
 40
0.0
 40
1.0
 40
1.0
 40
1.0
 40
2.0
 40
2.0
 40
2.0
 40
3.0
 40
3.0
 40
3.0
 40
4.0
 40
4.0
 40
4.0
 40
5.0
 40
5.0
 40
5.0
 40
6.0
 40
6.0
 40
6.0
 40
7.0
 40
7.0
 40
7.0
 40
8.0
 40
8.0
 40
8.0
 40
8.0
 10
105.4926133633838
 20
-145.6620822118484
 30
0.0
 10
105.702075168887
 20
-145.7774929106043
 30
0.0
 10
105.7210231940559
 20
-145.9628390477107
 30
0.0
 10
105.7210231940559
 20
-146.0872069947282
 30
0.0
 10
105.7210231940559
 20
-146.2587727498936
 30
0.0
 10
105.674514405005
 20
-146.4103569512446
 30
0.0
 10
105.4926133633838
 20
-146.5119872680595
 30
0.0
 10
105.2979654684672
 20
-146.6229193426846
 30
0.0
 10
105.060942899082
 20
-146.6432454060475
 30
0.0
 10
104.8983343921782
 20
-146.6432454060475
 30
0.0
 10
104.7543294008948
 20
-146.6432454060475
 30
0.0
 10
104.502492920923
 20
-146.6249863999757
 30
0.0
 10
104.3037109114241
 20
-146.5119872680595
 30
0.0
 10
104.1007947873429
 20
-146.3969210788522
 30
0.0
 10
104.0773681380432
 20
-146.2250108141382
 30
0.0
 10
104.0773681380432
 20
-146.0872069947282
 30
0.0
 10
104.0773681380432
 20
-145.9173637873054
 30
0.0
 10
104.1218098698029
 20
-145.7637125286632
 30
0.0
 10
104.3037109114241
 20
-145.6620822118484
 30
0.0
 10
104.4962917490495
 20
-145.5556287613541
 30
0.0
 10
104.7247015797216
 20
-145.5308240738603
 30
0.0
 10
104.8983343921782
 20
-145.5308240738603
 30
0.0
 10
105.0695556377951
 20
-145.5308240738603
 30
0.0
 10
105.3000325257583
 20
-145.553561704063
 30
0.0
 10
105.4926133633838
 20
-145.6620822118484
 30
0.0
  0
SPLINE
  5
DA
330
D3
100
AcDbEntity
  8
_U+30EC_U+30A4_U+30E4_U+30FC 1
370
     0
100
AcDbSpline
210
0.0
220
0.0
230
1.0
 70
    11
 71
     3
 72
    17
 73
    13
 74
     0
 42
0.0000000001
 43
0.0000000001
 12
1.0
 22
0.0
 32
0.0
 13
1.0
 23
0.0
 33
0.0
 40
0.0
 40
0.0
 40
0.0
 40
0.0
 40
1.0
 40
1.0
 40
1.0
 40
2.0
 40
2.0
 40
2.0
 40
3.0
 40
3.0
 40
3.0
 40
4.0
 40
4.0
 40
4.0
 40
4.0
 10
104.2699489756686
 20
-146.0872069947282
 30
0.0
 10
104.2699489756686
 20
-146.3538573852865
 30
0.0
 10
104.5534803341047
 20
-146.4034667602741
 30
0.0
 10
104.8983343921782
 20
-146.4034667602741
 30
0.0
 10
105.2176947436609
 20
-146.4034667602741
 30
0.0
 10
105.5263752991392
 20
-146.3652262003879
 30
0.0
 10
105.5263752991392
 20
-146.0872069947282
 30
0.0
 10
105.5263752991392
 20
-145.822623661461
 30
0.0
 10
105.2452555075429
 20
-145.7706027196338
 30
0.0
 10
104.8983343921782
 20
-145.7706027196338
 30
0.0
 10
104.578629531147
 20
-145.7706027196338
 30
0.0
 10
104.2699489756686
 20
-145.8112548463597
 30
0.0
 10
104.2699489756686
 20
-146.0872069947282
 30
0.0
  0
HATCH
  5
DB
330
D3
100
AcDbEntity
  8
_U+30EC_U+30A4_U+30E4_U+30FC 1
 62
   179
420
  2234388
100
AcDbHatch
 10
0.0
 20
0.0
 30
0.0
210
0.0
220
0.0
230
1.0
  2
SOLID
 70
     1
 71
     0
 91
        2
 92
        1
 93
        1
 72
     4
 94
        3
 73
     0
 74
     1
 95
       29
 96
       25
 40
0.0
 40
0.0
 40
0.0
 40
0.0
 40
1.0
 40
1.0
 40
1.0
 40
2.0
 40
2.0
 40
2.0
 40
3.0
 40
3.0
 40
3.0
 40
4.0
 40
4.0
 40
4.0
 40
5.0
 40
5.0
 40
5.0
 40
6.0
 40
6.0
 40
6.0
 40
7.0
 40
7.0
 40
7.0
 40
8.0
 40
8.0
 40
8.0
 40
8.0
 10
105.4926133633838
 20
-145.6620822118484
 10
105.702075168887
 20
-145.7774929106043
 10
105.7210231940559
 20
-145.9628390477107
 10
105.7210231940559
 20
-146.0872069947282
 10
105.7210231940559
 20
-146.2587727498936
 10
105.674514405005
 20
-146.4103569512446
 10
105.4926133633838
 20
-146.5119872680595
 10
105.2979654684672
 20
-146.6229193426846
 10
105.060942899082
 20
-146.6432454060475
 10
104.8983343921782
 20
-146.6432454060475
 10
104.7543294008948
 20
-146.6432454060475
 10
104.502492920923
 20
-146.6249863999757
 10
104.3037109114241
 20
-146.5119872680595
 10
104.1007947873429
 20
-146.3969210788522
 10
104.0773681380432
 20
-146.2250108141382
 10
104.0773681380432
 20
-146.0872069947282
 10
104.0773681380432
 20
-145.9173637873054
 10
104.1218098698029
 20
-145.7637125286632
 10
104.3037109114241
 20
-145.6620822118484
 10
104.4962917490495
 20
-145.5556287613541
 10
104.7247015797216
 20
-145.5308240738603
 10
104.8983343921782
 20
-145.5308240738603
 10
105.0695556377951
 20
-145.5308240738603
 10
105.3000325257583
 20
-145.553561704063
 10
105.4926133633838
 20
-145.6620822118484
 97
        0
 97
        0
 92
        1
 93
        1
 72
     4
 94
        3
 73
     0
 74
     1
 95
       17
 96
       13
 40
0.0
 40
0.0
 40
0.0
 40
0.0
 40
1.0
 40
1.0
 40
1.0
 40
2.0
 40
2.0
 40
2.0
 40
3.0
 40
3.0
 40
3.0
 40
4.0
 40
4.0
 40
4.0
 40
4.0
 10
104.2699489756686
 20
-146.0872069947282
 10
104.2699489756686
 20
-146.3538573852865
 10
104.5534803341047
 20
-146.4034667602741
 10
104.8983343921782
 20
-146.4034667602741
 10
105.2176947436609
 20
-146.4034667602741
 10
105.5263752991392
 20
-146.3652262003879
 10
105.5263752991392
 20
-146.0872069947282
 10
105.5263752991392
 20
-145.822623661461
 10
105.2452555075429
 20
-145.7706027196338
 10
104.8983343921782
 20
-145.7706027196338
 10
104.578629531147
 20
-145.7706027196338
 10
104.2699489756686
 20
-145.8112548463597
 10
104.2699489756686
 20
-146.0872069947282
 97
        0
 97
        0
 75
     2
 76
     1
 98
        0
  0
ENDBLK
  5
D6
330
D3
100
AcDbEntity
  8
0
100
AcDbBlockEnd
  0
BLOCK
  5
E6
330
E4
100
AcDbEntity
  8
0
100
AcDbBlockBegin
  2
block 5
 70
     0
 10
0.0
 20
0.0
 30
0.0
  3
block 5
  1

  0
POLYLINE
  5
E8
330
E4
100
AcDbEntity
  8
_U+30EC_U+30A4_U+30E4_U+30FC 1
370
     0
100
AcDb2dPolyline
 66
     1
 10
0.0
 20
0.0
 30
0.0
  0
VERTEX
  5
E9
330
E8
100
AcDbEntity
  8
_U+30EC_U+30A4_U+30E4_U+30FC 1
370
     0
100
AcDbVertex
100
AcDb2dVertex
 10
105.323459175058
 20
-119.2540472792143
 30
0.0
  0
VERTEX
  5
EA
330
E8
100
AcDbEntity
  8
_U+30EC_U+30A4_U+30E4_U+30FC 1
370
     0
100
AcDbVertex
100
AcDb2dVertex
 10
105.6703802904227
 20
-119.2540472792143
 30
0.0
  0
VERTEX
  5
EB
330
E8
100
AcDbEntity
  8
_U+30EC_U+30A4_U+30E4_U+30FC 1
370
     0
100
AcDbVertex
100
AcDb2dVertex
 10
105.6703802904227
 20
-119.4869357340172
 30
0.0
  0
VERTEX
  5
EC
330
E8
100
AcDbEntity
  8
_U+30EC_U+30A4_U+30E4_U+30FC 1
370
     0
100
AcDbVertex
100
AcDb2dVertex
 10
105.323459175058
 20
-119.4869357340172
 30
0.0
  0
VERTEX
  5
ED
330
E8
100
AcDbEntity
  8
_U+30EC_U+30A4_U+30E4_U+30FC 1
370
     0
100
AcDbVertex
100
AcDb2dVertex
 10
105.323459175058
 20
-120.187668155717
 30
0.0
  0
VERTEX
  5
EE
330
E8
100
AcDbEntity
  8
_U+30EC_U+30A4_U+30E4_U+30FC 1
370
     0
100
AcDbVertex
100
AcDb2dVertex
 10
105.0991834589683
 20
-120.187668155717
 30
0.0
  0
VERTEX
  5
EF
330
E8
100
AcDbEntity
  8
_U+30EC_U+30A4_U+30E4_U+30FC 1
370
     0
100
AcDbVertex
100
AcDb2dVertex
 10
104.1259439843852
 20
-119.4619587917491
 30
0.0
  0
VERTEX
  5
F0
330
E8
100
AcDbEntity
  8
_U+30EC_U+30A4_U+30E4_U+30FC 1
370
     0
100
AcDbVertex
100
AcDb2dVertex
 10
104.1259439843852
 20
-119.2540472792143
 30
0.0
  0
VERTEX
  5
F1
330
E8
100
AcDbEntity
  8
_U+30EC_U+30A4_U+30E4_U+30FC 1
370
     0
100
AcDbVertex
100
AcDb2dVertex
 10
105.1246771655591
 20
-119.2540472792143
 30
0.0
  0
VERTEX
  5
F2
330
E8
100
AcDbEntity
  8
_U+30EC_U+30A4_U+30E4_U+30FC 1
370
     0
100
AcDbVertex
100
AcDb2dVertex
 10
105.1246771655591
 20
-119.0323553847384
 30
0.0
  0
VERTEX
  5
F3
330
E8
100
AcDbEntity
  8
_U+30EC_U+30A4_U+30E4_U+30FC 1
370
     0
100
AcDbVertex
100
AcDb2dVertex
 10
105.323459175058
 20
-119.0323553847384
 30
0.0
  0
VERTEX
  5
F4
330
E8
100
AcDbEntity
  8
_U+30EC_U+30A4_U+30E4_U+30FC 1
370
     0
100
AcDbVertex
100
AcDb2dVertex
 10
105.323459175058
 20
-119.2540472792143
 30
0.0
  0
SEQEND
  5
F5
330
E8
100
AcDbEntity
  8
_U+30EC_U+30A4_U+30E4_U+30FC 1
370
     0
  0
POLYLINE
  5
F6
330
E4
100
AcDbEntity
  8
_U+30EC_U+30A4_U+30E4_U+30FC 1
370
     0
100
AcDb2dPolyline
 66
     1
 10
0.0
 20
0.0
 30
0.0
  0
VERTEX
  5
F7
330
F6
100
AcDbEntity
  8
_U+30EC_U+30A4_U+30E4_U+30FC 1
370
     0
100
AcDbVertex
100
AcDb2dVertex
 10
104.4687309851675
 20
-119.4869357340172
 30
0.0
  0
VERTEX
  5
F8
330
F6
100
AcDbEntity
  8
_U+30EC_U+30A4_U+30E4_U+30FC 1
370
     0
100
AcDbVertex
100
AcDb2dVertex
 10
105.1246771655591
 20
-119.9751057642771
 30
0.0
  0
VERTEX
  5
F9
330
F6
100
AcDbEntity
  8
_U+30EC_U+30A4_U+30E4_U+30FC 1
370
     0
100
AcDbVertex
100
AcDb2dVertex
 10
105.1246771655591
 20
-119.4869357340172
 30
0.0
  0
VERTEX
  5
FA
330
F6
100
AcDbEntity
  8
_U+30EC_U+30A4_U+30E4_U+30FC 1
370
     0
100
AcDbVertex
100
AcDb2dVertex
 10
104.4687309851675
 20
-119.4869357340172
 30
0.0
  0
SEQEND
  5
FB
330
F6
100
AcDbEntity
  8
_U+30EC_U+30A4_U+30E4_U+30FC 1
370
     0
  0
HATCH
  5
FC
330
E4
100
AcDbEntity
  8
_U+30EC_U+30A4_U+30E4_U+30FC 1
 62
   179
420
  2234388
100
AcDbHatch
 10
0.0
 20
0.0
 30
0.0
210
0.0
220
0.0
230
1.0
  2
SOLID
 70
     1
 71
     0
 91
        2
 92
        1
 93
       11
 72
     1
 10
105.323459175058
 20
-119.2540472792143
 11
105.6703802904227
 21
-119.2540472792143
 72
     1
 10
105.6703802904227
 20
-119.2540472792143
 11
105.6703802904227
 21
-119.4869357340172
 72
     1
 10
105.6703802904227
 20
-119.4869357340172
 11
105.323459175058
 21
-119.4869357340172
 72
     1
 10
105.323459175058
 20
-119.4869357340172
 11
105.323459175058
 21
-120.187668155717
 72
     1
 10
105.323459175058
 20
-120.187668155717
 11
105.0991834589683
 21
-120.187668155717
 72
     1
 10
105.0991834589683
 20
-120.187668155717
 11
104.1259439843852
 21
-119.4619587917491
 72
     1
 10
104.1259439843852
 20
-119.4619587917491
 11
104.1259439843852
 21
-119.2540472792143
 72
     1
 10
104.1259439843852
 20
-119.2540472792143
 11
105.1246771655591
 21
-119.2540472792143
 72
     1
 10
105.1246771655591
 20
-119.2540472792143
 11
105.1246771655591
 21
-119.0323553847384
 72
     1
 10
105.1246771655591
 20
-119.0323553847384
 11
105.323459175058
 21
-119.0323553847384
 72
     1
 10
105.323459175058
 20
-119.0323553847384
 11
105.323459175058
 21
-119.2540472792143
 97
        0
 92
        1
 93
        3
 72
     1
 10
104.4687309851675
 20
-119.4869357340172
 11
105.1246771655591
 21
-119.9751057642771
 72
     1
 10
105.1246771655591
 20
-119.9751057642771
 11
105.1246771655591
 21
-119.4869357340172
 72
     1
 10
105.1246771655591
 20
-119.4869357340172
 11
104.4687309851675
 21
-119.4869357340172
 97
        0
 75
     2
 76
     1
 98
        0
  0
SPLINE
  5
FD
330
E4
100
AcDbEntity
  8
_U+30EC_U+30A4_U+30E4_U+30FC 1
370
     0
100
AcDbSpline
210
0.0
220
0.0
230
1.0
 70
    11
 71
     3
 72
    53
 73
    49
 74
     0
 42
0.0000000001
 43
0.0000000001
 12
1.0
 22
0.0
 32
0.0
 13
1.0
 23
0.0
 33
0.0
 40
0.0
 40
0.0
 40
0.0
 40
0.0
 40
1.0
 40
1.0
 40
1.0
 40
2.0
 40
2.0
 40
2.0
 40
3.0
 40
3.0
 40
3.0
 40
4.0
 40
4.0
 40
4.0
 40
5.0
 40
5.0
 40
5.0
 40
6.0
 40
6.0
 40
6.0
 40
7.0
 40
7.0
 40
7.0
 40
8.0
 40
8.0
 40
8.0
 40
9.0
 40
9.0
 40
9.0
 40
10.0
 40
10.0
 40
10.0
 40
11.0
 40
11.0
 40
11.0
 40
12.0
 40
12.0
 40
12.0
 40
13.0
 40
13.0
 40
13.0
 40
14.0
 40
14.0
 40
14.0
 40
15.0
 40
15.0
 40
15.0
 40
16.0
 40
16.0
 40
16.0
 40
16.0
 10
105.7210231940559
 20
-118.3714138158933
 30
0.0
 10
105.7210231940559
 20
-118.4551296361848
 30
0.0
 10
105.7041422261781
 20
-118.5636501439702
 30
0.0
 10
105.6407524692495
 20
-118.6721706517556
 30
0.0
 10
105.5308539232701
 20
-118.857516788862
 30
0.0
 10
105.399595785282
 20
-118.8802544190647
 30
0.0
 10
105.2917642965937
 20
-118.9005804824276
 30
0.0
 10
105.2917642965937
 20
-118.9005804824276
 30
0.0
 10
105.2917642965937
 20
-118.6632134034939
 30
0.0
 10
105.2917642965937
 20
-118.6632134034939
 30
0.0
 10
105.4905463060926
 20
-118.6043022706962
 30
0.0
 10
105.5201741272658
 20
-118.4687377633516
 30
0.0
 10
105.5201741272658
 20
-118.3691745038278
 30
0.0
 10
105.5201741272658
 20
-118.2200018693165
 30
0.0
 10
105.4206108677421
 20
-118.0572211076385
 30
0.0
 10
105.1880669224877
 20
-118.0572211076385
 30
0.0
 10
104.9320963279336
 20
-118.0572211076385
 30
0.0
 10
104.8621608895831
 20
-118.2494574357154
 30
0.0
 10
104.8621608895831
 20
-118.3783040068638
 30
0.0
 10
104.8621608895831
 20
-118.4122381973935
 30
0.0
 10
104.8621608895831
 20
-118.5636501439702
 30
0.0
 10
104.99135197028
 20
-118.6585625245888
 30
0.0
 10
104.99135197028
 20
-118.6585625245888
 30
0.0
 10
104.9724039451111
 20
-118.8463202285349
 30
0.0
 10
104.9724039451111
 20
-118.8463202285349
 30
0.0
 10
104.9724039451111
 20
-118.8463202285349
 30
0.0
 10
104.1259439843852
 20
-118.7173014026123
 30
0.0
 10
104.1259439843852
 20
-118.7173014026123
 30
0.0
 10
104.1259439843852
 20
-118.7173014026123
 30
0.0
 10
104.1259439843852
 20
-117.8853108429245
 30
0.0
 10
104.1259439843852
 20
-117.8853108429245
 30
0.0
 10
104.1259439843852
 20
-117.8853108429245
 30
0.0
 10
104.3205918793018
 20
-117.8853108429245
 30
0.0
 10
104.3205918793018
 20
-117.8853108429245
 30
0.0
 10
104.3205918793018
 20
-117.8853108429245
 30
0.0
 10
104.3205918793018
 20
-118.5433240806072
 30
0.0
 10
104.3205918793018
 20
-118.5433240806072
 30
0.0
 10
104.3205918793018
 20
-118.5433240806072
 30
0.0
 10
104.7436496048905
 20
-118.6134317737321
 30
0.0
 10
104.7436496048905
 20
-118.6134317737321
 30
0.0
 10
104.709887669135
 20
-118.5478027047381
 30
0.0
 10
104.6695800519576
 20
-118.4596082603157
 30
0.0
 10
104.6695800519576
 20
-118.3330010012327
 30
0.0
 10
104.6695800519576
 20
-118.0616997317693
 30
0.0
 10
104.8559597177096
 20
-117.8084852136034
 30
0.0
 10
105.1691188973188
 20
-117.8084852136034
 30
0.0
 10
105.4864121915103
 20
-117.8084852136034
 30
0.0
 10
105.7210231940559
 20
-118.0482638593768
 30
0.0
 10
105.7210231940559
 20
-118.3714138158933
 30
0.0
  0
HATCH
  5
FE
330
E4
100
AcDbEntity
  8
_U+30EC_U+30A4_U+30E4_U+30FC 1
 62
   179
420
  2234388
100
AcDbHatch
 10
0.0
 20
0.0
 30
0.0
210
0.0
220
0.0
230
1.0
  2
SOLID
 70
     1
 71
     0
 91
        1
 92
        1
 93
        1
 72
     4
 94
        3
 73
     0
 74
     1
 95
       53
 96
       49
 40
0.0
 40
0.0
 40
0.0
 40
0.0
 40
1.0
 40
1.0
 40
1.0
 40
2.0
 40
2.0
 40
2.0
 40
3.0
 40
3.0
 40
3.0
 40
4.0
 40
4.0
 40
4.0
 40
5.0
 40
5.0
 40
5.0
 40
6.0
 40
6.0
 40
6.0
 40
7.0
 40
7.0
 40
7.0
 40
8.0
 40
8.0
 40
8.0
 40
9.0
 40
9.0
 40
9.0
 40
10.0
 40
10.0
 40
10.0
 40
11.0
 40
11.0
 40
11.0
 40
12.0
 40
12.0
 40
12.0
 40
13.0
 40
13.0
 40
13.0
 40
14.0
 40
14.0
 40
14.0
 40
15.0
 40
15.0
 40
15.0
 40
16.0
 40
16.0
 40
16.0
 40
16.0
 10
105.7210231940559
 20
-118.3714138158933
 10
105.7210231940559
 20
-118.4551296361848
 10
105.7041422261781
 20
-118.5636501439702
 10
105.6407524692495
 20
-118.6721706517556
 10
105.5308539232701
 20
-118.857516788862
 10
105.399595785282
 20
-118.8802544190647
 10
105.2917642965937
 20
-118.9005804824276
 10
105.2917642965937
 20
-118.9005804824276
 10
105.2917642965937
 20
-118.6632134034939
 10
105.2917642965937
 20
-118.6632134034939
 10
105.4905463060926
 20
-118.6043022706962
 10
105.5201741272658
 20
-118.4687377633516
 10
105.5201741272658
 20
-118.3691745038278
 10
105.5201741272658
 20
-118.2200018693165
 10
105.4206108677421
 20
-118.0572211076385
 10
105.1880669224877
 20
-118.0572211076385
 10
104.9320963279336
 20
-118.0572211076385
 10
104.8621608895831
 20
-118.2494574357154
 10
104.8621608895831
 20
-118.3783040068638
 10
104.8621608895831
 20
-118.4122381973935
 10
104.8621608895831
 20
-118.5636501439702
 10
104.99135197028
 20
-118.6585625245888
 10
104.99135197028
 20
-118.6585625245888
 10
104.9724039451111
 20
-118.8463202285349
 10
104.9724039451111
 20
-118.8463202285349
 10
104.9724039451111
 20
-118.8463202285349
 10
104.1259439843852
 20
-118.7173014026123
 10
104.1259439843852
 20
-118.7173014026123
 10
104.1259439843852
 20
-118.7173014026123
 10
104.1259439843852
 20
-117.8853108429245
 10
104.1259439843852
 20
-117.8853108429245
 10
104.1259439843852
 20
-117.8853108429245
 10
104.3205918793018
 20
-117.8853108429245
 10
104.3205918793018
 20
-117.8853108429245
 10
104.3205918793018
 20
-117.8853108429245
 10
104.3205918793018
 20
-118.5433240806072
 10
104.3205918793018
 20
-118.5433240806072
 10
104.3205918793018
 20
-118.5433240806072
 10
104.7436496048905
 20
-118.6134317737321
 10
104.7436496048905
 20
-118.6134317737321
 10
104.709887669135
 20
-118.5478027047381
 10
104.6695800519576
 20
-118.4596082603157
 10
104.6695800519576
 20
-118.3330010012327
 10
104.6695800519576
 20
-118.0616997317693
 10
104.8559597177096
 20
-117.8084852136034
 10
105.1691188973188
 20
-117.8084852136034
 10
105.4864121915103
 20
-117.8084852136034
 10
105.7210231940559
 20
-118.0482638593768
 10
105.7210231940559
 20
-118.3714138158933
 97
        0
 97
        0
 75
     2
 76
     1
 98
        0
  0
ENDBLK
  5
E7
330
E4
100
AcDbEntity
  8
0
100
AcDbBlockEnd
  0
BLOCK
  5
105
330
103
100
AcDbEntity
  8
0
100
AcDbBlockBegin
  2
block 6
 70
     0
 10
0.0
 20
0.0
 30
0.0
  3
block 6
  1

  0
SPLINE
  5
107
330
103
100
AcDbEntity
  8
_U+30EC_U+30A4_U+30E4_U+30FC 1
370
     0
100
AcDbSpline
210
0.0
220
0.0
230
1.0
 70
    11
 71
     3
 72
    26
 73
    22
 74
     0
 42
0.0000000001
 43
0.0000000001
 12
1.0
 22
0.0
 32
0.0
 13
1.0
 23
0.0
 33
0.0
 40
0.0
 40
0.0
 40
0.0
 40
0.0
 40
1.0
 40
1.0
 40
1.0
 40
2.0
 40
2.0
 40
2.0
 40
3.0
 40
3.0
 40
3.0
 40
4.0
 40
4.0
 40
4.0
 40
5.0
 40
5.0
 40
5.0
 40
6.0
 40
6.0
 40
6.0
 40
7.0
 40
7.0
 40
7.0
 40
7.0
 10
91.09056394207111
 20
-127.6252847988228
 30
0.0
 10
91.09056394207111
 20
-127.6252847988228
 30
0.0
 10
91.09056394207111
 20
-126.5211316958003
 30
0.0
 10
91.09056394207111
 20
-126.5211316958003
 30
0.0
 10
91.09056394207111
 20
-126.5211316958003
 30
0.0
 10
90.73813067393006
 20
-126.5211316958003
 30
0.0
 10
90.73813067393006
 20
-126.5211316958003
 30
0.0
 10
90.73813067393006
 20
-126.5211316958003
 30
0.0
 10
90.73813067393006
 20
-126.3729925899345
 30
0.0
 10
90.73813067393006
 20
-126.3729925899345
 30
0.0
 10
91.09297550891078
 20
-126.358178679348
 30
0.0
 10
91.14258488389838
 20
-126.1952256628956
 30
0.0
 10
91.17427976236269
 20
-126.0810207475596
 30
0.0
 10
91.17427976236269
 20
-126.0810207475596
 30
0.0
 10
91.3303425878445
 20
-126.0810207475596
 30
0.0
 10
91.3303425878445
 20
-126.0810207475596
 30
0.0
 10
91.3303425878445
 20
-126.0810207475596
 30
0.0
 10
91.3303425878445
 20
-127.6252847988228
 30
0.0
 10
91.3303425878445
 20
-127.6252847988228
 30
0.0
 10
91.3303425878445
 20
-127.6252847988228
 30
0.0
 10
91.09056394207111
 20
-127.6252847988228
 30
0.0
 10
91.09056394207111
 20
-127.6252847988228
 30
0.0
  0
HATCH
  5
108
330
103
100
AcDbEntity
  8
_U+30EC_U+30A4_U+30E4_U+30FC 1
 62
   179
420
  2234388
100
AcDbHatch
 10
0.0
 20
0.0
 30
0.0
210
0.0
220
0.0
230
1.0
  2
SOLID
 70
     1
 71
     0
 91
        1
 92
        1
 93
        1
 72
     4
 94
        3
 73
     0
 74
     1
 95
       26
 96
       22
 40
0.0
 40
0.0
 40
0.0
 40
0.0
 40
1.0
 40
1.0
 40
1.0
 40
2.0
 40
2.0
 40
2.0
 40
3.0
 40
3.0
 40
3.0
 40
4.0
 40
4.0
 40
4.0
 40
5.0
 40
5.0
 40
5.0
 40
6.0
 40
6.0
 40
6.0
 40
7.0
 40
7.0
 40
7.0
 40
7.0
 10
91.09056394207111
 20
-127.6252847988228
 10
91.09056394207111
 20
-127.6252847988228
 10
91.09056394207111
 20
-126.5211316958003
 10
91.09056394207111
 20
-126.5211316958003
 10
91.09056394207111
 20
-126.5211316958003
 10
90.73813067393006
 20
-126.5211316958003
 10
90.73813067393006
 20
-126.5211316958003
 10
90.73813067393006
 20
-126.5211316958003
 10
90.73813067393006
 20
-126.3729925899345
 10
90.73813067393006
 20
-126.3729925899345
 10
91.09297550891078
 20
-126.358178679348
 10
91.14258488389838
 20
-126.1952256628956
 10
91.17427976236269
 20
-126.0810207475596
 10
91.17427976236269
 20
-126.0810207475596
 10
91.3303425878445
 20
-126.0810207475596
 10
91.3303425878445
 20
-126.0810207475596
 10
91.3303425878445
 20
-126.0810207475596
 10
91.3303425878445
 20
-127.6252847988228
 10
91.3303425878445
 20
-127.6252847988228
 10
91.3303425878445
 20
-127.6252847988228
 10
91.09056394207111
 20
-127.6252847988228
 10
91.09056394207111
 20
-127.6252847988228
 97
        0
 97
        0
 75
     2
 76
     1
 98
        0
  0
SPLINE
  5
109
330
103
100
AcDbEntity
  8
_U+30EC_U+30A4_U+30E4_U+30FC 1
370
     0
100
AcDbSpline
210
0.0
220
0.0
230
1.0
 70
    11
 71
     3
 72
    62
 73
    58
 74
     0
 42
0.0000000001
 43
0.0000000001
 12
1.0
 22
0.0
 32
0.0
 13
1.0
 23
0.0
 33
0.0
 40
0.0
 40
0.0
 40
0.0
 40
0.0
 40
1.0
 40
1.0
 40
1.0
 40
2.0
 40
2.0
 40
2.0
 40
3.0
 40
3.0
 40
3.0
 40
4.0
 40
4.0
 40
4.0
 40
5.0
 40
5.0
 40
5.0
 40
6.0
 40
6.0
 40
6.0
 40
7.0
 40
7.0
 40
7.0
 40
8.0
 40
8.0
 40
8.0
 40
9.0
 40
9.0
 40
9.0
 40
10.0
 40
10.0
 40
10.0
 40
11.0
 40
11.0
 40
11.0
 40
12.0
 40
12.0
 40
12.0
 40
13.0
 40
13.0
 40
13.0
 40
14.0
 40
14.0
 40
14.0
 40
15.0
 40
15.0
 40
15.0
 40
16.0
 40
16.0
 40
16.0
 40
17.0
 40
17.0
 40
17.0
 40
18.0
 40
18.0
 40
18.0
 40
19.0
 40
19.0
 40
19.0
 40
19.0
 10
92.39125974252718
 20
-127.675927702456
 30
0.0
 10
92.28962942571232
 20
-127.675927702456
 30
0.0
 10
92.05674097090943
 20
-127.654912619996
 30
0.0
 10
91.92341577563026
 20
-127.4688774637925
 30
0.0
 10
91.84417857946951
 20
-127.3565673509734
 30
0.0
 10
91.83969995533869
 20
-127.2573486009982
 30
0.0
 10
91.83522133120786
 20
-127.172599252061
 30
0.0
 10
91.83522133120786
 20
-127.172599252061
 30
0.0
 10
92.07017684330191
 20
-127.172599252061
 30
0.0
 10
92.07017684330191
 20
-127.172599252061
 30
0.0
 10
92.07258841014158
 20
-127.2466688049939
 30
0.0
 10
92.0839572252429
 20
-127.4812798075394
 30
0.0
 10
92.38678111839637
 20
-127.4812798075394
 30
0.0
 10
92.53388669561653
 20
-127.4812798075394
 30
0.0
 10
92.69649520252032
 20
-127.4116888787374
 30
0.0
 10
92.69649520252032
 20
-127.1832790480653
 30
0.0
 10
92.69649520252032
 20
-127.0668348206639
 30
0.0
 10
92.65584307579438
 20
-127.0182589743218
 30
0.0
 10
92.62208114003893
 20
-126.9865640958575
 30
0.0
 10
92.54284394387818
 20
-126.9124945429247
 30
0.0
 10
92.41847599686066
 20
-126.8997476896292
 30
0.0
 10
92.35956486406289
 20
-126.8997476896292
 30
0.0
 10
92.33923880069992
 20
-126.8997476896292
 30
0.0
 10
92.30099824081364
 20
-126.9018147469204
 30
0.0
 10
92.27137041964049
 20
-126.9059488615027
 30
0.0
 10
92.27137041964049
 20
-126.9059488615027
 30
0.0
 10
92.27137041964049
 20
-126.7113009665861
 30
0.0
 10
92.27137041964049
 20
-126.7113009665861
 30
0.0
 10
92.31202254636645
 20
-126.717846648008
 30
0.0
 10
92.35749780677175
 20
-126.7199137052992
 30
0.0
 10
92.36404348819372
 20
-126.7199137052992
 30
0.0
 10
92.43432343609281
 20
-126.7199137052992
 30
0.0
 10
92.64688582753273
 20
-126.6985541132906
 30
0.0
 10
92.64688582753273
 20
-126.4617037986797
 30
0.0
 10
92.64688582753273
 20
-126.2841091264151
 30
0.0
 10
92.50667044128306
 20
-126.2289875986511
 30
0.0
 10
92.38919268523604
 20
-126.2289875986511
 30
0.0
 10
92.10635034589703
 20
-126.2289875986511
 30
0.0
 10
92.09739309763538
 20
-126.4617037986797
 30
0.0
 10
92.09291447350455
 20
-126.5335340395472
 30
0.0
 10
92.09291447350455
 20
-126.5335340395472
 30
0.0
 10
91.8758734579338
 20
-126.5335340395472
 30
0.0
 10
91.8758734579338
 20
-126.5335340395472
 30
0.0
 10
91.88483070619546
 20
-126.4088215829811
 30
0.0
 10
91.91411401782008
 20
-126.0322726464433
 30
0.0
 10
92.40262855762852
 20
-126.0322726464433
 30
0.0
 10
92.6424072034019
 20
-126.0322726464433
 30
0.0
 10
92.90010034569859
 20
-126.1592244150748
 30
0.0
 10
92.90010034569859
 20
-126.455330372032
 30
0.0
 10
92.90010034569859
 20
-126.641710037784
 30
0.0
 10
92.7981255193352
 20
-126.7240478198815
 30
0.0
 10
92.6920165783895
 20
-126.7853705195189
 30
0.0
 10
92.75747339260924
 20
-126.8129312834009
 30
0.0
 10
92.95212128752587
 20
-126.8932020082073
 30
0.0
 10
92.95212128752587
 20
-127.1705321947699
 30
0.0
 10
92.95212128752587
 20
-127.5088405714214
 30
0.0
 10
92.68753795425867
 20
-127.675927702456
 30
0.0
 10
92.39125974252718
 20
-127.675927702456
 30
0.0
  0
HATCH
  5
10A
330
103
100
AcDbEntity
  8
_U+30EC_U+30A4_U+30E4_U+30FC 1
 62
   179
420
  2234388
100
AcDbHatch
 10
0.0
 20
0.0
 30
0.0
210
0.0
220
0.0
230
1.0
  2
SOLID
 70
     1
 71
     0
 91
        1
 92
        1
 93
        1
 72
     4
 94
        3
 73
     0
 74
     1
 95
       62
 96
       58
 40
0.0
 40
0.0
 40
0.0
 40
0.0
 40
1.0
 40
1.0
 40
1.0
 40
2.0
 40
2.0
 40
2.0
 40
3.0
 40
3.0
 40
3.0
 40
4.0
 40
4.0
 40
4.0
 40
5.0
 40
5.0
 40
5.0
 40
6.0
 40
6.0
 40
6.0
 40
7.0
 40
7.0
 40
7.0
 40
8.0
 40
8.0
 40
8.0
 40
9.0
 40
9.0
 40
9.0
 40
10.0
 40
10.0
 40
10.0
 40
11.0
 40
11.0
 40
11.0
 40
12.0
 40
12.0
 40
12.0
 40
13.0
 40
13.0
 40
13.0
 40
14.0
 40
14.0
 40
14.0
 40
15.0
 40
15.0
 40
15.0
 40
16.0
 40
16.0
 40
16.0
 40
17.0
 40
17.0
 40
17.0
 40
18.0
 40
18.0
 40
18.0
 40
19.0
 40
19.0
 40
19.0
 40
19.0
 10
92.39125974252718
 20
-127.675927702456
 10
92.28962942571232
 20
-127.675927702456
 10
92.05674097090943
 20
-127.654912619996
 10
91.92341577563026
 20
-127.4688774637925
 10
91.84417857946951
 20
-127.3565673509734
 10
91.83969995533869
 20
-127.2573486009982
 10
91.83522133120786
 20
-127.172599252061
 10
91.83522133120786
 20
-127.172599252061
 10
92.07017684330191
 20
-127.172599252061
 10
92.07017684330191
 20
-127.172599252061
 10
92.07258841014158
 20
-127.2466688049939
 10
92.0839572252429
 20
-127.4812798075394
 10
92.38678111839637
 20
-127.4812798075394
 10
92.53388669561653
 20
-127.4812798075394
 10
92.69649520252032
 20
-127.4116888787374
 10
92.69649520252032
 20
-127.1832790480653
 10
92.69649520252032
 20
-127.0668348206639
 10
92.65584307579438
 20
-127.0182589743218
 10
92.62208114003893
 20
-126.9865640958575
 10
92.54284394387818
 20
-126.9124945429247
 10
92.41847599686066
 20
-126.8997476896292
 10
92.35956486406289
 20
-126.8997476896292
 10
92.33923880069992
 20
-126.8997476896292
 10
92.30099824081364
 20
-126.9018147469204
 10
92.27137041964049
 20
-126.9059488615027
 10
92.27137041964049
 20
-126.9059488615027
 10
92.27137041964049
 20
-126.7113009665861
 10
92.27137041964049
 20
-126.7113009665861
 10
92.31202254636645
 20
-126.717846648008
 10
92.35749780677175
 20
-126.7199137052992
 10
92.36404348819372
 20
-126.7199137052992
 10
92.43432343609281
 20
-126.7199137052992
 10
92.64688582753273
 20
-126.6985541132906
 10
92.64688582753273
 20
-126.4617037986797
 10
92.64688582753273
 20
-126.2841091264151
 10
92.50667044128306
 20
-126.2289875986511
 10
92.38919268523604
 20
-126.2289875986511
 10
92.10635034589703
 20
-126.2289875986511
 10
92.09739309763538
 20
-126.4617037986797
 10
92.09291447350455
 20
-126.5335340395472
 10
92.09291447350455
 20
-126.5335340395472
 10
91.8758734579338
 20
-126.5335340395472
 10
91.8758734579338
 20
-126.5335340395472
 10
91.88483070619546
 20
-126.4088215829811
 10
91.91411401782008
 20
-126.0322726464433
 10
92.40262855762852
 20
-126.0322726464433
 10
92.6424072034019
 20
-126.0322726464433
 10
92.90010034569859
 20
-126.1592244150748
 10
92.90010034569859
 20
-126.455330372032
 10
92.90010034569859
 20
-126.641710037784
 10
92.7981255193352
 20
-126.7240478198815
 10
92.6920165783895
 20
-126.7853705195189
 10
92.75747339260924
 20
-126.8129312834009
 10
92.95212128752587
 20
-126.8932020082073
 10
92.95212128752587
 20
-127.1705321947699
 10
92.95212128752587
 20
-127.5088405714214
 10
92.68753795425867
 20
-127.675927702456
 10
92.39125974252718
 20
-127.675927702456
 97
        0
 97
        0
 75
     2
 76
     1
 98
        0
  0
ENDBLK
  5
106
330
103
100
AcDbEntity
  8
0
100
AcDbBlockEnd
  0
BLOCK
  5
119
330
117
100
AcDbEntity
  8
0
100
AcDbBlockBegin
  2
block 7
 70
     0
 10
0.0
 20
0.0
 30
0.0
  3
block 7
  1

  0
POLYLINE
  5
11B
330
117
100
AcDbEntity
  8
_U+30EC_U+30A4_U+30E4_U+30FC 1
370
     0
100
AcDb2dPolyline
 66
     1
 10
0.0
 20
0.0
 30
0.0
  0
VERTEX
  5
11C
330
11B
100
AcDbEntity
  8
_U+30EC_U+30A4_U+30E4_U+30FC 1
370
     0
100
AcDbVertex
100
AcDb2dVertex
 10
83.66431611406657
 20
-127.2783636834582
 30
0.0
  0
VERTEX
  5
11D
330
11B
100
AcDbEntity
  8
_U+30EC_U+30A4_U+30E4_U+30FC 1
370
     0
100
AcDbVertex
100
AcDb2dVertex
 10
83.66431611406657
 20
-127.6252847988228
 30
0.0
  0
VERTEX
  5
11E
330
11B
100
AcDbEntity
  8
_U+30EC_U+30A4_U+30E4_U+30FC 1
370
     0
100
AcDbVertex
100
AcDb2dVertex
 10
83.43159991403793
 20
-127.6252847988228
 30
0.0
  0
VERTEX
  5
11F
330
11B
100
AcDbEntity
  8
_U+30EC_U+30A4_U+30E4_U+30FC 1
370
     0
100
AcDbVertex
100
AcDb2dVertex
 10
83.43159991403793
 20
-127.2783636834582
 30
0.0
  0
VERTEX
  5
120
330
11B
100
AcDbEntity
  8
_U+30EC_U+30A4_U+30E4_U+30FC 1
370
     0
100
AcDbVertex
100
AcDb2dVertex
 10
82.73069523756386
 20
-127.2783636834582
 30
0.0
  0
VERTEX
  5
121
330
11B
100
AcDbEntity
  8
_U+30EC_U+30A4_U+30E4_U+30FC 1
370
     0
100
AcDbVertex
100
AcDb2dVertex
 10
82.73069523756386
 20
-127.0540879673684
 30
0.0
  0
VERTEX
  5
122
330
11B
100
AcDbEntity
  8
_U+30EC_U+30A4_U+30E4_U+30FC 1
370
     0
100
AcDbVertex
100
AcDb2dVertex
 10
83.45640460153173
 20
-126.0810207475596
 30
0.0
  0
VERTEX
  5
123
330
11B
100
AcDbEntity
  8
_U+30EC_U+30A4_U+30E4_U+30FC 1
370
     0
100
AcDbVertex
100
AcDb2dVertex
 10
83.66431611406657
 20
-126.0810207475596
 30
0.0
  0
VERTEX
  5
124
330
11B
100
AcDbEntity
  8
_U+30EC_U+30A4_U+30E4_U+30FC 1
370
     0
100
AcDbVertex
100
AcDb2dVertex
 10
83.66431611406657
 20
-127.079409419185
 30
0.0
  0
VERTEX
  5
125
330
11B
100
AcDbEntity
  8
_U+30EC_U+30A4_U+30E4_U+30FC 1
370
     0
100
AcDbVertex
100
AcDb2dVertex
 10
83.88600800854239
 20
-127.079409419185
 30
0.0
  0
VERTEX
  5
126
330
11B
100
AcDbEntity
  8
_U+30EC_U+30A4_U+30E4_U+30FC 1
370
     0
100
AcDbVertex
100
AcDb2dVertex
 10
83.88600800854239
 20
-127.2783636834582
 30
0.0
  0
VERTEX
  5
127
330
11B
100
AcDbEntity
  8
_U+30EC_U+30A4_U+30E4_U+30FC 1
370
     0
100
AcDbVertex
100
AcDb2dVertex
 10
83.66431611406657
 20
-127.2783636834582
 30
0.0
  0
SEQEND
  5
128
330
11B
100
AcDbEntity
  8
_U+30EC_U+30A4_U+30E4_U+30FC 1
370
     0
  0
POLYLINE
  5
129
330
117
100
AcDbEntity
  8
_U+30EC_U+30A4_U+30E4_U+30FC 1
370
     0
100
AcDb2dPolyline
 66
     1
 10
0.0
 20
0.0
 30
0.0
  0
VERTEX
  5
12A
330
129
100
AcDbEntity
  8
_U+30EC_U+30A4_U+30E4_U+30FC 1
370
     0
100
AcDbVertex
100
AcDb2dVertex
 10
83.43159991403793
 20
-126.4236354935677
 30
0.0
  0
VERTEX
  5
12B
330
129
100
AcDbEntity
  8
_U+30EC_U+30A4_U+30E4_U+30FC 1
370
     0
100
AcDbVertex
100
AcDb2dVertex
 10
82.94308537422951
 20
-127.079409419185
 30
0.0
  0
VERTEX
  5
12C
330
129
100
AcDbEntity
  8
_U+30EC_U+30A4_U+30E4_U+30FC 1
370
     0
100
AcDbVertex
100
AcDb2dVertex
 10
83.43159991403793
 20
-127.079409419185
 30
0.0
  0
VERTEX
  5
12D
330
129
100
AcDbEntity
  8
_U+30EC_U+30A4_U+30E4_U+30FC 1
370
     0
100
AcDbVertex
100
AcDb2dVertex
 10
83.43159991403793
 20
-126.4236354935677
 30
0.0
  0
SEQEND
  5
12E
330
129
100
AcDbEntity
  8
_U+30EC_U+30A4_U+30E4_U+30FC 1
370
     0
  0
HATCH
  5
12F
330
117
100
AcDbEntity
  8
_U+30EC_U+30A4_U+30E4_U+30FC 1
 62
   179
420
  2234388
100
AcDbHatch
 10
0.0
 20
0.0
 30
0.0
210
0.0
220
0.0
230
1.0
  2
SOLID
 70
     1
 71
     0
 91
        2
 92
        1
 93
       11
 72
     1
 10
83.66431611406657
 20
-127.2783636834582
 11
83.66431611406657
 21
-127.6252847988228
 72
     1
 10
83.66431611406657
 20
-127.6252847988228
 11
83.43159991403793
 21
-127.6252847988228
 72
     1
 10
83.43159991403793
 20
-127.6252847988228
 11
83.43159991403793
 21
-127.2783636834582
 72
     1
 10
83.43159991403793
 20
-127.2783636834582
 11
82.73069523756386
 21
-127.2783636834582
 72
     1
 10
82.73069523756386
 20
-127.2783636834582
 11
82.73069523756386
 21
-127.0540879673684
 72
     1
 10
82.73069523756386
 20
-127.0540879673684
 11
83.45640460153173
 21
-126.0810207475596
 72
     1
 10
83.45640460153173
 20
-126.0810207475596
 11
83.66431611406657
 21
-126.0810207475596
 72
     1
 10
83.66431611406657
 20
-126.0810207475596
 11
83.66431611406657
 21
-127.079409419185
 72
     1
 10
83.66431611406657
 20
-127.079409419185
 11
83.88600800854239
 21
-127.079409419185
 72
     1
 10
83.88600800854239
 20
-127.079409419185
 11
83.88600800854239
 21
-127.2783636834582
 72
     1
 10
83.88600800854239
 20
-127.2783636834582
 11
83.66431611406657
 21
-127.2783636834582
 97
        0
 92
        1
 93
        3
 72
     1
 10
83.43159991403793
 20
-126.4236354935677
 11
82.94308537422951
 21
-127.079409419185
 72
     1
 10
82.94308537422951
 20
-127.079409419185
 11
83.43159991403793
 21
-127.079409419185
 72
     1
 10
83.43159991403793
 20
-127.079409419185
 11
83.43159991403793
 21
-126.4236354935677
 97
        0
 75
     2
 76
     1
 98
        0
  0
ENDBLK
  5
11A
330
117
100
AcDbEntity
  8
0
100
AcDbBlockEnd
  0
BLOCK
  5
13E
330
13C
100
AcDbEntity
  8
0
100
AcDbBlockBegin
  2
block 8
 70
     0
 10
0.0
 20
0.0
 30
0.0
  3
block 8
  1

  0
SPLINE
  5
140
330
13C
100
AcDbEntity
  8
_U+30EC_U+30A4_U+30E4_U+30FC 1
370
     0
100
AcDbSpline
210
0.0
220
0.0
230
1.0
 70
    11
 71
     3
 72
    26
 73
    22
 74
     0
 42
0.0000000001
 43
0.0000000001
 12
1.0
 22
0.0
 32
0.0
 13
1.0
 23
0.0
 33
0.0
 40
0.0
 40
0.0
 40
0.0
 40
0.0
 40
1.0
 40
1.0
 40
1.0
 40
2.0
 40
2.0
 40
2.0
 40
3.0
 40
3.0
 40
3.0
 40
4.0
 40
4.0
 40
4.0
 40
5.0
 40
5.0
 40
5.0
 40
6.0
 40
6.0
 40
6.0
 40
7.0
 40
7.0
 40
7.0
 40
7.0
 10
90.09062497747735
 20
-158.6252875037464
 30
0.0
 10
90.09062497747735
 20
-158.6252875037464
 30
0.0
 10
90.09062497747735
 20
-157.5211344007239
 30
0.0
 10
90.09062497747735
 20
-157.5211344007239
 30
0.0
 10
90.09062497747735
 20
-157.5211344007239
 30
0.0
 10
89.73784719978777
 20
-157.5211344007239
 30
0.0
 10
89.73784719978777
 20
-157.5211344007239
 30
0.0
 10
89.73784719978777
 20
-157.5211344007239
 30
0.0
 10
89.73784719978777
 20
-157.3729952948582
 30
0.0
 10
89.73784719978777
 20
-157.3729952948582
 30
0.0
 10
90.09286428954276
 20
-157.3581813842716
 30
0.0
 10
90.14264591930463
 20
-157.1952283678193
 30
0.0
 10
90.17416854299465
 20
-157.080851197709
 30
0.0
 10
90.17416854299465
 20
-157.080851197709
 30
0.0
 10
90.33023136847648
 20
-157.080851197709
 30
0.0
 10
90.33023136847648
 20
-157.080851197709
 30
0.0
 10
90.33023136847648
 20
-157.080851197709
 30
0.0
 10
90.33023136847648
 20
-158.6252875037464
 30
0.0
 10
90.33023136847648
 20
-158.6252875037464
 30
0.0
 10
90.33023136847648
 20
-158.6252875037464
 30
0.0
 10
90.09062497747735
 20
-158.6252875037464
 30
0.0
 10
90.09062497747735
 20
-158.6252875037464
 30
0.0
  0
HATCH
  5
141
330
13C
100
AcDbEntity
  8
_U+30EC_U+30A4_U+30E4_U+30FC 1
 62
   179
420
  2234388
100
AcDbHatch
 10
0.0
 20
0.0
 30
0.0
210
0.0
220
0.0
230
1.0
  2
SOLID
 70
     1
 71
     0
 91
        1
 92
        1
 93
        1
 72
     4
 94
        3
 73
     0
 74
     1
 95
       26
 96
       22
 40
0.0
 40
0.0
 40
0.0
 40
0.0
 40
1.0
 40
1.0
 40
1.0
 40
2.0
 40
2.0
 40
2.0
 40
3.0
 40
3.0
 40
3.0
 40
4.0
 40
4.0
 40
4.0
 40
5.0
 40
5.0
 40
5.0
 40
6.0
 40
6.0
 40
6.0
 40
7.0
 40
7.0
 40
7.0
 40
7.0
 10
90.09062497747735
 20
-158.6252875037464
 10
90.09062497747735
 20
-158.6252875037464
 10
90.09062497747735
 20
-157.5211344007239
 10
90.09062497747735
 20
-157.5211344007239
 10
90.09062497747735
 20
-157.5211344007239
 10
89.73784719978777
 20
-157.5211344007239
 10
89.73784719978777
 20
-157.5211344007239
 10
89.73784719978777
 20
-157.5211344007239
 10
89.73784719978777
 20
-157.3729952948582
 10
89.73784719978777
 20
-157.3729952948582
 10
90.09286428954276
 20
-157.3581813842716
 10
90.14264591930463
 20
-157.1952283678193
 10
90.17416854299465
 20
-157.080851197709
 10
90.17416854299465
 20
-157.080851197709
 10
90.33023136847648
 20
-157.080851197709
 10
90.33023136847648
 20
-157.080851197709
 10
90.33023136847648
 20
-157.080851197709
 10
90.33023136847648
 20
-158.6252875037464
 10
90.33023136847648
 20
-158.6252875037464
 10
90.33023136847648
 20
-158.6252875037464
 10
90.09062497747735
 20
-158.6252875037464
 10
90.09062497747735
 20
-158.6252875037464
 97
        0
 97
        0
 75
     2
 76
     1
 98
        0
  0
SPLINE
  5
142
330
13C
100
AcDbEntity
  8
_U+30EC_U+30A4_U+30E4_U+30FC 1
370
     0
100
AcDbSpline
210
0.0
220
0.0
230
1.0
 70
    11
 71
     3
 72
    32
 73
    28
 74
     0
 42
0.0000000001
 43
0.0000000001
 12
1.0
 22
0.0
 32
0.0
 13
1.0
 23
0.0
 33
0.0
 40
0.0
 40
0.0
 40
0.0
 40
0.0
 40
1.0
 40
1.0
 40
1.0
 40
2.0
 40
2.0
 40
2.0
 40
3.0
 40
3.0
 40
3.0
 40
4.0
 40
4.0
 40
4.0
 40
5.0
 40
5.0
 40
5.0
 40
6.0
 40
6.0
 40
6.0
 40
7.0
 40
7.0
 40
7.0
 40
8.0
 40
8.0
 40
8.0
 40
9.0
 40
9.0
 40
9.0
 40
9.0
 10
91.3551472753383
 20
-158.6759304073796
 30
0.0
 10
91.16980113823186
 20
-158.6759304073796
 30
0.0
 10
90.90762937180435
 20
-158.6063394785776
 30
0.0
 10
90.8669772450784
 20
-158.2742322737995
 30
0.0
 10
90.8669772450784
 20
-158.2742322737995
 30
0.0
 10
91.09504256620194
 20
-158.2742322737995
 30
0.0
 10
91.09504256620194
 20
-158.2742322737995
 30
0.0
 10
91.10641138130326
 20
-158.3334879161458
 30
0.0
 10
91.14051782660724
 20
-158.481282512463
 30
0.0
 10
91.35755884217798
 20
-158.481282512463
 30
0.0
 10
91.66916772881882
 20
-158.481282512463
 30
0.0
 10
91.70981985554477
 20
-158.1512423649761
 30
0.0
 10
91.72360023748577
 20
-157.9462591836037
 30
0.0
 10
91.62644854480172
 20
-158.0265299084101
 30
0.0
 10
91.55410153961148
 20
-158.0837184934652
 30
0.0
 10
91.35962589946912
 20
-158.0837184934652
 30
0.0
 10
91.16738957139218
 20
-158.0837184934652
 30
0.0
 10
90.84423961487575
 20
-157.977954062068
 30
0.0
 10
90.84423961487575
 20
-157.5717773043571
 30
0.0
 10
90.84423961487575
 20
-157.2524169528744
 30
0.0
 10
91.05680200631566
 20
-157.0322753513669
 30
0.0
 10
91.39562714728999
 20
-157.0322753513669
 30
0.0
 10
91.94511987718734
 20
-157.0322753513669
 30
0.0
 10
91.95648869228866
 20
-157.5865912149436
 30
0.0
 10
91.95648869228866
 20
-157.8001871350291
 30
0.0
 10
91.95648869228866
 20
-158.0306640229923
 30
0.0
 10
91.93616262892569
 20
-158.6759304073796
 30
0.0
 10
91.3551472753383
 20
-158.6759304073796
 30
0.0
  0
SPLINE
  5
143
330
13C
100
AcDbEntity
  8
_U+30EC_U+30A4_U+30E4_U+30FC 1
370
     0
100
AcDbSpline
210
0.0
220
0.0
230
1.0
 70
    11
 71
     3
 72
    17
 73
    13
 74
     0
 42
0.0000000001
 43
0.0000000001
 12
1.0
 22
0.0
 32
0.0
 13
1.0
 23
0.0
 33
0.0
 40
0.0
 40
0.0
 40
0.0
 40
0.0
 40
1.0
 40
1.0
 40
1.0
 40
2.0
 40
2.0
 40
2.0
 40
3.0
 40
3.0
 40
3.0
 40
4.0
 40
4.0
 40
4.0
 40
4.0
 10
91.39803871412965
 20
-157.2248561889924
 30
0.0
 10
91.27143145504672
 20
-157.2248561889924
 30
0.0
 10
91.08401826064915
 20
-157.2820447740476
 30
0.0
 10
91.08401826064915
 20
-157.5676431897748
 30
0.0
 10
91.08401826064915
 20
-157.7939859631557
 30
0.0
 10
91.23319089516046
 20
-157.8890705985486
 30
0.0
 10
91.37771265076668
 20
-157.8890705985486
 30
0.0
 10
91.65814342326603
 20
-157.8890705985486
 30
0.0
 10
91.69879554999197
 20
-157.6796087930454
 30
0.0
 10
91.69879554999197
 20
-157.5631645656439
 30
0.0
 10
91.69879554999197
 20
-157.3878092054447
 30
0.0
 10
91.59682072362858
 20
-157.2248561889924
 30
0.0
 10
91.39803871412965
 20
-157.2248561889924
 30
0.0
  0
HATCH
  5
144
330
13C
100
AcDbEntity
  8
_U+30EC_U+30A4_U+30E4_U+30FC 1
 62
   179
420
  2234388
100
AcDbHatch
 10
0.0
 20
0.0
 30
0.0
210
0.0
220
0.0
230
1.0
  2
SOLID
 70
     1
 71
     0
 91
        2
 92
        1
 93
        1
 72
     4
 94
        3
 73
     0
 74
     1
 95
       32
 96
       28
 40
0.0
 40
0.0
 40
0.0
 40
0.0
 40
1.0
 40
1.0
 40
1.0
 40
2.0
 40
2.0
 40
2.0
 40
3.0
 40
3.0
 40
3.0
 40
4.0
 40
4.0
 40
4.0
 40
5.0
 40
5.0
 40
5.0
 40
6.0
 40
6.0
 40
6.0
 40
7.0
 40
7.0
 40
7.0
 40
8.0
 40
8.0
 40
8.0
 40
9.0
 40
9.0
 40
9.0
 40
9.0
 10
91.3551472753383
 20
-158.6759304073796
 10
91.16980113823186
 20
-158.6759304073796
 10
90.90762937180435
 20
-158.6063394785776
 10
90.8669772450784
 20
-158.2742322737995
 10
90.8669772450784
 20
-158.2742322737995
 10
91.09504256620194
 20
-158.2742322737995
 10
91.09504256620194
 20
-158.2742322737995
 10
91.10641138130326
 20
-158.3334879161458
 10
91.14051782660724
 20
-158.481282512463
 10
91.35755884217798
 20
-158.481282512463
 10
91.66916772881882
 20
-158.481282512463
 10
91.70981985554477
 20
-158.1512423649761
 10
91.72360023748577
 20
-157.9462591836037
 10
91.62644854480172
 20
-158.0265299084101
 10
91.55410153961148
 20
-158.0837184934652
 10
91.35962589946912
 20
-158.0837184934652
 10
91.16738957139218
 20
-158.0837184934652
 10
90.84423961487575
 20
-157.977954062068
 10
90.84423961487575
 20
-157.5717773043571
 10
90.84423961487575
 20
-157.2524169528744
 10
91.05680200631566
 20
-157.0322753513669
 10
91.39562714728999
 20
-157.0322753513669
 10
91.94511987718734
 20
-157.0322753513669
 10
91.95648869228866
 20
-157.5865912149436
 10
91.95648869228866
 20
-157.8001871350291
 10
91.95648869228866
 20
-158.0306640229923
 10
91.93616262892569
 20
-158.6759304073796
 10
91.3551472753383
 20
-158.6759304073796
 97
        0
 97
        0
 92
        1
 93
        1
 72
     4
 94
        3
 73
     0
 74
     1
 95
       17
 96
       13
 40
0.0
 40
0.0
 40
0.0
 40
0.0
 40
1.0
 40
1.0
 40
1.0
 40
2.0
 40
2.0
 40
2.0
 40
3.0
 40
3.0
 40
3.0
 40
4.0
 40
4.0
 40
4.0
 40
4.0
 10
91.39803871412965
 20
-157.2248561889924
 10
91.27143145504672
 20
-157.2248561889924
 10
91.08401826064915
 20
-157.2820447740476
 10
91.08401826064915
 20
-157.5676431897748
 10
91.08401826064915
 20
-157.7939859631557
 10
91.23319089516046
 20
-157.8890705985486
 10
91.37771265076668
 20
-157.8890705985486
 10
91.65814342326603
 20
-157.8890705985486
 10
91.69879554999197
 20
-157.6796087930454
 10
91.69879554999197
 20
-157.5631645656439
 10
91.69879554999197
 20
-157.3878092054447
 10
91.59682072362858
 20
-157.2248561889924
 10
91.39803871412965
 20
-157.2248561889924
 97
        0
 97
        0
 75
     2
 76
     1
 98
        0
  0
ENDBLK
  5
13F
330
13C
100
AcDbEntity
  8
0
100
AcDbBlockEnd
  0
BLOCK
  5
147
330
145
100
AcDbEntity
  8
0
100
AcDbBlockBegin
  2
block 9
 70
     0
 10
0.0
 20
0.0
 30
0.0
  3
block 9
  1

  0
POLYLINE
  5
149
330
145
100
AcDbEntity
  8
_U+30EC_U+30A4_U+30E4_U+30FC 1
 62
   179
420
  2234388
370
     9
100
AcDb2dPolyline
 66
     1
 10
0.0
 20
0.0
 30
0.0
  0
VERTEX
  5
14A
330
149
100
AcDbEntity
  8
_U+30EC_U+30A4_U+30E4_U+30FC 1
 62
   179
420
  2234388
370
     9
100
AcDbVertex
100
AcDb2dVertex
 10
99.48262775290698
 20
-103.2284927519708
 30
0.0
  0
VERTEX
  5
14B
330
149
100
AcDbEntity
  8
_U+30EC_U+30A4_U+30E4_U+30FC 1
 62
   179
420
  2234388
370
     9
100
AcDbVertex
100
AcDb2dVertex
 10
96.2118814343193
 20
-103.2284927519708
 30
0.0
  0
SEQEND
  5
14C
330
149
100
AcDbEntity
  8
_U+30EC_U+30A4_U+30E4_U+30FC 1
 62
   179
420
  2234388
370
     9
  0
POLYLINE
  5
14D
330
145
100
AcDbEntity
  8
_U+30EC_U+30A4_U+30E4_U+30FC 1
 62
   179
420
  2234388
370
     9
100
AcDb2dPolyline
 66
     1
 10
0.0
 20
0.0
 30
0.0
  0
VERTEX
  5
14E
330
14D
100
AcDbEntity
  8
_U+30EC_U+30A4_U+30E4_U+30FC 1
 62
   179
420
  2234388
370
     9
100
AcDbVertex
100
AcDb2dVertex
 10
101.4821721968514
 20
-103.2284927519708
 30
0.0
  0
VERTEX
  5
14F
330
14D
100
AcDbEntity
  8
_U+30EC_U+30A4_U+30E4_U+30FC 1
 62
   179
420
  2234388
370
     9
100
AcDbVertex
100
AcDb2dVertex
 10
99.48262775290698
 20
-103.2284927519708
 30
0.0
  0
SEQEND
  5
150
330
14D
100
AcDbEntity
  8
_U+30EC_U+30A4_U+30E4_U+30FC 1
 62
   179
420
  2234388
370
     9
  0
INSERT
  5
152
330
145
100
AcDbEntity
  8
_U+30EC_U+30A4_U+30E4_U+30FC 1
100
AcDbBlockReference
  2
block 10
 10
0.0
 20
0.0
 30
0.0
  0
ENDBLK
  5
148
330
145
100
AcDbEntity
  8
0
100
AcDbBlockEnd
  0
BLOCK
  5
153
330
151
100
AcDbEntity
  8
0
100
AcDbBlockBegin
  2
block 10
 70
     0
 10
0.0
 20
0.0
 30
0.0
  3
block 10
  1

  0
SPLINE
  5
155
330
151
100
AcDbEntity
  8
_U+30EC_U+30A4_U+30E4_U+30FC 1
370
     0
100
AcDbSpline
210
0.0
220
0.0
230
1.0
 70
    11
 71
     3
 72
    26
 73
    22
 74
     0
 42
0.0000000001
 43
0.0000000001
 12
1.0
 22
0.0
 32
0.0
 13
1.0
 23
0.0
 33
0.0
 40
0.0
 40
0.0
 40
0.0
 40
0.0
 40
1.0
 40
1.0
 40
1.0
 40
2.0
 40
2.0
 40
2.0
 40
3.0
 40
3.0
 40
3.0
 40
4.0
 40
4.0
 40
4.0
 40
5.0
 40
5.0
 40
5.0
 40
6.0
 40
6.0
 40
6.0
 40
7.0
 40
7.0
 40
7.0
 40
7.0
 10
96.14951440738623
 20
-102.6318060724323
 30
0.0
 10
96.14951440738623
 20
-102.6318060724323
 30
0.0
 10
96.14951440738623
 20
-101.5274807146355
 30
0.0
 10
96.14951440738623
 20
-101.5274807146355
 30
0.0
 10
96.14951440738623
 20
-101.5274807146355
 30
0.0
 10
95.79708113924518
 20
-101.5274807146355
 30
0.0
 10
95.79708113924518
 20
-101.5274807146355
 30
0.0
 10
95.79708113924518
 20
-101.5274807146355
 30
0.0
 10
95.79708113924518
 20
-101.379513863544
 30
0.0
 10
95.79708113924518
 20
-101.379513863544
 30
0.0
 10
96.15192597422592
 20
-101.3646999529574
 30
0.0
 10
96.20153534921351
 20
-101.2017469365051
 30
0.0
 10
96.23323022767781
 20
-101.0875420211691
 30
0.0
 10
96.23323022767781
 20
-101.0875420211691
 30
0.0
 10
96.38929305315962
 20
-101.0875420211691
 30
0.0
 10
96.38929305315962
 20
-101.0875420211691
 30
0.0
 10
96.38929305315962
 20
-101.0875420211691
 30
0.0
 10
96.38929305315962
 20
-102.6318060724323
 30
0.0
 10
96.38929305315962
 20
-102.6318060724323
 30
0.0
 10
96.38929305315962
 20
-102.6318060724323
 30
0.0
 10
96.14951440738623
 20
-102.6318060724323
 30
0.0
 10
96.14951440738623
 20
-102.6318060724323
 30
0.0
  0
HATCH
  5
156
330
151
100
AcDbEntity
  8
_U+30EC_U+30A4_U+30E4_U+30FC 1
 62
   179
420
  2234388
100
AcDbHatch
 10
0.0
 20
0.0
 30
0.0
210
0.0
220
0.0
230
1.0
  2
SOLID
 70
     1
 71
     0
 91
        1
 92
        1
 93
        1
 72
     4
 94
        3
 73
     0
 74
     1
 95
       26
 96
       22
 40
0.0
 40
0.0
 40
0.0
 40
0.0
 40
1.0
 40
1.0
 40
1.0
 40
2.0
 40
2.0
 40
2.0
 40
3.0
 40
3.0
 40
3.0
 40
4.0
 40
4.0
 40
4.0
 40
5.0
 40
5.0
 40
5.0
 40
6.0
 40
6.0
 40
6.0
 40
7.0
 40
7.0
 40
7.0
 40
7.0
 10
96.14951440738623
 20
-102.6318060724323
 10
96.14951440738623
 20
-102.6318060724323
 10
96.14951440738623
 20
-101.5274807146355
 10
96.14951440738623
 20
-101.5274807146355
 10
96.14951440738623
 20
-101.5274807146355
 10
95.79708113924518
 20
-101.5274807146355
 10
95.79708113924518
 20
-101.5274807146355
 10
95.79708113924518
 20
-101.5274807146355
 10
95.79708113924518
 20
-101.379513863544
 10
95.79708113924518
 20
-101.379513863544
 10
96.15192597422592
 20
-101.3646999529574
 10
96.20153534921351
 20
-101.2017469365051
 10
96.23323022767781
 20
-101.0875420211691
 10
96.23323022767781
 20
-101.0875420211691
 10
96.38929305315962
 20
-101.0875420211691
 10
96.38929305315962
 20
-101.0875420211691
 10
96.38929305315962
 20
-101.0875420211691
 10
96.38929305315962
 20
-102.6318060724323
 10
96.38929305315962
 20
-102.6318060724323
 10
96.38929305315962
 20
-102.6318060724323
 10
96.14951440738623
 20
-102.6318060724323
 10
96.14951440738623
 20
-102.6318060724323
 97
        0
 97
        0
 75
     2
 76
     1
 98
        0
  0
ENDBLK
  5
154
330
151
100
AcDbEntity
  8
0
100
AcDbBlockEnd
  0
ENDSEC
  0
SECTION
  2
ENTITIES
  0
POLYLINE
  5
41
330
1F
100
AcDbEntity
  8
_U+30EC_U+30A4_U+30E4_U+30FC 1
 62
   179
420
  2234388
370
    25
100
AcDb2dPolyline
 66
     1
 10
0.0
 20
0.0
 30
0.0
  0
VERTEX
  5
42
330
41
100
AcDbEntity
  8
_U+30EC_U+30A4_U+30E4_U+30FC 1
 62
   179
420
  2234388
370
    25
100
AcDbVertex
100
AcDb2dVertex
 10
81.26705098226036
 20
-155.2218694056389
 30
0.0
  0
VERTEX
  5
43
330
41
100
AcDbEntity
  8
_U+30EC_U+30A4_U+30E4_U+30FC 1
 62
   179
420
  2234388
370
    25
100
AcDbVertex
100
AcDb2dVertex
 10
100.2667443864267
 20
-155.2218694056389
 30
0.0
  0
SEQEND
  5
44
330
41
100
AcDbEntity
  8
_U+30EC_U+30A4_U+30E4_U+30FC 1
 62
   179
420
  2234388
370
    25
  0
POLYLINE
  5
45
330
1F
100
AcDbEntity
  8
_U+30EC_U+30A4_U+30E4_U+30FC 1
 62
   179
420
  2234388
370
    25
100
AcDb2dPolyline
 66
     1
 10
0.0
 20
0.0
 30
0.0
  0
VERTEX
  5
46
330
45
100
AcDbEntity
  8
_U+30EC_U+30A4_U+30E4_U+30FC 1
 62
   179
420
  2234388
370
    25
100
AcDbVertex
100
AcDb2dVertex
 10
98.26719999299486
 20
-96.45579442033038
 30
0.0
  0
VERTEX
  5
47
330
45
100
AcDbEntity
  8
_U+30EC_U+30A4_U+30E4_U+30FC 1
 62
   179
420
  2234388
370
    25
100
AcDbVertex
100
AcDb2dVertex
 10
99.26697218971077
 20
-96.45579442033038
 30
0.0
  0
SEQEND
  5
48
330
45
100
AcDbEntity
  8
_U+30EC_U+30A4_U+30E4_U+30FC 1
 62
   179
420
  2234388
370
    25
  0
POLYLINE
  5
49
330
1F
100
AcDbEntity
  8
_U+30EC_U+30A4_U+30E4_U+30FC 1
 62
   179
420
  2234388
370
    25
100
AcDb2dPolyline
 66
     1
 10
0.0
 20
0.0
 30
0.0
  0
VERTEX
  5
4A
330
49
100
AcDbEntity
  8
_U+30EC_U+30A4_U+30E4_U+30FC 1
 62
   179
420
  2234388
370
    25
100
AcDbVertex
100
AcDb2dVertex
 10
81.26705098226036
 20
-135.102529410669
 30
0.0
  0
VERTEX
  5
4B
330
49
100
AcDbEntity
  8
_U+30EC_U+30A4_U+30E4_U+30FC 1
 62
   179
420
  2234388
370
    25
100
AcDbVertex
100
AcDb2dVertex
 10
81.26705098226036
 20
-155.2218694056389
 30
0.0
  0
SEQEND
  5
4C
330
49
100
AcDbEntity
  8
_U+30EC_U+30A4_U+30E4_U+30FC 1
 62
   179
420
  2234388
370
    25
  0
POLYLINE
  5
4D
330
1F
100
AcDbEntity
  8
_U+30EC_U+30A4_U+30E4_U+30FC 1
 62
   179
420
  2234388
370
    25
100
AcDb2dPolyline
 66
     1
 10
0.0
 20
0.0
 30
0.0
  0
VERTEX
  5
4E
330
4D
100
AcDbEntity
  8
_U+30EC_U+30A4_U+30E4_U+30FC 1
 62
   179
420
  2234388
370
    25
100
AcDbVertex
100
AcDb2dVertex
 10
100.2667443864267
 20
-151.222110239972
 30
0.0
  0
VERTEX
  5
4F
330
4D
100
AcDbEntity
  8
_U+30EC_U+30A4_U+30E4_U+30FC 1
 62
   179
420
  2234388
370
    25
100
AcDbVertex
100
AcDb2dVertex
 10
100.2667443864267
 20
-155.2218694056389
 30
0.0
  0
SEQEND
  5
50
330
4D
100
AcDbEntity
  8
_U+30EC_U+30A4_U+30E4_U+30FC 1
 62
   179
420
  2234388
370
    25
  0
POLYLINE
  5
51
330
1F
100
AcDbEntity
  8
_U+30EC_U+30A4_U+30E4_U+30FC 1
 62
   179
420
  2234388
370
    25
100
AcDb2dPolyline
 66
     1
 10
0.0
 20
0.0
 30
0.0
  0
VERTEX
  5
52
330
51
100
AcDbEntity
  8
_U+30EC_U+30A4_U+30E4_U+30FC 1
 62
   179
420
  2234388
370
    25
100
AcDbVertex
100
AcDb2dVertex
 10
97.26675751851828
 20
-151.222110239972
 30
0.0
  0
VERTEX
  5
53
330
51
100
AcDbEntity
  8
_U+30EC_U+30A4_U+30E4_U+30FC 1
 62
   179
420
  2234388
370
    25
100
AcDbVertex
100
AcDb2dVertex
 10
100.2667443864267
 20
-151.222110239972
 30
0.0
  0
SEQEND
  5
54
330
51
100
AcDbEntity
  8
_U+30EC_U+30A4_U+30E4_U+30FC 1
 62
   179
420
  2234388
370
    25
  0
POLYLINE
  5
55
330
1F
100
AcDbEntity
  8
_U+30EC_U+30A4_U+30E4_U+30FC 1
 62
   179
420
  2234388
370
    25
100
AcDb2dPolyline
 66
     1
 10
0.0
 20
0.0
 30
0.0
  0
VERTEX
  5
56
330
55
100
AcDbEntity
  8
_U+30EC_U+30A4_U+30E4_U+30FC 1
 62
   179
420
  2234388
370
    25
100
AcDbVertex
100
AcDb2dVertex
 10
99.26697218971077
 20
-152.2218824619446
 30
0.0
  0
VERTEX
  5
57
330
55
100
AcDbEntity
  8
_U+30EC_U+30A4_U+30E4_U+30FC 1
 62
   179
420
  2234388
370
    25
100
AcDbVertex
100
AcDb2dVertex
 10
99.26697218971077
 20
-154.222097183667
 30
0.0
  0
SEQEND
  5
58
330
55
100
AcDbEntity
  8
_U+30EC_U+30A4_U+30E4_U+30FC 1
 62
   179
420
  2234388
370
    25
  0
POLYLINE
  5
59
330
1F
100
AcDbEntity
  8
_U+30EC_U+30A4_U+30E4_U+30FC 1
 62
   179
420
  2234388
370
    25
100
AcDb2dPolyline
 66
     1
 10
0.0
 20
0.0
 30
0.0
  0
VERTEX
  5
5A
330
59
100
AcDbEntity
  8
_U+30EC_U+30A4_U+30E4_U+30FC 1
 62
   179
420
  2234388
370
    25
100
AcDbVertex
100
AcDb2dVertex
 10
97.26675751851828
 20
-151.222110239972
 30
0.0
  0
VERTEX
  5
5B
330
59
100
AcDbEntity
  8
_U+30EC_U+30A4_U+30E4_U+30FC 1
 62
   179
420
  2234388
370
    25
100
AcDbVertex
100
AcDb2dVertex
 10
97.26675751851828
 20
-152.2218824619446
 30
0.0
  0
SEQEND
  5
5C
330
59
100
AcDbEntity
  8
_U+30EC_U+30A4_U+30E4_U+30FC 1
 62
   179
420
  2234388
370
    25
  0
POLYLINE
  5
5D
330
1F
100
AcDbEntity
  8
_U+30EC_U+30A4_U+30E4_U+30FC 1
 62
   179
420
  2234388
370
    25
100
AcDb2dPolyline
 66
     1
 10
0.0
 20
0.0
 30
0.0
  0
VERTEX
  5
5E
330
5D
100
AcDbEntity
  8
_U+30EC_U+30A4_U+30E4_U+30FC 1
 62
   179
420
  2234388
370
    25
100
AcDbVertex
100
AcDb2dVertex
 10
97.26675751851828
 20
-152.2218824619446
 30
0.0
  0
VERTEX
  5
5F
330
5D
100
AcDbEntity
  8
_U+30EC_U+30A4_U+30E4_U+30FC 1
 62
   179
420
  2234388
370
    25
100
AcDbVertex
100
AcDb2dVertex
 10
99.26697218971077
 20
-152.2218824619446
 30
0.0
  0
SEQEND
  5
60
330
5D
100
AcDbEntity
  8
_U+30EC_U+30A4_U+30E4_U+30FC 1
 62
   179
420
  2234388
370
    25
  0
POLYLINE
  5
61
330
1F
100
AcDbEntity
  8
_U+30EC_U+30A4_U+30E4_U+30FC 1
 62
   179
420
  2234388
370
    25
100
AcDb2dPolyline
 66
     1
 10
0.0
 20
0.0
 30
0.0
  0
VERTEX
  5
62
330
61
100
AcDbEntity
  8
_U+30EC_U+30A4_U+30E4_U+30FC 1
 62
   179
420
  2234388
370
    25
100
AcDbVertex
100
AcDb2dVertex
 10
82.26682317897627
 20
-154.222097183667
 30
0.0
  0
VERTEX
  5
63
330
61
100
AcDbEntity
  8
_U+30EC_U+30A4_U+30E4_U+30FC 1
 62
   179
420
  2234388
370
    25
100
AcDbVertex
100
AcDb2dVertex
 10
99.26697218971077
 20
-154.222097183667
 30
0.0
  0
SEQEND
  5
64
330
61
100
AcDbEntity
  8
_U+30EC_U+30A4_U+30E4_U+30FC 1
 62
   179
420
  2234388
370
    25
  0
POLYLINE
  5
65
330
1F
100
AcDbEntity
  8
_U+30EC_U+30A4_U+30E4_U+30FC 1
 62
   179
420
  2234388
370
    25
100
AcDb2dPolyline
 66
     1
 10
0.0
 20
0.0
 30
0.0
  0
VERTEX
  5
66
330
65
100
AcDbEntity
  8
_U+30EC_U+30A4_U+30E4_U+30FC 1
 62
   179
420
  2234388
370
    25
100
AcDbVertex
100
AcDb2dVertex
 10
82.26682317897627
 20
-141.2220596869169
 30
0.0
  0
VERTEX
  5
67
330
65
100
AcDbEntity
  8
_U+30EC_U+30A4_U+30E4_U+30FC 1
 62
   179
420
  2234388
370
    25
100
AcDbVertex
100
AcDb2dVertex
 10
82.26682317897627
 20
-154.222097183667
 30
0.0
  0
SEQEND
  5
68
330
65
100
AcDbEntity
  8
_U+30EC_U+30A4_U+30E4_U+30FC 1
 62
   179
420
  2234388
370
    25
  0
POLYLINE
  5
69
330
1F
100
AcDbEntity
  8
_U+30EC_U+30A4_U+30E4_U+30FC 1
 62
   179
420
  2234388
370
    25
100
AcDb2dPolyline
 66
     1
 10
0.0
 20
0.0
 30
0.0
  0
VERTEX
  5
6A
330
69
100
AcDbEntity
  8
_U+30EC_U+30A4_U+30E4_U+30FC 1
 62
   179
420
  2234388
370
    25
100
AcDbVertex
100
AcDb2dVertex
 10
82.26682317897627
 20
-141.1614171869316
 30
0.0
  0
VERTEX
  5
6B
330
69
100
AcDbEntity
  8
_U+30EC_U+30A4_U+30E4_U+30FC 1
 62
   179
420
  2234388
370
    25
100
AcDbVertex
100
AcDb2dVertex
 10
99.26697218971077
 20
-141.1614171869316
 30
0.0
  0
SEQEND
  5
6C
330
69
100
AcDbEntity
  8
_U+30EC_U+30A4_U+30E4_U+30FC 1
 62
   179
420
  2234388
370
    25
  0
POLYLINE
  5
6D
330
1F
100
AcDbEntity
  8
_U+30EC_U+30A4_U+30E4_U+30FC 1
 62
   179
420
  2234388
370
    25
100
AcDb2dPolyline
 66
     1
 10
0.0
 20
0.0
 30
0.0
  0
VERTEX
  5
6E
330
6D
100
AcDbEntity
  8
_U+30EC_U+30A4_U+30E4_U+30FC 1
 62
   179
420
  2234388
370
    25
100
AcDbVertex
100
AcDb2dVertex
 10
85.26681004688467
 20
-135.1614432995429
 30
0.0
  0
VERTEX
  5
6F
330
6D
100
AcDbEntity
  8
_U+30EC_U+30A4_U+30E4_U+30FC 1
 62
   179
420
  2234388
370
    25
100
AcDbVertex
100
AcDb2dVertex
 10
85.26681004688467
 20
-136.1618857992928
 30
0.0
  0
SEQEND
  5
70
330
6D
100
AcDbEntity
  8
_U+30EC_U+30A4_U+30E4_U+30FC 1
 62
   179
420
  2234388
370
    25
  0
POLYLINE
  5
71
330
1F
100
AcDbEntity
  8
_U+30EC_U+30A4_U+30E4_U+30FC 1
 62
   179
420
  2234388
370
    25
100
AcDb2dPolyline
 66
     1
 10
0.0
 20
0.0
 30
0.0
  0
VERTEX
  5
72
330
71
100
AcDbEntity
  8
_U+30EC_U+30A4_U+30E4_U+30FC 1
 62
   179
420
  2234388
370
    25
100
AcDbVertex
100
AcDb2dVertex
 10
81.26705098226036
 20
-135.102529410669
 30
0.0
  0
VERTEX
  5
73
330
71
100
AcDbEntity
  8
_U+30EC_U+30A4_U+30E4_U+30FC 1
 62
   179
420
  2234388
370
    25
100
AcDbVertex
100
AcDb2dVertex
 10
85.26681004688467
 20
-135.102529410669
 30
0.0
  0
SEQEND
  5
74
330
71
100
AcDbEntity
  8
_U+30EC_U+30A4_U+30E4_U+30FC 1
 62
   179
420
  2234388
370
    25
  0
POLYLINE
  5
75
330
1F
100
AcDbEntity
  8
_U+30EC_U+30A4_U+30E4_U+30FC 1
 62
   179
420
  2234388
370
    25
100
AcDb2dPolyline
 66
     1
 10
0.0
 20
0.0
 30
0.0
  0
VERTEX
  5
76
330
75
100
AcDbEntity
  8
_U+30EC_U+30A4_U+30E4_U+30FC 1
 62
   179
420
  2234388
370
    25
100
AcDbVertex
100
AcDb2dVertex
 10
82.26682317897627
 20
-136.1618857992928
 30
0.0
  0
VERTEX
  5
77
330
75
100
AcDbEntity
  8
_U+30EC_U+30A4_U+30E4_U+30FC 1
 62
   179
420
  2234388
370
    25
100
AcDbVertex
100
AcDb2dVertex
 10
85.26681004688467
 20
-136.1618857992928
 30
0.0
  0
SEQEND
  5
78
330
75
100
AcDbEntity
  8
_U+30EC_U+30A4_U+30E4_U+30FC 1
 62
   179
420
  2234388
370
    25
  0
POLYLINE
  5
79
330
1F
100
AcDbEntity
  8
_U+30EC_U+30A4_U+30E4_U+30FC 1
 62
   179
420
  2234388
370
    25
100
AcDb2dPolyline
 66
     1
 10
0.0
 20
0.0
 30
0.0
  0
VERTEX
  5
7A
330
79
100
AcDbEntity
  8
_U+30EC_U+30A4_U+30E4_U+30FC 1
 62
   179
420
  2234388
370
    25
100
AcDbVertex
100
AcDb2dVertex
 10
98.26719999299486
 20
-96.57291664252344
 30
0.0
  0
VERTEX
  5
7B
330
79
100
AcDbEntity
  8
_U+30EC_U+30A4_U+30E4_U+30FC 1
 62
   179
420
  2234388
370
    25
100
AcDbVertex
100
AcDb2dVertex
 10
98.26719999299486
 20
-140.1616449649597
 30
0.0
  0
VERTEX
  5
7C
330
79
100
AcDbEntity
  8
_U+30EC_U+30A4_U+30E4_U+30FC 1
 62
   179
420
  2234388
370
    25
100
AcDbVertex
100
AcDb2dVertex
 10
82.26682317897627
 20
-140.1616449649597
 30
0.0
  0
SEQEND
  5
7D
330
79
100
AcDbEntity
  8
_U+30EC_U+30A4_U+30E4_U+30FC 1
 62
   179
420
  2234388
370
    25
  0
POLYLINE
  5
7E
330
1F
100
AcDbEntity
  8
_U+30EC_U+30A4_U+30E4_U+30FC 1
 62
   179
420
  2234388
370
    25
100
AcDb2dPolyline
 66
     1
 10
0.0
 20
0.0
 30
0.0
  0
VERTEX
  5
7F
330
7E
100
AcDbEntity
  8
_U+30EC_U+30A4_U+30E4_U+30FC 1
 62
   179
420
  2234388
370
    25
100
AcDbVertex
100
AcDb2dVertex
 10
99.26697218971077
 20
-96.5364041425325
 30
0.0
  0
VERTEX
  5
80
330
7E
100
AcDbEntity
  8
_U+30EC_U+30A4_U+30E4_U+30FC 1
 62
   179
420
  2234388
370
    25
100
AcDbVertex
100
AcDb2dVertex
 10
99.26697218971077
 20
-141.1614171869316
 30
0.0
  0
SEQEND
  5
81
330
7E
100
AcDbEntity
  8
_U+30EC_U+30A4_U+30E4_U+30FC 1
 62
   179
420
  2234388
370
    25
  0
POLYLINE
  5
82
330
1F
100
AcDbEntity
  8
_U+30EC_U+30A4_U+30E4_U+30FC 1
 62
   179
420
  2234388
370
    25
100
AcDb2dPolyline
 66
     1
 10
0.0
 20
0.0
 30
0.0
  0
VERTEX
  5
83
330
82
100
AcDbEntity
  8
_U+30EC_U+30A4_U+30E4_U+30FC 1
 62
   179
420
  2234388
370
    25
100
AcDbVertex
100
AcDb2dVertex
 10
82.26682317897627
 20
-136.1618857992928
 30
0.0
  0
VERTEX
  5
84
330
82
100
AcDbEntity
  8
_U+30EC_U+30A4_U+30E4_U+30FC 1
 62
   179
420
  2234388
370
    25
100
AcDbVertex
100
AcDb2dVertex
 10
82.26682317897627
 20
-140.1616449649597
 30
0.0
  0
SEQEND
  5
85
330
82
100
AcDbEntity
  8
_U+30EC_U+30A4_U+30E4_U+30FC 1
 62
   179
420
  2234388
370
    25
  0
SPLINE
  5
86
330
1F
100
AcDbEntity
  8
_U+30EC_U+30A4_U+30E4_U+30FC 1
 62
   179
420
  2234388
370
     9
100
AcDbSpline
210
0.0
220
0.0
230
1.0
 70
    11
 71
     3
 72
    17
 73
    13
 74
     0
 42
0.0000000001
 43
0.0000000001
 12
1.0
 22
0.0
 32
0.0
 13
1.0
 23
0.0
 33
0.0
 40
0.0
 40
0.0
 40
0.0
 40
0.0
 40
1.0
 40
1.0
 40
1.0
 40
2.0
 40
2.0
 40
2.0
 40
3.0
 40
3.0
 40
3.0
 40
4.0
 40
4.0
 40
4.0
 40
4.0
 10
106.3666247863613
 20
-96.4850749758788
 30
0.0
 10
106.3666247863613
 20
-96.4296183092258
 30
0.0
 10
106.3218572875034
 20
-96.38481553145941
 30
0.0
 10
106.2667181222435
 20
-96.38481553145941
 30
0.0
 10
106.2116142347604
 20
-96.38481553145941
 30
0.0
 10
106.1668114581257
 20
-96.4296183092258
 30
0.0
 10
106.1668114581257
 20
-96.4850749758788
 30
0.0
 10
106.1668114581257
 20
-96.54053164253149
 30
0.0
 10
106.2116142347604
 20
-96.58498164252045
 30
0.0
 10
106.2667181222435
 20
-96.58498164252045
 30
0.0
 10
106.3218572875034
 20
-96.58498164252045
 30
0.0
 10
106.3666247863613
 20
-96.54053164253149
 30
0.0
 10
106.3666247863613
 20
-96.4850749758788
 30
0.0
  0
SPLINE
  5
87
330
1F
100
AcDbEntity
  8
_U+30EC_U+30A4_U+30E4_U+30FC 1
 62
   179
420
  2234388
370
     9
100
AcDbSpline
210
0.0
220
0.0
230
1.0
 70
    11
 71
     3
 72
    17
 73
    13
 74
     0
 42
0.0000000001
 43
0.0000000001
 12
1.0
 22
0.0
 32
0.0
 13
1.0
 23
0.0
 33
0.0
 40
0.0
 40
0.0
 40
0.0
 40
0.0
 40
1.0
 40
1.0
 40
1.0
 40
2.0
 40
2.0
 40
2.0
 40
3.0
 40
3.0
 40
3.0
 40
4.0
 40
4.0
 40
4.0
 40
4.0
 10
106.3666247863613
 20
-141.2806207980131
 30
0.0
 10
106.3666247863613
 20
-141.22548163136
 30
0.0
 10
106.3218572875034
 20
-141.1807141313714
 30
0.0
 10
106.2667181222435
 20
-141.1807141313714
 30
0.0
 10
106.2116142347604
 20
-141.1807141313714
 30
0.0
 10
106.1668114581257
 20
-141.22548163136
 30
0.0
 10
106.1668114581257
 20
-141.2806207980131
 30
0.0
 10
106.1668114581257
 20
-141.335724686888
 30
0.0
 10
106.2116142347604
 20
-141.3805274646547
 30
0.0
 10
106.2667181222435
 20
-141.3805274646547
 30
0.0
 10
106.3218572875034
 20
-141.3805274646547
 30
0.0
 10
106.3666247863613
 20
-141.335724686888
 30
0.0
 10
106.3666247863613
 20
-141.2806207980131
 30
0.0
  0
SPLINE
  5
88
330
1F
100
AcDbEntity
  8
_U+30EC_U+30A4_U+30E4_U+30FC 1
 62
   179
420
  2234388
370
     9
100
AcDbSpline
210
0.0
220
0.0
230
1.0
 70
    11
 71
     3
 72
    17
 73
    13
 74
     0
 42
0.0000000001
 43
0.0000000001
 12
1.0
 22
0.0
 32
0.0
 13
1.0
 23
0.0
 33
0.0
 40
0.0
 40
0.0
 40
0.0
 40
0.0
 40
1.0
 40
1.0
 40
1.0
 40
2.0
 40
2.0
 40
2.0
 40
3.0
 40
3.0
 40
3.0
 40
4.0
 40
4.0
 40
4.0
 40
4.0
 10
98.3671066571127
 20
-128.2219869123889
 30
0.0
 10
98.3671066571127
 20
-128.1668477457361
 30
0.0
 10
98.32234164208634
 20
-128.1220802457472
 30
0.0
 10
98.26719999299486
 20
-128.1220802457472
 30
0.0
 10
98.21139054997424
 20
-128.1220802457472
 30
0.0
 10
98.16662305111636
 20
-128.1668477457361
 30
0.0
 10
98.16662305111636
 20
-128.2219869123889
 30
0.0
 10
98.16662305111636
 20
-128.2770908012641
 30
0.0
 10
98.21139054997424
 20
-128.3218935790308
 30
0.0
 10
98.26719999299486
 20
-128.3218935790308
 30
0.0
 10
98.32234164208634
 20
-128.3218935790308
 30
0.0
 10
98.3671066571127
 20
-128.2770908012641
 30
0.0
 10
98.3671066571127
 20
-128.2219869123889
 30
0.0
  0
SPLINE
  5
89
330
1F
100
AcDbEntity
  8
_U+30EC_U+30A4_U+30E4_U+30FC 1
 62
   179
420
  2234388
370
     9
100
AcDbSpline
210
0.0
220
0.0
230
1.0
 70
    11
 71
     3
 72
    17
 73
    13
 74
     0
 42
0.0000000001
 43
0.0000000001
 12
1.0
 22
0.0
 32
0.0
 13
1.0
 23
0.0
 33
0.0
 40
0.0
 40
0.0
 40
0.0
 40
0.0
 40
1.0
 40
1.0
 40
1.0
 40
2.0
 40
2.0
 40
2.0
 40
3.0
 40
3.0
 40
3.0
 40
4.0
 40
4.0
 40
4.0
 40
4.0
 10
85.36671671100251
 20
-128.2219869123889
 30
0.0
 10
85.36671671100251
 20
-128.1668477457361
 30
0.0
 10
85.32191393436774
 20
-128.1220802457472
 30
0.0
 10
85.26681004688467
 20
-128.1220802457472
 30
0.0
 10
85.21167088162471
 20
-128.1220802457472
 30
0.0
 10
85.16690553426372
 20
-128.1668477457361
 30
0.0
 10
85.16690553426372
 20
-128.2219869123889
 30
0.0
 10
85.16690553426372
 20
-128.2770908012641
 30
0.0
 10
85.21167088162471
 20
-128.3218935790308
 30
0.0
 10
85.26681004688467
 20
-128.3218935790308
 30
0.0
 10
85.32191393436774
 20
-128.3218935790308
 30
0.0
 10
85.36671671100251
 20
-128.2770908012641
 30
0.0
 10
85.36671671100251
 20
-128.2219869123889
 30
0.0
  0
SPLINE
  5
8A
330
1F
100
AcDbEntity
  8
_U+30EC_U+30A4_U+30E4_U+30FC 1
 62
   179
420
  2234388
370
     9
100
AcDbSpline
210
0.0
220
0.0
230
1.0
 70
    11
 71
     3
 72
    17
 73
    13
 74
     0
 42
0.0000000001
 43
0.0000000001
 12
1.0
 22
0.0
 32
0.0
 13
1.0
 23
0.0
 33
0.0
 40
0.0
 40
0.0
 40
0.0
 40
0.0
 40
1.0
 40
1.0
 40
1.0
 40
2.0
 40
2.0
 40
2.0
 40
3.0
 40
3.0
 40
3.0
 40
4.0
 40
4.0
 40
4.0
 40
4.0
 10
81.3669576463782
 20
-128.2219869123889
 30
0.0
 10
81.3669576463782
 20
-128.1668477457361
 30
0.0
 10
81.32215486974343
 20
-128.1220802457472
 30
0.0
 10
81.26705098226036
 20
-128.1220802457472
 30
0.0
 10
81.21191386858604
 20
-128.1220802457472
 30
0.0
 10
81.16714431814252
 20
-128.1668477457361
 30
0.0
 10
81.16714431814252
 20
-128.2219869123889
 30
0.0
 10
81.16714431814252
 20
-128.2770908012641
 30
0.0
 10
81.21191386858604
 20
-128.3218935790308
 30
0.0
 10
81.26705098226036
 20
-128.3218935790308
 30
0.0
 10
81.32215486974343
 20
-128.3218935790308
 30
0.0
 10
81.3669576463782
 20
-128.2770908012641
 30
0.0
 10
81.3669576463782
 20
-128.2219869123889
 30
0.0
  0
SPLINE
  5
8B
330
1F
100
AcDbEntity
  8
_U+30EC_U+30A4_U+30E4_U+30FC 1
 62
   179
420
  2234388
370
     9
100
AcDbSpline
210
0.0
220
0.0
230
1.0
 70
    11
 71
     3
 72
    17
 73
    13
 74
     0
 42
0.0000000001
 43
0.0000000001
 12
1.0
 22
0.0
 32
0.0
 13
1.0
 23
0.0
 33
0.0
 40
0.0
 40
0.0
 40
0.0
 40
0.0
 40
1.0
 40
1.0
 40
1.0
 40
2.0
 40
2.0
 40
2.0
 40
3.0
 40
3.0
 40
3.0
 40
4.0
 40
4.0
 40
4.0
 40
4.0
 10
77.36719858175388
 20
-135.2602916328519
 30
0.0
 10
77.36719858175388
 20
-135.2051877439764
 30
0.0
 10
77.32239580511911
 20
-135.1603849662096
 30
0.0
 10
77.26729191763604
 20
-135.1603849662096
 30
0.0
 10
77.21148247461542
 20
-135.1603849662096
 30
0.0
 10
77.16667969798065
 20
-135.2051877439764
 30
0.0
 10
77.16667969798065
 20
-135.2602916328519
 30
0.0
 10
77.16667969798065
 20
-135.3154307995044
 30
0.0
 10
77.21148247461542
 20
-135.3601982994935
 30
0.0
 10
77.26729191763604
 20
-135.3601982994935
 30
0.0
 10
77.32239580511911
 20
-135.3601982994935
 30
0.0
 10
77.36719858175388
 20
-135.3154307995044
 30
0.0
 10
77.36719858175388
 20
-135.2602916328519
 30
0.0
  0
SPLINE
  5
8C
330
1F
100
AcDbEntity
  8
_U+30EC_U+30A4_U+30E4_U+30FC 1
 62
   179
420
  2234388
370
     9
100
AcDbSpline
210
0.0
220
0.0
230
1.0
 70
    11
 71
     3
 72
    17
 73
    13
 74
     0
 42
0.0000000001
 43
0.0000000001
 12
1.0
 22
0.0
 32
0.0
 13
1.0
 23
0.0
 33
0.0
 40
0.0
 40
0.0
 40
0.0
 40
0.0
 40
1.0
 40
1.0
 40
1.0
 40
2.0
 40
2.0
 40
2.0
 40
3.0
 40
3.0
 40
3.0
 40
4.0
 40
4.0
 40
4.0
 40
4.0
 10
77.36719858175388
 20
-155.2218694056389
 30
0.0
 10
77.36719858175388
 20
-155.166765516764
 30
0.0
 10
77.32239580511911
 20
-155.1219627389973
 30
0.0
 10
77.26729191763604
 20
-155.1219627389973
 30
0.0
 10
77.21148247461542
 20
-155.1219627389973
 30
0.0
 10
77.16667969798065
 20
-155.166765516764
 30
0.0
 10
77.16667969798065
 20
-155.2218694056389
 30
0.0
 10
77.16667969798065
 20
-155.277008572292
 30
0.0
 10
77.21148247461542
 20
-155.3217760722806
 30
0.0
 10
77.26729191763604
 20
-155.3217760722806
 30
0.0
 10
77.32239580511911
 20
-155.3217760722806
 30
0.0
 10
77.36719858175388
 20
-155.277008572292
 30
0.0
 10
77.36719858175388
 20
-155.2218694056389
 30
0.0
  0
SPLINE
  5
8D
330
1F
100
AcDbEntity
  8
_U+30EC_U+30A4_U+30E4_U+30FC 1
 62
   179
420
  2234388
370
     9
100
AcDbSpline
210
0.0
220
0.0
230
1.0
 70
    11
 71
     3
 72
    17
 73
    13
 74
     0
 42
0.0000000001
 43
0.0000000001
 12
1.0
 22
0.0
 32
0.0
 13
1.0
 23
0.0
 33
0.0
 40
0.0
 40
0.0
 40
0.0
 40
0.0
 40
1.0
 40
1.0
 40
1.0
 40
2.0
 40
2.0
 40
2.0
 40
3.0
 40
3.0
 40
3.0
 40
4.0
 40
4.0
 40
4.0
 40
4.0
 10
81.3669576463782
 20
-159.2216285713058
 30
0.0
 10
81.3669576463782
 20
-159.1665246824309
 30
0.0
 10
81.32215486974343
 20
-159.1217219046642
 30
0.0
 10
81.26705098226036
 20
-159.1217219046642
 30
0.0
 10
81.21191386858604
 20
-159.1217219046642
 30
0.0
 10
81.16714431814252
 20
-159.1665246824309
 30
0.0
 10
81.16714431814252
 20
-159.2216285713058
 30
0.0
 10
81.16714431814252
 20
-159.2767677379589
 30
0.0
 10
81.21191386858604
 20
-159.3215352379474
 30
0.0
 10
81.26705098226036
 20
-159.3215352379474
 30
0.0
 10
81.32215486974343
 20
-159.3215352379474
 30
0.0
 10
81.3669576463782
 20
-159.2767677379589
 30
0.0
 10
81.3669576463782
 20
-159.2216285713058
 30
0.0
  0
SPLINE
  5
8E
330
1F
100
AcDbEntity
  8
_U+30EC_U+30A4_U+30E4_U+30FC 1
 62
   179
420
  2234388
370
     9
100
AcDbSpline
210
0.0
220
0.0
230
1.0
 70
    11
 71
     3
 72
    17
 73
    13
 74
     0
 42
0.0000000001
 43
0.0000000001
 12
1.0
 22
0.0
 32
0.0
 13
1.0
 23
0.0
 33
0.0
 40
0.0
 40
0.0
 40
0.0
 40
0.0
 40
1.0
 40
1.0
 40
1.0
 40
2.0
 40
2.0
 40
2.0
 40
3.0
 40
3.0
 40
3.0
 40
4.0
 40
4.0
 40
4.0
 40
4.0
 10
106.3666247863613
 20
-155.2218694056389
 30
0.0
 10
106.3666247863613
 20
-155.166765516764
 30
0.0
 10
106.3218572875034
 20
-155.1219627389973
 30
0.0
 10
106.2667181222435
 20
-155.1219627389973
 30
0.0
 10
106.2116142347604
 20
-155.1219627389973
 30
0.0
 10
106.1668114581257
 20
-155.166765516764
 30
0.0
 10
106.1668114581257
 20
-155.2218694056389
 30
0.0
 10
106.1668114581257
 20
-155.277008572292
 30
0.0
 10
106.2116142347604
 20
-155.3217760722806
 30
0.0
 10
106.2667181222435
 20
-155.3217760722806
 30
0.0
 10
106.3218572875034
 20
-155.3217760722806
 30
0.0
 10
106.3666247863613
 20
-155.277008572292
 30
0.0
 10
106.3666247863613
 20
-155.2218694056389
 30
0.0
  0
SPLINE
  5
8F
330
1F
100
AcDbEntity
  8
_U+30EC_U+30A4_U+30E4_U+30FC 1
 62
   179
420
  2234388
370
     9
100
AcDbSpline
210
0.0
220
0.0
230
1.0
 70
    11
 71
     3
 72
    17
 73
    13
 74
     0
 42
0.0000000001
 43
0.0000000001
 12
1.0
 22
0.0
 32
0.0
 13
1.0
 23
0.0
 33
0.0
 40
0.0
 40
0.0
 40
0.0
 40
0.0
 40
1.0
 40
1.0
 40
1.0
 40
2.0
 40
2.0
 40
2.0
 40
3.0
 40
3.0
 40
3.0
 40
4.0
 40
4.0
 40
4.0
 40
4.0
 10
106.3666247863613
 20
-151.222110239972
 30
0.0
 10
106.3666247863613
 20
-151.1663007955416
 30
0.0
 10
106.3218572875034
 20
-151.121533295553
 30
0.0
 10
106.2667181222435
 20
-151.121533295553
 30
0.0
 10
106.2116142347604
 20
-151.121533295553
 30
0.0
 10
106.1668114581257
 20
-151.1663007955416
 30
0.0
 10
106.1668114581257
 20
-151.222110239972
 30
0.0
 10
106.1668114581257
 20
-151.2772494066251
 30
0.0
 10
106.2116142347604
 20
-151.3220169066137
 30
0.0
 10
106.2667181222435
 20
-151.3220169066137
 30
0.0
 10
106.3218572875034
 20
-151.3220169066137
 30
0.0
 10
106.3666247863613
 20
-151.2772494066251
 30
0.0
 10
106.3666247863613
 20
-151.222110239972
 30
0.0
  0
SPLINE
  5
90
330
1F
100
AcDbEntity
  8
_U+30EC_U+30A4_U+30E4_U+30FC 1
 62
   179
420
  2234388
370
     9
100
AcDbSpline
210
0.0
220
0.0
230
1.0
 70
    11
 71
     3
 72
    17
 73
    13
 74
     0
 42
0.0000000001
 43
0.0000000001
 12
1.0
 22
0.0
 32
0.0
 13
1.0
 23
0.0
 33
0.0
 40
0.0
 40
0.0
 40
0.0
 40
0.0
 40
1.0
 40
1.0
 40
1.0
 40
2.0
 40
2.0
 40
2.0
 40
3.0
 40
3.0
 40
3.0
 40
4.0
 40
4.0
 40
4.0
 40
4.0
 10
100.3666510505445
 20
-159.2216285713058
 30
0.0
 10
100.3666510505445
 20
-159.1665246824309
 30
0.0
 10
100.3218860860308
 20
-159.1217219046642
 30
0.0
 10
100.2667443864267
 20
-159.1217219046642
 30
0.0
 10
100.2116404989436
 20
-159.1217219046642
 30
0.0
 10
100.1668377223089
 20
-159.1665246824309
 30
0.0
 10
100.1668377223089
 20
-159.2216285713058
 30
0.0
 10
100.1668377223089
 20
-159.2767677379589
 30
0.0
 10
100.2116404989436
 20
-159.3215352379474
 30
0.0
 10
100.2667443864267
 20
-159.3215352379474
 30
0.0
 10
100.3218860860308
 20
-159.3215352379474
 30
0.0
 10
100.3666510505445
 20
-159.2767677379589
 30
0.0
 10
100.3666510505445
 20
-159.2216285713058
 30
0.0
  0
POLYLINE
  5
91
330
1F
100
AcDbEntity
  8
_U+30EC_U+30A4_U+30E4_U+30FC 1
 62
   179
420
  2234388
370
     9
100
AcDb2dPolyline
 66
     1
 10
0.0
 20
0.0
 30
0.0
  0
VERTEX
  5
92
330
91
100
AcDbEntity
  8
_U+30EC_U+30A4_U+30E4_U+30FC 1
 62
   179
420
  2234388
370
     9
100
AcDbVertex
100
AcDb2dVertex
 10
77.26729191763604
 20
-135.2217330217504
 30
0.0
  0
VERTEX
  5
93
330
91
100
AcDbEntity
  8
_U+30EC_U+30A4_U+30E4_U+30FC 1
 62
   179
420
  2234388
370
     9
100
AcDbVertex
100
AcDb2dVertex
 10
77.26729191763604
 20
-155.2218694056389
 30
0.0
  0
SEQEND
  5
94
330
91
100
AcDbEntity
  8
_U+30EC_U+30A4_U+30E4_U+30FC 1
 62
   179
420
  2234388
370
     9
  0
POLYLINE
  5
95
330
1F
100
AcDbEntity
  8
_U+30EC_U+30A4_U+30E4_U+30FC 1
 62
   179
420
  2234388
370
     9
100
AcDb2dPolyline
 66
     1
 10
0.0
 20
0.0
 30
0.0
  0
VERTEX
  5
96
330
95
100
AcDbEntity
  8
_U+30EC_U+30A4_U+30E4_U+30FC 1
 62
   179
420
  2234388
370
     9
100
AcDbVertex
100
AcDb2dVertex
 10
78.72662771373862
 20
-135.2602916328519
 30
0.0
  0
VERTEX
  5
97
330
95
100
AcDbEntity
  8
_U+30EC_U+30A4_U+30E4_U+30FC 1
 62
   179
420
  2234388
370
     9
100
AcDbVertex
100
AcDb2dVertex
 10
76.26684944315946
 20
-135.2602916328519
 30
0.0
  0
SEQEND
  5
98
330
95
100
AcDbEntity
  8
_U+30EC_U+30A4_U+30E4_U+30FC 1
 62
   179
420
  2234388
370
     9
  0
POLYLINE
  5
99
330
1F
100
AcDbEntity
  8
_U+30EC_U+30A4_U+30E4_U+30FC 1
 62
   179
420
  2234388
370
     9
100
AcDb2dPolyline
 66
     1
 10
0.0
 20
0.0
 30
0.0
  0
VERTEX
  5
9A
330
99
100
AcDbEntity
  8
_U+30EC_U+30A4_U+30E4_U+30FC 1
 62
   179
420
  2234388
370
     9
100
AcDbVertex
100
AcDb2dVertex
 10
78.72662771373862
 20
-155.2218694056389
 30
0.0
  0
VERTEX
  5
9B
330
99
100
AcDbEntity
  8
_U+30EC_U+30A4_U+30E4_U+30FC 1
 62
   179
420
  2234388
370
     9
100
AcDbVertex
100
AcDb2dVertex
 10
76.26684944315946
 20
-155.2218694056389
 30
0.0
  0
SEQEND
  5
9C
330
99
100
AcDbEntity
  8
_U+30EC_U+30A4_U+30E4_U+30FC 1
 62
   179
420
  2234388
370
     9
  0
INSERT
  5
9E
330
1F
100
AcDbEntity
  8
_U+30EC_U+30A4_U+30E4_U+30FC 1
100
AcDbBlockReference
  2
block 2
 10
0.0
 20
0.0
 30
0.0
  0
POLYLINE
  5
A6
330
1F
100
AcDbEntity
  8
_U+30EC_U+30A4_U+30E4_U+30FC 1
 62
   179
420
  2234388
370
     9
100
AcDb2dPolyline
 66
     1
 10
0.0
 20
0.0
 30
0.0
  0
VERTEX
  5
A7
330
A6
100
AcDbEntity
  8
_U+30EC_U+30A4_U+30E4_U+30FC 1
 62
   179
420
  2234388
370
     9
100
AcDbVertex
100
AcDb2dVertex
 10
106.2667181222435
 20
-151.222110239972
 30
0.0
  0
VERTEX
  5
A8
330
A6
100
AcDbEntity
  8
_U+30EC_U+30A4_U+30E4_U+30FC 1
 62
   179
420
  2234388
370
     9
100
AcDbVertex
100
AcDb2dVertex
 10
106.2667181222435
 20
-155.2218694056389
 30
0.0
  0
SEQEND
  5
A9
330
A6
100
AcDbEntity
  8
_U+30EC_U+30A4_U+30E4_U+30FC 1
 62
   179
420
  2234388
370
     9
  0
POLYLINE
  5
AA
330
1F
100
AcDbEntity
  8
_U+30EC_U+30A4_U+30E4_U+30FC 1
 62
   179
420
  2234388
370
     9
100
AcDb2dPolyline
 66
     1
 10
0.0
 20
0.0
 30
0.0
  0
VERTEX
  5
AB
330
AA
100
AcDbEntity
  8
_U+30EC_U+30A4_U+30E4_U+30FC 1
 62
   179
420
  2234388
370
     9
100
AcDbVertex
100
AcDb2dVertex
 10
102.8071676549484
 20
-151.222110239972
 30
0.0
  0
VERTEX
  5
AC
330
AA
100
AcDbEntity
  8
_U+30EC_U+30A4_U+30E4_U+30FC 1
 62
   179
420
  2234388
370
     9
100
AcDbVertex
100
AcDb2dVertex
 10
107.2671958744969
 20
-151.222110239972
 30
0.0
  0
SEQEND
  5
AD
330
AA
100
AcDbEntity
  8
_U+30EC_U+30A4_U+30E4_U+30FC 1
 62
   179
420
  2234388
370
     9
  0
POLYLINE
  5
AE
330
1F
100
AcDbEntity
  8
_U+30EC_U+30A4_U+30E4_U+30FC 1
 62
   179
420
  2234388
370
     9
100
AcDb2dPolyline
 66
     1
 10
0.0
 20
0.0
 30
0.0
  0
VERTEX
  5
AF
330
AE
100
AcDbEntity
  8
_U+30EC_U+30A4_U+30E4_U+30FC 1
 62
   179
420
  2234388
370
     9
100
AcDbVertex
100
AcDb2dVertex
 10
102.8071676549484
 20
-155.2218694056389
 30
0.0
  0
VERTEX
  5
B0
330
AE
100
AcDbEntity
  8
_U+30EC_U+30A4_U+30E4_U+30FC 1
 62
   179
420
  2234388
370
     9
100
AcDbVertex
100
AcDb2dVertex
 10
107.2671958744969
 20
-155.2218694056389
 30
0.0
  0
SEQEND
  5
B1
330
AE
100
AcDbEntity
  8
_U+30EC_U+30A4_U+30E4_U+30FC 1
 62
   179
420
  2234388
370
     9
  0
INSERT
  5
B3
330
1F
100
AcDbEntity
  8
_U+30EC_U+30A4_U+30E4_U+30FC 1
100
AcDbBlockReference
  2
block 3
 10
0.0
 20
0.0
 30
0.0
  0
POLYLINE
  5
CB
330
1F
100
AcDbEntity
  8
_U+30EC_U+30A4_U+30E4_U+30FC 1
 62
   179
420
  2234388
370
     9
100
AcDb2dPolyline
 66
     1
 10
0.0
 20
0.0
 30
0.0
  0
VERTEX
  5
CC
330
CB
100
AcDbEntity
  8
_U+30EC_U+30A4_U+30E4_U+30FC 1
 62
   179
420
  2234388
370
     9
100
AcDbVertex
100
AcDb2dVertex
 10
106.2667181222435
 20
-151.222110239972
 30
0.0
  0
VERTEX
  5
CD
330
CB
100
AcDbEntity
  8
_U+30EC_U+30A4_U+30E4_U+30FC 1
 62
   179
420
  2234388
370
     9
100
AcDbVertex
100
AcDb2dVertex
 10
106.2667181222435
 20
-141.2220596869169
 30
0.0
  0
SEQEND
  5
CE
330
CB
100
AcDbEntity
  8
_U+30EC_U+30A4_U+30E4_U+30FC 1
 62
   179
420
  2234388
370
     9
  0
POLYLINE
  5
CF
330
1F
100
AcDbEntity
  8
_U+30EC_U+30A4_U+30E4_U+30FC 1
 62
   179
420
  2234388
370
     9
100
AcDb2dPolyline
 66
     1
 10
0.0
 20
0.0
 30
0.0
  0
VERTEX
  5
D0
330
CF
100
AcDbEntity
  8
_U+30EC_U+30A4_U+30E4_U+30FC 1
 62
   179
420
  2234388
370
     9
100
AcDbVertex
100
AcDb2dVertex
 10
101.806689902695
 20
-141.2806207980131
 30
0.0
  0
VERTEX
  5
D1
330
CF
100
AcDbEntity
  8
_U+30EC_U+30A4_U+30E4_U+30FC 1
 62
   179
420
  2234388
370
     9
100
AcDbVertex
100
AcDb2dVertex
 10
107.2671958744969
 20
-141.2806207980131
 30
0.0
  0
SEQEND
  5
D2
330
CF
100
AcDbEntity
  8
_U+30EC_U+30A4_U+30E4_U+30FC 1
 62
   179
420
  2234388
370
     9
  0
INSERT
  5
D4
330
1F
100
AcDbEntity
  8
_U+30EC_U+30A4_U+30E4_U+30FC 1
100
AcDbBlockReference
  2
block 4
 10
0.0
 20
0.0
 30
0.0
  0
POLYLINE
  5
DC
330
1F
100
AcDbEntity
  8
_U+30EC_U+30A4_U+30E4_U+30FC 1
 62
   179
420
  2234388
370
     9
100
AcDb2dPolyline
 66
     1
 10
0.0
 20
0.0
 30
0.0
  0
VERTEX
  5
DD
330
DC
100
AcDbEntity
  8
_U+30EC_U+30A4_U+30E4_U+30FC 1
 62
   179
420
  2234388
370
     9
100
AcDbVertex
100
AcDb2dVertex
 10
106.2667181222435
 20
-141.4849144090734
 30
0.0
  0
VERTEX
  5
DE
330
DC
100
AcDbEntity
  8
_U+30EC_U+30A4_U+30E4_U+30FC 1
 62
   179
420
  2234388
370
     9
100
AcDbVertex
100
AcDb2dVertex
 10
106.2667181222435
 20
-96.4850749758788
 30
0.0
  0
SEQEND
  5
DF
330
DC
100
AcDbEntity
  8
_U+30EC_U+30A4_U+30E4_U+30FC 1
 62
   179
420
  2234388
370
     9
  0
POLYLINE
  5
E0
330
1F
100
AcDbEntity
  8
_U+30EC_U+30A4_U+30E4_U+30FC 1
 62
   179
420
  2234388
370
     9
100
AcDb2dPolyline
 66
     1
 10
0.0
 20
0.0
 30
0.0
  0
VERTEX
  5
E1
330
E0
100
AcDbEntity
  8
_U+30EC_U+30A4_U+30E4_U+30FC 1
 62
   179
420
  2234388
370
     9
100
AcDbVertex
100
AcDb2dVertex
 10
101.806689902695
 20
-96.4850749758788
 30
0.0
  0
VERTEX
  5
E2
330
E0
100
AcDbEntity
  8
_U+30EC_U+30A4_U+30E4_U+30FC 1
 62
   179
420
  2234388
370
     9
100
AcDbVertex
100
AcDb2dVertex
 10
107.2671958744969
 20
-96.4850749758788
 30
0.0
  0
SEQEND
  5
E3
330
E0
100
AcDbEntity
  8
_U+30EC_U+30A4_U+30E4_U+30FC 1
 62
   179
420
  2234388
370
     9
  0
INSERT
  5
E5
330
1F
100
AcDbEntity
  8
_U+30EC_U+30A4_U+30E4_U+30FC 1
100
AcDbBlockReference
  2
block 5
 10
0.0
 20
0.0
 30
0.0
  0
POLYLINE
  5
FF
330
1F
100
AcDbEntity
  8
_U+30EC_U+30A4_U+30E4_U+30FC 1
 62
   179
420
  2234388
370
     9
100
AcDb2dPolyline
 66
     1
 10
0.0
 20
0.0
 30
0.0
  0
VERTEX
  5
100
330
FF
100
AcDbEntity
  8
_U+30EC_U+30A4_U+30E4_U+30FC 1
 62
   179
420
  2234388
370
     9
100
AcDbVertex
100
AcDb2dVertex
 10
85.26681004688467
 20
-128.2219869123889
 30
0.0
  0
VERTEX
  5
101
330
FF
100
AcDbEntity
  8
_U+30EC_U+30A4_U+30E4_U+30FC 1
 62
   179
420
  2234388
370
     9
100
AcDbVertex
100
AcDb2dVertex
 10
98.26719999299486
 20
-128.2219869123889
 30
0.0
  0
SEQEND
  5
102
330
FF
100
AcDbEntity
  8
_U+30EC_U+30A4_U+30E4_U+30FC 1
 62
   179
420
  2234388
370
     9
  0
INSERT
  5
104
330
1F
100
AcDbEntity
  8
_U+30EC_U+30A4_U+30E4_U+30FC 1
100
AcDbBlockReference
  2
block 6
 10
0.0
 20
0.0
 30
0.0
  0
POLYLINE
  5
10B
330
1F
100
AcDbEntity
  8
_U+30EC_U+30A4_U+30E4_U+30FC 1
 62
   179
420
  2234388
370
     9
100
AcDb2dPolyline
 66
     1
 10
0.0
 20
0.0
 30
0.0
  0
VERTEX
  5
10C
330
10B
100
AcDbEntity
  8
_U+30EC_U+30A4_U+30E4_U+30FC 1
 62
   179
420
  2234388
370
     9
100
AcDbVertex
100
AcDb2dVertex
 10
81.26705098226036
 20
-128.2219869123889
 30
0.0
  0
VERTEX
  5
10D
330
10B
100
AcDbEntity
  8
_U+30EC_U+30A4_U+30E4_U+30FC 1
 62
   179
420
  2234388
370
     9
100
AcDbVertex
100
AcDb2dVertex
 10
85.26681004688467
 20
-128.2219869123889
 30
0.0
  0
SEQEND
  5
10E
330
10B
100
AcDbEntity
  8
_U+30EC_U+30A4_U+30E4_U+30FC 1
 62
   179
420
  2234388
370
     9
  0
POLYLINE
  5
10F
330
1F
100
AcDbEntity
  8
_U+30EC_U+30A4_U+30E4_U+30FC 1
 62
   179
420
  2234388
370
     9
100
AcDb2dPolyline
 66
     1
 10
0.0
 20
0.0
 30
0.0
  0
VERTEX
  5
110
330
10F
100
AcDbEntity
  8
_U+30EC_U+30A4_U+30E4_U+30FC 1
 62
   179
420
  2234388
370
     9
100
AcDbVertex
100
AcDb2dVertex
 10
81.26705098226036
 20
-129.6819930231354
 30
0.0
  0
VERTEX
  5
111
330
10F
100
AcDbEntity
  8
_U+30EC_U+30A4_U+30E4_U+30FC 1
 62
   179
420
  2234388
370
     9
100
AcDbVertex
100
AcDb2dVertex
 10
81.26705098226036
 20
-127.2215091348614
 30
0.0
  0
SEQEND
  5
112
330
10F
100
AcDbEntity
  8
_U+30EC_U+30A4_U+30E4_U+30FC 1
 62
   179
420
  2234388
370
     9
  0
POLYLINE
  5
113
330
1F
100
AcDbEntity
  8
_U+30EC_U+30A4_U+30E4_U+30FC 1
 62
   179
420
  2234388
370
     9
100
AcDb2dPolyline
 66
     1
 10
0.0
 20
0.0
 30
0.0
  0
VERTEX
  5
114
330
113
100
AcDbEntity
  8
_U+30EC_U+30A4_U+30E4_U+30FC 1
 62
   179
420
  2234388
370
     9
100
AcDbVertex
100
AcDb2dVertex
 10
85.26681004688467
 20
-129.6819930231354
 30
0.0
  0
VERTEX
  5
115
330
113
100
AcDbEntity
  8
_U+30EC_U+30A4_U+30E4_U+30FC 1
 62
   179
420
  2234388
370
     9
100
AcDbVertex
100
AcDb2dVertex
 10
85.26681004688467
 20
-127.2215091348614
 30
0.0
  0
SEQEND
  5
116
330
113
100
AcDbEntity
  8
_U+30EC_U+30A4_U+30E4_U+30FC 1
 62
   179
420
  2234388
370
     9
  0
INSERT
  5
118
330
1F
100
AcDbEntity
  8
_U+30EC_U+30A4_U+30E4_U+30FC 1
100
AcDbBlockReference
  2
block 7
 10
0.0
 20
0.0
 30
0.0
  0
POLYLINE
  5
130
330
1F
100
AcDbEntity
  8
_U+30EC_U+30A4_U+30E4_U+30FC 1
 62
   179
420
  2234388
370
     9
100
AcDb2dPolyline
 66
     1
 10
0.0
 20
0.0
 30
0.0
  0
VERTEX
  5
131
330
130
100
AcDbEntity
  8
_U+30EC_U+30A4_U+30E4_U+30FC 1
 62
   179
420
  2234388
370
     9
100
AcDbVertex
100
AcDb2dVertex
 10
81.26705098226036
 20
-159.2216285713058
 30
0.0
  0
VERTEX
  5
132
330
130
100
AcDbEntity
  8
_U+30EC_U+30A4_U+30E4_U+30FC 1
 62
   179
420
  2234388
370
     9
100
AcDbVertex
100
AcDb2dVertex
 10
100.2667443864267
 20
-159.2216285713058
 30
0.0
  0
SEQEND
  5
133
330
130
100
AcDbEntity
  8
_U+30EC_U+30A4_U+30E4_U+30FC 1
 62
   179
420
  2234388
370
     9
  0
POLYLINE
  5
134
330
1F
100
AcDbEntity
  8
_U+30EC_U+30A4_U+30E4_U+30FC 1
 62
   179
420
  2234388
370
     9
100
AcDb2dPolyline
 66
     1
 10
0.0
 20
0.0
 30
0.0
  0
VERTEX
  5
135
330
134
100
AcDbEntity
  8
_U+30EC_U+30A4_U+30E4_U+30FC 1
 62
   179
420
  2234388
370
     9
100
AcDbVertex
100
AcDb2dVertex
 10
81.26705098226036
 20
-157.7615871827821
 30
0.0
  0
VERTEX
  5
136
330
134
100
AcDbEntity
  8
_U+30EC_U+30A4_U+30E4_U+30FC 1
 62
   179
420
  2234388
370
     9
100
AcDbVertex
100
AcDb2dVertex
 10
81.26705098226036
 20
-160.2221063488332
 30
0.0
  0
SEQEND
  5
137
330
134
100
AcDbEntity
  8
_U+30EC_U+30A4_U+30E4_U+30FC 1
 62
   179
420
  2234388
370
     9
  0
POLYLINE
  5
138
330
1F
100
AcDbEntity
  8
_U+30EC_U+30A4_U+30E4_U+30FC 1
 62
   179
420
  2234388
370
     9
100
AcDb2dPolyline
 66
     1
 10
0.0
 20
0.0
 30
0.0
  0
VERTEX
  5
139
330
138
100
AcDbEntity
  8
_U+30EC_U+30A4_U+30E4_U+30FC 1
 62
   179
420
  2234388
370
     9
100
AcDbVertex
100
AcDb2dVertex
 10
100.2667443864267
 20
-157.7615871827821
 30
0.0
  0
VERTEX
  5
13A
330
138
100
AcDbEntity
  8
_U+30EC_U+30A4_U+30E4_U+30FC 1
 62
   179
420
  2234388
370
     9
100
AcDbVertex
100
AcDb2dVertex
 10
100.2667443864267
 20
-160.2221063488332
 30
0.0
  0
SEQEND
  5
13B
330
138
100
AcDbEntity
  8
_U+30EC_U+30A4_U+30E4_U+30FC 1
 62
   179
420
  2234388
370
     9
  0
INSERT
  5
13D
330
1F
100
AcDbEntity
  8
_U+30EC_U+30A4_U+30E4_U+30FC 1
100
AcDbBlockReference
  2
block 8
 10
0.0
 20
0.0
 30
0.0
  0
INSERT
  5
146
330
1F
100
AcDbEntity
  8
_U+30EC_U+30A4_U+30E4_U+30FC 1
100
AcDbBlockReference
  2
block 9
 10
0.0
 20
0.0
 30
0.0
  0
ENDSEC
  0
SECTION
  2
OBJECTS
  0
DICTIONARY
  5
C
330
0
100
AcDbDictionary
281
     1
  3
ACAD_GROUP
350
D
  3
ACAD_LAYOUT
350
1A
  3
ACAD_MATERIAL
350
3B
  3
ACAD_MLEADERSTYLE
350
158
  3
ACAD_MLINESTYLE
350
17
  3
ACAD_PLOTSETTINGS
350
19
  3
ACAD_PLOTSTYLENAME
350
E
  3
ACAD_TABLESTYLE
350
157
  3
ACAD_VISUALSTYLE
350
2A
  0
SUN
  5
3F
330
29
100
AcDbSun
 90
        1
290
     0
 63
     7
421
 16777215
 40
1.0
291
     1
 91
  2455826
 92
 54000000
292
     0
 70
     2
 71
   256
280
     1
  0
DICTIONARY
  5
D
102
{ACAD_REACTORS
330
C
102
}
330
C
100
AcDbDictionary
281
     1
  0
DICTIONARY
  5
1A
102
{ACAD_REACTORS
330
C
102
}
330
C
100
AcDbDictionary
281
     1
  3
Layout1
350
1E
  3
Layout2
350
26
  3
Model
350
22
  0
DICTIONARY
  5
3B
102
{ACAD_REACTORS
330
C
102
}
330
C
100
AcDbDictionary
281
     1
  3
ByBlock
350
3D
  3
ByLayer
350
3C
  3
Global
350
3E
  0
DICTIONARY
  5
158
102
{ACAD_REACTORS
330
C
102
}
330
C
100
AcDbDictionary
281
     1
  0
DICTIONARY
  5
17
102
{ACAD_REACTORS
330
C
102
}
330
C
100
AcDbDictionary
281
     1
  3
Standard
350
18
  0
DICTIONARY
  5
19
102
{ACAD_REACTORS
330
C
102
}
330
C
100
AcDbDictionary
281
     1
  0
ACDBDICTIONARYWDFLT
  5
E
102
{ACAD_REACTORS
330
C
102
}
330
C
100
AcDbDictionary
281
     1
  3
Normal
350
F
100
AcDbDictionaryWithDefault
340
F
  0
DICTIONARY
  5
157
102
{ACAD_REACTORS
330
C
102
}
330
C
100
AcDbDictionary
281
     1
  0
DICTIONARY
  5
2A
102
{ACAD_REACTORS
330
C
102
}
330
C
100
AcDbDictionary
281
     1
  3
2dWireframe
350
2F
  3
3D Hidden
350
31
  3
3dWireframe
350
30
  3
Basic
350
32
  3
Brighten
350
36
  3
ColorChange
350
3A
  3
Conceptual
350
34
  3
Dim
350
35
  3
Facepattern
350
39
  3
Flat
350
2B
  3
FlatWithEdges
350
2C
  3
Gouraud
350
2D
  3
GouraudWithEdges
350
2E
  3
Linepattern
350
38
  3
Realistic
350
33
  3
Thicken
350
37
  0
LAYOUT
  5
1E
102
{ACAD_REACTORS
330
1A
102
}
330
1A
100
AcDbPlotSettings
  1

  2
none_device
  4

  6

 40
0.0
 41
0.0
 42
0.0
 43
0.0
 44
0.0
 45
0.0
 46
0.0
 47
0.0
 48
0.0
 49
0.0
140
0.0
141
0.0
142
1.0
143
1.0
 70
   688
 72
     0
 73
     0
 74
     5
  7

 75
    16
 76
     0
 77
     2
 78
   300
147
1.0
148
0.0
149
0.0
100
AcDbLayout
  1
Layout1
 70
     1
 71
     1
 10
0.0
 20
0.0
 11
12.0
 21
9.0
 12
0.0
 22
0.0
 32
0.0
 14
1.000000000000000E+20
 24
1.000000000000000E+20
 34
1.000000000000000E+20
 15
-1.000000000000000E+20
 25
-1.000000000000000E+20
 35
-1.000000000000000E+20
146
0.0
 13
0.0
 23
0.0
 33
0.0
 16
1.0
 26
0.0
 36
0.0
 17
0.0
 27
1.0
 37
0.0
 76
     0
330
1B
  0
LAYOUT
  5
26
102
{ACAD_REACTORS
330
1A
102
}
330
1A
100
AcDbPlotSettings
  1

  2
none_device
  4

  6

 40
0.0
 41
0.0
 42
0.0
 43
0.0
 44
0.0
 45
0.0
 46
0.0
 47
0.0
 48
0.0
 49
0.0
140
0.0
141
0.0
142
1.0
143
1.0
 70
   688
 72
     0
 73
     0
 74
     5
  7

 75
    16
 76
     0
 77
     2
 78
   300
147
1.0
148
0.0
149
0.0
100
AcDbLayout
  1
Layout2
 70
     1
 71
     2
 10
0.0
 20
0.0
 11
0.0
 21
0.0
 12
0.0
 22
0.0
 32
0.0
 14
0.0
 24
0.0
 34
0.0
 15
0.0
 25
0.0
 35
0.0
146
0.0
 13
0.0
 23
0.0
 33
0.0
 16
1.0
 26
0.0
 36
0.0
 17
0.0
 27
1.0
 37
0.0
 76
     0
330
23
  0
LAYOUT
  5
22
102
{ACAD_REACTORS
330
1A
102
}
330
1A
100
AcDbPlotSettings
  1

  2
none_device
  4

  6

 40
0.0
 41
0.0
 42
0.0
 43
0.0
 44
0.0
 45
0.0
 46
0.0
 47
0.0
 48
0.0
 49
0.0
140
0.0
141
0.0
142
1.0
143
1.0
 70
  1712
 72
     0
 73
     0
 74
     0
  7

 75
     0
 76
     0
 77
     2
 78
   300
147
1.0
148
0.0
149
0.0
100
AcDbLayout
  1
Model
 70
     1
 71
     0
 10
0.0
 20
0.0
 11
12.0
 21
9.0
 12
0.0
 22
0.0
 32
0.0
 14
1.000000000000000E+20
 24
1.000000000000000E+20
 34
1.000000000000000E+20
 15
-1.000000000000000E+20
 25
-1.000000000000000E+20
 35
-1.000000000000000E+20
146
0.0
 13
0.0
 23
0.0
 33
0.0
 16
1.0
 26
0.0
 36
0.0
 17
0.0
 27
1.0
 37
0.0
 76
     0
330
1F
331
29
  0
MATERIAL
  5
3D
102
{ACAD_REACTORS
330
3B
102
}
330
3B
100
AcDbMaterial
  1
ByBlock
 72
     1
 94
      127
  0
MATERIAL
  5
3C
102
{ACAD_REACTORS
330
3B
102
}
330
3B
100
AcDbMaterial
  1
ByLayer
 72
     1
 94
      127
  0
MATERIAL
  5
3E
102
{ACAD_REACTORS
330
3B
102
}
330
3B
100
AcDbMaterial
  1
Global
 72
     1
 94
      127
  0
MLINESTYLE
  5
18
102
{ACAD_REACTORS
330
17
102
}
330
17
100
AcDbMlineStyle
  2
Standard
 70
     0
  3

 62
   256
 51
90.0
 52
90.0
 71
     2
 49
0.5
 62
   256
  6
BYLAYER
 49
-0.5
 62
   256
  6
BYLAYER
  0
ACDBPLACEHOLDER
  5
F
102
{ACAD_REACTORS
330
E
102
}
330
E
  0
VISUALSTYLE
  5
2F
102
{ACAD_REACTORS
330
2A
102
}
330
2A
100
AcDbVisualStyle
  2
2dWireframe
 70
     4
177
     2
291
     0
 71
     0
176
     1
 72
     2
176
     1
 73
     0
176
     1
 90
        0
176
     1
 40
-0.6
176
     1
 41
-30.0
176
     1
 62
     5
 63
     7
421
 16777215
176
     1
 74
     1
176
     1
 91
        4
176
     1
 64
     7
176
     1
 65
   257
176
     1
 75
     1
176
     1
175
     1
176
     1
 42
1.0
176
     1
 92
        0
176
     1
 66
   257
176
     1
 43
1.0
176
     1
 76
     1
176
     1
 77
     6
176
     1
 78
     2
176
     1
 67
     7
176
     1
 79
     5
176
     1
170
     0
176
     1
171
     0
176
     1
290
     0
176
     1
 93
        1
176
     1
 44
0.0
176
     1
173
     0
176
     1
  0
VISUALSTYLE
  5
31
102
{ACAD_REACTORS
330
2A
102
}
330
2A
100
AcDbVisualStyle
  2
3D Hidden
 70
     6
177
     2
291
     0
 71
     1
176
     1
 72
     2
176
     1
 73
     2
176
     1
 90
        0
176
     1
 40
-0.6
176
     1
 41
-30.0
176
     1
 62
     5
 63
     7
421
 16777215
176
     1
 74
     2
176
     1
 91
        2
176
     1
 64
     7
176
     1
 65
   257
176
     1
 75
     2
176
     1
175
     1
176
     1
 42
40.0
176
     1
 92
        0
176
     1
 66
   257
176
     1
 43
1.0
176
     1
 76
     1
176
     1
 77
     6
176
     1
 78
     2
176
     1
 67
     7
176
     1
 79
     3
176
     1
170
     0
176
     1
171
     0
176
     1
290
     0
176
     1
 93
        1
176
     1
 44
0.0
176
     1
173
     0
176
     1
  0
VISUALSTYLE
  5
30
102
{ACAD_REACTORS
330
2A
102
}
330
2A
100
AcDbVisualStyle
  2
3dWireframe
 70
     5
177
     2
291
     0
 71
     0
176
     1
 72
     2
176
     1
 73
     0
176
     1
 90
        0
176
     1
 40
-0.6
176
     1
 41
-30.0
176
     1
 62
     5
 63
     7
421
 16777215
176
     1
 74
     1
176
     1
 91
        4
176
     1
 64
     7
176
     1
 65
   257
176
     1
 75
     1
176
     1
175
     1
176
     1
 42
1.0
176
     1
 92
        0
176
     1
 66
   257
176
     1
 43
1.0
176
     1
 76
     1
176
     1
 77
     6
176
     1
 78
     2
176
     1
 67
     7
176
     1
 79
     5
176
     1
170
     0
176
     1
171
     0
176
     1
290
     0
176
     1
 93
        1
176
     1
 44
0.0
176
     1
173
     0
176
     1
  0
VISUALSTYLE
  5
32
102
{ACAD_REACTORS
330
2A
102
}
330
2A
100
AcDbVisualStyle
  2
Basic
 70
     7
177
     2
291
     1
 71
     1
176
     1
 72
     0
176
     1
 73
     1
176
     1
 90
        0
176
     1
 40
-0.6
176
     1
 41
-30.0
176
     1
 62
     5
 63
     7
421
 16777215
176
     1
 74
     0
176
     1
 91
        4
176
     1
 64
     7
176
     1
 65
   257
176
     1
 75
     1
176
     1
175
     1
176
     1
 42
1.0
176
     1
 92
        8
176
     1
 66
     7
176
     1
 43
1.0
176
     1
 76
     1
176
     1
 77
     6
176
     1
 78
     2
176
     1
 67
     7
176
     1
 79
     5
176
     1
170
     0
176
     1
171
     0
176
     1
290
     0
176
     1
 93
        1
176
     1
 44
0.0
176
     1
173
     0
176
     1
  0
VISUALSTYLE
  5
36
102
{ACAD_REACTORS
330
2A
102
}
330
2A
100
AcDbVisualStyle
  2
Brighten
 70
    12
177
     2
291
     1
 71
     2
176
     1
 72
     2
176
     1
 73
     0
176
     1
 90
        0
176
     1
 40
-0.6
176
     1
 41
-30.0
176
     1
 62
     5
 63
     7
421
 16777215
176
     1
 74
     1
176
     1
 91
        4
176
     1
 64
     7
176
     1
 65
   257
176
     1
 75
     1
176
     1
175
     1
176
     1
 42
1.0
176
     1
 92
        8
176
     1
 66
     7
176
     1
 43
1.0
176
     1
 76
     1
176
     1
 77
     6
176
     1
 78
     2
176
     1
 67
     7
176
     1
 79
     5
176
     1
170
     0
176
     1
171
     0
176
     1
290
     0
176
     1
 93
        1
176
     1
 44
50.0
176
     1
173
     0
176
     1
  0
VISUALSTYLE
  5
3A
102
{ACAD_REACTORS
330
2A
102
}
330
2A
100
AcDbVisualStyle
  2
ColorChange
 70
    16
177
     2
291
     1
 71
     2
176
     1
 72
     2
176
     1
 73
     3
176
     1
 90
        0
176
     1
 40
-0.6
176
     1
 41
-30.0
176
     1
 62
     5
 63
     8
421
  8421504
176
     1
 74
     1
176
     1
 91
        4
176
     1
 64
     7
176
     1
 65
   257
176
     1
 75
     1
176
     1
175
     1
176
     1
 42
1.0
176
     1
 92
        8
176
     1
 66
     8
424
  8421504
176
     1
 43
1.0
176
     1
 76
     1
176
     1
 77
     6
176
     1
 78
     2
176
     1
 67
     7
176
     1
 79
     5
176
     1
170
     0
176
     1
171
     0
176
     1
290
     0
176
     1
 93
        1
176
     1
 44
0.0
176
     1
173
     0
176
     1
  0
VISUALSTYLE
  5
34
102
{ACAD_REACTORS
330
2A
102
}
330
2A
100
AcDbVisualStyle
  2
Conceptual
 70
     9
177
     2
291
     0
 71
     3
176
     1
 72
     2
176
     1
 73
     0
176
     1
 90
        0
176
     1
 40
-0.6
176
     1
 41
-30.0
176
     1
 62
     5
 63
     7
421
 16777215
176
     1
 74
     2
176
     1
 91
        2
176
     1
 64
     7
176
     1
 65
   257
176
     1
 75
     1
176
     1
175
     1
176
     1
 42
40.0
176
     1
 92
        8
176
     1
 66
     7
176
     1
 43
1.0
176
     1
 76
     1
176
     1
 77
     6
176
     1
 78
     2
176
     1
 67
     7
176
     1
 79
     3
176
     1
170
     0
176
     1
171
     0
176
     1
290
     0
176
     1
 93
        1
176
     1
 44
0.0
176
     1
173
     0
176
     1
  0
VISUALSTYLE
  5
35
102
{ACAD_REACTORS
330
2A
102
}
330
2A
100
AcDbVisualStyle
  2
Dim
 70
    11
177
     2
291
     1
 71
     2
176
     1
 72
     2
176
     1
 73
     0
176
     1
 90
        0
176
     1
 40
-0.6
176
     1
 41
-30.0
176
     1
 62
     5
 63
     7
421
 16777215
176
     1
 74
     1
176
     1
 91
        4
176
     1
 64
     7
176
     1
 65
   257
176
     1
 75
     1
176
     1
175
     1
176
     1
 42
1.0
176
     1
 92
        8
176
     1
 66
     7
176
     1
 43
1.0
176
     1
 76
     1
176
     1
 77
     6
176
     1
 78
     2
176
     1
 67
     7
176
     1
 79
     5
176
     1
170
     0
176
     1
171
     0
176
     1
290
     0
176
     1
 93
        1
176
     1
 44
-50.0
176
     1
173
     0
176
     1
  0
VISUALSTYLE
  5
39
102
{ACAD_REACTORS
330
2A
102
}
330
2A
100
AcDbVisualStyle
  2
Facepattern
 70
    15
177
     2
291
     1
 71
     2
176
     1
 72
     2
176
     1
 73
     0
176
     1
 90
        0
176
     1
 40
-0.6
176
     1
 41
-30.0
176
     1
 62
     5
 63
     7
421
 16777215
176
     1
 74
     1
176
     1
 91
        4
176
     1
 64
     7
176
     1
 65
   257
176
     1
 75
     1
176
     1
175
     1
176
     1
 42
1.0
176
     1
 92
        8
176
     1
 66
     7
176
     1
 43
1.0
176
     1
 76
     1
176
     1
 77
     6
176
     1
 78
     2
176
     1
 67
     7
176
     1
 79
     5
176
     1
170
     0
176
     1
171
     0
176
     1
290
     0
176
     1
 93
        1
176
     1
 44
0.0
176
     1
173
     0
176
     1
  0
VISUALSTYLE
  5
2B
102
{ACAD_REACTORS
330
2A
102
}
330
2A
100
AcDbVisualStyle
  2
Flat
 70
     0
177
     2
291
     1
 71
     2
176
     1
 72
     1
176
     1
 73
     1
176
     1
 90
        2
176
     1
 40
-0.6
176
     1
 41
30.0
176
     1
 62
     5
 63
     7
421
 16777215
176
     1
 74
     0
176
     1
 91
        4
176
     1
 64
     7
176
     1
 65
   257
176
     1
 75
     1
176
     1
175
     1
176
     1
 42
1.0
176
     1
 92
        8
176
     1
 66
     7
176
     1
 43
1.0
176
     1
 76
     1
176
     1
 77
     6
176
     1
 78
     2
176
     1
 67
     7
176
     1
 79
     5
176
     1
170
     0
176
     1
171
     0
176
     1
290
     0
176
     1
 93
       13
176
     1
 44
0.0
176
     1
173
     0
176
     1
  0
VISUALSTYLE
  5
2C
102
{ACAD_REACTORS
330
2A
102
}
330
2A
100
AcDbVisualStyle
  2
FlatWithEdges
 70
     1
177
     2
291
     1
 71
     2
176
     1
 72
     1
176
     1
 73
     1
176
     1
 90
        2
176
     1
 40
-0.6
176
     1
 41
30.0
176
     1
 62
     5
 63
     7
421
 16777215
176
     1
 74
     1
176
     1
 91
        4
176
     1
 64
     7
176
     1
 65
   257
176
     1
 75
     1
176
     1
175
     1
176
     1
 42
1.0
176
     1
 92
        0
176
     1
 66
   257
176
     1
 43
1.0
176
     1
 76
     1
176
     1
 77
     6
176
     1
 78
     2
176
     1
 67
     7
176
     1
 79
     5
176
     1
170
     0
176
     1
171
     0
176
     1
290
     0
176
     1
 93
       13
176
     1
 44
0.0
176
     1
173
     0
176
     1
  0
VISUALSTYLE
  5
2D
102
{ACAD_REACTORS
330
2A
102
}
330
2A
100
AcDbVisualStyle
  2
Gouraud
 70
     2
177
     2
291
     1
 71
     2
176
     1
 72
     2
176
     1
 73
     1
176
     1
 90
        2
176
     1
 40
-0.6
176
     1
 41
30.0
176
     1
 62
     5
 63
     7
421
 16777215
176
     1
 74
     0
176
     1
 91
        4
176
     1
 64
     7
176
     1
 65
   257
176
     1
 75
     1
176
     1
175
     1
176
     1
 42
1.0
176
     1
 92
        0
176
     1
 66
     7
176
     1
 43
1.0
176
     1
 76
     1
176
     1
 77
     6
176
     1
 78
     2
176
     1
 67
     7
176
     1
 79
     5
176
     1
170
     0
176
     1
171
     0
176
     1
290
     0
176
     1
 93
       13
176
     1
 44
0.0
176
     1
173
     0
176
     1
  0
VISUALSTYLE
  5
2E
102
{ACAD_REACTORS
330
2A
102
}
330
2A
100
AcDbVisualStyle
  2
GouraudWithEdges
 70
     3
177
     2
291
     1
 71
     2
176
     1
 72
     2
176
     1
 73
     1
176
     1
 90
        2
176
     1
 40
-0.6
176
     1
 41
30.0
176
     1
 62
     5
 63
     7
421
 16777215
176
     1
 74
     1
176
     1
 91
        4
176
     1
 64
     7
176
     1
 65
   257
176
     1
 75
     1
176
     1
175
     1
176
     1
 42
1.0
176
     1
 92
        0
176
     1
 66
   257
176
     1
 43
1.0
176
     1
 76
     1
176
     1
 77
     6
176
     1
 78
     2
176
     1
 67
     7
176
     1
 79
     5
176
     1
170
     0
176
     1
171
     0
176
     1
290
     0
176
     1
 93
       13
176
     1
 44
0.0
176
     1
173
     0
176
     1
  0
VISUALSTYLE
  5
38
102
{ACAD_REACTORS
330
2A
102
}
330
2A
100
AcDbVisualStyle
  2
Linepattern
 70
    14
177
     2
291
     1
 71
     2
176
     1
 72
     2
176
     1
 73
     0
176
     1
 90
        0
176
     1
 40
-0.6
176
     1
 41
-30.0
176
     1
 62
     5
 63
     7
421
 16777215
176
     1
 74
     1
176
     1
 91
        4
176
     1
 64
     7
176
     1
 65
   257
176
     1
 75
     7
176
     1
175
     7
176
     1
 42
1.0
176
     1
 92
        8
176
     1
 66
     7
176
     1
 43
1.0
176
     1
 76
     1
176
     1
 77
     6
176
     1
 78
     2
176
     1
 67
     7
176
     1
 79
     5
176
     1
170
     0
176
     1
171
     0
176
     1
290
     0
176
     1
 93
        1
176
     1
 44
0.0
176
     1
173
     0
176
     1
  0
VISUALSTYLE
  5
33
102
{ACAD_REACTORS
330
2A
102
}
330
2A
100
AcDbVisualStyle
  2
Realistic
 70
     8
177
     2
291
     0
 71
     2
176
     1
 72
     2
176
     1
 73
     0
176
     1
 90
        0
176
     1
 40
-0.6
176
     1
 41
-30.0
176
     1
 62
     5
 63
     7
421
 16777215
176
     1
 74
     1
176
     1
 91
        0
176
     1
 64
     7
176
     1
 65
   257
176
     1
 75
     1
176
     1
175
     1
176
     1
 42
1.0
176
     1
 92
        8
176
     1
 66
     8
424
  7895160
176
     1
 43
1.0
176
     1
 76
     1
176
     1
 77
     6
176
     1
 78
     2
176
     1
 67
     7
176
     1
 79
     5
176
     1
170
     0
176
     1
171
     0
176
     1
290
     0
176
     1
 93
       13
176
     1
 44
0.0
176
     1
173
     0
176
     1
  0
VISUALSTYLE
  5
37
102
{ACAD_REACTORS
330
2A
102
}
330
2A
100
AcDbVisualStyle
  2
Thicken
 70
    13
177
     2
291
     1
 71
     2
176
     1
 72
     2
176
     1
 73
     0
176
     1
 90
        0
176
     1
 40
-0.6
176
     1
 41
-30.0
176
     1
 62
     5
 63
     7
421
 16777215
176
     1
 74
     1
176
     1
 91
        4
176
     1
 64
     7
176
     1
 65
   257
176
     1
 75
     1
176
     1
175
     1
176
     1
 42
1.0
176
     1
 92
       12
176
     1
 66
     7
176
     1
 43
1.0
176
     1
 76
     1
176
     1
 77
     6
176
     1
 78
     2
176
     1
 67
     7
176
     1
 79
     5
176
     1
170
     0
176
     1
171
     0
176
     1
290
     0
176
     1
 93
        1
176
     1
 44
0.0
176
     1
173
     0
176
     1
  0
ENDSEC
  0
EOF
