  0
SECTION
  2
HEADER
  9
$ACADVER
  1
AC1024
  9
$ACADMAINTVER
 70
     6
  9
$DWGCODEPAGE
  3
UNDEFINED
  9
$INSBASE
 10
0.0
 20
0.0
 30
0.0
  9
$EXTMIN
 10
1.000000000000000E+20
 20
1.000000000000000E+20
 30
1.000000000000000E+20
  9
$EXTMAX
 10
-1.000000000000000E+20
 20
-1.000000000000000E+20
 30
-1.000000000000000E+20
  9
$LIMMIN
 10
0.0
 20
0.0
  9
$LIMMAX
 10
12.0
 20
9.0
  9
$ORTHOMODE
 70
     0
  9
$REGENMODE
 70
     1
  9
$FILLMODE
 70
     1
  9
$QTEXTMODE
 70
     0
  9
$MIRRTEXT
 70
     1
  9
$LTSCALE
 40
1.0
  9
$ATTMODE
 70
     1
  9
$TEXTSIZE
 40
0.2
  9
$TRACEWID
 40
0.05
  9
$TEXTSTYLE
  7
Standard
  9
$CLAYER
  8
0
  9
$CELTYPE
  6
ByLayer
  9
$CECOLOR
 62
   256
  9
$CELTSCALE
 40
1.0
  9
$DISPSILH
 70
     0
  9
$DIMSCALE
 40
1.0
  9
$DIMASZ
 40
0.18
  9
$DIMEXO
 40
0.0625
  9
$DIMDLI
 40
0.38
  9
$DIMRND
 40
0.0
  9
$DIMDLE
 40
0.0
  9
$DIMEXE
 40
0.18
  9
$DIMTP
 40
0.0
  9
$DIMTM
 40
0.0
  9
$DIMTXT
 40
0.18
  9
$DIMCEN
 40
0.09
  9
$DIMTSZ
 40
0.0
  9
$DIMTOL
 70
     0
  9
$DIMLIM
 70
     0
  9
$DIMTIH
 70
     1
  9
$DIMTOH
 70
     1
  9
$DIMSE1
 70
     0
  9
$DIMSE2
 70
     0
  9
$DIMTAD
 70
     0
  9
$DIMZIN
 70
     0
  9
$DIMBLK
  1

  9
$DIMASO
 70
     1
  9
$DIMSHO
 70
     1
  9
$DIMPOST
  1

  9
$DIMAPOST
  1

  9
$DIMALT
 70
     0
  9
$DIMALTD
 70
     2
  9
$DIMALTF
 40
25.4
  9
$DIMLFAC
 40
1.0
  9
$DIMTOFL
 70
     0
  9
$DIMTVP
 40
0.0
  9
$DIMTIX
 70
     0
  9
$DIMSOXD
 70
     0
  9
$DIMSAH
 70
     0
  9
$DIMBLK1
  1

  9
$DIMBLK2
  1

  9
$DIMSTYLE
  2
Standard
  9
$DIMCLRD
 70
     0
  9
$DIMCLRE
 70
     0
  9
$DIMCLRT
 70
     0
  9
$DIMTFAC
 40
1.0
  9
$DIMGAP
 40
0.09
  9
$DIMJUST
 70
     0
  9
$DIMSD1
 70
     0
  9
$DIMSD2
 70
     0
  9
$DIMTOLJ
 70
     1
  9
$DIMTZIN
 70
     0
  9
$DIMALTZ
 70
     0
  9
$DIMALTTZ
 70
     0
  9
$DIMUPT
 70
     0
  9
$DIMDEC
 70
     4
  9
$DIMTDEC
 70
     4
  9
$DIMALTU
 70
     2
  9
$DIMALTTD
 70
     2
  9
$DIMTXSTY
  7
Standard
  9
$DIMAUNIT
 70
     0
  9
$DIMADEC
 70
     0
  9
$DIMALTRND
 40
0.0
  9
$DIMAZIN
 70
     0
  9
$DIMDSEP
 70
    46
  9
$DIMATFIT
 70
     3
  9
$DIMFRAC
 70
     0
  9
$DIMLDRBLK
  1

  9
$DIMLUNIT
 70
     2
  9
$DIMLWD
 70
    -2
  9
$DIMLWE
 70
    -2
  9
$DIMTMOVE
 70
     0
  9
$DIMFXL
 40
1.0
  9
$DIMFXLON
 70
     0
  9
$DIMJOGANG
 40
0.7853981633974483
  9
$DIMTFILL
 70
     0
  9
$DIMTFILLCLR
 70
     0
  9
$DIMARCSYM
 70
     0
  9
$DIMLTYPE
  6

  9
$DIMLTEX1
  6

  9
$DIMLTEX2
  6

  9
$DIMTXTDIRECTION
 70
     0
  9
$LUNITS
 70
     2
  9
$LUPREC
 70
     4
  9
$SKETCHINC
 40
0.1
  9
$FILLETRAD
 40
0.5
  9
$AUNITS
 70
     0
  9
$AUPREC
 70
     0
  9
$MENU
  1
.
  9
$ELEVATION
 40
0.0
  9
$PELEVATION
 40
0.0
  9
$THICKNESS
 40
0.0
  9
$LIMCHECK
 70
     0
  9
$CHAMFERA
 40
0.5
  9
$CHAMFERB
 40
0.5
  9
$CHAMFERC
 40
1.0
  9
$CHAMFERD
 40
0.0
  9
$SKPOLY
 70
     0
  9
$TDCREATE
 40
2457917.592025463
  9
$TDUCREATE
 40
2457917.217025463
  9
$TDUPDATE
 40
2457917.592025463
  9
$TDUUPDATE
 40
2457917.217025463
  9
$TDINDWG
 40
0.0000000116
  9
$TDUSRTIMER
 40
0.0000000116
  9
$USRTIMER
 70
     1
  9
$ANGBASE
 50
0.0
  9
$ANGDIR
 70
     0
  9
$PDMODE
 70
     0
  9
$PDSIZE
 40
0.0
  9
$PLINEWID
 40
0.0
  9
$SPLFRAME
 70
     0
  9
$SPLINETYPE
 70
     6
  9
$SPLINESEGS
 70
     8
  9
$HANDSEED
  5
13A
  9
$SURFTAB1
 70
     6
  9
$SURFTAB2
 70
     6
  9
$SURFTYPE
 70
     6
  9
$SURFU
 70
     6
  9
$SURFV
 70
     6
  9
$UCSBASE
  2

  9
$UCSNAME
  2

  9
$UCSORG
 10
0.0
 20
0.0
 30
0.0
  9
$UCSXDIR
 10
1.0
 20
0.0
 30
0.0
  9
$UCSYDIR
 10
0.0
 20
1.0
 30
0.0
  9
$UCSORTHOREF
  2

  9
$UCSORTHOVIEW
 70
     0
  9
$UCSORGTOP
 10
0.0
 20
0.0
 30
0.0
  9
$UCSORGBOTTOM
 10
0.0
 20
0.0
 30
0.0
  9
$UCSORGLEFT
 10
0.0
 20
0.0
 30
0.0
  9
$UCSORGRIGHT
 10
0.0
 20
0.0
 30
0.0
  9
$UCSORGFRONT
 10
0.0
 20
0.0
 30
0.0
  9
$UCSORGBACK
 10
0.0
 20
0.0
 30
0.0
  9
$PUCSBASE
  2

  9
$PUCSNAME
  2

  9
$PUCSORG
 10
0.0
 20
0.0
 30
0.0
  9
$PUCSXDIR
 10
1.0
 20
0.0
 30
0.0
  9
$PUCSYDIR
 10
0.0
 20
1.0
 30
0.0
  9
$PUCSORTHOREF
  2

  9
$PUCSORTHOVIEW
 70
     0
  9
$PUCSORGTOP
 10
0.0
 20
0.0
 30
0.0
  9
$PUCSORGBOTTOM
 10
0.0
 20
0.0
 30
0.0
  9
$PUCSORGLEFT
 10
0.0
 20
0.0
 30
0.0
  9
$PUCSORGRIGHT
 10
0.0
 20
0.0
 30
0.0
  9
$PUCSORGFRONT
 10
0.0
 20
0.0
 30
0.0
  9
$PUCSORGBACK
 10
0.0
 20
0.0
 30
0.0
  9
$USERI1
 70
     0
  9
$USERI2
 70
     0
  9
$USERI3
 70
     0
  9
$USERI4
 70
     0
  9
$USERI5
 70
     0
  9
$USERR1
 40
0.0
  9
$USERR2
 40
0.0
  9
$USERR3
 40
0.0
  9
$USERR4
 40
0.0
  9
$USERR5
 40
0.0
  9
$WORLDVIEW
 70
     1
  9
$SHADEDGE
 70
     3
  9
$SHADEDIF
 70
    70
  9
$TILEMODE
 70
     1
  9
$MAXACTVP
 70
    64
  9
$PINSBASE
 10
0.0
 20
0.0
 30
0.0
  9
$PLIMCHECK
 70
     0
  9
$PEXTMIN
 10
1.000000000000000E+20
 20
1.000000000000000E+20
 30
1.000000000000000E+20
  9
$PEXTMAX
 10
-1.000000000000000E+20
 20
-1.000000000000000E+20
 30
-1.000000000000000E+20
  9
$PLIMMIN
 10
0.0
 20
0.0
  9
$PLIMMAX
 10
12.0
 20
9.0
  9
$UNITMODE
 70
     0
  9
$VISRETAIN
 70
     1
  9
$PLINEGEN
 70
     0
  9
$PSLTSCALE
 70
     1
  9
$TREEDEPTH
 70
  3020
  9
$CMLSTYLE
  2
Standard
  9
$CMLJUST
 70
     0
  9
$CMLSCALE
 40
1.0
  9
$PROXYGRAPHICS
 70
     1
  9
$MEASUREMENT
 70
     0
  9
$CELWEIGHT
370
    -1
  9
$ENDCAPS
280
     0
  9
$JOINSTYLE
280
     0
  9
$LWDISPLAY
290
     1
  9
$INSUNITS
 70
     1
  9
$HYPERLINKBASE
  1

  9
$STYLESHEET
  1

  9
$XEDIT
290
     1
  9
$CEPSNTYPE
380
     0
  9
$PSTYLEMODE
290
     1
  9
$FINGERPRINTGUID
  2
{30856407-4040-F04F-4138-32D4B5F902CC}
  9
$VERSIONGUID
  2
{FAEB1C32-E019-11D5-929B-00C0DF256EC4}
  9
$EXTNAMES
290
     1
  9
$PSVPSCALE
 40
0.0
  9
$OLESTARTUP
290
     0
  9
$SORTENTS
280
   127
  9
$INDEXCTL
280
     0
  9
$HIDETEXT
280
     1
  9
$XCLIPFRAME
280
     2
  9
$HALOGAP
280
     0
  9
$OBSCOLOR
 70
   257
  9
$OBSLTYPE
280
     0
  9
$INTERSECTIONDISPLAY
280
     0
  9
$INTERSECTIONCOLOR
 70
   257
  9
$DIMASSOC
280
     2
  9
$PROJECTNAME
  1

  9
$CAMERADISPLAY
290
     0
  9
$LENSLENGTH
 40
50.0
  9
$CAMERAHEIGHT
 40
0.0
  9
$STEPSPERSEC
 40
2.0
  9
$STEPSIZE
 40
6.0
  9
$3DDWFPREC
 40
2.0
  9
$PSOLWIDTH
 40
0.25
  9
$PSOLHEIGHT
 40
4.0
  9
$LOFTANG1
 40
1.570796326794897
  9
$LOFTANG2
 40
1.570796326794897
  9
$LOFTMAG1
 40
0.0
  9
$LOFTMAG2
 40
0.0
  9
$LOFTPARAM
 70
     7
  9
$LOFTNORMALS
280
     1
  9
$LATITUDE
 40
37.795
  9
$LONGITUDE
 40
-122.394
  9
$NORTHDIRECTION
 40
0.0
  9
$TIMEZONE
 70
 -8000
  9
$LIGHTGLYPHDISPLAY
280
     1
  9
$TILEMODELIGHTSYNCH
280
     1
  9
$CMATERIAL
347
3C
  9
$SOLIDHIST
280
     1
  9
$SHOWHIST
280
     1
  9
$DWFFRAME
280
     2
  9
$DGNFRAME
280
     2
  9
$REALWORLDSCALE
290
     1
  9
$INTERFERECOLOR
 62
   256
  9
$CSHADOW
280
     0
  9
$SHADOWPLANELOCATION
 40
0.0
  0
ENDSEC
  0
SECTION
  2
CLASSES
  0
CLASS
  1
ACDBDICTIONARYWDFLT
  2
AcDbDictionaryWithDefault
  3
ObjectDBX Classes
 90
        0
 91
        4
280
     0
281
     0
  0
CLASS
  1
VISUALSTYLE
  2
AcDbVisualStyle
  3
ObjectDBX Classes
 90
     4095
 91
        4
280
     0
281
     0
  0
CLASS
  1
MATERIAL
  2
AcDbMaterial
  3
ObjectDBX Classes
 90
     1153
 91
        4
280
     0
281
     0
  0
CLASS
  1
SUN
  2
AcDbSun
  3
SCENEOE
 90
     1024
 91
        4
280
     0
281
     0
  0
ENDSEC
  0
SECTION
  2
TABLES
  0
TABLE
  2
VPORT
  5
8
330
0
100
AcDbSymbolTable
 70
     1
  0
VPORT
  5
29
330
8
100
AcDbSymbolTableRecord
100
AcDbViewportTableRecord
  2
*Active
 70
     0
 10
0.0
 20
0.0
 11
1.0
 21
1.0
 12
0.0
 22
0.0
 13
0.0
 23
0.0
 14
0.5
 24
0.5
 15
0.5
 25
0.5
 16
0.0
 26
0.0
 36
1.0
 17
91.00082462281999
 27
-128.4993055234307
 37
0.0
 40
256.9986110468615
 41
0.7081814508812795
 42
50.0
 43
0.0
 44
0.0
 50
0.0
 51
0.0
 71
     0
 72
   100
 73
     1
 74
     3
 75
     0
 76
     0
 77
     0
 78
     0
281
     0
 65
     1
110
0.0
120
0.0
130
0.0
111
1.0
121
0.0
131
0.0
112
0.0
122
1.0
132
0.0
 79
     0
146
0.0
 60
     3
 61
     5
292
     1
282
     1
141
0.0
142
0.0
 63
   250
361
3F
  0
ENDTAB
  0
TABLE
  2
LTYPE
  5
5
330
0
100
AcDbSymbolTable
 70
     1
  0
LTYPE
  5
14
330
5
100
AcDbSymbolTableRecord
100
AcDbLinetypeTableRecord
  2
ByBlock
 70
     0
  3

 72
    65
 73
     0
 40
0.0
  0
LTYPE
  5
15
330
5
100
AcDbSymbolTableRecord
100
AcDbLinetypeTableRecord
  2
ByLayer
 70
     0
  3

 72
    65
 73
     0
 40
0.0
  0
LTYPE
  5
16
330
5
100
AcDbSymbolTableRecord
100
AcDbLinetypeTableRecord
  2
Continuous
 70
     0
  3
Solid line
 72
    65
 73
     0
 40
0.0
  0
ENDTAB
  0
TABLE
  2
LAYER
  5
2
330
0
100
AcDbSymbolTable
 70
     2
  0
LAYER
  5
10
330
2
100
AcDbSymbolTableRecord
100
AcDbLayerTableRecord
  2
0
 70
     0
 62
     7
  6
Continuous
370
    -3
390
F
347
3E
  0
LAYER
  5
40
330
2
100
AcDbSymbolTableRecord
100
AcDbLayerTableRecord
  2
_U+30EC_U+30A4_U+30E4_U+30FC 1
 70
     0
 62
     7
  6
Continuous
370
    -3
390
F
347
3E
  0
ENDTAB
  0
TABLE
  2
STYLE
  5
3
330
0
100
AcDbSymbolTable
 70
     1
  0
STYLE
  5
11
330
3
100
AcDbSymbolTableRecord
100
AcDbTextStyleTableRecord
  2
Standard
 70
     0
 40
0.0
 41
1.0
 50
0.0
 71
     0
 42
0.2
  3
txt
  4

  0
ENDTAB
  0
TABLE
  2
VIEW
  5
6
330
0
100
AcDbSymbolTable
 70
     0
  0
ENDTAB
  0
TABLE
  2
UCS
  5
7
330
0
100
AcDbSymbolTable
 70
     0
  0
ENDTAB
  0
TABLE
  2
APPID
  5
9
330
0
100
AcDbSymbolTable
 70
     1
  0
APPID
  5
12
330
9
100
AcDbSymbolTableRecord
100
AcDbRegAppTableRecord
  2
ACAD
 70
     0
  0
ENDTAB
  0
TABLE
  2
DIMSTYLE
  5
A
330
0
100
AcDbSymbolTable
 70
     1
100
AcDbDimStyleTable
  0
DIMSTYLE
105
27
330
A
100
AcDbSymbolTableRecord
100
AcDbDimStyleTableRecord
  2
Standard
 70
     0
178
     0
340
11
  0
ENDTAB
  0
TABLE
  2
BLOCK_RECORD
  5
1
330
0
100
AcDbSymbolTable
 70
     8
  0
BLOCK_RECORD
  5
1F
330
1
100
AcDbSymbolTableRecord
100
AcDbBlockTableRecord
  2
*Model_Space
340
22
 70
     0
280
     1
281
     0
  0
BLOCK_RECORD
  5
1B
330
1
100
AcDbSymbolTableRecord
100
AcDbBlockTableRecord
  2
*Paper_Space
340
1E
 70
     0
280
     1
281
     0
  0
BLOCK_RECORD
  5
23
330
1
100
AcDbSymbolTableRecord
100
AcDbBlockTableRecord
  2
*Paper_Space0
340
26
 70
     0
280
     1
281
     0
  0
BLOCK_RECORD
  5
E1
330
1
100
AcDbSymbolTableRecord
100
AcDbBlockTableRecord
  2
block 2
340
0
102
{BLKREFS
331
E2
102
}
 70
     0
280
     1
281
     0
  0
BLOCK_RECORD
  5
E7
330
1
100
AcDbSymbolTableRecord
100
AcDbBlockTableRecord
  2
block 3
340
0
102
{BLKREFS
331
E8
102
}
 70
     0
280
     1
281
     0
  0
BLOCK_RECORD
  5
ED
330
1
100
AcDbSymbolTableRecord
100
AcDbBlockTableRecord
  2
block 4
340
0
102
{BLKREFS
331
EE
102
}
 70
     0
280
     1
281
     0
  0
BLOCK_RECORD
  5
F3
330
1
100
AcDbSymbolTableRecord
100
AcDbBlockTableRecord
  2
block 5
340
0
102
{BLKREFS
331
F4
102
}
 70
     0
280
     1
281
     0
  0
BLOCK_RECORD
  5
F9
330
1
100
AcDbSymbolTableRecord
100
AcDbBlockTableRecord
  2
block 6
340
0
102
{BLKREFS
331
FA
102
}
 70
     0
280
     1
281
     0
  0
BLOCK_RECORD
  5
115
330
1
100
AcDbSymbolTableRecord
100
AcDbBlockTableRecord
  2
block 7
340
0
102
{BLKREFS
331
116
102
}
 70
     0
280
     1
281
     0
  0
BLOCK_RECORD
  5
11D
330
1
100
AcDbSymbolTableRecord
100
AcDbBlockTableRecord
  2
block 8
340
0
102
{BLKREFS
331
11E
102
}
 70
     0
280
     1
281
     0
  0
ENDTAB
  0
ENDSEC
  0
SECTION
  2
BLOCKS
  0
BLOCK
  5
20
330
1F
100
AcDbEntity
  8
0
100
AcDbBlockBegin
  2
*Model_Space
 70
     0
 10
0.0
 20
0.0
 30
0.0
  3
*Model_Space
  1

  0
ENDBLK
  5
21
330
1F
100
AcDbEntity
  8
0
100
AcDbBlockEnd
  0
BLOCK
  5
1C
330
1B
100
AcDbEntity
 67
     1
  8
0
100
AcDbBlockBegin
  2
*Paper_Space
 70
     0
 10
0.0
 20
0.0
 30
0.0
  3
*Paper_Space
  1

  0
ENDBLK
  5
1D
330
1B
100
AcDbEntity
 67
     1
  8
0
100
AcDbBlockEnd
  0
BLOCK
  5
24
330
23
100
AcDbEntity
  8
0
100
AcDbBlockBegin
  2
*Paper_Space0
 70
     0
 10
0.0
 20
0.0
 30
0.0
  3
*Paper_Space0
  1

  0
ENDBLK
  5
25
330
23
100
AcDbEntity
  8
0
100
AcDbBlockEnd
  0
BLOCK
  5
E3
330
E1
100
AcDbEntity
  8
0
100
AcDbBlockBegin
  2
block 2
 70
     0
 10
0.0
 20
0.0
 30
0.0
  3
block 2
  1

  0
SPLINE
  5
E5
330
E1
100
AcDbEntity
  8
_U+30EC_U+30A4_U+30E4_U+30FC 1
370
     0
100
AcDbSpline
210
0.0
220
0.0
230
1.0
 70
    11
 71
     3
 72
    62
 73
    58
 74
     0
 42
0.0000000001
 43
0.0000000001
 12
1.0
 22
0.0
 32
0.0
 13
1.0
 23
0.0
 33
0.0
 40
0.0
 40
0.0
 40
0.0
 40
0.0
 40
1.0
 40
1.0
 40
1.0
 40
2.0
 40
2.0
 40
2.0
 40
3.0
 40
3.0
 40
3.0
 40
4.0
 40
4.0
 40
4.0
 40
5.0
 40
5.0
 40
5.0
 40
6.0
 40
6.0
 40
6.0
 40
7.0
 40
7.0
 40
7.0
 40
8.0
 40
8.0
 40
8.0
 40
9.0
 40
9.0
 40
9.0
 40
10.0
 40
10.0
 40
10.0
 40
11.0
 40
11.0
 40
11.0
 40
12.0
 40
12.0
 40
12.0
 40
13.0
 40
13.0
 40
13.0
 40
14.0
 40
14.0
 40
14.0
 40
15.0
 40
15.0
 40
15.0
 40
16.0
 40
16.0
 40
16.0
 40
17.0
 40
17.0
 40
17.0
 40
18.0
 40
18.0
 40
18.0
 40
19.0
 40
19.0
 40
19.0
 40
19.0
 10
72.46792804177885
 20
-110.117826307106
 30
0.0
 10
72.36629772496399
 20
-110.117826307106
 30
0.0
 10
72.1334092701611
 20
-110.0966389698717
 30
0.0
 10
71.99991182010767
 20
-109.9104315588939
 30
0.0
 10
71.92084687872118
 20
-109.798293700849
 30
0.0
 10
71.91636825459035
 20
-109.6989026960996
 30
0.0
 10
71.91188963045953
 20
-109.6143256019367
 30
0.0
 10
71.91188963045953
 20
-109.6143256019367
 30
0.0
 10
72.14684514255357
 20
-109.6143256019367
 30
0.0
 10
72.14684514255357
 20
-109.6143256019367
 30
0.0
 10
72.14925670939324
 20
-109.6883951548696
 30
0.0
 10
72.1604532697203
 20
-109.9231784121893
 30
0.0
 10
72.46344941764804
 20
-109.9231784121893
 30
0.0
 10
72.61038274009394
 20
-109.9231784121893
 30
0.0
 10
72.77316350177199
 20
-109.853415228613
 30
0.0
 10
72.77316350177199
 20
-109.6248331431667
 30
0.0
 10
72.77316350177199
 20
-109.5085611705395
 30
0.0
 10
72.73251137504604
 20
-109.4598130694232
 30
0.0
 10
72.69857718451632
 20
-109.4281181909589
 30
0.0
 10
72.61951224312985
 20
-109.3540486380261
 30
0.0
 10
72.49514429611233
 20
-109.3414740395049
 30
0.0
 10
72.43623316331455
 20
-109.3414740395049
 30
0.0
 10
72.41590709995158
 20
-109.3414740395049
 30
0.0
 10
72.37749428529105
 20
-109.3435410967961
 30
0.0
 10
72.34821097366643
 20
-109.3476752113784
 30
0.0
 10
72.34821097366643
 20
-109.3476752113784
 30
0.0
 10
72.34821097366643
 20
-109.1530273164617
 30
0.0
 10
72.34821097366643
 20
-109.1530273164617
 30
0.0
 10
72.38886310039237
 20
-109.1594007431095
 30
0.0
 10
72.43399385124914
 20
-109.1616400551749
 30
0.0
 10
72.44088404221965
 20
-109.1616400551749
 30
0.0
 10
72.51099173534448
 20
-109.1616400551749
 30
0.0
 10
72.72338187201014
 20
-109.1404527179406
 30
0.0
 10
72.72338187201014
 20
-108.9034301485554
 30
0.0
 10
72.72338187201014
 20
-108.7258354762908
 30
0.0
 10
72.58333874053473
 20
-108.6707139485268
 30
0.0
 10
72.46568872971345
 20
-108.6707139485268
 30
0.0
 10
72.18301864514869
 20
-108.6707139485268
 30
0.0
 10
72.17406139688704
 20
-108.9034301485554
 30
0.0
 10
72.16958277275621
 20
-108.9754326441971
 30
0.0
 10
72.16958277275621
 20
-108.9754326441971
 30
0.0
 10
71.95254175718549
 20
-108.9754326441971
 30
0.0
 10
71.95254175718549
 20
-108.9754326441971
 30
0.0
 10
71.96149900544712
 20
-108.8505479328568
 30
0.0
 10
71.99095457184602
 20
-108.473998996319
 30
0.0
 10
72.47929685688018
 20
-108.473998996319
 30
0.0
 10
72.71890324787931
 20
-108.473998996319
 30
0.0
 10
72.976596390176
 20
-108.6009507649505
 30
0.0
 10
72.976596390176
 20
-108.8970567219077
 30
0.0
 10
72.976596390176
 20
-109.0832641328854
 30
0.0
 10
72.87496607336112
 20
-109.1657741697572
 30
0.0
 10
72.76868487764116
 20
-109.2270968693946
 30
0.0
 10
72.8341416918609
 20
-109.2546576332766
 30
0.0
 10
73.02861733200326
 20
-109.3351006128572
 30
0.0
 10
73.02861733200326
 20
-109.6122585446456
 30
0.0
 10
73.02861733200326
 20
-109.9507391760714
 30
0.0
 10
72.76420625351034
 20
-110.117826307106
 30
0.0
 10
72.46792804177885
 20
-110.117826307106
 30
0.0
  0
HATCH
  5
E6
330
E1
100
AcDbEntity
  8
_U+30EC_U+30A4_U+30E4_U+30FC 1
 62
   179
420
  2234388
100
AcDbHatch
 10
0.0
 20
0.0
 30
0.0
210
0.0
220
0.0
230
1.0
  2
SOLID
 70
     1
 71
     0
 91
        1
 92
        1
 93
        1
 72
     4
 94
        3
 73
     0
 74
     1
 95
       62
 96
       58
 40
0.0
 40
0.0
 40
0.0
 40
0.0
 40
1.0
 40
1.0
 40
1.0
 40
2.0
 40
2.0
 40
2.0
 40
3.0
 40
3.0
 40
3.0
 40
4.0
 40
4.0
 40
4.0
 40
5.0
 40
5.0
 40
5.0
 40
6.0
 40
6.0
 40
6.0
 40
7.0
 40
7.0
 40
7.0
 40
8.0
 40
8.0
 40
8.0
 40
9.0
 40
9.0
 40
9.0
 40
10.0
 40
10.0
 40
10.0
 40
11.0
 40
11.0
 40
11.0
 40
12.0
 40
12.0
 40
12.0
 40
13.0
 40
13.0
 40
13.0
 40
14.0
 40
14.0
 40
14.0
 40
15.0
 40
15.0
 40
15.0
 40
16.0
 40
16.0
 40
16.0
 40
17.0
 40
17.0
 40
17.0
 40
18.0
 40
18.0
 40
18.0
 40
19.0
 40
19.0
 40
19.0
 40
19.0
 10
72.46792804177885
 20
-110.117826307106
 10
72.36629772496399
 20
-110.117826307106
 10
72.1334092701611
 20
-110.0966389698717
 10
71.99991182010767
 20
-109.9104315588939
 10
71.92084687872118
 20
-109.798293700849
 10
71.91636825459035
 20
-109.6989026960996
 10
71.91188963045953
 20
-109.6143256019367
 10
71.91188963045953
 20
-109.6143256019367
 10
72.14684514255357
 20
-109.6143256019367
 10
72.14684514255357
 20
-109.6143256019367
 10
72.14925670939324
 20
-109.6883951548696
 10
72.1604532697203
 20
-109.9231784121893
 10
72.46344941764804
 20
-109.9231784121893
 10
72.61038274009394
 20
-109.9231784121893
 10
72.77316350177199
 20
-109.853415228613
 10
72.77316350177199
 20
-109.6248331431667
 10
72.77316350177199
 20
-109.5085611705395
 10
72.73251137504604
 20
-109.4598130694232
 10
72.69857718451632
 20
-109.4281181909589
 10
72.61951224312985
 20
-109.3540486380261
 10
72.49514429611233
 20
-109.3414740395049
 10
72.43623316331455
 20
-109.3414740395049
 10
72.41590709995158
 20
-109.3414740395049
 10
72.37749428529105
 20
-109.3435410967961
 10
72.34821097366643
 20
-109.3476752113784
 10
72.34821097366643
 20
-109.3476752113784
 10
72.34821097366643
 20
-109.1530273164617
 10
72.34821097366643
 20
-109.1530273164617
 10
72.38886310039237
 20
-109.1594007431095
 10
72.43399385124914
 20
-109.1616400551749
 10
72.44088404221965
 20
-109.1616400551749
 10
72.51099173534448
 20
-109.1616400551749
 10
72.72338187201014
 20
-109.1404527179406
 10
72.72338187201014
 20
-108.9034301485554
 10
72.72338187201014
 20
-108.7258354762908
 10
72.58333874053473
 20
-108.6707139485268
 10
72.46568872971345
 20
-108.6707139485268
 10
72.18301864514869
 20
-108.6707139485268
 10
72.17406139688704
 20
-108.9034301485554
 10
72.16958277275621
 20
-108.9754326441971
 10
72.16958277275621
 20
-108.9754326441971
 10
71.95254175718549
 20
-108.9754326441971
 10
71.95254175718549
 20
-108.9754326441971
 10
71.96149900544712
 20
-108.8505479328568
 10
71.99095457184602
 20
-108.473998996319
 10
72.47929685688018
 20
-108.473998996319
 10
72.71890324787931
 20
-108.473998996319
 10
72.976596390176
 20
-108.6009507649505
 10
72.976596390176
 20
-108.8970567219077
 10
72.976596390176
 20
-109.0832641328854
 10
72.87496607336112
 20
-109.1657741697572
 10
72.76868487764116
 20
-109.2270968693946
 10
72.8341416918609
 20
-109.2546576332766
 10
73.02861733200326
 20
-109.3351006128572
 10
73.02861733200326
 20
-109.6122585446456
 10
73.02861733200326
 20
-109.9507391760714
 10
72.76420625351034
 20
-110.117826307106
 10
72.46792804177885
 20
-110.117826307106
 97
        0
 97
        0
 75
     2
 76
     1
 98
        0
  0
ENDBLK
  5
E4
330
E1
100
AcDbEntity
  8
0
100
AcDbBlockEnd
  0
BLOCK
  5
E9
330
E7
100
AcDbEntity
  8
0
100
AcDbBlockBegin
  2
block 3
 70
     0
 10
0.0
 20
0.0
 30
0.0
  3
block 3
  1

  0
SPLINE
  5
EB
330
E7
100
AcDbEntity
  8
_U+30EC_U+30A4_U+30E4_U+30FC 1
370
     0
100
AcDbSpline
210
0.0
220
0.0
230
1.0
 70
    11
 71
     3
 72
    26
 73
    22
 74
     0
 42
0.0000000001
 43
0.0000000001
 12
1.0
 22
0.0
 32
0.0
 13
1.0
 23
0.0
 33
0.0
 40
0.0
 40
0.0
 40
0.0
 40
0.0
 40
1.0
 40
1.0
 40
1.0
 40
2.0
 40
2.0
 40
2.0
 40
3.0
 40
3.0
 40
3.0
 40
4.0
 40
4.0
 40
4.0
 40
5.0
 40
5.0
 40
5.0
 40
6.0
 40
6.0
 40
6.0
 40
7.0
 40
7.0
 40
7.0
 40
7.0
 10
117.6775715851639
 20
-123.7455905181087
 30
0.0
 10
117.6775715851639
 20
-123.7455905181087
 30
0.0
 10
116.5734184821414
 20
-123.7455905181087
 30
0.0
 10
116.5734184821414
 20
-123.7455905181087
 30
0.0
 10
116.5734184821414
 20
-123.7455905181087
 30
0.0
 10
116.5734184821414
 20
-124.0983682957983
 30
0.0
 10
116.5734184821414
 20
-124.0983682957983
 30
0.0
 10
116.5734184821414
 20
-124.0983682957983
 30
0.0
 10
116.4252793762756
 20
-124.0983682957983
 30
0.0
 10
116.4252793762756
 20
-124.0983682957983
 30
0.0
 10
116.4104654656891
 20
-123.7433512060433
 30
0.0
 10
116.2475124492367
 20
-123.6935695762815
 30
0.0
 10
116.1331352791264
 20
-123.6620469525914
 30
0.0
 10
116.1331352791264
 20
-123.6620469525914
 30
0.0
 10
116.1331352791264
 20
-123.5059841271096
 30
0.0
 10
116.1331352791264
 20
-123.5059841271096
 30
0.0
 10
116.1331352791264
 20
-123.5059841271096
 30
0.0
 10
117.6775715851639
 20
-123.5059841271096
 30
0.0
 10
117.6775715851639
 20
-123.5059841271096
 30
0.0
 10
117.6775715851639
 20
-123.5059841271096
 30
0.0
 10
117.6775715851639
 20
-123.7455905181087
 30
0.0
 10
117.6775715851639
 20
-123.7455905181087
 30
0.0
  0
HATCH
  5
EC
330
E7
100
AcDbEntity
  8
_U+30EC_U+30A4_U+30E4_U+30FC 1
 62
   179
420
  2234388
100
AcDbHatch
 10
0.0
 20
0.0
 30
0.0
210
0.0
220
0.0
230
1.0
  2
SOLID
 70
     1
 71
     0
 91
        1
 92
        1
 93
        1
 72
     4
 94
        3
 73
     0
 74
     1
 95
       26
 96
       22
 40
0.0
 40
0.0
 40
0.0
 40
0.0
 40
1.0
 40
1.0
 40
1.0
 40
2.0
 40
2.0
 40
2.0
 40
3.0
 40
3.0
 40
3.0
 40
4.0
 40
4.0
 40
4.0
 40
5.0
 40
5.0
 40
5.0
 40
6.0
 40
6.0
 40
6.0
 40
7.0
 40
7.0
 40
7.0
 40
7.0
 10
117.6775715851639
 20
-123.7455905181087
 10
117.6775715851639
 20
-123.7455905181087
 10
116.5734184821414
 20
-123.7455905181087
 10
116.5734184821414
 20
-123.7455905181087
 10
116.5734184821414
 20
-123.7455905181087
 10
116.5734184821414
 20
-124.0983682957983
 10
116.5734184821414
 20
-124.0983682957983
 10
116.5734184821414
 20
-124.0983682957983
 10
116.4252793762756
 20
-124.0983682957983
 10
116.4252793762756
 20
-124.0983682957983
 10
116.4104654656891
 20
-123.7433512060433
 10
116.2475124492367
 20
-123.6935695762815
 10
116.1331352791264
 20
-123.6620469525914
 10
116.1331352791264
 20
-123.6620469525914
 10
116.1331352791264
 20
-123.5059841271096
 10
116.1331352791264
 20
-123.5059841271096
 10
116.1331352791264
 20
-123.5059841271096
 10
117.6775715851639
 20
-123.5059841271096
 10
117.6775715851639
 20
-123.5059841271096
 10
117.6775715851639
 20
-123.5059841271096
 10
117.6775715851639
 20
-123.7455905181087
 10
117.6775715851639
 20
-123.7455905181087
 97
        0
 97
        0
 75
     2
 76
     1
 98
        0
  0
ENDBLK
  5
EA
330
E7
100
AcDbEntity
  8
0
100
AcDbBlockEnd
  0
BLOCK
  5
EF
330
ED
100
AcDbEntity
  8
0
100
AcDbBlockBegin
  2
block 4
 70
     0
 10
0.0
 20
0.0
 30
0.0
  3
block 4
  1

  0
SPLINE
  5
F1
330
ED
100
AcDbEntity
  8
_U+30EC_U+30A4_U+30E4_U+30FC 1
370
     0
100
AcDbSpline
210
0.0
220
0.0
230
1.0
 70
    11
 71
     3
 72
    62
 73
    58
 74
     0
 42
0.0000000001
 43
0.0000000001
 12
1.0
 22
0.0
 32
0.0
 13
1.0
 23
0.0
 33
0.0
 40
0.0
 40
0.0
 40
0.0
 40
0.0
 40
1.0
 40
1.0
 40
1.0
 40
2.0
 40
2.0
 40
2.0
 40
3.0
 40
3.0
 40
3.0
 40
4.0
 40
4.0
 40
4.0
 40
5.0
 40
5.0
 40
5.0
 40
6.0
 40
6.0
 40
6.0
 40
7.0
 40
7.0
 40
7.0
 40
8.0
 40
8.0
 40
8.0
 40
9.0
 40
9.0
 40
9.0
 40
10.0
 40
10.0
 40
10.0
 40
11.0
 40
11.0
 40
11.0
 40
12.0
 40
12.0
 40
12.0
 40
13.0
 40
13.0
 40
13.0
 40
14.0
 40
14.0
 40
14.0
 40
15.0
 40
15.0
 40
15.0
 40
16.0
 40
16.0
 40
16.0
 40
17.0
 40
17.0
 40
17.0
 40
18.0
 40
18.0
 40
18.0
 40
19.0
 40
19.0
 40
19.0
 40
19.0
 10
117.492569957606
 20
-140.0861951689715
 30
0.0
 10
117.492569957606
 20
-140.1878254857864
 30
0.0
 10
117.471554875146
 20
-140.4207139405893
 30
0.0
 10
117.2855197189425
 20
-140.5540391358684
 30
0.0
 10
117.1732096061234
 20
-140.6332763320292
 30
0.0
 10
117.0739908561482
 20
-140.63775495616
 30
0.0
 10
116.989241507211
 20
-140.6422335802908
 30
0.0
 10
116.989241507211
 20
-140.6422335802908
 30
0.0
 10
116.989241507211
 20
-140.4072780681968
 30
0.0
 10
116.989241507211
 20
-140.4072780681968
 30
0.0
 10
117.0633110601439
 20
-140.4048665013571
 30
0.0
 10
117.2979220626894
 20
-140.3934976862558
 30
0.0
 10
117.2979220626894
 20
-140.0906737931023
 30
0.0
 10
117.2979220626894
 20
-139.9435682158822
 30
0.0
 10
117.2283311338874
 20
-139.7809597089784
 30
0.0
 10
116.9999213032153
 20
-139.7809597089784
 30
0.0
 10
116.8834770758139
 20
-139.7809597089784
 30
0.0
 10
116.8349012294718
 20
-139.8216118357043
 30
0.0
 10
116.8032063510075
 20
-139.8557182810083
 30
0.0
 10
116.7291367980747
 20
-139.9346109676205
 30
0.0
 10
116.7163899447792
 20
-140.058978914638
 30
0.0
 10
116.7163899447792
 20
-140.1178900474358
 30
0.0
 10
116.7163899447792
 20
-140.1382161107988
 30
0.0
 10
116.7184570020704
 20
-140.1764566706851
 30
0.0
 10
116.7225911166527
 20
-140.2060844918582
 30
0.0
 10
116.7225911166527
 20
-140.2060844918582
 30
0.0
 10
116.5279432217361
 20
-140.2060844918582
 30
0.0
 10
116.5279432217361
 20
-140.2060844918582
 30
0.0
 10
116.534488903158
 20
-140.1654323651323
 30
0.0
 10
116.5365559604492
 20
-140.119957104727
 30
0.0
 10
116.5365559604492
 20
-140.113411423305
 30
0.0
 10
116.5365559604492
 20
-140.0431314754059
 30
0.0
 10
116.5151963684407
 20
-139.830569083966
 30
0.0
 10
116.278518308604
 20
-139.830569083966
 30
0.0
 10
116.1007513815651
 20
-139.830569083966
 30
0.0
 10
116.0456298538011
 20
-139.9707844702156
 30
0.0
 10
116.0456298538011
 20
-140.0882622262627
 30
0.0
 10
116.0456298538011
 20
-140.3711045656017
 30
0.0
 10
116.278518308604
 20
-140.3800618138633
 30
0.0
 10
116.3501762946972
 20
-140.3845404379942
 30
0.0
 10
116.3501762946972
 20
-140.3845404379942
 30
0.0
 10
116.3501762946972
 20
-140.6015814535649
 30
0.0
 10
116.3501762946972
 20
-140.6015814535649
 30
0.0
 10
116.2254638381311
 20
-140.5926242053033
 30
0.0
 10
115.8489149015933
 20
-140.5633408936786
 30
0.0
 10
115.8489149015933
 20
-140.0748263538702
 30
0.0
 10
115.8489149015933
 20
-139.8350477080968
 30
0.0
 10
115.976038924999
 20
-139.5773545658001
 30
0.0
 10
116.271972627182
 20
-139.5773545658001
 30
0.0
 10
116.458352292934
 20
-139.5773545658001
 30
0.0
 10
116.5406900750315
 20
-139.6793293921635
 30
0.0
 10
116.6020127746689
 20
-139.7854383331092
 30
0.0
 10
116.6295735385509
 20
-139.7199815188895
 30
0.0
 10
116.7098442633573
 20
-139.5253336239728
 30
0.0
 10
116.9871744499199
 20
-139.5253336239728
 30
0.0
 10
117.3254828265714
 20
-139.5253336239728
 30
0.0
 10
117.492569957606
 20
-139.78991695724
 30
0.0
 10
117.492569957606
 20
-140.0861951689715
 30
0.0
  0
HATCH
  5
F2
330
ED
100
AcDbEntity
  8
_U+30EC_U+30A4_U+30E4_U+30FC 1
 62
   179
420
  2234388
100
AcDbHatch
 10
0.0
 20
0.0
 30
0.0
210
0.0
220
0.0
230
1.0
  2
SOLID
 70
     1
 71
     0
 91
        1
 92
        1
 93
        1
 72
     4
 94
        3
 73
     0
 74
     1
 95
       62
 96
       58
 40
0.0
 40
0.0
 40
0.0
 40
0.0
 40
1.0
 40
1.0
 40
1.0
 40
2.0
 40
2.0
 40
2.0
 40
3.0
 40
3.0
 40
3.0
 40
4.0
 40
4.0
 40
4.0
 40
5.0
 40
5.0
 40
5.0
 40
6.0
 40
6.0
 40
6.0
 40
7.0
 40
7.0
 40
7.0
 40
8.0
 40
8.0
 40
8.0
 40
9.0
 40
9.0
 40
9.0
 40
10.0
 40
10.0
 40
10.0
 40
11.0
 40
11.0
 40
11.0
 40
12.0
 40
12.0
 40
12.0
 40
13.0
 40
13.0
 40
13.0
 40
14.0
 40
14.0
 40
14.0
 40
15.0
 40
15.0
 40
15.0
 40
16.0
 40
16.0
 40
16.0
 40
17.0
 40
17.0
 40
17.0
 40
18.0
 40
18.0
 40
18.0
 40
19.0
 40
19.0
 40
19.0
 40
19.0
 10
117.492569957606
 20
-140.0861951689715
 10
117.492569957606
 20
-140.1878254857864
 10
117.471554875146
 20
-140.4207139405893
 10
117.2855197189425
 20
-140.5540391358684
 10
117.1732096061234
 20
-140.6332763320292
 10
117.0739908561482
 20
-140.63775495616
 10
116.989241507211
 20
-140.6422335802908
 10
116.989241507211
 20
-140.6422335802908
 10
116.989241507211
 20
-140.4072780681968
 10
116.989241507211
 20
-140.4072780681968
 10
117.0633110601439
 20
-140.4048665013571
 10
117.2979220626894
 20
-140.3934976862558
 10
117.2979220626894
 20
-140.0906737931023
 10
117.2979220626894
 20
-139.9435682158822
 10
117.2283311338874
 20
-139.7809597089784
 10
116.9999213032153
 20
-139.7809597089784
 10
116.8834770758139
 20
-139.7809597089784
 10
116.8349012294718
 20
-139.8216118357043
 10
116.8032063510075
 20
-139.8557182810083
 10
116.7291367980747
 20
-139.9346109676205
 10
116.7163899447792
 20
-140.058978914638
 10
116.7163899447792
 20
-140.1178900474358
 10
116.7163899447792
 20
-140.1382161107988
 10
116.7184570020704
 20
-140.1764566706851
 10
116.7225911166527
 20
-140.2060844918582
 10
116.7225911166527
 20
-140.2060844918582
 10
116.5279432217361
 20
-140.2060844918582
 10
116.5279432217361
 20
-140.2060844918582
 10
116.534488903158
 20
-140.1654323651323
 10
116.5365559604492
 20
-140.119957104727
 10
116.5365559604492
 20
-140.113411423305
 10
116.5365559604492
 20
-140.0431314754059
 10
116.5151963684407
 20
-139.830569083966
 10
116.278518308604
 20
-139.830569083966
 10
116.1007513815651
 20
-139.830569083966
 10
116.0456298538011
 20
-139.9707844702156
 10
116.0456298538011
 20
-140.0882622262627
 10
116.0456298538011
 20
-140.3711045656017
 10
116.278518308604
 20
-140.3800618138633
 10
116.3501762946972
 20
-140.3845404379942
 10
116.3501762946972
 20
-140.3845404379942
 10
116.3501762946972
 20
-140.6015814535649
 10
116.3501762946972
 20
-140.6015814535649
 10
116.2254638381311
 20
-140.5926242053033
 10
115.8489149015933
 20
-140.5633408936786
 10
115.8489149015933
 20
-140.0748263538702
 10
115.8489149015933
 20
-139.8350477080968
 10
115.976038924999
 20
-139.5773545658001
 10
116.271972627182
 20
-139.5773545658001
 10
116.458352292934
 20
-139.5773545658001
 10
116.5406900750315
 20
-139.6793293921635
 10
116.6020127746689
 20
-139.7854383331092
 10
116.6295735385509
 20
-139.7199815188895
 10
116.7098442633573
 20
-139.5253336239728
 10
116.9871744499199
 20
-139.5253336239728
 10
117.3254828265714
 20
-139.5253336239728
 10
117.492569957606
 20
-139.78991695724
 10
117.492569957606
 20
-140.0861951689715
 97
        0
 97
        0
 75
     2
 76
     1
 98
        0
  0
ENDBLK
  5
F0
330
ED
100
AcDbEntity
  8
0
100
AcDbBlockEnd
  0
BLOCK
  5
F5
330
F3
100
AcDbEntity
  8
0
100
AcDbBlockBegin
  2
block 5
 70
     0
 10
0.0
 20
0.0
 30
0.0
  3
block 5
  1

  0
SPLINE
  5
F7
330
F3
100
AcDbEntity
  8
_U+30EC_U+30A4_U+30E4_U+30FC 1
370
     0
100
AcDbSpline
210
0.0
220
0.0
230
1.0
 70
    11
 71
     3
 72
    53
 73
    49
 74
     0
 42
0.0000000001
 43
0.0000000001
 12
1.0
 22
0.0
 32
0.0
 13
1.0
 23
0.0
 33
0.0
 40
0.0
 40
0.0
 40
0.0
 40
0.0
 40
1.0
 40
1.0
 40
1.0
 40
2.0
 40
2.0
 40
2.0
 40
3.0
 40
3.0
 40
3.0
 40
4.0
 40
4.0
 40
4.0
 40
5.0
 40
5.0
 40
5.0
 40
6.0
 40
6.0
 40
6.0
 40
7.0
 40
7.0
 40
7.0
 40
8.0
 40
8.0
 40
8.0
 40
9.0
 40
9.0
 40
9.0
 40
10.0
 40
10.0
 40
10.0
 40
11.0
 40
11.0
 40
11.0
 40
12.0
 40
12.0
 40
12.0
 40
13.0
 40
13.0
 40
13.0
 40
14.0
 40
14.0
 40
14.0
 40
15.0
 40
15.0
 40
15.0
 40
16.0
 40
16.0
 40
16.0
 40
16.0
 10
73.45667044604556
 20
-148.0550455359029
 30
0.0
 10
73.37295462575399
 20
-148.0550455359029
 30
0.0
 10
73.26477862751715
 20
-148.0381645680252
 30
0.0
 10
73.15591361018325
 20
-147.9747748110966
 30
0.0
 10
72.97056747307681
 20
-147.8648762651171
 30
0.0
 10
72.94817435242268
 20
-147.7336181271291
 30
0.0
 10
72.92784828905971
 20
-147.6257866384408
 30
0.0
 10
72.92784828905971
 20
-147.6257866384408
 30
0.0
 10
73.16521536799343
 20
-147.6257866384408
 30
0.0
 10
73.16521536799343
 20
-147.6257866384408
 30
0.0
 10
73.22378199124267
 20
-147.8245686479397
 30
0.0
 10
73.35951875336151
 20
-147.8541964691128
 30
0.0
 10
73.45908201288523
 20
-147.8541964691128
 30
0.0
 10
73.60825464739655
 20
-147.8541964691128
 30
0.0
 10
73.77120766384887
 20
-147.7546332095891
 30
0.0
 10
73.77120766384887
 20
-147.5220892643348
 30
0.0
 10
73.77120766384887
 20
-147.2661186697807
 30
0.0
 10
73.57897133577193
 20
-147.1965277409787
 30
0.0
 10
73.45012476462358
 20
-147.1965277409787
 30
0.0
 10
73.4160183193196
 20
-147.1965277409787
 30
0.0
 10
73.26477862751715
 20
-147.1965277409787
 30
0.0
 10
73.16969399212425
 20
-147.325374312127
 30
0.0
 10
73.16969399212425
 20
-147.325374312127
 30
0.0
 10
72.98193628817813
 20
-147.3060817774096
 30
0.0
 10
72.98193628817813
 20
-147.3060817774096
 30
0.0
 10
72.98193628817813
 20
-147.3060817774096
 30
0.0
 10
73.11078285932648
 20
-146.4599663262322
 30
0.0
 10
73.11078285932648
 20
-146.4599663262322
 30
0.0
 10
73.11078285932648
 20
-146.4599663262322
 30
0.0
 10
73.94277341901432
 20
-146.4599663262322
 30
0.0
 10
73.94277341901432
 20
-146.4599663262322
 30
0.0
 10
73.94277341901432
 20
-146.4599663262322
 30
0.0
 10
73.94277341901432
 20
-146.6549587306974
 30
0.0
 10
73.94277341901432
 20
-146.6549587306974
 30
0.0
 10
73.94277341901432
 20
-146.6549587306974
 30
0.0
 10
73.28510469088012
 20
-146.6549587306974
 30
0.0
 10
73.28510469088012
 20
-146.6549587306974
 30
0.0
 10
73.28510469088012
 20
-146.6549587306974
 30
0.0
 10
73.21482474298102
 20
-147.0780164562861
 30
0.0
 10
73.21482474298102
 20
-147.0780164562861
 30
0.0
 10
73.28028155720077
 20
-147.0439100109821
 30
0.0
 10
73.36847600162316
 20
-147.0036023938047
 30
0.0
 10
73.49525551548035
 20
-147.0036023938047
 30
0.0
 10
73.76638453016952
 20
-147.0036023938047
 30
0.0
 10
74.01959904833538
 20
-147.1899820595567
 30
0.0
 10
74.01959904833538
 20
-147.5031412391659
 30
0.0
 10
74.01959904833538
 20
-147.8204345333574
 30
0.0
 10
73.78016491211052
 20
-148.0550455359029
 30
0.0
 10
73.45667044604556
 20
-148.0550455359029
 30
0.0
  0
HATCH
  5
F8
330
F3
100
AcDbEntity
  8
_U+30EC_U+30A4_U+30E4_U+30FC 1
 62
   179
420
  2234388
100
AcDbHatch
 10
0.0
 20
0.0
 30
0.0
210
0.0
220
0.0
230
1.0
  2
SOLID
 70
     1
 71
     0
 91
        1
 92
        1
 93
        1
 72
     4
 94
        3
 73
     0
 74
     1
 95
       53
 96
       49
 40
0.0
 40
0.0
 40
0.0
 40
0.0
 40
1.0
 40
1.0
 40
1.0
 40
2.0
 40
2.0
 40
2.0
 40
3.0
 40
3.0
 40
3.0
 40
4.0
 40
4.0
 40
4.0
 40
5.0
 40
5.0
 40
5.0
 40
6.0
 40
6.0
 40
6.0
 40
7.0
 40
7.0
 40
7.0
 40
8.0
 40
8.0
 40
8.0
 40
9.0
 40
9.0
 40
9.0
 40
10.0
 40
10.0
 40
10.0
 40
11.0
 40
11.0
 40
11.0
 40
12.0
 40
12.0
 40
12.0
 40
13.0
 40
13.0
 40
13.0
 40
14.0
 40
14.0
 40
14.0
 40
15.0
 40
15.0
 40
15.0
 40
16.0
 40
16.0
 40
16.0
 40
16.0
 10
73.45667044604556
 20
-148.0550455359029
 10
73.37295462575399
 20
-148.0550455359029
 10
73.26477862751715
 20
-148.0381645680252
 10
73.15591361018325
 20
-147.9747748110966
 10
72.97056747307681
 20
-147.8648762651171
 10
72.94817435242268
 20
-147.7336181271291
 10
72.92784828905971
 20
-147.6257866384408
 10
72.92784828905971
 20
-147.6257866384408
 10
73.16521536799343
 20
-147.6257866384408
 10
73.16521536799343
 20
-147.6257866384408
 10
73.22378199124267
 20
-147.8245686479397
 10
73.35951875336151
 20
-147.8541964691128
 10
73.45908201288523
 20
-147.8541964691128
 10
73.60825464739655
 20
-147.8541964691128
 10
73.77120766384887
 20
-147.7546332095891
 10
73.77120766384887
 20
-147.5220892643348
 10
73.77120766384887
 20
-147.2661186697807
 10
73.57897133577193
 20
-147.1965277409787
 10
73.45012476462358
 20
-147.1965277409787
 10
73.4160183193196
 20
-147.1965277409787
 10
73.26477862751715
 20
-147.1965277409787
 10
73.16969399212425
 20
-147.325374312127
 10
73.16969399212425
 20
-147.325374312127
 10
72.98193628817813
 20
-147.3060817774096
 10
72.98193628817813
 20
-147.3060817774096
 10
72.98193628817813
 20
-147.3060817774096
 10
73.11078285932648
 20
-146.4599663262322
 10
73.11078285932648
 20
-146.4599663262322
 10
73.11078285932648
 20
-146.4599663262322
 10
73.94277341901432
 20
-146.4599663262322
 10
73.94277341901432
 20
-146.4599663262322
 10
73.94277341901432
 20
-146.4599663262322
 10
73.94277341901432
 20
-146.6549587306974
 10
73.94277341901432
 20
-146.6549587306974
 10
73.94277341901432
 20
-146.6549587306974
 10
73.28510469088012
 20
-146.6549587306974
 10
73.28510469088012
 20
-146.6549587306974
 10
73.28510469088012
 20
-146.6549587306974
 10
73.21482474298102
 20
-147.0780164562861
 10
73.21482474298102
 20
-147.0780164562861
 10
73.28028155720077
 20
-147.0439100109821
 10
73.36847600162316
 20
-147.0036023938047
 10
73.49525551548035
 20
-147.0036023938047
 10
73.76638453016952
 20
-147.0036023938047
 10
74.01959904833538
 20
-147.1899820595567
 10
74.01959904833538
 20
-147.5031412391659
 10
74.01959904833538
 20
-147.8204345333574
 10
73.78016491211052
 20
-148.0550455359029
 10
73.45667044604556
 20
-148.0550455359029
 97
        0
 97
        0
 75
     2
 76
     1
 98
        0
  0
ENDBLK
  5
F6
330
F3
100
AcDbEntity
  8
0
100
AcDbBlockEnd
  0
BLOCK
  5
FB
330
F9
100
AcDbEntity
  8
0
100
AcDbBlockBegin
  2
block 6
 70
     0
 10
0.0
 20
0.0
 30
0.0
  3
block 6
  1

  0
POLYLINE
  5
FD
330
F9
100
AcDbEntity
  8
_U+30EC_U+30A4_U+30E4_U+30FC 1
370
     0
100
AcDb2dPolyline
 66
     1
 10
0.0
 20
0.0
 30
0.0
  0
VERTEX
  5
FE
330
FD
100
AcDbEntity
  8
_U+30EC_U+30A4_U+30E4_U+30FC 1
370
     0
100
AcDbVertex
100
AcDb2dVertex
 10
90.70247393565772
 20
-112.3958956967274
 30
0.0
  0
VERTEX
  5
FF
330
FD
100
AcDbEntity
  8
_U+30EC_U+30A4_U+30E4_U+30FC 1
370
     0
100
AcDbVertex
100
AcDb2dVertex
 10
90.70247393565772
 20
-112.7428168120921
 30
0.0
  0
VERTEX
  5
100
330
FD
100
AcDbEntity
  8
_U+30EC_U+30A4_U+30E4_U+30FC 1
370
     0
100
AcDbVertex
100
AcDb2dVertex
 10
90.46958548085483
 20
-112.7428168120921
 30
0.0
  0
VERTEX
  5
101
330
FD
100
AcDbEntity
  8
_U+30EC_U+30A4_U+30E4_U+30FC 1
370
     0
100
AcDbVertex
100
AcDb2dVertex
 10
90.46958548085483
 20
-112.3958956967274
 30
0.0
  0
VERTEX
  5
102
330
FD
100
AcDbEntity
  8
_U+30EC_U+30A4_U+30E4_U+30FC 1
370
     0
100
AcDbVertex
100
AcDb2dVertex
 10
89.7685085496065
 20
-112.3958956967274
 30
0.0
  0
VERTEX
  5
103
330
FD
100
AcDbEntity
  8
_U+30EC_U+30A4_U+30E4_U+30FC 1
370
     0
100
AcDbVertex
100
AcDb2dVertex
 10
89.7685085496065
 20
-112.1716199806377
 30
0.0
  0
VERTEX
  5
104
330
FD
100
AcDbEntity
  8
_U+30EC_U+30A4_U+30E4_U+30FC 1
370
     0
100
AcDbVertex
100
AcDb2dVertex
 10
90.49439016834863
 20
-111.1983805060546
 30
0.0
  0
VERTEX
  5
105
330
FD
100
AcDbEntity
  8
_U+30EC_U+30A4_U+30E4_U+30FC 1
370
     0
100
AcDbVertex
100
AcDb2dVertex
 10
90.70247393565772
 20
-111.1983805060546
 30
0.0
  0
VERTEX
  5
106
330
FD
100
AcDbEntity
  8
_U+30EC_U+30A4_U+30E4_U+30FC 1
370
     0
100
AcDbVertex
100
AcDb2dVertex
 10
90.70247393565772
 20
-112.1971136872285
 30
0.0
  0
VERTEX
  5
107
330
FD
100
AcDbEntity
  8
_U+30EC_U+30A4_U+30E4_U+30FC 1
370
     0
100
AcDbVertex
100
AcDb2dVertex
 10
90.92399357535929
 20
-112.1971136872285
 30
0.0
  0
VERTEX
  5
108
330
FD
100
AcDbEntity
  8
_U+30EC_U+30A4_U+30E4_U+30FC 1
370
     0
100
AcDbVertex
100
AcDb2dVertex
 10
90.92399357535929
 20
-112.3958956967274
 30
0.0
  0
VERTEX
  5
109
330
FD
100
AcDbEntity
  8
_U+30EC_U+30A4_U+30E4_U+30FC 1
370
     0
100
AcDbVertex
100
AcDb2dVertex
 10
90.70247393565772
 20
-112.3958956967274
 30
0.0
  0
SEQEND
  5
10A
330
FD
100
AcDbEntity
  8
_U+30EC_U+30A4_U+30E4_U+30FC 1
370
     0
  0
POLYLINE
  5
10B
330
F9
100
AcDbEntity
  8
_U+30EC_U+30A4_U+30E4_U+30FC 1
370
     0
100
AcDb2dPolyline
 66
     1
 10
0.0
 20
0.0
 30
0.0
  0
VERTEX
  5
10C
330
10B
100
AcDbEntity
  8
_U+30EC_U+30A4_U+30E4_U+30FC 1
370
     0
100
AcDbVertex
100
AcDb2dVertex
 10
90.46958548085483
 20
-111.5411675068369
 30
0.0
  0
VERTEX
  5
10D
330
10B
100
AcDbEntity
  8
_U+30EC_U+30A4_U+30E4_U+30FC 1
370
     0
100
AcDbVertex
100
AcDb2dVertex
 10
89.9810709410464
 20
-112.1971136872285
 30
0.0
  0
VERTEX
  5
10E
330
10B
100
AcDbEntity
  8
_U+30EC_U+30A4_U+30E4_U+30FC 1
370
     0
100
AcDbVertex
100
AcDb2dVertex
 10
90.46958548085483
 20
-112.1971136872285
 30
0.0
  0
VERTEX
  5
10F
330
10B
100
AcDbEntity
  8
_U+30EC_U+30A4_U+30E4_U+30FC 1
370
     0
100
AcDbVertex
100
AcDb2dVertex
 10
90.46958548085483
 20
-111.5411675068369
 30
0.0
  0
SEQEND
  5
110
330
10B
100
AcDbEntity
  8
_U+30EC_U+30A4_U+30E4_U+30FC 1
370
     0
  0
HATCH
  5
111
330
F9
100
AcDbEntity
  8
_U+30EC_U+30A4_U+30E4_U+30FC 1
 62
   179
420
  2234388
100
AcDbHatch
 10
0.0
 20
0.0
 30
0.0
210
0.0
220
0.0
230
1.0
  2
SOLID
 70
     1
 71
     0
 91
        2
 92
        1
 93
       11
 72
     1
 10
90.70247393565772
 20
-112.3958956967274
 11
90.70247393565772
 21
-112.7428168120921
 72
     1
 10
90.70247393565772
 20
-112.7428168120921
 11
90.46958548085483
 21
-112.7428168120921
 72
     1
 10
90.46958548085483
 20
-112.7428168120921
 11
90.46958548085483
 21
-112.3958956967274
 72
     1
 10
90.46958548085483
 20
-112.3958956967274
 11
89.7685085496065
 21
-112.3958956967274
 72
     1
 10
89.7685085496065
 20
-112.3958956967274
 11
89.7685085496065
 21
-112.1716199806377
 72
     1
 10
89.7685085496065
 20
-112.1716199806377
 11
90.49439016834863
 21
-111.1983805060546
 72
     1
 10
90.49439016834863
 20
-111.1983805060546
 11
90.70247393565772
 21
-111.1983805060546
 72
     1
 10
90.70247393565772
 20
-111.1983805060546
 11
90.70247393565772
 21
-112.1971136872285
 72
     1
 10
90.70247393565772
 20
-112.1971136872285
 11
90.92399357535929
 21
-112.1971136872285
 72
     1
 10
90.92399357535929
 20
-112.1971136872285
 11
90.92399357535929
 21
-112.3958956967274
 72
     1
 10
90.92399357535929
 20
-112.3958956967274
 11
90.70247393565772
 21
-112.3958956967274
 97
        0
 92
        1
 93
        3
 72
     1
 10
90.46958548085483
 20
-111.5411675068369
 11
89.9810709410464
 21
-112.1971136872285
 72
     1
 10
89.9810709410464
 20
-112.1971136872285
 11
90.46958548085483
 21
-112.1971136872285
 72
     1
 10
90.46958548085483
 20
-112.1971136872285
 11
90.46958548085483
 21
-111.5411675068369
 97
        0
 75
     2
 76
     1
 98
        0
  0
SPLINE
  5
112
330
F9
100
AcDbEntity
  8
_U+30EC_U+30A4_U+30E4_U+30FC 1
370
     0
100
AcDbSpline
210
0.0
220
0.0
230
1.0
 70
    11
 71
     3
 72
    29
 73
    25
 74
     0
 42
0.0000000001
 43
0.0000000001
 12
1.0
 22
0.0
 32
0.0
 13
1.0
 23
0.0
 33
0.0
 40
0.0
 40
0.0
 40
0.0
 40
0.0
 40
1.0
 40
1.0
 40
1.0
 40
2.0
 40
2.0
 40
2.0
 40
3.0
 40
3.0
 40
3.0
 40
4.0
 40
4.0
 40
4.0
 40
5.0
 40
5.0
 40
5.0
 40
6.0
 40
6.0
 40
6.0
 40
7.0
 40
7.0
 40
7.0
 40
8.0
 40
8.0
 40
8.0
 40
8.0
 10
92.030213735673
 20
-112.5650498850532
 30
0.0
 10
91.91480303691714
 20
-112.7745116905564
 30
0.0
 10
91.7294568998107
 20
-112.7934597157252
 30
0.0
 10
91.60508895279318
 20
-112.7934597157252
 30
0.0
 10
91.43352319762774
 20
-112.7934597157252
 30
0.0
 10
91.28193899627674
 20
-112.7469509266744
 30
0.0
 10
91.18030867946187
 20
-112.5650498850532
 30
0.0
 10
91.06937660483683
 20
-112.3704019901366
 30
0.0
 10
91.04905054147385
 20
-112.1333794207514
 30
0.0
 10
91.04905054147385
 20
-111.9707709138476
 30
0.0
 10
91.04905054147385
 20
-111.8267659225641
 30
0.0
 10
91.06696503799715
 20
-111.5749294425924
 30
0.0
 10
91.18030867946187
 20
-111.3761474330935
 30
0.0
 10
91.29537486866921
 20
-111.1732313090123
 30
0.0
 10
91.46728513338319
 20
-111.1498046597126
 30
0.0
 10
91.60508895279318
 20
-111.1498046597126
 30
0.0
 10
91.774932160216
 20
-111.1498046597126
 30
0.0
 10
91.92858341885814
 20
-111.1942463914723
 30
0.0
 10
92.030213735673
 20
-111.3761474330935
 30
0.0
 10
92.13666718616723
 20
-111.5687282707189
 30
0.0
 10
92.16147187366103
 20
-111.797138101391
 30
0.0
 10
92.16147187366103
 20
-111.9707709138476
 30
0.0
 10
92.16147187366103
 20
-112.1419921594645
 30
0.0
 10
92.13873424345837
 20
-112.3724690474277
 30
0.0
 10
92.030213735673
 20
-112.5650498850532
 30
0.0
  0
SPLINE
  5
113
330
F9
100
AcDbEntity
  8
_U+30EC_U+30A4_U+30E4_U+30FC 1
370
     0
100
AcDbSpline
210
0.0
220
0.0
230
1.0
 70
    11
 71
     3
 72
    17
 73
    13
 74
     0
 42
0.0000000001
 43
0.0000000001
 12
1.0
 22
0.0
 32
0.0
 13
1.0
 23
0.0
 33
0.0
 40
0.0
 40
0.0
 40
0.0
 40
0.0
 40
1.0
 40
1.0
 40
1.0
 40
2.0
 40
2.0
 40
2.0
 40
3.0
 40
3.0
 40
3.0
 40
4.0
 40
4.0
 40
4.0
 40
4.0
 10
91.60508895279318
 20
-111.342385497338
 30
0.0
 10
91.33843856223484
 20
-111.342385497338
 30
0.0
 10
91.28882918724725
 20
-111.6259168557741
 30
0.0
 10
91.28882918724725
 20
-111.9707709138476
 30
0.0
 10
91.28882918724725
 20
-112.2901312653302
 30
0.0
 10
91.32706974713352
 20
-112.5988118208086
 30
0.0
 10
91.60508895279318
 20
-112.5988118208086
 30
0.0
 10
91.86967228606036
 20
-112.5988118208086
 30
0.0
 10
91.92169322788763
 20
-112.3176920292123
 30
0.0
 10
91.92169322788763
 20
-111.9707709138476
 30
0.0
 10
91.92169322788763
 20
-111.6510660528164
 30
0.0
 10
91.88104110116168
 20
-111.342385497338
 30
0.0
 10
91.60508895279318
 20
-111.342385497338
 30
0.0
  0
HATCH
  5
114
330
F9
100
AcDbEntity
  8
_U+30EC_U+30A4_U+30E4_U+30FC 1
 62
   179
420
  2234388
100
AcDbHatch
 10
0.0
 20
0.0
 30
0.0
210
0.0
220
0.0
230
1.0
  2
SOLID
 70
     1
 71
     0
 91
        2
 92
        1
 93
        1
 72
     4
 94
        3
 73
     0
 74
     1
 95
       29
 96
       25
 40
0.0
 40
0.0
 40
0.0
 40
0.0
 40
1.0
 40
1.0
 40
1.0
 40
2.0
 40
2.0
 40
2.0
 40
3.0
 40
3.0
 40
3.0
 40
4.0
 40
4.0
 40
4.0
 40
5.0
 40
5.0
 40
5.0
 40
6.0
 40
6.0
 40
6.0
 40
7.0
 40
7.0
 40
7.0
 40
8.0
 40
8.0
 40
8.0
 40
8.0
 10
92.030213735673
 20
-112.5650498850532
 10
91.91480303691714
 20
-112.7745116905564
 10
91.7294568998107
 20
-112.7934597157252
 10
91.60508895279318
 20
-112.7934597157252
 10
91.43352319762774
 20
-112.7934597157252
 10
91.28193899627674
 20
-112.7469509266744
 10
91.18030867946187
 20
-112.5650498850532
 10
91.06937660483683
 20
-112.3704019901366
 10
91.04905054147385
 20
-112.1333794207514
 10
91.04905054147385
 20
-111.9707709138476
 10
91.04905054147385
 20
-111.8267659225641
 10
91.06696503799715
 20
-111.5749294425924
 10
91.18030867946187
 20
-111.3761474330935
 10
91.29537486866921
 20
-111.1732313090123
 10
91.46728513338319
 20
-111.1498046597126
 10
91.60508895279318
 20
-111.1498046597126
 10
91.774932160216
 20
-111.1498046597126
 10
91.92858341885814
 20
-111.1942463914723
 10
92.030213735673
 20
-111.3761474330935
 10
92.13666718616723
 20
-111.5687282707189
 10
92.16147187366103
 20
-111.797138101391
 10
92.16147187366103
 20
-111.9707709138476
 10
92.16147187366103
 20
-112.1419921594645
 10
92.13873424345837
 20
-112.3724690474277
 10
92.030213735673
 20
-112.5650498850532
 97
        0
 97
        0
 92
        1
 93
        1
 72
     4
 94
        3
 73
     0
 74
     1
 95
       17
 96
       13
 40
0.0
 40
0.0
 40
0.0
 40
0.0
 40
1.0
 40
1.0
 40
1.0
 40
2.0
 40
2.0
 40
2.0
 40
3.0
 40
3.0
 40
3.0
 40
4.0
 40
4.0
 40
4.0
 40
4.0
 10
91.60508895279318
 20
-111.342385497338
 10
91.33843856223484
 20
-111.342385497338
 10
91.28882918724725
 20
-111.6259168557741
 10
91.28882918724725
 20
-111.9707709138476
 10
91.28882918724725
 20
-112.2901312653302
 10
91.32706974713352
 20
-112.5988118208086
 10
91.60508895279318
 20
-112.5988118208086
 10
91.86967228606036
 20
-112.5988118208086
 10
91.92169322788763
 20
-112.3176920292123
 10
91.92169322788763
 20
-111.9707709138476
 10
91.92169322788763
 20
-111.6510660528164
 10
91.88104110116168
 20
-111.342385497338
 10
91.60508895279318
 20
-111.342385497338
 97
        0
 97
        0
 75
     2
 76
     1
 98
        0
  0
ENDBLK
  5
FC
330
F9
100
AcDbEntity
  8
0
100
AcDbBlockEnd
  0
BLOCK
  5
117
330
115
100
AcDbEntity
  8
0
100
AcDbBlockBegin
  2
block 7
 70
     0
 10
0.0
 20
0.0
 30
0.0
  3
block 7
  1

  0
SPLINE
  5
119
330
115
100
AcDbEntity
  8
_U+30EC_U+30A4_U+30E4_U+30FC 1
370
     0
100
AcDbSpline
210
0.0
220
0.0
230
1.0
 70
    11
 71
     3
 72
    26
 73
    22
 74
     0
 42
0.0000000001
 43
0.0000000001
 12
1.0
 22
0.0
 32
0.0
 13
1.0
 23
0.0
 33
0.0
 40
0.0
 40
0.0
 40
0.0
 40
0.0
 40
1.0
 40
1.0
 40
1.0
 40
2.0
 40
2.0
 40
2.0
 40
3.0
 40
3.0
 40
3.0
 40
4.0
 40
4.0
 40
4.0
 40
5.0
 40
5.0
 40
5.0
 40
6.0
 40
6.0
 40
6.0
 40
7.0
 40
7.0
 40
7.0
 40
7.0
 10
117.4419270539729
 20
-132.7960286126343
 30
0.0
 10
117.4419270539729
 20
-132.7960286126343
 30
0.0
 10
116.3374294414018
 20
-132.7960286126343
 30
0.0
 10
116.3374294414018
 20
-132.7960286126343
 30
0.0
 10
116.3374294414018
 20
-132.7960286126343
 30
0.0
 10
116.3374294414018
 20
-133.1488063903239
 30
0.0
 10
116.3374294414018
 20
-133.1488063903239
 30
0.0
 10
116.3374294414018
 20
-133.1488063903239
 30
0.0
 10
116.189290335536
 20
-133.1488063903239
 30
0.0
 10
116.189290335536
 20
-133.1488063903239
 30
0.0
 10
116.174820934498
 20
-132.7939615553432
 30
0.0
 10
116.0118679180457
 20
-132.7443521803556
 30
0.0
 10
115.8978352574839
 20
-132.7126573018913
 30
0.0
 10
115.8978352574839
 20
-132.7126573018913
 30
0.0
 10
115.8978352574839
 20
-132.5565944764095
 30
0.0
 10
115.8978352574839
 20
-132.5565944764095
 30
0.0
 10
115.8978352574839
 20
-132.5565944764095
 30
0.0
 10
117.4419270539729
 20
-132.5565944764095
 30
0.0
 10
117.4419270539729
 20
-132.5565944764095
 30
0.0
 10
117.4419270539729
 20
-132.5565944764095
 30
0.0
 10
117.4419270539729
 20
-132.7960286126343
 30
0.0
 10
117.4419270539729
 20
-132.7960286126343
 30
0.0
  0
HATCH
  5
11A
330
115
100
AcDbEntity
  8
_U+30EC_U+30A4_U+30E4_U+30FC 1
 62
   179
420
  2234388
100
AcDbHatch
 10
0.0
 20
0.0
 30
0.0
210
0.0
220
0.0
230
1.0
  2
SOLID
 70
     1
 71
     0
 91
        1
 92
        1
 93
        1
 72
     4
 94
        3
 73
     0
 74
     1
 95
       26
 96
       22
 40
0.0
 40
0.0
 40
0.0
 40
0.0
 40
1.0
 40
1.0
 40
1.0
 40
2.0
 40
2.0
 40
2.0
 40
3.0
 40
3.0
 40
3.0
 40
4.0
 40
4.0
 40
4.0
 40
5.0
 40
5.0
 40
5.0
 40
6.0
 40
6.0
 40
6.0
 40
7.0
 40
7.0
 40
7.0
 40
7.0
 10
117.4419270539729
 20
-132.7960286126343
 10
117.4419270539729
 20
-132.7960286126343
 10
116.3374294414018
 20
-132.7960286126343
 10
116.3374294414018
 20
-132.7960286126343
 10
116.3374294414018
 20
-132.7960286126343
 10
116.3374294414018
 20
-133.1488063903239
 10
116.3374294414018
 20
-133.1488063903239
 10
116.3374294414018
 20
-133.1488063903239
 10
116.189290335536
 20
-133.1488063903239
 10
116.189290335536
 20
-133.1488063903239
 10
116.174820934498
 20
-132.7939615553432
 10
116.0118679180457
 20
-132.7443521803556
 10
115.8978352574839
 20
-132.7126573018913
 10
115.8978352574839
 20
-132.7126573018913
 10
115.8978352574839
 20
-132.5565944764095
 10
115.8978352574839
 20
-132.5565944764095
 10
115.8978352574839
 20
-132.5565944764095
 10
117.4419270539729
 20
-132.5565944764095
 10
117.4419270539729
 20
-132.5565944764095
 10
117.4419270539729
 20
-132.5565944764095
 10
117.4419270539729
 20
-132.7960286126343
 10
117.4419270539729
 20
-132.7960286126343
 97
        0
 97
        0
 75
     2
 76
     1
 98
        0
  0
SPLINE
  5
11B
330
115
100
AcDbEntity
  8
_U+30EC_U+30A4_U+30E4_U+30FC 1
370
     0
100
AcDbSpline
210
0.0
220
0.0
230
1.0
 70
    11
 71
     3
 72
    62
 73
    58
 74
     0
 42
0.0000000001
 43
0.0000000001
 12
1.0
 22
0.0
 32
0.0
 13
1.0
 23
0.0
 33
0.0
 40
0.0
 40
0.0
 40
0.0
 40
0.0
 40
1.0
 40
1.0
 40
1.0
 40
2.0
 40
2.0
 40
2.0
 40
3.0
 40
3.0
 40
3.0
 40
4.0
 40
4.0
 40
4.0
 40
5.0
 40
5.0
 40
5.0
 40
6.0
 40
6.0
 40
6.0
 40
7.0
 40
7.0
 40
7.0
 40
8.0
 40
8.0
 40
8.0
 40
9.0
 40
9.0
 40
9.0
 40
10.0
 40
10.0
 40
10.0
 40
11.0
 40
11.0
 40
11.0
 40
12.0
 40
12.0
 40
12.0
 40
13.0
 40
13.0
 40
13.0
 40
14.0
 40
14.0
 40
14.0
 40
15.0
 40
15.0
 40
15.0
 40
16.0
 40
16.0
 40
16.0
 40
17.0
 40
17.0
 40
17.0
 40
18.0
 40
18.0
 40
18.0
 40
19.0
 40
19.0
 40
19.0
 40
19.0
 10
117.4929144671545
 20
-131.4955050669525
 30
0.0
 10
117.4929144671545
 20
-131.5971353837674
 30
0.0
 10
117.471554875146
 20
-131.8300238385703
 30
0.0
 10
117.2855197189425
 20
-131.963693543398
 30
0.0
 10
117.1732096061234
 20
-132.0425862300102
 30
0.0
 10
117.0739908561482
 20
-132.047064854141
 30
0.0
 10
116.989241507211
 20
-132.0515434782718
 30
0.0
 10
116.989241507211
 20
-132.0515434782718
 30
0.0
 10
116.989241507211
 20
-131.8165879661778
 30
0.0
 10
116.989241507211
 20
-131.8165879661778
 30
0.0
 10
117.0633110601439
 20
-131.8141763993381
 30
0.0
 10
117.2979220626894
 20
-131.8031520937853
 30
0.0
 10
117.2979220626894
 20
-131.4999836910833
 30
0.0
 10
117.2979220626894
 20
-131.3532226234117
 30
0.0
 10
117.2283311338874
 20
-131.1902696069594
 30
0.0
 10
116.9995767936668
 20
-131.1902696069594
 30
0.0
 10
116.8834770758139
 20
-131.1902696069594
 30
0.0
 10
116.8349012294718
 20
-131.2309217336853
 30
0.0
 10
116.8032063510075
 20
-131.2650281789893
 30
0.0
 10
116.7287922885261
 20
-131.3439208656015
 30
0.0
 10
116.7163899447792
 20
-131.4682888126191
 30
0.0
 10
116.7163899447792
 20
-131.5271999454168
 30
0.0
 10
116.7163899447792
 20
-131.5475260087798
 30
0.0
 10
116.7184570020704
 20
-131.5861110782146
 30
0.0
 10
116.7225911166527
 20
-131.6150498802907
 30
0.0
 10
116.7225911166527
 20
-131.6150498802907
 30
0.0
 10
116.5282877312846
 20
-131.6150498802907
 30
0.0
 10
116.5282877312846
 20
-131.6150498802907
 30
0.0
 10
116.534488903158
 20
-131.5743977535647
 30
0.0
 10
116.5365559604492
 20
-131.5296115122565
 30
0.0
 10
116.5365559604492
 20
-131.522721321286
 30
0.0
 10
116.5365559604492
 20
-131.4524413733869
 30
0.0
 10
116.5151963684407
 20
-131.2402234914955
 30
0.0
 10
116.2781737990555
 20
-131.2402234914955
 30
0.0
 10
116.1007513815651
 20
-131.2402234914955
 30
0.0
 10
116.0456298538011
 20
-131.3800943681966
 30
0.0
 10
116.0456298538011
 20
-131.4979166337922
 30
0.0
 10
116.0456298538011
 20
-131.7804144635827
 30
0.0
 10
116.2781737990555
 20
-131.7893717118443
 30
0.0
 10
116.3505208042457
 20
-131.7938503359752
 30
0.0
 10
116.3505208042457
 20
-131.7938503359752
 30
0.0
 10
116.3505208042457
 20
-132.0108913515459
 30
0.0
 10
116.3505208042457
 20
-132.0108913515459
 30
0.0
 10
116.2254638381311
 20
-132.0019341032842
 30
0.0
 10
115.8489149015933
 20
-131.9726507916596
 30
0.0
 10
115.8489149015933
 20
-131.4841362518512
 30
0.0
 10
115.8489149015933
 20
-131.2443576060778
 30
0.0
 10
115.9756944154505
 20
-130.9866644637811
 30
0.0
 10
116.271972627182
 20
-130.9866644637811
 30
0.0
 10
116.4580077833855
 20
-130.9866644637811
 30
0.0
 10
116.5406900750315
 20
-131.0886392901445
 30
0.0
 10
116.6020127746689
 20
-131.1947482310902
 30
0.0
 10
116.6295735385509
 20
-131.1292914168705
 30
0.0
 10
116.7101887729058
 20
-130.9349880315024
 30
0.0
 10
116.9871744499199
 20
-130.9349880315024
 30
0.0
 10
117.3254828265714
 20
-130.9349880315024
 30
0.0
 10
117.4929144671545
 20
-131.199226855221
 30
0.0
 10
117.4929144671545
 20
-131.4955050669525
 30
0.0
  0
HATCH
  5
11C
330
115
100
AcDbEntity
  8
_U+30EC_U+30A4_U+30E4_U+30FC 1
 62
   179
420
  2234388
100
AcDbHatch
 10
0.0
 20
0.0
 30
0.0
210
0.0
220
0.0
230
1.0
  2
SOLID
 70
     1
 71
     0
 91
        1
 92
        1
 93
        1
 72
     4
 94
        3
 73
     0
 74
     1
 95
       62
 96
       58
 40
0.0
 40
0.0
 40
0.0
 40
0.0
 40
1.0
 40
1.0
 40
1.0
 40
2.0
 40
2.0
 40
2.0
 40
3.0
 40
3.0
 40
3.0
 40
4.0
 40
4.0
 40
4.0
 40
5.0
 40
5.0
 40
5.0
 40
6.0
 40
6.0
 40
6.0
 40
7.0
 40
7.0
 40
7.0
 40
8.0
 40
8.0
 40
8.0
 40
9.0
 40
9.0
 40
9.0
 40
10.0
 40
10.0
 40
10.0
 40
11.0
 40
11.0
 40
11.0
 40
12.0
 40
12.0
 40
12.0
 40
13.0
 40
13.0
 40
13.0
 40
14.0
 40
14.0
 40
14.0
 40
15.0
 40
15.0
 40
15.0
 40
16.0
 40
16.0
 40
16.0
 40
17.0
 40
17.0
 40
17.0
 40
18.0
 40
18.0
 40
18.0
 40
19.0
 40
19.0
 40
19.0
 40
19.0
 10
117.4929144671545
 20
-131.4955050669525
 10
117.4929144671545
 20
-131.5971353837674
 10
117.471554875146
 20
-131.8300238385703
 10
117.2855197189425
 20
-131.963693543398
 10
117.1732096061234
 20
-132.0425862300102
 10
117.0739908561482
 20
-132.047064854141
 10
116.989241507211
 20
-132.0515434782718
 10
116.989241507211
 20
-132.0515434782718
 10
116.989241507211
 20
-131.8165879661778
 10
116.989241507211
 20
-131.8165879661778
 10
117.0633110601439
 20
-131.8141763993381
 10
117.2979220626894
 20
-131.8031520937853
 10
117.2979220626894
 20
-131.4999836910833
 10
117.2979220626894
 20
-131.3532226234117
 10
117.2283311338874
 20
-131.1902696069594
 10
116.9995767936668
 20
-131.1902696069594
 10
116.8834770758139
 20
-131.1902696069594
 10
116.8349012294718
 20
-131.2309217336853
 10
116.8032063510075
 20
-131.2650281789893
 10
116.7287922885261
 20
-131.3439208656015
 10
116.7163899447792
 20
-131.4682888126191
 10
116.7163899447792
 20
-131.5271999454168
 10
116.7163899447792
 20
-131.5475260087798
 10
116.7184570020704
 20
-131.5861110782146
 10
116.7225911166527
 20
-131.6150498802907
 10
116.7225911166527
 20
-131.6150498802907
 10
116.5282877312846
 20
-131.6150498802907
 10
116.5282877312846
 20
-131.6150498802907
 10
116.534488903158
 20
-131.5743977535647
 10
116.5365559604492
 20
-131.5296115122565
 10
116.5365559604492
 20
-131.522721321286
 10
116.5365559604492
 20
-131.4524413733869
 10
116.5151963684407
 20
-131.2402234914955
 10
116.2781737990555
 20
-131.2402234914955
 10
116.1007513815651
 20
-131.2402234914955
 10
116.0456298538011
 20
-131.3800943681966
 10
116.0456298538011
 20
-131.4979166337922
 10
116.0456298538011
 20
-131.7804144635827
 10
116.2781737990555
 20
-131.7893717118443
 10
116.3505208042457
 20
-131.7938503359752
 10
116.3505208042457
 20
-131.7938503359752
 10
116.3505208042457
 20
-132.0108913515459
 10
116.3505208042457
 20
-132.0108913515459
 10
116.2254638381311
 20
-132.0019341032842
 10
115.8489149015933
 20
-131.9726507916596
 10
115.8489149015933
 20
-131.4841362518512
 10
115.8489149015933
 20
-131.2443576060778
 10
115.9756944154505
 20
-130.9866644637811
 10
116.271972627182
 20
-130.9866644637811
 10
116.4580077833855
 20
-130.9866644637811
 10
116.5406900750315
 20
-131.0886392901445
 10
116.6020127746689
 20
-131.1947482310902
 10
116.6295735385509
 20
-131.1292914168705
 10
116.7101887729058
 20
-130.9349880315024
 10
116.9871744499199
 20
-130.9349880315024
 10
117.3254828265714
 20
-130.9349880315024
 10
117.4929144671545
 20
-131.199226855221
 10
117.4929144671545
 20
-131.4955050669525
 97
        0
 97
        0
 75
     2
 76
     1
 98
        0
  0
ENDBLK
  5
118
330
115
100
AcDbEntity
  8
0
100
AcDbBlockEnd
  0
BLOCK
  5
11F
330
11D
100
AcDbEntity
  8
0
100
AcDbBlockBegin
  2
block 8
 70
     0
 10
0.0
 20
0.0
 30
0.0
  3
block 8
  1

  0
SPLINE
  5
121
330
11D
100
AcDbEntity
  8
_U+30EC_U+30A4_U+30E4_U+30FC 1
370
     0
100
AcDbSpline
210
0.0
220
0.0
230
1.0
 70
    11
 71
     3
 72
    44
 73
    40
 74
     0
 42
0.0000000001
 43
0.0000000001
 12
1.0
 22
0.0
 32
0.0
 13
1.0
 23
0.0
 33
0.0
 40
0.0
 40
0.0
 40
0.0
 40
0.0
 40
1.0
 40
1.0
 40
1.0
 40
2.0
 40
2.0
 40
2.0
 40
3.0
 40
3.0
 40
3.0
 40
4.0
 40
4.0
 40
4.0
 40
5.0
 40
5.0
 40
5.0
 40
6.0
 40
6.0
 40
6.0
 40
7.0
 40
7.0
 40
7.0
 40
8.0
 40
8.0
 40
8.0
 40
9.0
 40
9.0
 40
9.0
 40
10.0
 40
10.0
 40
10.0
 40
11.0
 40
11.0
 40
11.0
 40
12.0
 40
12.0
 40
12.0
 40
13.0
 40
13.0
 40
13.0
 40
13.0
 10
65.09749076063535
 20
-130.1501952799624
 30
0.0
 10
65.25630966250537
 20
-130.3830837347653
 30
0.0
 10
65.33037921543824
 20
-130.4826469942891
 30
0.0
 10
65.47403969717315
 20
-130.5346679361163
 30
0.0
 10
65.47403969717315
 20
-130.5346679361163
 30
0.0
 10
65.47403969717315
 20
-129.70233286688
 30
0.0
 10
65.47403969717315
 20
-129.70233286688
 30
0.0
 10
65.47403969717315
 20
-129.70233286688
 30
0.0
 10
65.67936738809405
 20
-129.70233286688
 30
0.0
 10
65.67936738809405
 20
-129.70233286688
 30
0.0
 10
65.67936738809405
 20
-129.70233286688
 30
0.0
 10
65.67936738809405
 20
-130.8013183266747
 30
0.0
 10
65.67936738809405
 20
-130.8013183266747
 30
0.0
 10
65.32176647672512
 20
-130.7675563909192
 30
0.0
 10
65.24356280920995
 20
-130.6972764430201
 30
0.0
 10
64.94521754018731
 20
-130.2859320420813
 30
0.0
 10
64.74643553068839
 20
-130.0123914605525
 30
0.0
 10
64.67856714962898
 20
-129.9421115126534
 30
0.0
 10
64.5411078397675
 20
-129.9421115126534
 30
0.0
 10
64.4225965550749
 20
-129.9421115126534
 30
0.0
 10
64.29168292663542
 20
-130.0189371419744
 30
0.0
 10
64.29168292663542
 20
-130.2294324761232
 30
0.0
 10
64.29168292663542
 20
-130.5074516817829
 30
0.0
 10
64.52215981459862
 20
-130.5164089300445
 30
0.0
 10
64.63860404200007
 20
-130.5208875541753
 30
0.0
 10
64.63860404200007
 20
-130.5208875541753
 30
0.0
 10
64.63860404200007
 20
-130.7606661999487
 30
0.0
 10
64.63860404200007
 20
-130.7606661999487
 30
0.0
 10
64.51148001859436
 20
-130.7517089516871
 30
0.0
 10
64.39951441532374
 20
-130.7399956270372
 30
0.0
 10
64.28100313063113
 20
-130.654557259003
 30
0.0
 10
64.12011717146997
 20
-130.5367349934075
 30
0.0
 10
64.08635523571452
 20
-130.3379529839086
 30
0.0
 10
64.08635523571452
 20
-130.2135850368911
 30
0.0
 10
64.08635523571452
 20
-129.9173068251596
 30
0.0
 10
64.27032333462687
 20
-129.695787185458
 30
0.0
 10
64.54317489705865
 20
-129.695787185458
 30
0.0
 10
64.77192923727924
 20
-129.695787185458
 30
0.0
 10
64.87114798725443
 20
-129.8201551324755
 30
0.0
 10
65.09749076063535
 20
-130.1501952799624
 30
0.0
  0
HATCH
  5
122
330
11D
100
AcDbEntity
  8
_U+30EC_U+30A4_U+30E4_U+30FC 1
 62
   179
420
  2234388
100
AcDbHatch
 10
0.0
 20
0.0
 30
0.0
210
0.0
220
0.0
230
1.0
  2
SOLID
 70
     1
 71
     0
 91
        1
 92
        1
 93
        1
 72
     4
 94
        3
 73
     0
 74
     1
 95
       44
 96
       40
 40
0.0
 40
0.0
 40
0.0
 40
0.0
 40
1.0
 40
1.0
 40
1.0
 40
2.0
 40
2.0
 40
2.0
 40
3.0
 40
3.0
 40
3.0
 40
4.0
 40
4.0
 40
4.0
 40
5.0
 40
5.0
 40
5.0
 40
6.0
 40
6.0
 40
6.0
 40
7.0
 40
7.0
 40
7.0
 40
8.0
 40
8.0
 40
8.0
 40
9.0
 40
9.0
 40
9.0
 40
10.0
 40
10.0
 40
10.0
 40
11.0
 40
11.0
 40
11.0
 40
12.0
 40
12.0
 40
12.0
 40
13.0
 40
13.0
 40
13.0
 40
13.0
 10
65.09749076063535
 20
-130.1501952799624
 10
65.25630966250537
 20
-130.3830837347653
 10
65.33037921543824
 20
-130.4826469942891
 10
65.47403969717315
 20
-130.5346679361163
 10
65.47403969717315
 20
-130.5346679361163
 10
65.47403969717315
 20
-129.70233286688
 10
65.47403969717315
 20
-129.70233286688
 10
65.47403969717315
 20
-129.70233286688
 10
65.67936738809405
 20
-129.70233286688
 10
65.67936738809405
 20
-129.70233286688
 10
65.67936738809405
 20
-129.70233286688
 10
65.67936738809405
 20
-130.8013183266747
 10
65.67936738809405
 20
-130.8013183266747
 10
65.32176647672512
 20
-130.7675563909192
 10
65.24356280920995
 20
-130.6972764430201
 10
64.94521754018731
 20
-130.2859320420813
 10
64.74643553068839
 20
-130.0123914605525
 10
64.67856714962898
 20
-129.9421115126534
 10
64.5411078397675
 20
-129.9421115126534
 10
64.4225965550749
 20
-129.9421115126534
 10
64.29168292663542
 20
-130.0189371419744
 10
64.29168292663542
 20
-130.2294324761232
 10
64.29168292663542
 20
-130.5074516817829
 10
64.52215981459862
 20
-130.5164089300445
 10
64.63860404200007
 20
-130.5208875541753
 10
64.63860404200007
 20
-130.5208875541753
 10
64.63860404200007
 20
-130.7606661999487
 10
64.63860404200007
 20
-130.7606661999487
 10
64.51148001859436
 20
-130.7517089516871
 10
64.39951441532374
 20
-130.7399956270372
 10
64.28100313063113
 20
-130.654557259003
 10
64.12011717146997
 20
-130.5367349934075
 10
64.08635523571452
 20
-130.3379529839086
 10
64.08635523571452
 20
-130.2135850368911
 10
64.08635523571452
 20
-129.9173068251596
 10
64.27032333462687
 20
-129.695787185458
 10
64.54317489705865
 20
-129.695787185458
 10
64.77192923727924
 20
-129.695787185458
 10
64.87114798725443
 20
-129.8201551324755
 10
65.09749076063535
 20
-130.1501952799624
 97
        0
 97
        0
 75
     2
 76
     1
 98
        0
  0
POLYLINE
  5
123
330
11D
100
AcDbEntity
  8
_U+30EC_U+30A4_U+30E4_U+30FC 1
370
     0
100
AcDb2dPolyline
 66
     1
 10
0.0
 20
0.0
 30
0.0
  0
VERTEX
  5
124
330
123
100
AcDbEntity
  8
_U+30EC_U+30A4_U+30E4_U+30FC 1
370
     0
100
AcDbVertex
100
AcDb2dVertex
 10
65.33244627272938
 20
-128.6367648332922
 30
0.0
  0
VERTEX
  5
125
330
123
100
AcDbEntity
  8
_U+30EC_U+30A4_U+30E4_U+30FC 1
370
     0
100
AcDbVertex
100
AcDb2dVertex
 10
65.67936738809405
 20
-128.6367648332922
 30
0.0
  0
VERTEX
  5
126
330
123
100
AcDbEntity
  8
_U+30EC_U+30A4_U+30E4_U+30FC 1
370
     0
100
AcDbVertex
100
AcDb2dVertex
 10
65.67936738809405
 20
-128.8696532880951
 30
0.0
  0
VERTEX
  5
127
330
123
100
AcDbEntity
  8
_U+30EC_U+30A4_U+30E4_U+30FC 1
370
     0
100
AcDbVertex
100
AcDb2dVertex
 10
65.33244627272938
 20
-128.8696532880951
 30
0.0
  0
VERTEX
  5
128
330
123
100
AcDbEntity
  8
_U+30EC_U+30A4_U+30E4_U+30FC 1
370
     0
100
AcDbVertex
100
AcDb2dVertex
 10
65.33244627272938
 20
-129.5707302193434
 30
0.0
  0
VERTEX
  5
129
330
123
100
AcDbEntity
  8
_U+30EC_U+30A4_U+30E4_U+30FC 1
370
     0
100
AcDbVertex
100
AcDb2dVertex
 10
65.10817055663962
 20
-129.5707302193434
 30
0.0
  0
VERTEX
  5
12A
330
123
100
AcDbEntity
  8
_U+30EC_U+30A4_U+30E4_U+30FC 1
370
     0
100
AcDbVertex
100
AcDb2dVertex
 10
64.13493108205655
 20
-128.8448486006013
 30
0.0
  0
VERTEX
  5
12B
330
123
100
AcDbEntity
  8
_U+30EC_U+30A4_U+30E4_U+30FC 1
370
     0
100
AcDbVertex
100
AcDb2dVertex
 10
64.13493108205655
 20
-128.6367648332922
 30
0.0
  0
VERTEX
  5
12C
330
123
100
AcDbEntity
  8
_U+30EC_U+30A4_U+30E4_U+30FC 1
370
     0
100
AcDbVertex
100
AcDb2dVertex
 10
65.13366426323047
 20
-128.6367648332922
 30
0.0
  0
VERTEX
  5
12D
330
123
100
AcDbEntity
  8
_U+30EC_U+30A4_U+30E4_U+30FC 1
370
     0
100
AcDbVertex
100
AcDb2dVertex
 10
65.13366426323047
 20
-128.4152451935906
 30
0.0
  0
VERTEX
  5
12E
330
123
100
AcDbEntity
  8
_U+30EC_U+30A4_U+30E4_U+30FC 1
370
     0
100
AcDbVertex
100
AcDb2dVertex
 10
65.33244627272938
 20
-128.4152451935906
 30
0.0
  0
VERTEX
  5
12F
330
123
100
AcDbEntity
  8
_U+30EC_U+30A4_U+30E4_U+30FC 1
370
     0
100
AcDbVertex
100
AcDb2dVertex
 10
65.33244627272938
 20
-128.6367648332922
 30
0.0
  0
SEQEND
  5
130
330
123
100
AcDbEntity
  8
_U+30EC_U+30A4_U+30E4_U+30FC 1
370
     0
  0
POLYLINE
  5
131
330
11D
100
AcDbEntity
  8
_U+30EC_U+30A4_U+30E4_U+30FC 1
370
     0
100
AcDb2dPolyline
 66
     1
 10
0.0
 20
0.0
 30
0.0
  0
VERTEX
  5
132
330
131
100
AcDbEntity
  8
_U+30EC_U+30A4_U+30E4_U+30FC 1
370
     0
100
AcDbVertex
100
AcDb2dVertex
 10
64.4777180828389
 20
-128.8696532880951
 30
0.0
  0
VERTEX
  5
133
330
131
100
AcDbEntity
  8
_U+30EC_U+30A4_U+30E4_U+30FC 1
370
     0
100
AcDbVertex
100
AcDb2dVertex
 10
65.13366426323047
 20
-129.3581678279035
 30
0.0
  0
VERTEX
  5
134
330
131
100
AcDbEntity
  8
_U+30EC_U+30A4_U+30E4_U+30FC 1
370
     0
100
AcDbVertex
100
AcDb2dVertex
 10
65.13366426323047
 20
-128.8696532880951
 30
0.0
  0
VERTEX
  5
135
330
131
100
AcDbEntity
  8
_U+30EC_U+30A4_U+30E4_U+30FC 1
370
     0
100
AcDbVertex
100
AcDb2dVertex
 10
64.4777180828389
 20
-128.8696532880951
 30
0.0
  0
SEQEND
  5
136
330
131
100
AcDbEntity
  8
_U+30EC_U+30A4_U+30E4_U+30FC 1
370
     0
  0
HATCH
  5
137
330
11D
100
AcDbEntity
  8
_U+30EC_U+30A4_U+30E4_U+30FC 1
 62
   179
420
  2234388
100
AcDbHatch
 10
0.0
 20
0.0
 30
0.0
210
0.0
220
0.0
230
1.0
  2
SOLID
 70
     1
 71
     0
 91
        2
 92
        1
 93
       11
 72
     1
 10
65.33244627272938
 20
-128.6367648332922
 11
65.67936738809405
 21
-128.6367648332922
 72
     1
 10
65.67936738809405
 20
-128.6367648332922
 11
65.67936738809405
 21
-128.8696532880951
 72
     1
 10
65.67936738809405
 20
-128.8696532880951
 11
65.33244627272938
 21
-128.8696532880951
 72
     1
 10
65.33244627272938
 20
-128.8696532880951
 11
65.33244627272938
 21
-129.5707302193434
 72
     1
 10
65.33244627272938
 20
-129.5707302193434
 11
65.10817055663962
 21
-129.5707302193434
 72
     1
 10
65.10817055663962
 20
-129.5707302193434
 11
64.13493108205655
 21
-128.8448486006013
 72
     1
 10
64.13493108205655
 20
-128.8448486006013
 11
64.13493108205655
 21
-128.6367648332922
 72
     1
 10
64.13493108205655
 20
-128.6367648332922
 11
65.13366426323047
 21
-128.6367648332922
 72
     1
 10
65.13366426323047
 20
-128.6367648332922
 11
65.13366426323047
 21
-128.4152451935906
 72
     1
 10
65.13366426323047
 20
-128.4152451935906
 11
65.33244627272938
 21
-128.4152451935906
 72
     1
 10
65.33244627272938
 20
-128.4152451935906
 11
65.33244627272938
 21
-128.6367648332922
 97
        0
 92
        1
 93
        3
 72
     1
 10
64.4777180828389
 20
-128.8696532880951
 11
65.13366426323047
 21
-129.3581678279035
 72
     1
 10
65.13366426323047
 20
-129.3581678279035
 11
65.13366426323047
 21
-128.8696532880951
 72
     1
 10
65.13366426323047
 20
-128.8696532880951
 11
64.4777180828389
 21
-128.8696532880951
 97
        0
 75
     2
 76
     1
 98
        0
  0
ENDBLK
  5
120
330
11D
100
AcDbEntity
  8
0
100
AcDbBlockEnd
  0
ENDSEC
  0
SECTION
  2
ENTITIES
  0
SPLINE
  5
41
330
1F
100
AcDbEntity
  8
_U+30EC_U+30A4_U+30E4_U+30FC 1
 62
   179
420
  2234388
370
     9
100
AcDbSpline
210
0.0
220
0.0
230
1.0
 70
    11
 71
     3
 72
    17
 73
    13
 74
     0
 42
0.0000000001
 43
0.0000000001
 12
1.0
 22
0.0
 32
0.0
 13
1.0
 23
0.0
 33
0.0
 40
0.0
 40
0.0
 40
0.0
 40
0.0
 40
1.0
 40
1.0
 40
1.0
 40
2.0
 40
2.0
 40
2.0
 40
3.0
 40
3.0
 40
3.0
 40
4.0
 40
4.0
 40
4.0
 40
4.0
 10
71.03960013207326
 20
-111.1873710833143
 30
0.0
 10
71.09540957509388
 20
-111.1873710833143
 30
0.0
 10
71.14017707395176
 20
-111.2321385833032
 30
0.0
 10
71.14017707395176
 20
-111.287277749956
 30
0.0
 10
71.14017707395176
 20
-111.3423816388312
 30
0.0
 10
71.09540957509388
 20
-111.3871844165976
 30
0.0
 10
71.03960013207326
 20
-111.3871844165976
 30
0.0
 10
70.9844609668133
 20
-111.3871844165976
 30
0.0
 10
70.93969346795542
 20
-111.3423816388312
 30
0.0
 10
70.93969346795542
 20
-111.287277749956
 30
0.0
 10
70.93969346795542
 20
-111.2321385833032
 30
0.0
 10
70.9844609668133
 20
-111.1873710833143
 30
0.0
 10
71.03960013207326
 20
-111.1873710833143
 30
0.0
  0
SPLINE
  5
42
330
1F
100
AcDbEntity
  8
_U+30EC_U+30A4_U+30E4_U+30FC 1
 62
   179
420
  2234388
370
     9
100
AcDbSpline
210
0.0
220
0.0
230
1.0
 70
    11
 71
     3
 72
    17
 73
    13
 74
     0
 42
0.0000000001
 43
0.0000000001
 12
1.0
 22
0.0
 32
0.0
 13
1.0
 23
0.0
 33
0.0
 40
0.0
 40
0.0
 40
0.0
 40
0.0
 40
1.0
 40
1.0
 40
1.0
 40
2.0
 40
2.0
 40
2.0
 40
3.0
 40
3.0
 40
3.0
 40
4.0
 40
4.0
 40
4.0
 40
4.0
 10
74.0650575548874
 20
-111.2052569166431
 30
0.0
 10
74.12086699790804
 20
-111.2052569166431
 30
0.0
 10
74.16566977454279
 20
-111.2493541388543
 30
0.0
 10
74.16566977454279
 20
-111.3051635832848
 30
0.0
 10
74.16566977454279
 20
-111.3603027499378
 30
0.0
 10
74.12086699790804
 20
-111.4050702499264
 30
0.0
 10
74.0650575548874
 20
-111.4050702499264
 30
0.0
 10
74.0099555370532
 20
-111.4050702499264
 30
0.0
 10
73.96515275928648
 20
-111.3603027499378
 30
0.0
 10
73.96515275928648
 20
-111.3051635832848
 30
0.0
 10
73.96515275928648
 20
-111.2493541388543
 30
0.0
 10
74.0099555370532
 20
-111.2052569166431
 30
0.0
 10
74.0650575548874
 20
-111.2052569166431
 30
0.0
  0
POLYLINE
  5
43
330
1F
100
AcDbEntity
  8
_U+30EC_U+30A4_U+30E4_U+30FC 1
 62
   179
420
  2234388
370
    25
100
AcDb2dPolyline
 66
     1
 10
0.0
 20
0.0
 30
0.0
  0
VERTEX
  5
44
330
43
100
AcDbEntity
  8
_U+30EC_U+30A4_U+30E4_U+30FC 1
 62
   179
420
  2234388
370
    25
100
AcDbVertex
100
AcDb2dVertex
 10
75.97778333942304
 20
-141.6199577423728
 30
0.0
  0
VERTEX
  5
45
330
43
100
AcDbEntity
  8
_U+30EC_U+30A4_U+30E4_U+30FC 1
 62
   179
420
  2234388
370
    25
100
AcDbVertex
100
AcDb2dVertex
 10
70.97758180032214
 20
-141.6199577423728
 30
0.0
  0
SEQEND
  5
46
330
43
100
AcDbEntity
  8
_U+30EC_U+30A4_U+30E4_U+30FC 1
 62
   179
420
  2234388
370
    25
  0
POLYLINE
  5
47
330
1F
100
AcDbEntity
  8
_U+30EC_U+30A4_U+30E4_U+30FC 1
 62
   179
420
  2234388
370
    25
100
AcDb2dPolyline
 66
     1
 10
0.0
 20
0.0
 30
0.0
  0
VERTEX
  5
48
330
47
100
AcDbEntity
  8
_U+30EC_U+30A4_U+30E4_U+30FC 1
 62
   179
420
  2234388
370
    25
100
AcDbVertex
100
AcDb2dVertex
 10
73.97756866823055
 20
-117.6193566372619
 30
0.0
  0
VERTEX
  5
49
330
47
100
AcDbEntity
  8
_U+30EC_U+30A4_U+30E4_U+30FC 1
 62
   179
420
  2234388
370
    25
100
AcDbVertex
100
AcDb2dVertex
 10
70.97758180032214
 20
-117.6193566372619
 30
0.0
  0
SEQEND
  5
4A
330
47
100
AcDbEntity
  8
_U+30EC_U+30A4_U+30E4_U+30FC 1
 62
   179
420
  2234388
370
    25
  0
POLYLINE
  5
4B
330
1F
100
AcDbEntity
  8
_U+30EC_U+30A4_U+30E4_U+30FC 1
 62
   179
420
  2234388
370
    25
100
AcDb2dPolyline
 66
     1
 10
0.0
 20
0.0
 30
0.0
  0
VERTEX
  5
4C
330
4B
100
AcDbEntity
  8
_U+30EC_U+30A4_U+30E4_U+30FC 1
 62
   179
420
  2234388
370
    25
100
AcDbVertex
100
AcDb2dVertex
 10
110.9768657798554
 20
-125.619545246373
 30
0.0
  0
VERTEX
  5
4D
330
4B
100
AcDbEntity
  8
_U+30EC_U+30A4_U+30E4_U+30FC 1
 62
   179
420
  2234388
370
    25
100
AcDbVertex
100
AcDb2dVertex
 10
110.9768657798554
 20
-124.6197730244008
 30
0.0
  0
SEQEND
  5
4E
330
4B
100
AcDbEntity
  8
_U+30EC_U+30A4_U+30E4_U+30FC 1
 62
   179
420
  2234388
370
    25
  0
POLYLINE
  5
4F
330
1F
100
AcDbEntity
  8
_U+30EC_U+30A4_U+30E4_U+30FC 1
 62
   179
420
  2234388
370
    25
100
AcDb2dPolyline
 66
     1
 10
0.0
 20
0.0
 30
0.0
  0
VERTEX
  5
50
330
4F
100
AcDbEntity
  8
_U+30EC_U+30A4_U+30E4_U+30FC 1
 62
   179
420
  2234388
370
    25
100
AcDbVertex
100
AcDb2dVertex
 10
70.97758180032214
 20
-141.6199577423728
 30
0.0
  0
VERTEX
  5
51
330
4F
100
AcDbEntity
  8
_U+30EC_U+30A4_U+30E4_U+30FC 1
 62
   179
420
  2234388
370
    25
100
AcDbVertex
100
AcDb2dVertex
 10
70.97758180032214
 20
-117.6193566372619
 30
0.0
  0
SEQEND
  5
52
330
4F
100
AcDbEntity
  8
_U+30EC_U+30A4_U+30E4_U+30FC 1
 62
   179
420
  2234388
370
    25
  0
POLYLINE
  5
53
330
1F
100
AcDbEntity
  8
_U+30EC_U+30A4_U+30E4_U+30FC 1
 62
   179
420
  2234388
370
    25
100
AcDb2dPolyline
 66
     1
 10
0.0
 20
0.0
 30
0.0
  0
VERTEX
  5
54
330
53
100
AcDbEntity
  8
_U+30EC_U+30A4_U+30E4_U+30FC 1
 62
   179
420
  2234388
370
    25
100
AcDbVertex
100
AcDb2dVertex
 10
76.0831933367338
 20
-138.6199707986784
 30
0.0
  0
VERTEX
  5
55
330
53
100
AcDbEntity
  8
_U+30EC_U+30A4_U+30E4_U+30FC 1
 62
   179
420
  2234388
370
    25
100
AcDbVertex
100
AcDb2dVertex
 10
73.08320831506252
 20
-138.6199707986784
 30
0.0
  0
SEQEND
  5
56
330
53
100
AcDbEntity
  8
_U+30EC_U+30A4_U+30E4_U+30FC 1
 62
   179
420
  2234388
370
    25
  0
POLYLINE
  5
57
330
1F
100
AcDbEntity
  8
_U+30EC_U+30A4_U+30E4_U+30FC 1
 62
   179
420
  2234388
370
    25
100
AcDb2dPolyline
 66
     1
 10
0.0
 20
0.0
 30
0.0
  0
VERTEX
  5
58
330
57
100
AcDbEntity
  8
_U+30EC_U+30A4_U+30E4_U+30FC 1
 62
   179
420
  2234388
370
    25
100
AcDbVertex
100
AcDb2dVertex
 10
110.9768657798554
 20
-125.619545246373
 30
0.0
  0
VERTEX
  5
59
330
57
100
AcDbEntity
  8
_U+30EC_U+30A4_U+30E4_U+30FC 1
 62
   179
420
  2234388
370
    25
100
AcDbVertex
100
AcDb2dVertex
 10
71.97802427479873
 20
-125.619545246373
 30
0.0
  0
SEQEND
  5
5A
330
57
100
AcDbEntity
  8
_U+30EC_U+30A4_U+30E4_U+30FC 1
 62
   179
420
  2234388
370
    25
  0
POLYLINE
  5
5B
330
1F
100
AcDbEntity
  8
_U+30EC_U+30A4_U+30E4_U+30FC 1
 62
   179
420
  2234388
370
    25
100
AcDb2dPolyline
 66
     1
 10
0.0
 20
0.0
 30
0.0
  0
VERTEX
  5
5C
330
5B
100
AcDbEntity
  8
_U+30EC_U+30A4_U+30E4_U+30FC 1
 62
   179
420
  2234388
370
    25
100
AcDbVertex
100
AcDb2dVertex
 10
110.9768657798554
 20
-124.6197730244008
 30
0.0
  0
VERTEX
  5
5D
330
5B
100
AcDbEntity
  8
_U+30EC_U+30A4_U+30E4_U+30FC 1
 62
   179
420
  2234388
370
    25
100
AcDbVertex
100
AcDb2dVertex
 10
71.97802427479873
 20
-124.6197730244008
 30
0.0
  0
SEQEND
  5
5E
330
5B
100
AcDbEntity
  8
_U+30EC_U+30A4_U+30E4_U+30FC 1
 62
   179
420
  2234388
370
    25
  0
POLYLINE
  5
5F
330
1F
100
AcDbEntity
  8
_U+30EC_U+30A4_U+30E4_U+30FC 1
 62
   179
420
  2234388
370
    25
100
AcDb2dPolyline
 66
     1
 10
0.0
 20
0.0
 30
0.0
  0
VERTEX
  5
60
330
5F
100
AcDbEntity
  8
_U+30EC_U+30A4_U+30E4_U+30FC 1
 62
   179
420
  2234388
370
    25
100
AcDbVertex
100
AcDb2dVertex
 10
71.97802427479873
 20
-140.6201855204002
 30
0.0
  0
VERTEX
  5
61
330
5F
100
AcDbEntity
  8
_U+30EC_U+30A4_U+30E4_U+30FC 1
 62
   179
420
  2234388
370
    25
100
AcDbVertex
100
AcDb2dVertex
 10
71.97802427479873
 20
-125.619545246373
 30
0.0
  0
SEQEND
  5
62
330
5F
100
AcDbEntity
  8
_U+30EC_U+30A4_U+30E4_U+30FC 1
 62
   179
420
  2234388
370
    25
  0
POLYLINE
  5
63
330
1F
100
AcDbEntity
  8
_U+30EC_U+30A4_U+30E4_U+30FC 1
 62
   179
420
  2234388
370
    25
100
AcDb2dPolyline
 66
     1
 10
0.0
 20
0.0
 30
0.0
  0
VERTEX
  5
64
330
63
100
AcDbEntity
  8
_U+30EC_U+30A4_U+30E4_U+30FC 1
 62
   179
420
  2234388
370
    25
100
AcDbVertex
100
AcDb2dVertex
 10
73.97756866823055
 20
-118.6191288592341
 30
0.0
  0
VERTEX
  5
65
330
63
100
AcDbEntity
  8
_U+30EC_U+30A4_U+30E4_U+30FC 1
 62
   179
420
  2234388
370
    25
100
AcDbVertex
100
AcDb2dVertex
 10
71.97802427479873
 20
-118.6191288592341
 30
0.0
  0
SEQEND
  5
66
330
63
100
AcDbEntity
  8
_U+30EC_U+30A4_U+30E4_U+30FC 1
 62
   179
420
  2234388
370
    25
  0
POLYLINE
  5
67
330
1F
100
AcDbEntity
  8
_U+30EC_U+30A4_U+30E4_U+30FC 1
 62
   179
420
  2234388
370
    25
100
AcDb2dPolyline
 66
     1
 10
0.0
 20
0.0
 30
0.0
  0
VERTEX
  5
68
330
67
100
AcDbEntity
  8
_U+30EC_U+30A4_U+30E4_U+30FC 1
 62
   179
420
  2234388
370
    25
100
AcDbVertex
100
AcDb2dVertex
 10
74.97801114270713
 20
-140.6201855204002
 30
0.0
  0
VERTEX
  5
69
330
67
100
AcDbEntity
  8
_U+30EC_U+30A4_U+30E4_U+30FC 1
 62
   179
420
  2234388
370
    25
100
AcDbVertex
100
AcDb2dVertex
 10
71.97802427479873
 20
-140.6201855204002
 30
0.0
  0
SEQEND
  5
6A
330
67
100
AcDbEntity
  8
_U+30EC_U+30A4_U+30E4_U+30FC 1
 62
   179
420
  2234388
370
    25
  0
POLYLINE
  5
6B
330
1F
100
AcDbEntity
  8
_U+30EC_U+30A4_U+30E4_U+30FC 1
 62
   179
420
  2234388
370
    25
100
AcDb2dPolyline
 66
     1
 10
0.0
 20
0.0
 30
0.0
  0
VERTEX
  5
6C
330
6B
100
AcDbEntity
  8
_U+30EC_U+30A4_U+30E4_U+30FC 1
 62
   179
420
  2234388
370
    25
100
AcDbVertex
100
AcDb2dVertex
 10
76.0831933367338
 20
-141.6199577423728
 30
0.0
  0
VERTEX
  5
6D
330
6B
100
AcDbEntity
  8
_U+30EC_U+30A4_U+30E4_U+30FC 1
 62
   179
420
  2234388
370
    25
100
AcDbVertex
100
AcDb2dVertex
 10
76.0831933367338
 20
-138.6199707986784
 30
0.0
  0
SEQEND
  5
6E
330
6B
100
AcDbEntity
  8
_U+30EC_U+30A4_U+30E4_U+30FC 1
 62
   179
420
  2234388
370
    25
  0
POLYLINE
  5
6F
330
1F
100
AcDbEntity
  8
_U+30EC_U+30A4_U+30E4_U+30FC 1
 62
   179
420
  2234388
370
    25
100
AcDb2dPolyline
 66
     1
 10
0.0
 20
0.0
 30
0.0
  0
VERTEX
  5
70
330
6F
100
AcDbEntity
  8
_U+30EC_U+30A4_U+30E4_U+30FC 1
 62
   179
420
  2234388
370
    25
100
AcDbVertex
100
AcDb2dVertex
 10
75.08275275900696
 20
-140.6201855204002
 30
0.0
  0
VERTEX
  5
71
330
6F
100
AcDbEntity
  8
_U+30EC_U+30A4_U+30E4_U+30FC 1
 62
   179
420
  2234388
370
    25
100
AcDbVertex
100
AcDb2dVertex
 10
75.08275275900696
 20
-139.6197430206503
 30
0.0
  0
SEQEND
  5
72
330
6F
100
AcDbEntity
  8
_U+30EC_U+30A4_U+30E4_U+30FC 1
 62
   179
420
  2234388
370
    25
  0
POLYLINE
  5
73
330
1F
100
AcDbEntity
  8
_U+30EC_U+30A4_U+30E4_U+30FC 1
 62
   179
420
  2234388
370
    25
100
AcDb2dPolyline
 66
     1
 10
0.0
 20
0.0
 30
0.0
  0
VERTEX
  5
74
330
73
100
AcDbEntity
  8
_U+30EC_U+30A4_U+30E4_U+30FC 1
 62
   179
420
  2234388
370
    25
100
AcDbVertex
100
AcDb2dVertex
 10
75.08275275900696
 20
-139.6197430206503
 30
0.0
  0
VERTEX
  5
75
330
73
100
AcDbEntity
  8
_U+30EC_U+30A4_U+30E4_U+30FC 1
 62
   179
420
  2234388
370
    25
100
AcDbVertex
100
AcDb2dVertex
 10
73.08320831506252
 20
-139.6197430206503
 30
0.0
  0
SEQEND
  5
76
330
73
100
AcDbEntity
  8
_U+30EC_U+30A4_U+30E4_U+30FC 1
 62
   179
420
  2234388
370
    25
  0
POLYLINE
  5
77
330
1F
100
AcDbEntity
  8
_U+30EC_U+30A4_U+30E4_U+30FC 1
 62
   179
420
  2234388
370
    25
100
AcDb2dPolyline
 66
     1
 10
0.0
 20
0.0
 30
0.0
  0
VERTEX
  5
78
330
77
100
AcDbEntity
  8
_U+30EC_U+30A4_U+30E4_U+30FC 1
 62
   179
420
  2234388
370
    25
100
AcDbVertex
100
AcDb2dVertex
 10
73.08320831506252
 20
-139.6197430206503
 30
0.0
  0
VERTEX
  5
79
330
77
100
AcDbEntity
  8
_U+30EC_U+30A4_U+30E4_U+30FC 1
 62
   179
420
  2234388
370
    25
100
AcDbVertex
100
AcDb2dVertex
 10
73.08320831506252
 20
-138.6199707986784
 30
0.0
  0
SEQEND
  5
7A
330
77
100
AcDbEntity
  8
_U+30EC_U+30A4_U+30E4_U+30FC 1
 62
   179
420
  2234388
370
    25
  0
POLYLINE
  5
7B
330
1F
100
AcDbEntity
  8
_U+30EC_U+30A4_U+30E4_U+30FC 1
 62
   179
420
  2234388
370
    25
100
AcDb2dPolyline
 66
     1
 10
0.0
 20
0.0
 30
0.0
  0
VERTEX
  5
7C
330
7B
100
AcDbEntity
  8
_U+30EC_U+30A4_U+30E4_U+30FC 1
 62
   179
420
  2234388
370
    25
100
AcDbVertex
100
AcDb2dVertex
 10
73.97756866823055
 20
-118.6191288592341
 30
0.0
  0
VERTEX
  5
7D
330
7B
100
AcDbEntity
  8
_U+30EC_U+30A4_U+30E4_U+30FC 1
 62
   179
420
  2234388
370
    25
100
AcDbVertex
100
AcDb2dVertex
 10
73.97756866823055
 20
-117.6193566372619
 30
0.0
  0
SEQEND
  5
7E
330
7B
100
AcDbEntity
  8
_U+30EC_U+30A4_U+30E4_U+30FC 1
 62
   179
420
  2234388
370
    25
  0
POLYLINE
  5
7F
330
1F
100
AcDbEntity
  8
_U+30EC_U+30A4_U+30E4_U+30FC 1
 62
   179
420
  2234388
370
    25
100
AcDb2dPolyline
 66
     1
 10
0.0
 20
0.0
 30
0.0
  0
VERTEX
  5
80
330
7F
100
AcDbEntity
  8
_U+30EC_U+30A4_U+30E4_U+30FC 1
 62
   179
420
  2234388
370
    25
100
AcDbVertex
100
AcDb2dVertex
 10
71.97802427479873
 20
-124.6197730244008
 30
0.0
  0
VERTEX
  5
81
330
7F
100
AcDbEntity
  8
_U+30EC_U+30A4_U+30E4_U+30FC 1
 62
   179
420
  2234388
370
    25
100
AcDbVertex
100
AcDb2dVertex
 10
71.97802427479873
 20
-118.6191288592341
 30
0.0
  0
SEQEND
  5
82
330
7F
100
AcDbEntity
  8
_U+30EC_U+30A4_U+30E4_U+30FC 1
 62
   179
420
  2234388
370
    25
  0
SPLINE
  5
83
330
1F
100
AcDbEntity
  8
_U+30EC_U+30A4_U+30E4_U+30FC 1
 62
   179
420
  2234388
370
     9
100
AcDbSpline
210
0.0
220
0.0
230
1.0
 70
    11
 71
     3
 72
    17
 73
    13
 74
     0
 42
0.0000000001
 43
0.0000000001
 12
1.0
 22
0.0
 32
0.0
 13
1.0
 23
0.0
 33
0.0
 40
0.0
 40
0.0
 40
0.0
 40
0.0
 40
1.0
 40
1.0
 40
1.0
 40
2.0
 40
2.0
 40
2.0
 40
3.0
 40
3.0
 40
3.0
 40
4.0
 40
4.0
 40
4.0
 40
4.0
 10
114.9772951222404
 20
-138.5193585764813
 30
0.0
 10
115.0324342875003
 20
-138.5193585764813
 30
0.0
 10
115.0772017863582
 20
-138.564161354248
 30
0.0
 10
115.0772017863582
 20
-138.6192652431229
 30
0.0
 10
115.0772017863582
 20
-138.6750746875533
 30
0.0
 10
115.0324342875003
 20
-138.7191719097645
 30
0.0
 10
114.9772951222404
 20
-138.7191719097645
 30
0.0
 10
114.9221912347573
 20
-138.7191719097645
 30
0.0
 10
114.8773884581225
 20
-138.6750746875533
 30
0.0
 10
114.8773884581225
 20
-138.6192652431229
 30
0.0
 10
114.8773884581225
 20
-138.564161354248
 30
0.0
 10
114.9221912347573
 20
-138.5193585764813
 30
0.0
 10
114.9772951222404
 20
-138.5193585764813
 30
0.0
  0
SPLINE
  5
84
330
1F
100
AcDbEntity
  8
_U+30EC_U+30A4_U+30E4_U+30FC 1
 62
   179
420
  2234388
370
     9
100
AcDbSpline
210
0.0
220
0.0
230
1.0
 70
    11
 71
     3
 72
    17
 73
    13
 74
     0
 42
0.0000000001
 43
0.0000000001
 12
1.0
 22
0.0
 32
0.0
 13
1.0
 23
0.0
 33
0.0
 40
0.0
 40
0.0
 40
0.0
 40
0.0
 40
1.0
 40
1.0
 40
1.0
 40
2.0
 40
2.0
 40
2.0
 40
3.0
 40
3.0
 40
3.0
 40
4.0
 40
4.0
 40
4.0
 40
4.0
 10
114.9772951222404
 20
-141.5193455201756
 30
0.0
 10
115.0324342875003
 20
-141.5193455201756
 30
0.0
 10
115.0772017863582
 20
-141.5641482979423
 30
0.0
 10
115.0772017863582
 20
-141.6192521868172
 30
0.0
 10
115.0772017863582
 20
-141.6750616312477
 30
0.0
 10
115.0324342875003
 20
-141.7198644090144
 30
0.0
 10
114.9772951222404
 20
-141.7198644090144
 30
0.0
 10
114.9221912347573
 20
-141.7198644090144
 30
0.0
 10
114.8773884581225
 20
-141.6750616312477
 30
0.0
 10
114.8773884581225
 20
-141.6192521868172
 30
0.0
 10
114.8773884581225
 20
-141.5641482979423
 30
0.0
 10
114.9221912347573
 20
-141.5193455201756
 30
0.0
 10
114.9772951222404
 20
-141.5193455201756
 30
0.0
  0
SPLINE
  5
85
330
1F
100
AcDbEntity
  8
_U+30EC_U+30A4_U+30E4_U+30FC 1
 62
   179
420
  2234388
370
     9
100
AcDbSpline
210
0.0
220
0.0
230
1.0
 70
    11
 71
     3
 72
    17
 73
    13
 74
     0
 42
0.0000000001
 43
0.0000000001
 12
1.0
 22
0.0
 32
0.0
 13
1.0
 23
0.0
 33
0.0
 40
0.0
 40
0.0
 40
0.0
 40
0.0
 40
1.0
 40
1.0
 40
1.0
 40
2.0
 40
2.0
 40
2.0
 40
3.0
 40
3.0
 40
3.0
 40
4.0
 40
4.0
 40
4.0
 40
4.0
 10
114.9772951222404
 20
-125.5196385797313
 30
0.0
 10
115.0324342875003
 20
-125.5196385797313
 30
0.0
 10
115.0772017863582
 20
-125.5644413574977
 30
0.0
 10
115.0772017863582
 20
-125.619545246373
 30
0.0
 10
115.0772017863582
 20
-125.6746844130257
 30
0.0
 10
115.0324342875003
 20
-125.7194519130146
 30
0.0
 10
114.9772951222404
 20
-125.7194519130146
 30
0.0
 10
114.9221912347573
 20
-125.7194519130146
 30
0.0
 10
114.8773884581225
 20
-125.6746844130257
 30
0.0
 10
114.8773884581225
 20
-125.619545246373
 30
0.0
 10
114.8773884581225
 20
-125.5644413574977
 30
0.0
 10
114.9221912347573
 20
-125.5196385797313
 30
0.0
 10
114.9772951222404
 20
-125.5196385797313
 30
0.0
  0
SPLINE
  5
86
330
1F
100
AcDbEntity
  8
_U+30EC_U+30A4_U+30E4_U+30FC 1
 62
   179
420
  2234388
370
     9
100
AcDbSpline
210
0.0
220
0.0
230
1.0
 70
    11
 71
     3
 72
    17
 73
    13
 74
     0
 42
0.0000000001
 43
0.0000000001
 12
1.0
 22
0.0
 32
0.0
 13
1.0
 23
0.0
 33
0.0
 40
0.0
 40
0.0
 40
0.0
 40
0.0
 40
1.0
 40
1.0
 40
1.0
 40
2.0
 40
2.0
 40
2.0
 40
3.0
 40
3.0
 40
3.0
 40
4.0
 40
4.0
 40
4.0
 40
4.0
 10
114.9772951222404
 20
-124.5191960799814
 30
0.0
 10
115.0324342875003
 20
-124.5191960799814
 30
0.0
 10
115.0772017863582
 20
-124.56396357997
 30
0.0
 10
115.0772017863582
 20
-124.6197730244008
 30
0.0
 10
115.0772017863582
 20
-124.6749121910535
 30
0.0
 10
115.0324342875003
 20
-124.7196796910424
 30
0.0
 10
114.9772951222404
 20
-124.7196796910424
 30
0.0
 10
114.9221912347573
 20
-124.7196796910424
 30
0.0
 10
114.8773884581225
 20
-124.6749121910535
 30
0.0
 10
114.8773884581225
 20
-124.6197730244008
 30
0.0
 10
114.8773884581225
 20
-124.56396357997
 30
0.0
 10
114.9221912347573
 20
-124.5191960799814
 30
0.0
 10
114.9772951222404
 20
-124.5191960799814
 30
0.0
  0
SPLINE
  5
87
330
1F
100
AcDbEntity
  8
_U+30EC_U+30A4_U+30E4_U+30FC 1
 62
   179
420
  2234388
370
     9
100
AcDbSpline
210
0.0
220
0.0
230
1.0
 70
    11
 71
     3
 72
    17
 73
    13
 74
     0
 42
0.0000000001
 43
0.0000000001
 12
1.0
 22
0.0
 32
0.0
 13
1.0
 23
0.0
 33
0.0
 40
0.0
 40
0.0
 40
0.0
 40
0.0
 40
1.0
 40
1.0
 40
1.0
 40
2.0
 40
2.0
 40
2.0
 40
3.0
 40
3.0
 40
3.0
 40
4.0
 40
4.0
 40
4.0
 40
4.0
 10
110.9768657798554
 20
-113.5196908049533
 30
0.0
 10
111.032675222876
 20
-113.5196908049533
 30
0.0
 10
111.0774427217339
 20
-113.5644583049422
 30
0.0
 10
111.0774427217339
 20
-113.619597471595
 30
0.0
 10
111.0774427217339
 20
-113.6747013604702
 30
0.0
 10
111.032675222876
 20
-113.7195041382369
 30
0.0
 10
110.9768657798554
 20
-113.7195041382369
 30
0.0
 10
110.9217266145954
 20
-113.7195041382369
 30
0.0
 10
110.8769591157375
 20
-113.6747013604702
 30
0.0
 10
110.8769591157375
 20
-113.619597471595
 30
0.0
 10
110.8769591157375
 20
-113.5644583049422
 30
0.0
 10
110.9217266145954
 20
-113.5196908049533
 30
0.0
 10
110.9768657798554
 20
-113.5196908049533
 30
0.0
  0
SPLINE
  5
88
330
1F
100
AcDbEntity
  8
_U+30EC_U+30A4_U+30E4_U+30FC 1
 62
   179
420
  2234388
370
     9
100
AcDbSpline
210
0.0
220
0.0
230
1.0
 70
    11
 71
     3
 72
    17
 73
    13
 74
     0
 42
0.0000000001
 43
0.0000000001
 12
1.0
 22
0.0
 32
0.0
 13
1.0
 23
0.0
 33
0.0
 40
0.0
 40
0.0
 40
0.0
 40
0.0
 40
1.0
 40
1.0
 40
1.0
 40
2.0
 40
2.0
 40
2.0
 40
3.0
 40
3.0
 40
3.0
 40
4.0
 40
4.0
 40
4.0
 40
4.0
 10
70.97758180032214
 20
-113.5196908049533
 30
0.0
 10
71.03268568780521
 20
-113.5196908049533
 30
0.0
 10
71.07748846443998
 20
-113.5644583049422
 30
0.0
 10
71.07748846443998
 20
-113.619597471595
 30
0.0
 10
71.07748846443998
 20
-113.6747013604702
 30
0.0
 10
71.03268568780521
 20
-113.7195041382369
 30
0.0
 10
70.97758180032214
 20
-113.7195041382369
 30
0.0
 10
70.92244442671382
 20
-113.7195041382369
 30
0.0
 10
70.8776751362043
 20
-113.6747013604702
 30
0.0
 10
70.8776751362043
 20
-113.619597471595
 30
0.0
 10
70.8776751362043
 20
-113.5644583049422
 30
0.0
 10
70.92244442671382
 20
-113.5196908049533
 30
0.0
 10
70.97758180032214
 20
-113.5196908049533
 30
0.0
  0
SPLINE
  5
89
330
1F
100
AcDbEntity
  8
_U+30EC_U+30A4_U+30E4_U+30FC 1
 62
   179
420
  2234388
370
     9
100
AcDbSpline
210
0.0
220
0.0
230
1.0
 70
    11
 71
     3
 72
    17
 73
    13
 74
     0
 42
0.0000000001
 43
0.0000000001
 12
1.0
 22
0.0
 32
0.0
 13
1.0
 23
0.0
 33
0.0
 40
0.0
 40
0.0
 40
0.0
 40
0.0
 40
1.0
 40
1.0
 40
1.0
 40
2.0
 40
2.0
 40
2.0
 40
3.0
 40
3.0
 40
3.0
 40
4.0
 40
4.0
 40
4.0
 40
4.0
 10
66.97782273569783
 20
-117.5194499706202
 30
0.0
 10
67.0329266231809
 20
-117.5194499706202
 30
0.0
 10
67.07772939981567
 20
-117.5642174706091
 30
0.0
 10
67.07772939981567
 20
-117.6193566372619
 30
0.0
 10
67.07772939981567
 20
-117.6744605261371
 30
0.0
 10
67.0329266231809
 20
-117.7192633039035
 30
0.0
 10
66.97782273569783
 20
-117.7192633039035
 30
0.0
 10
66.92268357043788
 20
-117.7192633039035
 30
0.0
 10
66.87791607157999
 20
-117.6744605261371
 30
0.0
 10
66.87791607157999
 20
-117.6193566372619
 30
0.0
 10
66.87791607157999
 20
-117.5642174706091
 30
0.0
 10
66.92268357043788
 20
-117.5194499706202
 30
0.0
 10
66.97782273569783
 20
-117.5194499706202
 30
0.0
  0
SPLINE
  5
8A
330
1F
100
AcDbEntity
  8
_U+30EC_U+30A4_U+30E4_U+30FC 1
 62
   179
420
  2234388
370
     9
100
AcDbSpline
210
0.0
220
0.0
230
1.0
 70
    11
 71
     3
 72
    17
 73
    13
 74
     0
 42
0.0000000001
 43
0.0000000001
 12
1.0
 22
0.0
 32
0.0
 13
1.0
 23
0.0
 33
0.0
 40
0.0
 40
0.0
 40
0.0
 40
0.0
 40
1.0
 40
1.0
 40
1.0
 40
2.0
 40
2.0
 40
2.0
 40
3.0
 40
3.0
 40
3.0
 40
4.0
 40
4.0
 40
4.0
 40
4.0
 10
66.97782273569783
 20
-141.5200510757311
 30
0.0
 10
67.0329266231809
 20
-141.5200510757311
 30
0.0
 10
67.07772939981567
 20
-141.5648185757197
 30
0.0
 10
67.07772939981567
 20
-141.6199577423728
 30
0.0
 10
67.07772939981567
 20
-141.6750616312477
 30
0.0
 10
67.0329266231809
 20
-141.7198644090144
 30
0.0
 10
66.97782273569783
 20
-141.7198644090144
 30
0.0
 10
66.92268357043788
 20
-141.7198644090144
 30
0.0
 10
66.87791607157999
 20
-141.6750616312477
 30
0.0
 10
66.87791607157999
 20
-141.6199577423728
 30
0.0
 10
66.87791607157999
 20
-141.5648185757197
 30
0.0
 10
66.92268357043788
 20
-141.5200510757311
 30
0.0
 10
66.97782273569783
 20
-141.5200510757311
 30
0.0
  0
SPLINE
  5
8B
330
1F
100
AcDbEntity
  8
_U+30EC_U+30A4_U+30E4_U+30FC 1
 62
   179
420
  2234388
370
     9
100
AcDbSpline
210
0.0
220
0.0
230
1.0
 70
    11
 71
     3
 72
    17
 73
    13
 74
     0
 42
0.0000000001
 43
0.0000000001
 12
1.0
 22
0.0
 32
0.0
 13
1.0
 23
0.0
 33
0.0
 40
0.0
 40
0.0
 40
0.0
 40
0.0
 40
1.0
 40
1.0
 40
1.0
 40
2.0
 40
2.0
 40
2.0
 40
3.0
 40
3.0
 40
3.0
 40
4.0
 40
4.0
 40
4.0
 40
4.0
 10
70.97758180032214
 20
-145.519810241398
 30
0.0
 10
71.03268568780521
 20
-145.519810241398
 30
0.0
 10
71.07748846443998
 20
-145.5645777413866
 30
0.0
 10
71.07748846443998
 20
-145.6197169080396
 30
0.0
 10
71.07748846443998
 20
-145.6755263524701
 30
0.0
 10
71.03268568780521
 20
-145.7202938524586
 30
0.0
 10
70.97758180032214
 20
-145.7202938524586
 30
0.0
 10
70.92244442671382
 20
-145.7202938524586
 30
0.0
 10
70.8776751362043
 20
-145.6755263524701
 30
0.0
 10
70.8776751362043
 20
-145.6197169080396
 30
0.0
 10
70.8776751362043
 20
-145.5645777413866
 30
0.0
 10
70.92244442671382
 20
-145.519810241398
 30
0.0
 10
70.97758180032214
 20
-145.519810241398
 30
0.0
  0
SPLINE
  5
8C
330
1F
100
AcDbEntity
  8
_U+30EC_U+30A4_U+30E4_U+30FC 1
 62
   179
420
  2234388
370
     9
100
AcDbSpline
210
0.0
220
0.0
230
1.0
 70
    11
 71
     3
 72
    17
 73
    13
 74
     0
 42
0.0000000001
 43
0.0000000001
 12
1.0
 22
0.0
 32
0.0
 13
1.0
 23
0.0
 33
0.0
 40
0.0
 40
0.0
 40
0.0
 40
0.0
 40
1.0
 40
1.0
 40
1.0
 40
2.0
 40
2.0
 40
2.0
 40
3.0
 40
3.0
 40
3.0
 40
4.0
 40
4.0
 40
4.0
 40
4.0
 10
76.01362556073084
 20
-145.519810241398
 30
0.0
 10
76.06872944821392
 20
-145.519810241398
 30
0.0
 10
76.11353222484868
 20
-145.5645777413866
 30
0.0
 10
76.11353222484868
 20
-145.6197169080396
 30
0.0
 10
76.11353222484868
 20
-145.6755263524701
 30
0.0
 10
76.06872944821392
 20
-145.7202938524586
 30
0.0
 10
76.01362556073084
 20
-145.7202938524586
 30
0.0
 10
75.95781611771022
 20
-145.7202938524586
 30
0.0
 10
75.91371889661302
 20
-145.6755263524701
 30
0.0
 10
75.91371889661302
 20
-145.6197169080396
 30
0.0
 10
75.91371889661302
 20
-145.5645777413866
 30
0.0
 10
75.95781611771022
 20
-145.519810241398
 30
0.0
 10
76.01362556073084
 20
-145.519810241398
 30
0.0
  0
POLYLINE
  5
8D
330
1F
100
AcDbEntity
  8
_U+30EC_U+30A4_U+30E4_U+30FC 1
 62
   179
420
  2234388
370
     9
100
AcDb2dPolyline
 66
     1
 10
0.0
 20
0.0
 30
0.0
  0
VERTEX
  5
8E
330
8D
100
AcDbEntity
  8
_U+30EC_U+30A4_U+30E4_U+30FC 1
 62
   179
420
  2234388
370
     9
100
AcDbVertex
100
AcDb2dVertex
 10
114.9772951222404
 20
-124.6197730244008
 30
0.0
  0
VERTEX
  5
8F
330
8D
100
AcDbEntity
  8
_U+30EC_U+30A4_U+30E4_U+30FC 1
 62
   179
420
  2234388
370
     9
100
AcDbVertex
100
AcDb2dVertex
 10
114.9772951222404
 20
-120.8494605253433
 30
0.0
  0
SEQEND
  5
90
330
8D
100
AcDbEntity
  8
_U+30EC_U+30A4_U+30E4_U+30FC 1
 62
   179
420
  2234388
370
     9
  0
POLYLINE
  5
91
330
1F
100
AcDbEntity
  8
_U+30EC_U+30A4_U+30E4_U+30FC 1
 62
   179
420
  2234388
370
     9
100
AcDb2dPolyline
 66
     1
 10
0.0
 20
0.0
 30
0.0
  0
VERTEX
  5
92
330
91
100
AcDbEntity
  8
_U+30EC_U+30A4_U+30E4_U+30FC 1
 62
   179
420
  2234388
370
     9
100
AcDbVertex
100
AcDb2dVertex
 10
114.9772951222404
 20
-124.6197730244008
 30
0.0
  0
VERTEX
  5
93
330
91
100
AcDbEntity
  8
_U+30EC_U+30A4_U+30E4_U+30FC 1
 62
   179
420
  2234388
370
     9
100
AcDbVertex
100
AcDb2dVertex
 10
114.9772951222404
 20
-125.619545246373
 30
0.0
  0
SEQEND
  5
94
330
91
100
AcDbEntity
  8
_U+30EC_U+30A4_U+30E4_U+30FC 1
 62
   179
420
  2234388
370
     9
  0
POLYLINE
  5
95
330
1F
100
AcDbEntity
  8
_U+30EC_U+30A4_U+30E4_U+30FC 1
 62
   179
420
  2234388
370
     9
100
AcDb2dPolyline
 66
     1
 10
0.0
 20
0.0
 30
0.0
  0
VERTEX
  5
96
330
95
100
AcDbEntity
  8
_U+30EC_U+30A4_U+30E4_U+30FC 1
 62
   179
420
  2234388
370
     9
100
AcDbVertex
100
AcDb2dVertex
 10
113.5172890483771
 20
-124.6197730244008
 30
0.0
  0
VERTEX
  5
97
330
95
100
AcDbEntity
  8
_U+30EC_U+30A4_U+30E4_U+30FC 1
 62
   179
420
  2234388
370
     9
100
AcDbVertex
100
AcDb2dVertex
 10
115.9770673189563
 20
-124.6197730244008
 30
0.0
  0
SEQEND
  5
98
330
95
100
AcDbEntity
  8
_U+30EC_U+30A4_U+30E4_U+30FC 1
 62
   179
420
  2234388
370
     9
  0
POLYLINE
  5
99
330
1F
100
AcDbEntity
  8
_U+30EC_U+30A4_U+30E4_U+30FC 1
 62
   179
420
  2234388
370
     9
100
AcDb2dPolyline
 66
     1
 10
0.0
 20
0.0
 30
0.0
  0
VERTEX
  5
9A
330
99
100
AcDbEntity
  8
_U+30EC_U+30A4_U+30E4_U+30FC 1
 62
   179
420
  2234388
370
     9
100
AcDbVertex
100
AcDb2dVertex
 10
113.5172890483771
 20
-125.619545246373
 30
0.0
  0
VERTEX
  5
9B
330
99
100
AcDbEntity
  8
_U+30EC_U+30A4_U+30E4_U+30FC 1
 62
   179
420
  2234388
370
     9
100
AcDbVertex
100
AcDb2dVertex
 10
115.9770673189563
 20
-125.619545246373
 30
0.0
  0
SEQEND
  5
9C
330
99
100
AcDbEntity
  8
_U+30EC_U+30A4_U+30E4_U+30FC 1
 62
   179
420
  2234388
370
     9
  0
POLYLINE
  5
9D
330
1F
100
AcDbEntity
  8
_U+30EC_U+30A4_U+30E4_U+30FC 1
 62
   179
420
  2234388
370
     9
100
AcDb2dPolyline
 66
     1
 10
0.0
 20
0.0
 30
0.0
  0
VERTEX
  5
9E
330
9D
100
AcDbEntity
  8
_U+30EC_U+30A4_U+30E4_U+30FC 1
 62
   179
420
  2234388
370
     9
100
AcDbVertex
100
AcDb2dVertex
 10
114.9772951222404
 20
-141.6192521868172
 30
0.0
  0
VERTEX
  5
9F
330
9D
100
AcDbEntity
  8
_U+30EC_U+30A4_U+30E4_U+30FC 1
 62
   179
420
  2234388
370
     9
100
AcDbVertex
100
AcDb2dVertex
 10
114.9772951222404
 20
-138.6192652431229
 30
0.0
  0
SEQEND
  5
A0
330
9D
100
AcDbEntity
  8
_U+30EC_U+30A4_U+30E4_U+30FC 1
 62
   179
420
  2234388
370
     9
  0
POLYLINE
  5
A1
330
1F
100
AcDbEntity
  8
_U+30EC_U+30A4_U+30E4_U+30FC 1
 62
   179
420
  2234388
370
     9
100
AcDb2dPolyline
 66
     1
 10
0.0
 20
0.0
 30
0.0
  0
VERTEX
  5
A2
330
A1
100
AcDbEntity
  8
_U+30EC_U+30A4_U+30E4_U+30FC 1
 62
   179
420
  2234388
370
     9
100
AcDbVertex
100
AcDb2dVertex
 10
83.51840814704568
 20
-141.6199577423728
 30
0.0
  0
VERTEX
  5
A3
330
A1
100
AcDbEntity
  8
_U+30EC_U+30A4_U+30E4_U+30FC 1
 62
   179
420
  2234388
370
     9
100
AcDbVertex
100
AcDb2dVertex
 10
115.9770673189563
 20
-141.6192521868172
 30
0.0
  0
SEQEND
  5
A4
330
A1
100
AcDbEntity
  8
_U+30EC_U+30A4_U+30E4_U+30FC 1
 62
   179
420
  2234388
370
     9
  0
POLYLINE
  5
A5
330
1F
100
AcDbEntity
  8
_U+30EC_U+30A4_U+30E4_U+30FC 1
 62
   179
420
  2234388
370
     9
100
AcDb2dPolyline
 66
     1
 10
0.0
 20
0.0
 30
0.0
  0
VERTEX
  5
A6
330
A5
100
AcDbEntity
  8
_U+30EC_U+30A4_U+30E4_U+30FC 1
 62
   179
420
  2234388
370
     9
100
AcDbVertex
100
AcDb2dVertex
 10
75.97778333942304
 20
-145.6197169080396
 30
0.0
  0
VERTEX
  5
A7
330
A5
100
AcDbEntity
  8
_U+30EC_U+30A4_U+30E4_U+30FC 1
 62
   179
420
  2234388
370
     9
100
AcDbVertex
100
AcDb2dVertex
 10
70.97758180032214
 20
-145.6197169080396
 30
0.0
  0
SEQEND
  5
A8
330
A5
100
AcDbEntity
  8
_U+30EC_U+30A4_U+30E4_U+30FC 1
 62
   179
420
  2234388
370
     9
  0
POLYLINE
  5
A9
330
1F
100
AcDbEntity
  8
_U+30EC_U+30A4_U+30E4_U+30FC 1
 62
   179
420
  2234388
370
     9
100
AcDb2dPolyline
 66
     1
 10
0.0
 20
0.0
 30
0.0
  0
VERTEX
  5
AA
330
A9
100
AcDbEntity
  8
_U+30EC_U+30A4_U+30E4_U+30FC 1
 62
   179
420
  2234388
370
     9
100
AcDbVertex
100
AcDb2dVertex
 10
76.01362556073084
 20
-144.1603810750708
 30
0.0
  0
VERTEX
  5
AB
330
A9
100
AcDbEntity
  8
_U+30EC_U+30A4_U+30E4_U+30FC 1
 62
   179
420
  2234388
370
     9
100
AcDbVertex
100
AcDb2dVertex
 10
76.01362556073084
 20
-146.6201594077895
 30
0.0
  0
SEQEND
  5
AC
330
A9
100
AcDbEntity
  8
_U+30EC_U+30A4_U+30E4_U+30FC 1
 62
   179
420
  2234388
370
     9
  0
POLYLINE
  5
AD
330
1F
100
AcDbEntity
  8
_U+30EC_U+30A4_U+30E4_U+30FC 1
 62
   179
420
  2234388
370
     9
100
AcDb2dPolyline
 66
     1
 10
0.0
 20
0.0
 30
0.0
  0
VERTEX
  5
AE
330
AD
100
AcDbEntity
  8
_U+30EC_U+30A4_U+30E4_U+30FC 1
 62
   179
420
  2234388
370
     9
100
AcDbVertex
100
AcDb2dVertex
 10
70.97758180032214
 20
-144.1603810750708
 30
0.0
  0
VERTEX
  5
AF
330
AD
100
AcDbEntity
  8
_U+30EC_U+30A4_U+30E4_U+30FC 1
 62
   179
420
  2234388
370
     9
100
AcDbVertex
100
AcDb2dVertex
 10
70.97758180032214
 20
-146.6201594077895
 30
0.0
  0
SEQEND
  5
B0
330
AD
100
AcDbEntity
  8
_U+30EC_U+30A4_U+30E4_U+30FC 1
 62
   179
420
  2234388
370
     9
  0
POLYLINE
  5
B1
330
1F
100
AcDbEntity
  8
_U+30EC_U+30A4_U+30E4_U+30FC 1
 62
   179
420
  2234388
370
     9
100
AcDb2dPolyline
 66
     1
 10
0.0
 20
0.0
 30
0.0
  0
VERTEX
  5
B2
330
B1
100
AcDbEntity
  8
_U+30EC_U+30A4_U+30E4_U+30FC 1
 62
   179
420
  2234388
370
     9
100
AcDbVertex
100
AcDb2dVertex
 10
70.97758180032214
 20
-113.619597471595
 30
0.0
  0
VERTEX
  5
B3
330
B1
100
AcDbEntity
  8
_U+30EC_U+30A4_U+30E4_U+30FC 1
 62
   179
420
  2234388
370
     9
100
AcDbVertex
100
AcDb2dVertex
 10
110.9768657798554
 20
-113.619597471595
 30
0.0
  0
SEQEND
  5
B4
330
B1
100
AcDbEntity
  8
_U+30EC_U+30A4_U+30E4_U+30FC 1
 62
   179
420
  2234388
370
     9
  0
POLYLINE
  5
B5
330
1F
100
AcDbEntity
  8
_U+30EC_U+30A4_U+30E4_U+30FC 1
 62
   179
420
  2234388
370
     9
100
AcDb2dPolyline
 66
     1
 10
0.0
 20
0.0
 30
0.0
  0
VERTEX
  5
B6
330
B5
100
AcDbEntity
  8
_U+30EC_U+30A4_U+30E4_U+30FC 1
 62
   179
420
  2234388
370
     9
100
AcDbVertex
100
AcDb2dVertex
 10
70.97758180032214
 20
-115.079638860119
 30
0.0
  0
VERTEX
  5
B7
330
B5
100
AcDbEntity
  8
_U+30EC_U+30A4_U+30E4_U+30FC 1
 62
   179
420
  2234388
370
     9
100
AcDbVertex
100
AcDb2dVertex
 10
70.97758180032214
 20
-112.6191549718451
 30
0.0
  0
SEQEND
  5
B8
330
B5
100
AcDbEntity
  8
_U+30EC_U+30A4_U+30E4_U+30FC 1
 62
   179
420
  2234388
370
     9
  0
POLYLINE
  5
B9
330
1F
100
AcDbEntity
  8
_U+30EC_U+30A4_U+30E4_U+30FC 1
 62
   179
420
  2234388
370
     9
100
AcDb2dPolyline
 66
     1
 10
0.0
 20
0.0
 30
0.0
  0
VERTEX
  5
BA
330
B9
100
AcDbEntity
  8
_U+30EC_U+30A4_U+30E4_U+30FC 1
 62
   179
420
  2234388
370
     9
100
AcDbVertex
100
AcDb2dVertex
 10
110.9768657798554
 20
-122.0793849694802
 30
0.0
  0
VERTEX
  5
BB
330
B9
100
AcDbEntity
  8
_U+30EC_U+30A4_U+30E4_U+30FC 1
 62
   179
420
  2234388
370
     9
100
AcDbVertex
100
AcDb2dVertex
 10
110.9768657798554
 20
-112.6191549718451
 30
0.0
  0
SEQEND
  5
BC
330
B9
100
AcDbEntity
  8
_U+30EC_U+30A4_U+30E4_U+30FC 1
 62
   179
420
  2234388
370
     9
  0
POLYLINE
  5
BD
330
1F
100
AcDbEntity
  8
_U+30EC_U+30A4_U+30E4_U+30FC 1
 62
   179
420
  2234388
370
     9
100
AcDb2dPolyline
 66
     1
 10
0.0
 20
0.0
 30
0.0
  0
VERTEX
  5
BE
330
BD
100
AcDbEntity
  8
_U+30EC_U+30A4_U+30E4_U+30FC 1
 62
   179
420
  2234388
370
     9
100
AcDbVertex
100
AcDb2dVertex
 10
114.9772951222404
 20
-138.6192652431229
 30
0.0
  0
VERTEX
  5
BF
330
BD
100
AcDbEntity
  8
_U+30EC_U+30A4_U+30E4_U+30FC 1
 62
   179
420
  2234388
370
     9
100
AcDbVertex
100
AcDb2dVertex
 10
114.9772951222404
 20
-125.619545246373
 30
0.0
  0
SEQEND
  5
C0
330
BD
100
AcDbEntity
  8
_U+30EC_U+30A4_U+30E4_U+30FC 1
 62
   179
420
  2234388
370
     9
  0
POLYLINE
  5
C1
330
1F
100
AcDbEntity
  8
_U+30EC_U+30A4_U+30E4_U+30FC 1
 62
   179
420
  2234388
370
     9
100
AcDb2dPolyline
 66
     1
 10
0.0
 20
0.0
 30
0.0
  0
VERTEX
  5
C2
330
C1
100
AcDbEntity
  8
_U+30EC_U+30A4_U+30E4_U+30FC 1
 62
   179
420
  2234388
370
     9
100
AcDbVertex
100
AcDb2dVertex
 10
83.51840814704568
 20
-138.6199707986784
 30
0.0
  0
VERTEX
  5
C3
330
C1
100
AcDbEntity
  8
_U+30EC_U+30A4_U+30E4_U+30FC 1
 62
   179
420
  2234388
370
     9
100
AcDbVertex
100
AcDb2dVertex
 10
115.9770673189563
 20
-138.6192652431229
 30
0.0
  0
SEQEND
  5
C4
330
C1
100
AcDbEntity
  8
_U+30EC_U+30A4_U+30E4_U+30FC 1
 62
   179
420
  2234388
370
     9
  0
POLYLINE
  5
C5
330
1F
100
AcDbEntity
  8
_U+30EC_U+30A4_U+30E4_U+30FC 1
 62
   179
420
  2234388
370
     9
100
AcDb2dPolyline
 66
     1
 10
0.0
 20
0.0
 30
0.0
  0
VERTEX
  5
C6
330
C5
100
AcDbEntity
  8
_U+30EC_U+30A4_U+30E4_U+30FC 1
 62
   179
420
  2234388
370
     9
100
AcDbVertex
100
AcDb2dVertex
 10
113.5172890483771
 20
-125.619545246373
 30
0.0
  0
VERTEX
  5
C7
330
C5
100
AcDbEntity
  8
_U+30EC_U+30A4_U+30E4_U+30FC 1
 62
   179
420
  2234388
370
     9
100
AcDbVertex
100
AcDb2dVertex
 10
115.9770673189563
 20
-125.619545246373
 30
0.0
  0
SEQEND
  5
C8
330
C5
100
AcDbEntity
  8
_U+30EC_U+30A4_U+30E4_U+30FC 1
 62
   179
420
  2234388
370
     9
  0
POLYLINE
  5
C9
330
1F
100
AcDbEntity
  8
_U+30EC_U+30A4_U+30E4_U+30FC 1
 62
   179
420
  2234388
370
     9
100
AcDb2dPolyline
 66
     1
 10
0.0
 20
0.0
 30
0.0
  0
VERTEX
  5
CA
330
C9
100
AcDbEntity
  8
_U+30EC_U+30A4_U+30E4_U+30FC 1
 62
   179
420
  2234388
370
     9
100
AcDbVertex
100
AcDb2dVertex
 10
66.97782273569783
 20
-141.6199577423728
 30
0.0
  0
VERTEX
  5
CB
330
C9
100
AcDbEntity
  8
_U+30EC_U+30A4_U+30E4_U+30FC 1
 62
   179
420
  2234388
370
     9
100
AcDbVertex
100
AcDb2dVertex
 10
66.97782273569783
 20
-117.6193566372619
 30
0.0
  0
SEQEND
  5
CC
330
C9
100
AcDbEntity
  8
_U+30EC_U+30A4_U+30E4_U+30FC 1
 62
   179
420
  2234388
370
     9
  0
POLYLINE
  5
CD
330
1F
100
AcDbEntity
  8
_U+30EC_U+30A4_U+30E4_U+30FC 1
 62
   179
420
  2234388
370
     9
100
AcDb2dPolyline
 66
     1
 10
0.0
 20
0.0
 30
0.0
  0
VERTEX
  5
CE
330
CD
100
AcDbEntity
  8
_U+30EC_U+30A4_U+30E4_U+30FC 1
 62
   179
420
  2234388
370
     9
100
AcDbVertex
100
AcDb2dVertex
 10
68.43786408733796
 20
-141.6199577423728
 30
0.0
  0
VERTEX
  5
CF
330
CD
100
AcDbEntity
  8
_U+30EC_U+30A4_U+30E4_U+30FC 1
 62
   179
420
  2234388
370
     9
100
AcDbVertex
100
AcDb2dVertex
 10
65.97805053898192
 20
-141.6199577423728
 30
0.0
  0
SEQEND
  5
D0
330
CD
100
AcDbEntity
  8
_U+30EC_U+30A4_U+30E4_U+30FC 1
 62
   179
420
  2234388
370
     9
  0
POLYLINE
  5
D1
330
1F
100
AcDbEntity
  8
_U+30EC_U+30A4_U+30E4_U+30FC 1
 62
   179
420
  2234388
370
     9
100
AcDb2dPolyline
 66
     1
 10
0.0
 20
0.0
 30
0.0
  0
VERTEX
  5
D2
330
D1
100
AcDbEntity
  8
_U+30EC_U+30A4_U+30E4_U+30FC 1
 62
   179
420
  2234388
370
     9
100
AcDbVertex
100
AcDb2dVertex
 10
68.43786408733796
 20
-117.6193566372619
 30
0.0
  0
VERTEX
  5
D3
330
D1
100
AcDbEntity
  8
_U+30EC_U+30A4_U+30E4_U+30FC 1
 62
   179
420
  2234388
370
     9
100
AcDbVertex
100
AcDb2dVertex
 10
65.97805053898192
 20
-117.6193566372619
 30
0.0
  0
SEQEND
  5
D4
330
D1
100
AcDbEntity
  8
_U+30EC_U+30A4_U+30E4_U+30FC 1
 62
   179
420
  2234388
370
     9
  0
POLYLINE
  5
D5
330
1F
100
AcDbEntity
  8
_U+30EC_U+30A4_U+30E4_U+30FC 1
 62
   179
420
  2234388
370
     9
100
AcDb2dPolyline
 66
     1
 10
0.0
 20
0.0
 30
0.0
  0
VERTEX
  5
D6
330
D5
100
AcDbEntity
  8
_U+30EC_U+30A4_U+30E4_U+30FC 1
 62
   179
420
  2234388
370
     9
100
AcDbVertex
100
AcDb2dVertex
 10
74.05196949966576
 20
-112.0107191386639
 30
0.0
  0
VERTEX
  5
D7
330
D5
100
AcDbEntity
  8
_U+30EC_U+30A4_U+30E4_U+30FC 1
 62
   179
420
  2234388
370
     9
100
AcDbVertex
100
AcDb2dVertex
 10
74.05196949966576
 20
-110.5996080279056
 30
0.0
  0
SEQEND
  5
D8
330
D5
100
AcDbEntity
  8
_U+30EC_U+30A4_U+30E4_U+30FC 1
 62
   179
420
  2234388
370
     9
  0
POLYLINE
  5
D9
330
1F
100
AcDbEntity
  8
_U+30EC_U+30A4_U+30E4_U+30FC 1
 62
   179
420
  2234388
370
     9
100
AcDb2dPolyline
 66
     1
 10
0.0
 20
0.0
 30
0.0
  0
VERTEX
  5
DA
330
D9
100
AcDbEntity
  8
_U+30EC_U+30A4_U+30E4_U+30FC 1
 62
   179
420
  2234388
370
     9
100
AcDbVertex
100
AcDb2dVertex
 10
71.0526881872949
 20
-112.0107191386639
 30
0.0
  0
VERTEX
  5
DB
330
D9
100
AcDbEntity
  8
_U+30EC_U+30A4_U+30E4_U+30FC 1
 62
   179
420
  2234388
370
     9
100
AcDbVertex
100
AcDb2dVertex
 10
71.0526881872949
 20
-110.5996080279056
 30
0.0
  0
SEQEND
  5
DC
330
D9
100
AcDbEntity
  8
_U+30EC_U+30A4_U+30E4_U+30FC 1
 62
   179
420
  2234388
370
     9
  0
POLYLINE
  5
DD
330
1F
100
AcDbEntity
  8
_U+30EC_U+30A4_U+30E4_U+30FC 1
 62
   179
420
  2234388
370
     9
100
AcDb2dPolyline
 66
     1
 10
0.0
 20
0.0
 30
0.0
  0
VERTEX
  5
DE
330
DD
100
AcDbEntity
  8
_U+30EC_U+30A4_U+30E4_U+30FC 1
 62
   179
420
  2234388
370
     9
100
AcDbVertex
100
AcDb2dVertex
 10
69.80212627475495
 20
-111.3051635832848
 30
0.0
  0
VERTEX
  5
DF
330
DD
100
AcDbEntity
  8
_U+30EC_U+30A4_U+30E4_U+30FC 1
 62
   179
420
  2234388
370
     9
100
AcDbVertex
100
AcDb2dVertex
 10
75.18265752637505
 20
-111.3051635832848
 30
0.0
  0
SEQEND
  5
E0
330
DD
100
AcDbEntity
  8
_U+30EC_U+30A4_U+30E4_U+30FC 1
 62
   179
420
  2234388
370
     9
  0
INSERT
  5
E2
330
1F
100
AcDbEntity
  8
_U+30EC_U+30A4_U+30E4_U+30FC 1
100
AcDbBlockReference
  2
block 2
 10
0.0
 20
0.0
 30
0.0
  0
INSERT
  5
E8
330
1F
100
AcDbEntity
  8
_U+30EC_U+30A4_U+30E4_U+30FC 1
100
AcDbBlockReference
  2
block 3
 10
0.0
 20
0.0
 30
0.0
  0
INSERT
  5
EE
330
1F
100
AcDbEntity
  8
_U+30EC_U+30A4_U+30E4_U+30FC 1
100
AcDbBlockReference
  2
block 4
 10
0.0
 20
0.0
 30
0.0
  0
INSERT
  5
F4
330
1F
100
AcDbEntity
  8
_U+30EC_U+30A4_U+30E4_U+30FC 1
100
AcDbBlockReference
  2
block 5
 10
0.0
 20
0.0
 30
0.0
  0
INSERT
  5
FA
330
1F
100
AcDbEntity
  8
_U+30EC_U+30A4_U+30E4_U+30FC 1
100
AcDbBlockReference
  2
block 6
 10
0.0
 20
0.0
 30
0.0
  0
INSERT
  5
116
330
1F
100
AcDbEntity
  8
_U+30EC_U+30A4_U+30E4_U+30FC 1
100
AcDbBlockReference
  2
block 7
 10
0.0
 20
0.0
 30
0.0
  0
INSERT
  5
11E
330
1F
100
AcDbEntity
  8
_U+30EC_U+30A4_U+30E4_U+30FC 1
100
AcDbBlockReference
  2
block 8
 10
0.0
 20
0.0
 30
0.0
  0
ENDSEC
  0
SECTION
  2
OBJECTS
  0
DICTIONARY
  5
C
330
0
100
AcDbDictionary
281
     1
  3
ACAD_GROUP
350
D
  3
ACAD_LAYOUT
350
1A
  3
ACAD_MATERIAL
350
3B
  3
ACAD_MLEADERSTYLE
350
139
  3
ACAD_MLINESTYLE
350
17
  3
ACAD_PLOTSETTINGS
350
19
  3
ACAD_PLOTSTYLENAME
350
E
  3
ACAD_TABLESTYLE
350
138
  3
ACAD_VISUALSTYLE
350
2A
  0
SUN
  5
3F
330
29
100
AcDbSun
 90
        1
290
     0
 63
     7
421
 16777215
 40
1.0
291
     1
 91
  2455826
 92
 54000000
292
     0
 70
     2
 71
   256
280
     1
  0
DICTIONARY
  5
D
102
{ACAD_REACTORS
330
C
102
}
330
C
100
AcDbDictionary
281
     1
  0
DICTIONARY
  5
1A
102
{ACAD_REACTORS
330
C
102
}
330
C
100
AcDbDictionary
281
     1
  3
Layout1
350
1E
  3
Layout2
350
26
  3
Model
350
22
  0
DICTIONARY
  5
3B
102
{ACAD_REACTORS
330
C
102
}
330
C
100
AcDbDictionary
281
     1
  3
ByBlock
350
3D
  3
ByLayer
350
3C
  3
Global
350
3E
  0
DICTIONARY
  5
139
102
{ACAD_REACTORS
330
C
102
}
330
C
100
AcDbDictionary
281
     1
  0
DICTIONARY
  5
17
102
{ACAD_REACTORS
330
C
102
}
330
C
100
AcDbDictionary
281
     1
  3
Standard
350
18
  0
DICTIONARY
  5
19
102
{ACAD_REACTORS
330
C
102
}
330
C
100
AcDbDictionary
281
     1
  0
ACDBDICTIONARYWDFLT
  5
E
102
{ACAD_REACTORS
330
C
102
}
330
C
100
AcDbDictionary
281
     1
  3
Normal
350
F
100
AcDbDictionaryWithDefault
340
F
  0
DICTIONARY
  5
138
102
{ACAD_REACTORS
330
C
102
}
330
C
100
AcDbDictionary
281
     1
  0
DICTIONARY
  5
2A
102
{ACAD_REACTORS
330
C
102
}
330
C
100
AcDbDictionary
281
     1
  3
2dWireframe
350
2F
  3
3D Hidden
350
31
  3
3dWireframe
350
30
  3
Basic
350
32
  3
Brighten
350
36
  3
ColorChange
350
3A
  3
Conceptual
350
34
  3
Dim
350
35
  3
Facepattern
350
39
  3
Flat
350
2B
  3
FlatWithEdges
350
2C
  3
Gouraud
350
2D
  3
GouraudWithEdges
350
2E
  3
Linepattern
350
38
  3
Realistic
350
33
  3
Thicken
350
37
  0
LAYOUT
  5
1E
102
{ACAD_REACTORS
330
1A
102
}
330
1A
100
AcDbPlotSettings
  1

  2
none_device
  4

  6

 40
0.0
 41
0.0
 42
0.0
 43
0.0
 44
0.0
 45
0.0
 46
0.0
 47
0.0
 48
0.0
 49
0.0
140
0.0
141
0.0
142
1.0
143
1.0
 70
   688
 72
     0
 73
     0
 74
     5
  7

 75
    16
 76
     0
 77
     2
 78
   300
147
1.0
148
0.0
149
0.0
100
AcDbLayout
  1
Layout1
 70
     1
 71
     1
 10
0.0
 20
0.0
 11
12.0
 21
9.0
 12
0.0
 22
0.0
 32
0.0
 14
1.000000000000000E+20
 24
1.000000000000000E+20
 34
1.000000000000000E+20
 15
-1.000000000000000E+20
 25
-1.000000000000000E+20
 35
-1.000000000000000E+20
146
0.0
 13
0.0
 23
0.0
 33
0.0
 16
1.0
 26
0.0
 36
0.0
 17
0.0
 27
1.0
 37
0.0
 76
     0
330
1B
  0
LAYOUT
  5
26
102
{ACAD_REACTORS
330
1A
102
}
330
1A
100
AcDbPlotSettings
  1

  2
none_device
  4

  6

 40
0.0
 41
0.0
 42
0.0
 43
0.0
 44
0.0
 45
0.0
 46
0.0
 47
0.0
 48
0.0
 49
0.0
140
0.0
141
0.0
142
1.0
143
1.0
 70
   688
 72
     0
 73
     0
 74
     5
  7

 75
    16
 76
     0
 77
     2
 78
   300
147
1.0
148
0.0
149
0.0
100
AcDbLayout
  1
Layout2
 70
     1
 71
     2
 10
0.0
 20
0.0
 11
0.0
 21
0.0
 12
0.0
 22
0.0
 32
0.0
 14
0.0
 24
0.0
 34
0.0
 15
0.0
 25
0.0
 35
0.0
146
0.0
 13
0.0
 23
0.0
 33
0.0
 16
1.0
 26
0.0
 36
0.0
 17
0.0
 27
1.0
 37
0.0
 76
     0
330
23
  0
LAYOUT
  5
22
102
{ACAD_REACTORS
330
1A
102
}
330
1A
100
AcDbPlotSettings
  1

  2
none_device
  4

  6

 40
0.0
 41
0.0
 42
0.0
 43
0.0
 44
0.0
 45
0.0
 46
0.0
 47
0.0
 48
0.0
 49
0.0
140
0.0
141
0.0
142
1.0
143
1.0
 70
  1712
 72
     0
 73
     0
 74
     0
  7

 75
     0
 76
     0
 77
     2
 78
   300
147
1.0
148
0.0
149
0.0
100
AcDbLayout
  1
Model
 70
     1
 71
     0
 10
0.0
 20
0.0
 11
12.0
 21
9.0
 12
0.0
 22
0.0
 32
0.0
 14
1.000000000000000E+20
 24
1.000000000000000E+20
 34
1.000000000000000E+20
 15
-1.000000000000000E+20
 25
-1.000000000000000E+20
 35
-1.000000000000000E+20
146
0.0
 13
0.0
 23
0.0
 33
0.0
 16
1.0
 26
0.0
 36
0.0
 17
0.0
 27
1.0
 37
0.0
 76
     0
330
1F
331
29
  0
MATERIAL
  5
3D
102
{ACAD_REACTORS
330
3B
102
}
330
3B
100
AcDbMaterial
  1
ByBlock
 72
     1
 94
      127
  0
MATERIAL
  5
3C
102
{ACAD_REACTORS
330
3B
102
}
330
3B
100
AcDbMaterial
  1
ByLayer
 72
     1
 94
      127
  0
MATERIAL
  5
3E
102
{ACAD_REACTORS
330
3B
102
}
330
3B
100
AcDbMaterial
  1
Global
 72
     1
 94
      127
  0
MLINESTYLE
  5
18
102
{ACAD_REACTORS
330
17
102
}
330
17
100
AcDbMlineStyle
  2
Standard
 70
     0
  3

 62
   256
 51
90.0
 52
90.0
 71
     2
 49
0.5
 62
   256
  6
BYLAYER
 49
-0.5
 62
   256
  6
BYLAYER
  0
ACDBPLACEHOLDER
  5
F
102
{ACAD_REACTORS
330
E
102
}
330
E
  0
VISUALSTYLE
  5
2F
102
{ACAD_REACTORS
330
2A
102
}
330
2A
100
AcDbVisualStyle
  2
2dWireframe
 70
     4
177
     2
291
     0
 71
     0
176
     1
 72
     2
176
     1
 73
     0
176
     1
 90
        0
176
     1
 40
-0.6
176
     1
 41
-30.0
176
     1
 62
     5
 63
     7
421
 16777215
176
     1
 74
     1
176
     1
 91
        4
176
     1
 64
     7
176
     1
 65
   257
176
     1
 75
     1
176
     1
175
     1
176
     1
 42
1.0
176
     1
 92
        0
176
     1
 66
   257
176
     1
 43
1.0
176
     1
 76
     1
176
     1
 77
     6
176
     1
 78
     2
176
     1
 67
     7
176
     1
 79
     5
176
     1
170
     0
176
     1
171
     0
176
     1
290
     0
176
     1
 93
        1
176
     1
 44
0.0
176
     1
173
     0
176
     1
  0
VISUALSTYLE
  5
31
102
{ACAD_REACTORS
330
2A
102
}
330
2A
100
AcDbVisualStyle
  2
3D Hidden
 70
     6
177
     2
291
     0
 71
     1
176
     1
 72
     2
176
     1
 73
     2
176
     1
 90
        0
176
     1
 40
-0.6
176
     1
 41
-30.0
176
     1
 62
     5
 63
     7
421
 16777215
176
     1
 74
     2
176
     1
 91
        2
176
     1
 64
     7
176
     1
 65
   257
176
     1
 75
     2
176
     1
175
     1
176
     1
 42
40.0
176
     1
 92
        0
176
     1
 66
   257
176
     1
 43
1.0
176
     1
 76
     1
176
     1
 77
     6
176
     1
 78
     2
176
     1
 67
     7
176
     1
 79
     3
176
     1
170
     0
176
     1
171
     0
176
     1
290
     0
176
     1
 93
        1
176
     1
 44
0.0
176
     1
173
     0
176
     1
  0
VISUALSTYLE
  5
30
102
{ACAD_REACTORS
330
2A
102
}
330
2A
100
AcDbVisualStyle
  2
3dWireframe
 70
     5
177
     2
291
     0
 71
     0
176
     1
 72
     2
176
     1
 73
     0
176
     1
 90
        0
176
     1
 40
-0.6
176
     1
 41
-30.0
176
     1
 62
     5
 63
     7
421
 16777215
176
     1
 74
     1
176
     1
 91
        4
176
     1
 64
     7
176
     1
 65
   257
176
     1
 75
     1
176
     1
175
     1
176
     1
 42
1.0
176
     1
 92
        0
176
     1
 66
   257
176
     1
 43
1.0
176
     1
 76
     1
176
     1
 77
     6
176
     1
 78
     2
176
     1
 67
     7
176
     1
 79
     5
176
     1
170
     0
176
     1
171
     0
176
     1
290
     0
176
     1
 93
        1
176
     1
 44
0.0
176
     1
173
     0
176
     1
  0
VISUALSTYLE
  5
32
102
{ACAD_REACTORS
330
2A
102
}
330
2A
100
AcDbVisualStyle
  2
Basic
 70
     7
177
     2
291
     1
 71
     1
176
     1
 72
     0
176
     1
 73
     1
176
     1
 90
        0
176
     1
 40
-0.6
176
     1
 41
-30.0
176
     1
 62
     5
 63
     7
421
 16777215
176
     1
 74
     0
176
     1
 91
        4
176
     1
 64
     7
176
     1
 65
   257
176
     1
 75
     1
176
     1
175
     1
176
     1
 42
1.0
176
     1
 92
        8
176
     1
 66
     7
176
     1
 43
1.0
176
     1
 76
     1
176
     1
 77
     6
176
     1
 78
     2
176
     1
 67
     7
176
     1
 79
     5
176
     1
170
     0
176
     1
171
     0
176
     1
290
     0
176
     1
 93
        1
176
     1
 44
0.0
176
     1
173
     0
176
     1
  0
VISUALSTYLE
  5
36
102
{ACAD_REACTORS
330
2A
102
}
330
2A
100
AcDbVisualStyle
  2
Brighten
 70
    12
177
     2
291
     1
 71
     2
176
     1
 72
     2
176
     1
 73
     0
176
     1
 90
        0
176
     1
 40
-0.6
176
     1
 41
-30.0
176
     1
 62
     5
 63
     7
421
 16777215
176
     1
 74
     1
176
     1
 91
        4
176
     1
 64
     7
176
     1
 65
   257
176
     1
 75
     1
176
     1
175
     1
176
     1
 42
1.0
176
     1
 92
        8
176
     1
 66
     7
176
     1
 43
1.0
176
     1
 76
     1
176
     1
 77
     6
176
     1
 78
     2
176
     1
 67
     7
176
     1
 79
     5
176
     1
170
     0
176
     1
171
     0
176
     1
290
     0
176
     1
 93
        1
176
     1
 44
50.0
176
     1
173
     0
176
     1
  0
VISUALSTYLE
  5
3A
102
{ACAD_REACTORS
330
2A
102
}
330
2A
100
AcDbVisualStyle
  2
ColorChange
 70
    16
177
     2
291
     1
 71
     2
176
     1
 72
     2
176
     1
 73
     3
176
     1
 90
        0
176
     1
 40
-0.6
176
     1
 41
-30.0
176
     1
 62
     5
 63
     8
421
  8421504
176
     1
 74
     1
176
     1
 91
        4
176
     1
 64
     7
176
     1
 65
   257
176
     1
 75
     1
176
     1
175
     1
176
     1
 42
1.0
176
     1
 92
        8
176
     1
 66
     8
424
  8421504
176
     1
 43
1.0
176
     1
 76
     1
176
     1
 77
     6
176
     1
 78
     2
176
     1
 67
     7
176
     1
 79
     5
176
     1
170
     0
176
     1
171
     0
176
     1
290
     0
176
     1
 93
        1
176
     1
 44
0.0
176
     1
173
     0
176
     1
  0
VISUALSTYLE
  5
34
102
{ACAD_REACTORS
330
2A
102
}
330
2A
100
AcDbVisualStyle
  2
Conceptual
 70
     9
177
     2
291
     0
 71
     3
176
     1
 72
     2
176
     1
 73
     0
176
     1
 90
        0
176
     1
 40
-0.6
176
     1
 41
-30.0
176
     1
 62
     5
 63
     7
421
 16777215
176
     1
 74
     2
176
     1
 91
        2
176
     1
 64
     7
176
     1
 65
   257
176
     1
 75
     1
176
     1
175
     1
176
     1
 42
40.0
176
     1
 92
        8
176
     1
 66
     7
176
     1
 43
1.0
176
     1
 76
     1
176
     1
 77
     6
176
     1
 78
     2
176
     1
 67
     7
176
     1
 79
     3
176
     1
170
     0
176
     1
171
     0
176
     1
290
     0
176
     1
 93
        1
176
     1
 44
0.0
176
     1
173
     0
176
     1
  0
VISUALSTYLE
  5
35
102
{ACAD_REACTORS
330
2A
102
}
330
2A
100
AcDbVisualStyle
  2
Dim
 70
    11
177
     2
291
     1
 71
     2
176
     1
 72
     2
176
     1
 73
     0
176
     1
 90
        0
176
     1
 40
-0.6
176
     1
 41
-30.0
176
     1
 62
     5
 63
     7
421
 16777215
176
     1
 74
     1
176
     1
 91
        4
176
     1
 64
     7
176
     1
 65
   257
176
     1
 75
     1
176
     1
175
     1
176
     1
 42
1.0
176
     1
 92
        8
176
     1
 66
     7
176
     1
 43
1.0
176
     1
 76
     1
176
     1
 77
     6
176
     1
 78
     2
176
     1
 67
     7
176
     1
 79
     5
176
     1
170
     0
176
     1
171
     0
176
     1
290
     0
176
     1
 93
        1
176
     1
 44
-50.0
176
     1
173
     0
176
     1
  0
VISUALSTYLE
  5
39
102
{ACAD_REACTORS
330
2A
102
}
330
2A
100
AcDbVisualStyle
  2
Facepattern
 70
    15
177
     2
291
     1
 71
     2
176
     1
 72
     2
176
     1
 73
     0
176
     1
 90
        0
176
     1
 40
-0.6
176
     1
 41
-30.0
176
     1
 62
     5
 63
     7
421
 16777215
176
     1
 74
     1
176
     1
 91
        4
176
     1
 64
     7
176
     1
 65
   257
176
     1
 75
     1
176
     1
175
     1
176
     1
 42
1.0
176
     1
 92
        8
176
     1
 66
     7
176
     1
 43
1.0
176
     1
 76
     1
176
     1
 77
     6
176
     1
 78
     2
176
     1
 67
     7
176
     1
 79
     5
176
     1
170
     0
176
     1
171
     0
176
     1
290
     0
176
     1
 93
        1
176
     1
 44
0.0
176
     1
173
     0
176
     1
  0
VISUALSTYLE
  5
2B
102
{ACAD_REACTORS
330
2A
102
}
330
2A
100
AcDbVisualStyle
  2
Flat
 70
     0
177
     2
291
     1
 71
     2
176
     1
 72
     1
176
     1
 73
     1
176
     1
 90
        2
176
     1
 40
-0.6
176
     1
 41
30.0
176
     1
 62
     5
 63
     7
421
 16777215
176
     1
 74
     0
176
     1
 91
        4
176
     1
 64
     7
176
     1
 65
   257
176
     1
 75
     1
176
     1
175
     1
176
     1
 42
1.0
176
     1
 92
        8
176
     1
 66
     7
176
     1
 43
1.0
176
     1
 76
     1
176
     1
 77
     6
176
     1
 78
     2
176
     1
 67
     7
176
     1
 79
     5
176
     1
170
     0
176
     1
171
     0
176
     1
290
     0
176
     1
 93
       13
176
     1
 44
0.0
176
     1
173
     0
176
     1
  0
VISUALSTYLE
  5
2C
102
{ACAD_REACTORS
330
2A
102
}
330
2A
100
AcDbVisualStyle
  2
FlatWithEdges
 70
     1
177
     2
291
     1
 71
     2
176
     1
 72
     1
176
     1
 73
     1
176
     1
 90
        2
176
     1
 40
-0.6
176
     1
 41
30.0
176
     1
 62
     5
 63
     7
421
 16777215
176
     1
 74
     1
176
     1
 91
        4
176
     1
 64
     7
176
     1
 65
   257
176
     1
 75
     1
176
     1
175
     1
176
     1
 42
1.0
176
     1
 92
        0
176
     1
 66
   257
176
     1
 43
1.0
176
     1
 76
     1
176
     1
 77
     6
176
     1
 78
     2
176
     1
 67
     7
176
     1
 79
     5
176
     1
170
     0
176
     1
171
     0
176
     1
290
     0
176
     1
 93
       13
176
     1
 44
0.0
176
     1
173
     0
176
     1
  0
VISUALSTYLE
  5
2D
102
{ACAD_REACTORS
330
2A
102
}
330
2A
100
AcDbVisualStyle
  2
Gouraud
 70
     2
177
     2
291
     1
 71
     2
176
     1
 72
     2
176
     1
 73
     1
176
     1
 90
        2
176
     1
 40
-0.6
176
     1
 41
30.0
176
     1
 62
     5
 63
     7
421
 16777215
176
     1
 74
     0
176
     1
 91
        4
176
     1
 64
     7
176
     1
 65
   257
176
     1
 75
     1
176
     1
175
     1
176
     1
 42
1.0
176
     1
 92
        0
176
     1
 66
     7
176
     1
 43
1.0
176
     1
 76
     1
176
     1
 77
     6
176
     1
 78
     2
176
     1
 67
     7
176
     1
 79
     5
176
     1
170
     0
176
     1
171
     0
176
     1
290
     0
176
     1
 93
       13
176
     1
 44
0.0
176
     1
173
     0
176
     1
  0
VISUALSTYLE
  5
2E
102
{ACAD_REACTORS
330
2A
102
}
330
2A
100
AcDbVisualStyle
  2
GouraudWithEdges
 70
     3
177
     2
291
     1
 71
     2
176
     1
 72
     2
176
     1
 73
     1
176
     1
 90
        2
176
     1
 40
-0.6
176
     1
 41
30.0
176
     1
 62
     5
 63
     7
421
 16777215
176
     1
 74
     1
176
     1
 91
        4
176
     1
 64
     7
176
     1
 65
   257
176
     1
 75
     1
176
     1
175
     1
176
     1
 42
1.0
176
     1
 92
        0
176
     1
 66
   257
176
     1
 43
1.0
176
     1
 76
     1
176
     1
 77
     6
176
     1
 78
     2
176
     1
 67
     7
176
     1
 79
     5
176
     1
170
     0
176
     1
171
     0
176
     1
290
     0
176
     1
 93
       13
176
     1
 44
0.0
176
     1
173
     0
176
     1
  0
VISUALSTYLE
  5
38
102
{ACAD_REACTORS
330
2A
102
}
330
2A
100
AcDbVisualStyle
  2
Linepattern
 70
    14
177
     2
291
     1
 71
     2
176
     1
 72
     2
176
     1
 73
     0
176
     1
 90
        0
176
     1
 40
-0.6
176
     1
 41
-30.0
176
     1
 62
     5
 63
     7
421
 16777215
176
     1
 74
     1
176
     1
 91
        4
176
     1
 64
     7
176
     1
 65
   257
176
     1
 75
     7
176
     1
175
     7
176
     1
 42
1.0
176
     1
 92
        8
176
     1
 66
     7
176
     1
 43
1.0
176
     1
 76
     1
176
     1
 77
     6
176
     1
 78
     2
176
     1
 67
     7
176
     1
 79
     5
176
     1
170
     0
176
     1
171
     0
176
     1
290
     0
176
     1
 93
        1
176
     1
 44
0.0
176
     1
173
     0
176
     1
  0
VISUALSTYLE
  5
33
102
{ACAD_REACTORS
330
2A
102
}
330
2A
100
AcDbVisualStyle
  2
Realistic
 70
     8
177
     2
291
     0
 71
     2
176
     1
 72
     2
176
     1
 73
     0
176
     1
 90
        0
176
     1
 40
-0.6
176
     1
 41
-30.0
176
     1
 62
     5
 63
     7
421
 16777215
176
     1
 74
     1
176
     1
 91
        0
176
     1
 64
     7
176
     1
 65
   257
176
     1
 75
     1
176
     1
175
     1
176
     1
 42
1.0
176
     1
 92
        8
176
     1
 66
     8
424
  7895160
176
     1
 43
1.0
176
     1
 76
     1
176
     1
 77
     6
176
     1
 78
     2
176
     1
 67
     7
176
     1
 79
     5
176
     1
170
     0
176
     1
171
     0
176
     1
290
     0
176
     1
 93
       13
176
     1
 44
0.0
176
     1
173
     0
176
     1
  0
VISUALSTYLE
  5
37
102
{ACAD_REACTORS
330
2A
102
}
330
2A
100
AcDbVisualStyle
  2
Thicken
 70
    13
177
     2
291
     1
 71
     2
176
     1
 72
     2
176
     1
 73
     0
176
     1
 90
        0
176
     1
 40
-0.6
176
     1
 41
-30.0
176
     1
 62
     5
 63
     7
421
 16777215
176
     1
 74
     1
176
     1
 91
        4
176
     1
 64
     7
176
     1
 65
   257
176
     1
 75
     1
176
     1
175
     1
176
     1
 42
1.0
176
     1
 92
       12
176
     1
 66
     7
176
     1
 43
1.0
176
     1
 76
     1
176
     1
 77
     6
176
     1
 78
     2
176
     1
 67
     7
176
     1
 79
     5
176
     1
170
     0
176
     1
171
     0
176
     1
290
     0
176
     1
 93
        1
176
     1
 44
0.0
176
     1
173
     0
176
     1
  0
ENDSEC
  0
EOF
